  0
SECTION
  2
HEADER
  9
$ACADVER
  1
AC1021
  9
$ACADMAINTVER
 70
    25
  9
$DWGCODEPAGE
  3
ANSI_1252
  9
$INSBASE
 10
0.0
 20
0.0
 30
0.0
  9
$EXTMIN
 10
0.0
 20
0.0
 30
0.0
  9
$EXTMAX
 10
841.0
 20
594.0
 30
0.0
  9
$LIMMIN
 10
0.0
 20
0.0
  9
$LIMMAX
 10
841.0
 20
594.0
  9
$ORTHOMODE
 70
     0
  9
$REGENMODE
 70
     1
  9
$FILLMODE
 70
     1
  9
$QTEXTMODE
 70
     0
  9
$MIRRTEXT
 70
     1
  9
$LTSCALE
 40
1.0
  9
$ATTMODE
 70
     1
  9
$TEXTSIZE
 40
3.5
  9
$TRACEWID
 40
1.0
  9
$TEXTSTYLE
  7
STANDARD
  9
$CLAYER
  8
0
  9
$CELTYPE
  6
ByLayer
  9
$CECOLOR
 62
   256
  9
$CELTSCALE
 40
1.0
  9
$DISPSILH
 70
     0
  9
$DIMSCALE
 40
1.0
  9
$DIMASZ
 40
3.302
  9
$DIMEXO
 40
1.0
  9
$DIMDLI
 40
3.75
  9
$DIMRND
 40
0.0
  9
$DIMDLE
 40
0.0
  9
$DIMEXE
 40
1.0
  9
$DIMTP
 40
0.0
  9
$DIMTM
 40
0.0
  9
$DIMTXT
 40
3.5
  9
$DIMCEN
 40
2.5
  9
$DIMTSZ
 40
0.0
  9
$DIMTOL
 70
     0
  9
$DIMLIM
 70
     0
  9
$DIMTIH
 70
     1
  9
$DIMTOH
 70
     1
  9
$DIMSE1
 70
     0
  9
$DIMSE2
 70
     0
  9
$DIMTAD
 70
     1
  9
$DIMZIN
 70
     0
  9
$DIMBLK
  1

  9
$DIMASO
 70
     1
  9
$DIMSHO
 70
     1
  9
$DIMPOST
  1

  9
$DIMAPOST
  1

  9
$DIMALT
 70
     0
  9
$DIMALTD
 70
     3
  9
$DIMALTF
 40
0.0393700787
  9
$DIMLFAC
 40
1.0
  9
$DIMTOFL
 70
     1
  9
$DIMTVP
 40
0.0
  9
$DIMTIX
 70
     0
  9
$DIMSOXD
 70
     0
  9
$DIMSAH
 70
     0
  9
$DIMBLK1
  1

  9
$DIMBLK2
  1

  9
$DIMSTYLE
  2
ISO-25
  9
$DIMCLRD
 70
     0
  9
$DIMCLRE
 70
     0
  9
$DIMCLRT
 70
     0
  9
$DIMTFAC
 40
1.0
  9
$DIMGAP
 40
1.524
  9
$DIMJUST
 70
     0
  9
$DIMSD1
 70
     0
  9
$DIMSD2
 70
     0
  9
$DIMTOLJ
 70
     0
  9
$DIMTZIN
 70
     0
  9
$DIMALTZ
 70
     0
  9
$DIMALTTZ
 70
     0
  9
$DIMUPT
 70
     0
  9
$DIMDEC
 70
     1
  9
$DIMTDEC
 70
     1
  9
$DIMALTU
 70
     2
  9
$DIMALTTD
 70
     3
  9
$DIMTXSTY
  7
STANDARD
  9
$DIMAUNIT
 70
     0
  9
$DIMADEC
 70
     1
  9
$DIMALTRND
 40
0.0
  9
$DIMAZIN
 70
     0
  9
$DIMDSEP
 70
    44
  9
$DIMATFIT
 70
     3
  9
$DIMFRAC
 70
     0
  9
$DIMLDRBLK
  1

  9
$DIMLUNIT
 70
     2
  9
$DIMLWD
 70
    -2
  9
$DIMLWE
 70
    -2
  9
$DIMTMOVE
 70
     0
  9
$DIMFXL
 40
1.0
  9
$DIMFXLON
 70
     0
  9
$DIMJOGANG
 40
0.7853981634
  9
$DIMTFILL
 70
     0
  9
$DIMTFILLCLR
 70
     0
  9
$DIMARCSYM
 70
     0
  9
$DIMLTYPE
  6

  9
$DIMLTEX1
  6

  9
$DIMLTEX2
  6

  9
$LUNITS
 70
     2
  9
$LUPREC
 70
     1
  9
$SKETCHINC
 40
1.0
  9
$FILLETRAD
 40
10.0
  9
$AUNITS
 70
     0
  9
$AUPREC
 70
     1
  9
$MENU
  1
.
  9
$ELEVATION
 40
0.0
  9
$PELEVATION
 40
0.0
  9
$THICKNESS
 40
0.0
  9
$LIMCHECK
 70
     0
  9
$CHAMFERA
 40
10.0
  9
$CHAMFERB
 40
10.0
  9
$CHAMFERC
 40
20.0
  9
$CHAMFERD
 40
0.0
  9
$SKPOLY
 70
     0
  9
$TDCREATE
 40
2455700.665405856
  9
$TDUCREATE
 40
2455700.62373919
  9
$TDUPDATE
 40
2455700.665405868
  9
$TDUUPDATE
 40
2455700.623739202
  9
$TDINDWG
 40
0.0000000116
  9
$TDUSRTIMER
 40
0.0000000116
  9
$USRTIMER
 70
     1
  9
$ANGBASE
 50
0.0
  9
$ANGDIR
 70
     0
  9
$PDMODE
 70
     0
  9
$PDSIZE
 40
-1.0
  9
$PLINEWID
 40
0.0
  9
$SPLFRAME
 70
     0
  9
$SPLINETYPE
 70
     6
  9
$SPLINESEGS
 70
     8
  9
$HANDSEED
  5
304
  9
$SURFTAB1
 70
     6
  9
$SURFTAB2
 70
     6
  9
$SURFTYPE
 70
     6
  9
$SURFU
 70
     6
  9
$SURFV
 70
     6
  9
$UCSBASE
  2

  9
$UCSNAME
  2

  9
$UCSORG
 10
0.0
 20
0.0
 30
0.0
  9
$UCSXDIR
 10
1.0
 20
0.0
 30
0.0
  9
$UCSYDIR
 10
0.0
 20
1.0
 30
0.0
  9
$UCSORTHOREF
  2

  9
$UCSORTHOVIEW
 70
     0
  9
$UCSORGTOP
 10
0.0
 20
0.0
 30
0.0
  9
$UCSORGBOTTOM
 10
0.0
 20
0.0
 30
0.0
  9
$UCSORGLEFT
 10
0.0
 20
0.0
 30
0.0
  9
$UCSORGRIGHT
 10
0.0
 20
0.0
 30
0.0
  9
$UCSORGFRONT
 10
0.0
 20
0.0
 30
0.0
  9
$UCSORGBACK
 10
0.0
 20
0.0
 30
0.0
  9
$PUCSBASE
  2

  9
$PUCSNAME
  2

  9
$PUCSORG
 10
0.0
 20
0.0
 30
0.0
  9
$PUCSXDIR
 10
1.0
 20
0.0
 30
0.0
  9
$PUCSYDIR
 10
0.0
 20
1.0
 30
0.0
  9
$PUCSORTHOREF
  2

  9
$PUCSORTHOVIEW
 70
     0
  9
$PUCSORGTOP
 10
0.0
 20
0.0
 30
0.0
  9
$PUCSORGBOTTOM
 10
0.0
 20
0.0
 30
0.0
  9
$PUCSORGLEFT
 10
0.0
 20
0.0
 30
0.0
  9
$PUCSORGRIGHT
 10
0.0
 20
0.0
 30
0.0
  9
$PUCSORGFRONT
 10
0.0
 20
0.0
 30
0.0
  9
$PUCSORGBACK
 10
0.0
 20
0.0
 30
0.0
  9
$USERI1
 70
     0
  9
$USERI2
 70
     0
  9
$USERI3
 70
     0
  9
$USERI4
 70
     0
  9
$USERI5
 70
     0
  9
$USERR1
 40
0.0
  9
$USERR2
 40
0.0
  9
$USERR3
 40
0.0
  9
$USERR4
 40
0.0
  9
$USERR5
 40
0.0
  9
$WORLDVIEW
 70
     1
  9
$SHADEDGE
 70
     3
  9
$SHADEDIF
 70
    70
  9
$TILEMODE
 70
     1
  9
$MAXACTVP
 70
    64
  9
$PINSBASE
 10
0.0
 20
0.0
 30
0.0
  9
$PLIMCHECK
 70
     0
  9
$PEXTMIN
 10
1.0000000000E+20
 20
1.0000000000E+20
 30
1.0000000000E+20
  9
$PEXTMAX
 10
-1.0000000000E+20
 20
-1.0000000000E+20
 30
-1.0000000000E+20
  9
$PLIMMIN
 10
0.0
 20
0.0
  9
$PLIMMAX
 10
420.0
 20
297.0
  9
$UNITMODE
 70
     0
  9
$VISRETAIN
 70
     1
  9
$PLINEGEN
 70
     0
  9
$PSLTSCALE
 70
     1
  9
$TREEDEPTH
 70
  3020
  9
$CMLSTYLE
  2
Standard
  9
$CMLJUST
 70
     0
  9
$CMLSCALE
 40
20.0
  9
$PROXYGRAPHICS
 70
     1
  9
$MEASUREMENT
 70
     1
  9
$CELWEIGHT
370
    -1
  9
$ENDCAPS
280
     0
  9
$JOINSTYLE
280
     0
  9
$LWDISPLAY
290
     1
  9
$INSUNITS
 70
     4
  9
$HYPERLINKBASE
  1

  9
$STYLESHEET
  1

  9
$XEDIT
290
     1
  9
$CEPSNTYPE
380
     0
  9
$PSTYLEMODE
290
     1
  9
$FINGERPRINTGUID
  2
{EEA685EC-4D55-4C54-901A-167D3DB87E8E}
  9
$VERSIONGUID
  2
{FAEB1C32-E019-11D5-929B-00C0DF256EC4}
  9
$EXTNAMES
290
     1
  9
$PSVPSCALE
 40
0.0
  9
$OLESTARTUP
290
     0
  9
$SORTENTS
280
   127
  9
$INDEXCTL
280
     0
  9
$HIDETEXT
280
     1
  9
$XCLIPFRAME
290
     0
  9
$HALOGAP
280
     0
  9
$OBSCOLOR
 70
   257
  9
$OBSLTYPE
280
     0
  9
$INTERSECTIONDISPLAY
280
     0
  9
$INTERSECTIONCOLOR
 70
   257
  9
$DIMASSOC
280
     2
  9
$PROJECTNAME
  1

  9
$CAMERADISPLAY
290
     0
  9
$LENSLENGTH
 40
50.0
  9
$CAMERAHEIGHT
 40
0.0
  9
$STEPSPERSEC
 40
2.0
  9
$STEPSIZE
 40
6.0
  9
$3DDWFPREC
 40
2.0
  9
$PSOLWIDTH
 40
5.0
  9
$PSOLHEIGHT
 40
80.0
  9
$LOFTANG1
 40
1.5707963268
  9
$LOFTANG2
 40
1.5707963268
  9
$LOFTMAG1
 40
0.0
  9
$LOFTMAG2
 40
0.0
  9
$LOFTPARAM
 70
     7
  9
$LOFTNORMALS
280
     1
  9
$LATITUDE
 40
37.795
  9
$LONGITUDE
 40
-122.394
  9
$NORTHDIRECTION
 40
0.0
  9
$TIMEZONE
 70
 -8000
  9
$LIGHTGLYPHDISPLAY
280
     1
  9
$TILEMODELIGHTSYNCH
280
     1
  9
$SOLIDHIST
280
     1
  9
$SHOWHIST
280
     1
  9
$DWFFRAME
280
     2
  9
$DGNFRAME
280
     2
  9
$REALWORLDSCALE
290
     1
  9
$INTERFERECOLOR
 62
   256
  9
$CSHADOW
280
     0
  9
$SHADOWPLANELOCATION
 40
0.0
  0
ENDSEC
  0
SECTION
  2
CLASSES
  0
CLASS
  1
ACDBDICTIONARYWDFLT
  2
AcDbDictionaryWithDefault
  3
ObjectDBX Classes
 90
        0
 91
        4
280
     0
281
     0
  0
CLASS
  1
VISUALSTYLE
  2
AcDbVisualStyle
  3
ObjectDBX Classes
 90
     4095
 91
        4
280
     0
281
     0
  0
CLASS
  1
MATERIAL
  2
AcDbMaterial
  3
ObjectDBX Classes
 90
     1153
 91
        4
280
     0
281
     0
  0
ENDSEC
  0
SECTION
  2
TABLES
  0
TABLE
  2
VPORT
  5
8
330
0
100
AcDbSymbolTable
 70
     1
  0
VPORT
  5
29
330
8
100
AcDbSymbolTableRecord
100
AcDbViewportTableRecord
  2
*Active
 70
     0
 10
0.0
 20
0.0
 11
1.0
 21
1.0
 12
420.5
 22
297.0
 13
0.0
 23
0.0
 14
10.0
 24
10.0
 15
10.0
 25
10.0
 16
0.0
 26
0.0
 36
1.0
 17
0.0
 27
0.0
 37
0.0
 40
594.0
 41
1.4158249158
 42
50.0
 43
0.0
 44
0.0
 50
0.0
 51
0.0
 71
     0
 72
  2000
 73
     1
 74
     3
 75
     0
 76
     0
 77
     0
 78
     0
281
     0
 65
     1
110
0.0
120
0.0
130
0.0
111
1.0
121
0.0
131
0.0
112
0.0
122
1.0
132
0.0
 79
     0
146
0.0
 60
     3
 61
     5
292
     1
282
     1
141
0.0
142
0.0
 63
   250
  0
ENDTAB
  0
TABLE
  2
LTYPE
  5
5
330
0
100
AcDbSymbolTable
 70
     8
  0
LTYPE
  5
14
330
5
100
AcDbSymbolTableRecord
100
AcDbLinetypeTableRecord
  2
ByBlock
 70
     0
  3

 72
    65
 73
     0
 40
0.0
  0
LTYPE
  5
15
330
5
100
AcDbSymbolTableRecord
100
AcDbLinetypeTableRecord
  2
ByLayer
 70
     0
  3

 72
    65
 73
     0
 40
0.0
  0
LTYPE
  5
16
330
5
100
AcDbSymbolTableRecord
100
AcDbLinetypeTableRecord
  2
Continuous
 70
     0
  3
Solid line
 72
    65
 73
     0
 40
0.0
  0
LTYPE
  5
3F
330
5
100
AcDbSymbolTableRecord
100
AcDbLinetypeTableRecord
  2
SLD-Solid
 70
     0
  3
SolidWorks Line Style
 72
    65
 73
     0
 40
0.0
  0
LTYPE
  5
40
330
5
100
AcDbSymbolTableRecord
100
AcDbLinetypeTableRecord
  2
SLD-Dashed
 70
     0
  3
SolidWorks Line Style
 72
    65
 73
     2
 40
1.905
 49
1.27
 74
     0
 49
-0.635
 74
     0
  0
LTYPE
  5
41
330
5
100
AcDbSymbolTableRecord
100
AcDbLinetypeTableRecord
  2
SLD-Phantom
 70
     0
  3
SolidWorks Line Style
 72
    65
 73
     6
 40
12.7
 49
6.35
 74
     0
 49
-1.27
 74
     0
 49
1.27
 74
     0
 49
-1.27
 74
     0
 49
1.27
 74
     0
 49
-1.27
 74
     0
  0
LTYPE
  5
42
330
5
100
AcDbSymbolTableRecord
100
AcDbLinetypeTableRecord
  2
SLD-Chain
 70
     0
  3
SolidWorks Line Style
 72
    65
 73
     4
 40
10.16
 49
6.35
 74
     0
 49
-1.27
 74
     0
 49
1.27
 74
     0
 49
-1.27
 74
     0
  0
LTYPE
  5
43
330
5
100
AcDbSymbolTableRecord
100
AcDbLinetypeTableRecord
  2
SLD-Center
 70
     0
  3
SolidWorks Line Style
 72
    65
 73
     4
 40
19.05
 49
15.24
 74
     0
 49
-1.27
 74
     0
 49
1.27
 74
     0
 49
-1.27
 74
     0
  0
LTYPE
  5
44
330
5
100
AcDbSymbolTableRecord
100
AcDbLinetypeTableRecord
  2
SLD-Stitch
 70
     0
  3
SolidWorks Line Style
 72
    65
 73
     2
 40
0.635
 49
0.0
 74
     0
 49
-0.635
 74
     0
  0
LTYPE
  5
45
330
5
100
AcDbSymbolTableRecord
100
AcDbLinetypeTableRecord
  2
SLD-Thin-Thick-Chain
 70
     0
  3
SolidWorks Line Style
 72
    65
 73
     4
 40
10.16
 49
6.35
 74
     0
 49
-1.27
 74
     0
 49
1.27
 74
     0
 49
-1.27
 74
     0
  0
ENDTAB
  0
TABLE
  2
LAYER
  5
2
330
0
100
AcDbSymbolTable
 70
     1
  0
LAYER
  5
10
330
2
100
AcDbSymbolTableRecord
100
AcDbLayerTableRecord
  2
0
 70
     0
 62
     7
  6
Continuous
370
    -3
390
F
347
3E
  0
ENDTAB
  0
TABLE
  2
STYLE
  5
3
330
0
100
AcDbSymbolTable
 70
     1
  0
STYLE
  5
11
330
3
100
AcDbSymbolTableRecord
100
AcDbTextStyleTableRecord
  2
STANDARD
 70
     0
 40
0.0
 41
1.0
 50
0.0
 71
     0
 42
2.5
  3
GOTHIC.TTF
  4

1001
ACAD
1000
CENTURY GOTHIC
1071
       34
  0
ENDTAB
  0
TABLE
  2
VIEW
  5
6
330
0
100
AcDbSymbolTable
 70
     0
  0
ENDTAB
  0
TABLE
  2
UCS
  5
7
330
0
100
AcDbSymbolTable
 70
     0
  0
ENDTAB
  0
TABLE
  2
APPID
  5
9
330
0
100
AcDbSymbolTable
 70
     1
  0
APPID
  5
12
330
9
100
AcDbSymbolTableRecord
100
AcDbRegAppTableRecord
  2
ACAD
 70
     0
  0
ENDTAB
  0
TABLE
  2
DIMSTYLE
  5
A
330
0
100
AcDbSymbolTable
 70
     1
100
AcDbDimStyleTable
  0
DIMSTYLE
105
27
330
A
100
AcDbSymbolTableRecord
100
AcDbDimStyleTableRecord
  2
ISO-25
 70
     0
 41
2.5
 42
0.625
 43
3.75
 44
1.25
 73
     0
 74
     0
 77
     1
 78
     8
140
2.5
141
2.5
143
0.0393700787
147
0.625
171
     3
172
     1
271
     2
272
     2
274
     3
278
    44
283
     0
284
     8
340
11
  0
ENDTAB
  0
TABLE
  2
BLOCK_RECORD
  5
1
330
0
100
AcDbSymbolTable
 70
     1
  0
BLOCK_RECORD
  5
1F
330
1
100
AcDbSymbolTableRecord
100
AcDbBlockTableRecord
  2
*Model_Space
340
22
 70
     0
280
     1
281
     0
  0
BLOCK_RECORD
  5
1B
330
1
100
AcDbSymbolTableRecord
100
AcDbBlockTableRecord
  2
*Paper_Space
340
1E
 70
     0
280
     1
281
     0
  0
BLOCK_RECORD
  5
23
330
1
100
AcDbSymbolTableRecord
100
AcDbBlockTableRecord
  2
*Paper_Space0
340
26
 70
     0
280
     1
281
     0
  0
ENDTAB
  0
ENDSEC
  0
SECTION
  2
BLOCKS
  0
BLOCK
  5
20
330
1F
100
AcDbEntity
  8
0
100
AcDbBlockBegin
  2
*Model_Space
 70
     0
 10
0.0
 20
0.0
 30
0.0
  3
*Model_Space
  1

  0
ENDBLK
  5
21
330
1F
100
AcDbEntity
  8
0
100
AcDbBlockEnd
  0
BLOCK
  5
1C
330
1B
100
AcDbEntity
 67
     1
  8
0
100
AcDbBlockBegin
  2
*Paper_Space
 70
     0
 10
0.0
 20
0.0
 30
0.0
  3
*Paper_Space
  1

  0
ENDBLK
  5
1D
330
1B
100
AcDbEntity
 67
     1
  8
0
100
AcDbBlockEnd
  0
BLOCK
  5
24
330
23
100
AcDbEntity
  8
0
100
AcDbBlockBegin
  2
*Paper_Space0
 70
     0
 10
0.0
 20
0.0
 30
0.0
  3
*Paper_Space0
  1

  0
ENDBLK
  5
25
330
23
100
AcDbEntity
  8
0
100
AcDbBlockEnd
  0
ENDSEC
  0
SECTION
  2
ENTITIES
  0
LINE
  5
46
330
1F
100
AcDbEntity
  8
0
  6
SLD-Solid
 62
     7
370
    15
100
AcDbLine
 10
206.6482125109
 20
696.7301697002
 30
0.0
 11
206.6482125109
 21
698.2301697002
 31
0.0
  0
LINE
  5
47
330
1F
100
AcDbEntity
  8
0
  6
SLD-Solid
 62
     7
370
    15
100
AcDbLine
 10
19.6482125109
 20
698.2301697002
 30
0.0
 11
19.6482125109
 21
696.7301697002
 31
0.0
  0
LINE
  5
48
330
1F
100
AcDbEntity
  8
0
  6
SLD-Solid
 62
     7
370
    15
100
AcDbLine
 10
206.6482125109
 20
698.2301697002
 30
0.0
 11
204.6482125109
 21
700.2301697002
 31
0.0
  0
LINE
  5
49
330
1F
100
AcDbEntity
  8
0
  6
SLD-Solid
 62
     7
370
    15
100
AcDbLine
 10
21.6482125109
 20
700.2301697002
 30
0.0
 11
19.6482125109
 21
698.2301697002
 31
0.0
  0
LINE
  5
4A
330
1F
100
AcDbEntity
  8
0
  6
SLD-Solid
 62
     7
370
    15
100
AcDbLine
 10
127.908347249
 20
696.6367371523
 30
0.0
 11
128.3859457948
 21
696.7301697002
 31
0.0
  0
LINE
  5
4B
330
1F
100
AcDbEntity
  8
0
  6
SLD-Solid
 62
     7
370
    15
100
AcDbLine
 10
97.9104792269
 20
696.7301697002
 30
0.0
 11
98.3880777727
 21
696.6367371523
 31
0.0
  0
LINE
  5
4C
330
1F
100
AcDbEntity
  8
0
  6
SLD-Solid
 62
     7
370
    15
100
AcDbLine
 10
-118.8517874892
 20
726.9301697001
 30
0.0
 11
-118.0517874892
 21
726.9301697001
 31
0.0
  0
LINE
  5
4D
330
1F
100
AcDbEntity
  8
0
  6
SLD-Solid
 62
     7
370
    15
100
AcDbLine
 10
-118.0517874892
 20
730.9301697001
 30
0.0
 11
-118.8517874892
 21
730.9301697001
 31
0.0
  0
LINE
  5
4E
330
1F
100
AcDbEntity
  8
0
  6
SLD-Solid
 62
     7
370
    15
100
AcDbLine
 10
-118.8517874892
 20
696.9301697001
 30
0.0
 11
-118.0517874892
 21
696.9301697001
 31
0.0
  0
LINE
  5
4F
330
1F
100
AcDbEntity
  8
0
  6
SLD-Solid
 62
     7
370
    15
100
AcDbLine
 10
-118.0517874892
 20
700.9301697001
 30
0.0
 11
-118.8517874892
 21
700.9301697001
 31
0.0
  0
LINE
  5
50
330
1F
100
AcDbEntity
  8
0
  6
SLD-Solid
 62
     7
370
    15
100
AcDbLine
 10
-118.8517874892
 20
692.5801697001
 30
0.0
 11
-118.0517874892
 21
692.5801697001
 31
0.0
  0
LINE
  5
51
330
1F
100
AcDbEntity
  8
0
  6
SLD-Solid
 62
     7
370
    15
100
AcDbLine
 10
-118.0517874892
 20
705.2801697001
 30
0.0
 11
-118.8517874892
 21
705.2801697001
 31
0.0
  0
LINE
  5
52
330
1F
100
AcDbEntity
  8
0
  6
SLD-Solid
 62
     7
370
    15
100
AcDbLine
 10
621.3292632556
 20
623.7175178712
 30
0.0
 11
618.2270602735
 21
623.9236426174
 31
0.0
  0
LINE
  5
53
330
1F
100
AcDbEntity
  8
0
  6
SLD-Solid
 62
     7
370
    15
100
AcDbLine
 10
15.0488004628
 20
688.5433046044
 30
0.0
 11
15.4386036591
 21
688.2301697002
 31
0.0
  0
LINE
  5
54
330
1F
100
AcDbEntity
  8
0
  6
SLD-Solid
 62
     7
370
    15
100
AcDbLine
 10
210.8578213627
 20
688.2301697002
 30
0.0
 11
211.2476245589
 21
688.5433046043
 31
0.0
  0
LINE
  5
55
330
1F
100
AcDbEntity
  8
0
  6
SLD-Solid
 62
     7
370
    15
100
AcDbLine
 10
211.2476245589
 20
688.5433046043
 30
0.0
 11
204.7460456854
 21
696.6367371523
 31
0.0
  0
LINE
  5
56
330
1F
100
AcDbEntity
  8
0
  6
SLD-Solid
 62
     7
370
    15
100
AcDbLine
 10
21.5503793363
 20
696.6367371523
 30
0.0
 11
15.0488004628
 21
688.5433046044
 31
0.0
  0
LINE
  5
57
330
1F
100
AcDbEntity
  8
0
  6
SLD-Solid
 62
     7
370
    15
100
AcDbLine
 10
634.0817096918
 20
562.3861265576
 30
0.0
 11
642.3562068773
 21
569.2805225665
 31
0.0
  0
LINE
  5
58
330
1F
100
AcDbEntity
  8
0
  6
SLD-Solid
 62
     7
370
    15
100
AcDbLine
 10
617.4319592777
 20
623.9764728133
 30
0.0
 11
613.9956050574
 21
624.2048001167
 31
0.0
  0
LINE
  5
59
330
1F
100
AcDbEntity
  8
0
  6
SLD-Solid
 62
     7
370
    15
100
AcDbLine
 10
624.7422381979
 20
623.4907439953
 30
0.0
 11
622.1111478489
 21
623.6655658344
 31
0.0
  0
LINE
  5
5A
330
1F
100
AcDbEntity
  8
0
  6
SLD-Solid
 62
     7
370
    15
100
AcDbLine
 10
642.3562068773
 20
569.2805225665
 30
0.0
 11
658.1174010388
 21
583.5858143333
 31
0.0
  0
LINE
  5
5B
330
1F
100
AcDbEntity
  8
0
  6
SLD-Solid
 62
     7
370
    15
100
AcDbLine
 10
625.2392874724
 20
623.4365036164
 30
0.0
 11
624.7422381979
 21
623.4907439953
 31
0.0
  0
ARC
  5
5C
330
1F
100
AcDbEntity
  8
0
  6
SLD-Solid
 62
     7
370
    15
100
AcDbCircle
 10
657.4453217957
 20
584.326293564
 30
0.0
 40
1.000000000000071
100
AcDbArc
 50
312.227745318
 51
18.0
  0
LINE
  5
5D
330
1F
100
AcDbEntity
  8
0
  6
SLD-Solid
 62
     7
370
    15
100
AcDbLine
 10
-172.0517874892
 20
493.2301697001
 30
0.0
 11
-172.0517874892
 21
481.0301697001
 31
0.0
  0
LINE
  5
5E
330
1F
100
AcDbEntity
  8
0
  6
SLD-Solid
 62
     7
370
    15
100
AcDbLine
 10
-147.0517874892
 20
481.0301697001
 30
0.0
 11
-147.0517874892
 21
494.0301697001
 31
0.0
  0
LINE
  5
5F
330
1F
100
AcDbEntity
  8
0
  6
SLD-Solid
 62
     7
370
    15
100
AcDbLine
 10
-172.0517874892
 20
481.0301697001
 30
0.0
 11
-171.0517874892
 21
480.0301697001
 31
0.0
  0
LINE
  5
60
330
1F
100
AcDbEntity
  8
0
  6
SLD-Solid
 62
     7
370
    15
100
AcDbLine
 10
-148.0517874892
 20
480.0301697001
 30
0.0
 11
-147.0517874892
 21
481.0301697001
 31
0.0
  0
LINE
  5
61
330
1F
100
AcDbEntity
  8
0
  6
SLD-Solid
 62
     7
370
    15
100
AcDbLine
 10
471.6482125108
 20
696.7301697001
 30
0.0
 11
471.6482125108
 21
698.2301697001
 31
0.0
  0
LINE
  5
62
330
1F
100
AcDbEntity
  8
0
  6
SLD-Solid
 62
     7
370
    15
100
AcDbLine
 10
284.6482125108
 20
698.2301697001
 30
0.0
 11
284.6482125108
 21
696.7301697001
 31
0.0
  0
LINE
  5
63
330
1F
100
AcDbEntity
  8
0
  6
SLD-Solid
 62
     7
370
    15
100
AcDbLine
 10
471.6482125108
 20
698.2301697001
 30
0.0
 11
469.6482125108
 21
700.2301697001
 31
0.0
  0
LINE
  5
64
330
1F
100
AcDbEntity
  8
0
  6
SLD-Solid
 62
     7
370
    15
100
AcDbLine
 10
286.6482125108
 20
700.2301697001
 30
0.0
 11
284.6482125108
 21
698.2301697001
 31
0.0
  0
LINE
  5
65
330
1F
100
AcDbEntity
  8
0
  6
SLD-Solid
 62
     7
370
    15
100
AcDbLine
 10
392.908347249
 20
696.6367371522
 30
0.0
 11
393.3859457948
 21
696.7301697001
 31
0.0
  0
LINE
  5
66
330
1F
100
AcDbEntity
  8
0
  6
SLD-Solid
 62
     7
370
    15
100
AcDbLine
 10
362.9104792269
 20
696.7301697001
 30
0.0
 11
363.3880777727
 21
696.6367371522
 31
0.0
  0
ARC
  5
67
330
1F
100
AcDbEntity
  8
0
  6
SLD-Solid
 62
     7
370
    15
100
AcDbCircle
 10
-19.451788635
 20
-200.0698302999
 30
0.0
 40
2.0
100
AcDbArc
 50
270.0
 51
0.0
  0
ARC
  5
68
330
1F
100
AcDbEntity
  8
0
  6
SLD-Solid
 62
     7
370
    15
100
AcDbCircle
 10
-72.451788635
 20
-200.0698302999
 30
0.0
 40
2.0
100
AcDbArc
 50
180.0
 51
270.0
  0
LINE
  5
69
330
1F
100
AcDbEntity
  8
0
  6
SLD-Solid
 62
     7
370
    15
100
AcDbLine
 10
-17.451788635
 20
-200.0698302999
 30
0.0
 11
-17.451788635
 21
-196.0698302999
 31
0.0
  0
LINE
  5
6A
330
1F
100
AcDbEntity
  8
0
  6
SLD-Solid
 62
     7
370
    15
100
AcDbLine
 10
-74.451788635
 20
-196.0698302999
 30
0.0
 11
-74.451788635
 21
-200.0698302999
 31
0.0
  0
LINE
  5
6B
330
1F
100
AcDbEntity
  8
0
  6
SLD-Solid
 62
     7
370
    15
100
AcDbLine
 10
519.6982113616
 20
-32.0698302999
 30
0.0
 11
519.6982113616
 21
-31.5698302999
 31
0.0
  0
LINE
  5
6C
330
1F
100
AcDbEntity
  8
0
  6
SLD-Solid
 62
     7
370
    15
100
AcDbLine
 10
511.3982113616
 20
-31.5698302999
 30
0.0
 11
511.3982113616
 21
-32.0698302999
 31
0.0
  0
LINE
  5
6D
330
1F
100
AcDbEntity
  8
0
  6
SLD-Solid
 62
     7
370
    15
100
AcDbLine
 10
-170.2017874892
 20
497.7372764813
 30
0.0
 11
-170.2017874892
 21
497.0301697001
 31
0.0
  0
LINE
  5
6E
330
1F
100
AcDbEntity
  8
0
  6
SLD-Solid
 62
     7
370
    15
100
AcDbLine
 10
-148.9017874892
 20
494.0301697001
 30
0.0
 11
-148.9017874892
 21
496.2301697001
 31
0.0
  0
LINE
  5
6F
330
1F
100
AcDbEntity
  8
0
  6
SLD-Solid
 62
     7
370
    15
100
AcDbLine
 10
-148.9017874892
 20
497.0301697001
 30
0.0
 11
-148.9017874892
 21
497.7372764813
 31
0.0
  0
LINE
  5
70
330
1F
100
AcDbEntity
  8
0
  6
SLD-Solid
 62
     7
370
    15
100
AcDbLine
 10
476.2476245589
 20
688.5433046043
 30
0.0
 11
469.7460456854
 21
696.6367371522
 31
0.0
  0
LINE
  5
71
330
1F
100
AcDbEntity
  8
0
  6
SLD-Solid
 62
     7
370
    15
100
AcDbLine
 10
286.5503793363
 20
696.6367371522
 30
0.0
 11
280.0488004628
 21
688.5433046043
 31
0.0
  0
LINE
  5
72
330
1F
100
AcDbEntity
  8
0
  6
SLD-Solid
 62
     7
370
    15
100
AcDbLine
 10
-17.651788635
 20
-196.0698302999
 30
0.0
 11
-17.651788635
 21
-128.0698302999
 31
0.0
  0
LINE
  5
73
330
1F
100
AcDbEntity
  8
0
  6
SLD-Solid
 62
     7
370
    15
100
AcDbLine
 10
-74.251788635
 20
-128.0698302999
 30
0.0
 11
-74.251788635
 21
-196.0698302999
 31
0.0
  0
ARC
  5
74
330
1F
100
AcDbEntity
  8
0
  6
SLD-Solid
 62
     7
370
    15
100
AcDbCircle
 10
-12.551788635
 20
-35.5698302999
 30
0.0
 40
1.499999999999945
100
AcDbArc
 50
90.0
 51
180.0
  0
ARC
  5
75
330
1F
100
AcDbEntity
  8
0
  6
SLD-Solid
 62
     7
370
    15
100
AcDbCircle
 10
-79.351788635
 20
-35.5698302999
 30
0.0
 40
1.499999999999943
100
AcDbArc
 50
0.0
 51
90.0
  0
ARC
  5
76
330
1F
100
AcDbEntity
  8
0
  6
SLD-Solid
 62
     7
370
    15
100
AcDbCircle
 10
-18.751788635
 20
-122.0372643542
 30
0.0
 40
4.700000000000042
100
AcDbArc
 50
350.5402980318
 51
0.0
  0
ARC
  5
77
330
1F
100
AcDbEntity
  8
0
  6
SLD-Solid
 62
     7
370
    15
100
AcDbCircle
 10
-73.151788635
 20
-122.0372643542
 30
0.0
 40
4.700000000000045
100
AcDbArc
 50
180.0
 51
189.4597019682
  0
LINE
  5
78
330
1F
100
AcDbEntity
  8
0
  6
SLD-Solid
 62
     7
370
    15
100
AcDbLine
 10
-14.051788635
 20
-122.0372643542
 30
0.0
 11
-14.051788635
 21
-35.5698302999
 31
0.0
  0
LINE
  5
79
330
1F
100
AcDbEntity
  8
0
  6
SLD-Solid
 62
     7
370
    15
100
AcDbLine
 10
-77.851788635
 20
-35.5698302999
 30
0.0
 11
-77.851788635
 21
-122.0372643542
 31
0.0
  0
LINE
  5
7A
330
1F
100
AcDbEntity
  8
0
  6
SLD-Solid
 62
     7
370
    15
100
AcDbLine
 10
-77.787875408
 20
-122.8097275787
 30
0.0
 11
-76.9114388554
 21
-128.0698302999
 31
0.0
  0
LINE
  5
7B
330
1F
100
AcDbEntity
  8
0
  6
SLD-Solid
 62
     7
370
    15
100
AcDbLine
 10
-14.9921384147
 20
-128.0698302999
 30
0.0
 11
-14.115701862
 21
-122.8097275787
 31
0.0
  0
LINE
  5
7C
330
1F
100
AcDbEntity
  8
0
  6
SLD-Solid
 62
     7
370
    15
100
AcDbLine
 10
-117.2517874892
 20
602.0301697001
 30
0.0
 11
-118.0517874892
 21
602.0301697001
 31
0.0
  0
LINE
  5
7D
330
1F
100
AcDbEntity
  8
0
  6
SLD-Solid
 62
     7
370
    15
100
AcDbLine
 10
-118.0517874892
 20
598.4301697001
 30
0.0
 11
-117.2517874892
 21
598.4301697001
 31
0.0
  0
LINE
  5
7E
330
1F
100
AcDbEntity
  8
0
  6
SLD-Solid
 62
     7
370
    15
100
AcDbLine
 10
-117.2517874892
 20
612.9301697001
 30
0.0
 11
-118.0517874892
 21
612.9301697001
 31
0.0
  0
LINE
  5
7F
330
1F
100
AcDbEntity
  8
0
  6
SLD-Solid
 62
     7
370
    15
100
AcDbLine
 10
-118.0517874892
 20
587.5301697001
 30
0.0
 11
-117.2517874892
 21
587.5301697001
 31
0.0
  0
LINE
  5
80
330
1F
100
AcDbEntity
  8
0
  6
SLD-Solid
 62
     7
370
    15
100
AcDbLine
 10
-117.2517874892
 20
582.5301697001
 30
0.0
 11
-118.0517874892
 21
582.5301697001
 31
0.0
  0
LINE
  5
81
330
1F
100
AcDbEntity
  8
0
  6
SLD-Solid
 62
     7
370
    15
100
AcDbLine
 10
-118.0517874892
 20
577.9301697001
 30
0.0
 11
-117.2517874892
 21
577.9301697001
 31
0.0
  0
LINE
  5
82
330
1F
100
AcDbEntity
  8
0
  6
SLD-Solid
 62
     7
370
    15
100
AcDbLine
 10
-117.2517874892
 20
622.5301697001
 30
0.0
 11
-118.0517874892
 21
622.5301697001
 31
0.0
  0
LINE
  5
83
330
1F
100
AcDbEntity
  8
0
  6
SLD-Solid
 62
     7
370
    15
100
AcDbLine
 10
-118.0517874892
 20
617.9301697001
 30
0.0
 11
-117.2517874892
 21
617.9301697001
 31
0.0
  0
LINE
  5
84
330
1F
100
AcDbEntity
  8
0
  6
SLD-Solid
 62
     7
370
    15
100
AcDbLine
 10
-118.0517874892
 20
399.2301697001
 30
0.0
 11
-117.2517874892
 21
399.2301697001
 31
0.0
  0
LINE
  5
85
330
1F
100
AcDbEntity
  8
0
  6
SLD-Solid
 62
     7
370
    15
100
AcDbLine
 10
-117.2517874892
 20
413.2301697001
 30
0.0
 11
-118.0517874892
 21
413.2301697001
 31
0.0
  0
LINE
  5
86
330
1F
100
AcDbEntity
  8
0
  6
SLD-Solid
 62
     7
370
    15
100
AcDbLine
 10
-117.2517874892
 20
566.5301697001
 30
0.0
 11
-118.0517874892
 21
566.5301697001
 31
0.0
  0
LINE
  5
87
330
1F
100
AcDbEntity
  8
0
  6
SLD-Solid
 62
     7
370
    15
100
AcDbLine
 10
-118.0517874892
 20
561.9301697001
 30
0.0
 11
-117.2517874892
 21
561.9301697001
 31
0.0
  0
LINE
  5
88
330
1F
100
AcDbEntity
  8
0
  6
SLD-Solid
 62
     7
370
    15
100
AcDbLine
 10
-117.2517874892
 20
570.9301697001
 30
0.0
 11
-118.0517874892
 21
570.9301697001
 31
0.0
  0
LINE
  5
89
330
1F
100
AcDbEntity
  8
0
  6
SLD-Solid
 62
     7
370
    15
100
AcDbLine
 10
-118.0517874892
 20
545.5301697001
 30
0.0
 11
-117.2517874892
 21
545.5301697001
 31
0.0
  0
LINE
  5
8A
330
1F
100
AcDbEntity
  8
0
  6
SLD-Solid
 62
     7
370
    15
100
AcDbLine
 10
-117.2517874892
 20
650.9301697001
 30
0.0
 11
-118.0517874892
 21
650.9301697001
 31
0.0
  0
LINE
  5
8B
330
1F
100
AcDbEntity
  8
0
  6
SLD-Solid
 62
     7
370
    15
100
AcDbLine
 10
-118.0517874892
 20
625.5301697001
 30
0.0
 11
-117.2517874892
 21
625.5301697001
 31
0.0
  0
LINE
  5
8C
330
1F
100
AcDbEntity
  8
0
  6
SLD-Solid
 62
     7
370
    15
100
AcDbLine
 10
618.2368413338
 20
623.9330147689
 30
0.0
 11
617.4203803253
 21
623.9872642229
 31
0.0
  0
LINE
  5
8D
330
1F
100
AcDbEntity
  8
0
  6
SLD-Solid
 62
     7
370
    15
100
AcDbLine
 10
622.1292713004
 20
623.6743836787
 30
0.0
 11
621.3208862146
 21
623.728096531
 31
0.0
  0
LINE
  5
8E
330
1F
100
AcDbEntity
  8
0
  6
SLD-Solid
 62
     7
370
    15
100
AcDbLine
 10
574.6982113616
 20
-32.0698302999
 30
0.0
 11
574.6982113616
 21
-31.5698302999
 31
0.0
  0
LINE
  5
8F
330
1F
100
AcDbEntity
  8
0
  6
SLD-Solid
 62
     7
370
    15
100
AcDbLine
 10
566.3982113616
 20
-31.5698302999
 30
0.0
 11
566.3982113616
 21
-32.0698302999
 31
0.0
  0
LINE
  5
90
330
1F
100
AcDbEntity
  8
0
  6
SLD-Solid
 62
     7
370
    15
100
AcDbLine
 10
571.5482113616
 20
-200.0698302999
 30
0.0
 11
571.5482113616
 21
-196.0698302999
 31
0.0
  0
LINE
  5
91
330
1F
100
AcDbEntity
  8
0
  6
SLD-Solid
 62
     7
370
    15
100
AcDbLine
 10
514.5482113616
 20
-196.0698302999
 30
0.0
 11
514.5482113616
 21
-200.0698302999
 31
0.0
  0
ARC
  5
92
330
1F
100
AcDbEntity
  8
0
  6
SLD-Solid
 62
     7
370
    15
100
AcDbCircle
 10
569.5482113616
 20
-200.0698302999
 30
0.0
 40
2.000000000000028
100
AcDbArc
 50
270.0
 51
0.0
  0
ARC
  5
93
330
1F
100
AcDbEntity
  8
0
  6
SLD-Solid
 62
     7
370
    15
100
AcDbCircle
 10
516.5482113616
 20
-200.0698302999
 30
0.0
 40
2.000000000000028
100
AcDbArc
 50
180.0
 51
270.0
  0
LINE
  5
94
330
1F
100
AcDbEntity
  8
0
  6
SLD-Solid
 62
     7
370
    15
100
AcDbLine
 10
-118.8517874892
 20
558.8801697001
 30
0.0
 11
-118.0517874892
 21
558.8801697001
 31
0.0
  0
LINE
  5
95
330
1F
100
AcDbEntity
  8
0
  6
SLD-Solid
 62
     7
370
    15
100
AcDbLine
 10
-125.3517874893
 20
587.7301697001
 30
0.0
 11
-118.0517874892
 21
587.7301697001
 31
0.0
  0
LINE
  5
96
330
1F
100
AcDbEntity
  8
0
  6
SLD-Solid
 62
     7
370
    15
100
AcDbLine
 10
-117.2517874892
 20
587.7301697001
 30
0.0
 11
-116.8017874892
 21
587.7301697001
 31
0.0
  0
LINE
  5
97
330
1F
100
AcDbEntity
  8
0
  6
SLD-Solid
 62
     7
370
    15
100
AcDbLine
 10
-116.8017874892
 20
612.7301697001
 30
0.0
 11
-117.2517874892
 21
612.7301697001
 31
0.0
  0
LINE
  5
98
330
1F
100
AcDbEntity
  8
0
  6
SLD-Solid
 62
     7
370
    15
100
AcDbLine
 10
-118.0517874892
 20
612.7301697001
 30
0.0
 11
-125.3517874893
 21
612.7301697001
 31
0.0
  0
LINE
  5
99
330
1F
100
AcDbEntity
  8
0
  6
SLD-Solid
 62
     7
370
    15
100
AcDbLine
 10
571.3482113616
 20
-196.0698302999
 30
0.0
 11
571.3482113616
 21
-128.0698302999
 31
0.0
  0
LINE
  5
9A
330
1F
100
AcDbEntity
  8
0
  6
SLD-Solid
 62
     7
370
    15
100
AcDbLine
 10
514.7482113616
 20
-128.0698302999
 30
0.0
 11
514.7482113616
 21
-196.0698302999
 31
0.0
  0
ARC
  5
9B
330
1F
100
AcDbEntity
  8
0
  6
SLD-Solid
 62
     7
370
    15
100
AcDbCircle
 10
576.4482113616
 20
-35.5698302999
 30
0.0
 40
1.5
100
AcDbArc
 50
90.0
 51
180.0
  0
ARC
  5
9C
330
1F
100
AcDbEntity
  8
0
  6
SLD-Solid
 62
     7
370
    15
100
AcDbCircle
 10
509.6482113616
 20
-35.5698302999
 30
0.0
 40
1.499999999999943
100
AcDbArc
 50
0.0
 51
90.0
  0
ARC
  5
9D
330
1F
100
AcDbEntity
  8
0
  6
SLD-Solid
 62
     7
370
    15
100
AcDbCircle
 10
570.2482113616
 20
-122.0372643542
 30
0.0
 40
4.700000000000003
100
AcDbArc
 50
350.5402980318
 51
0.0
  0
ARC
  5
9E
330
1F
100
AcDbEntity
  8
0
  6
SLD-Solid
 62
     7
370
    15
100
AcDbCircle
 10
515.8482113616
 20
-122.0372643542
 30
0.0
 40
4.700000000000003
100
AcDbArc
 50
180.0
 51
189.4597019682
  0
LINE
  5
9F
330
1F
100
AcDbEntity
  8
0
  6
SLD-Solid
 62
     7
370
    15
100
AcDbLine
 10
574.9482113616
 20
-122.0372643542
 30
0.0
 11
574.9482113616
 21
-35.5698302999
 31
0.0
  0
LINE
  5
A0
330
1F
100
AcDbEntity
  8
0
  6
SLD-Solid
 62
     7
370
    15
100
AcDbLine
 10
511.1482113616
 20
-35.5698302999
 30
0.0
 11
511.1482113616
 21
-122.0372643542
 31
0.0
  0
LINE
  5
A1
330
1F
100
AcDbEntity
  8
0
  6
SLD-Solid
 62
     7
370
    15
100
AcDbLine
 10
511.2121245886
 20
-122.8097275787
 30
0.0
 11
512.0885611413
 21
-128.0698302999
 31
0.0
  0
LINE
  5
A2
330
1F
100
AcDbEntity
  8
0
  6
SLD-Solid
 62
     7
370
    15
100
AcDbLine
 10
574.007861582
 20
-128.0698302999
 30
0.0
 11
574.8842981346
 21
-122.8097275787
 31
0.0
  0
LINE
  5
A3
330
1F
100
AcDbEntity
  8
0
  6
SLD-Solid
 62
     7
370
    15
100
AcDbLine
 10
-69.3017886384
 20
-32.0698302999
 30
0.0
 11
-69.3017886384
 21
-31.5698302999
 31
0.0
  0
LINE
  5
A4
330
1F
100
AcDbEntity
  8
0
  6
SLD-Solid
 62
     7
370
    15
100
AcDbLine
 10
-77.6017886384
 20
-31.5698302999
 30
0.0
 11
-77.6017886384
 21
-32.0698302999
 31
0.0
  0
LINE
  5
A5
330
1F
100
AcDbEntity
  8
0
  6
SLD-Solid
 62
     7
370
    15
100
AcDbLine
 10
624.5468768972
 20
583.7715139938
 30
0.0
 11
626.6364612458
 21
585.3002451302
 31
0.0
  0
LINE
  5
A6
330
1F
100
AcDbEntity
  8
0
  6
SLD-Solid
 62
     7
370
    15
100
AcDbLine
 10
622.3152866508
 20
598.5994530425
 30
0.0
 11
619.7262117849
 21
598.607995648
 31
0.0
  0
LINE
  5
A7
330
1F
100
AcDbEntity
  8
0
  6
SLD-Solid
 62
     7
370
    15
100
AcDbLine
 10
634.0817096908
 20
560.8984520301
 30
0.0
 11
642.3562068763
 21
567.792848039
 31
0.0
  0
LINE
  5
A8
330
1F
100
AcDbEntity
  8
0
  6
SLD-Solid
 62
     7
370
    15
100
AcDbLine
 10
614.4896457417
 20
622.684299236
 30
0.0
 11
613.9956050565
 21
622.7171255893
 31
0.0
  0
LINE
  5
A9
330
1F
100
AcDbEntity
  8
0
  6
SLD-Solid
 62
     7
370
    15
100
AcDbLine
 10
642.3562068763
 20
567.792848039
 30
0.0
 11
658.1174010378
 21
582.0981398059
 31
0.0
  0
ARC
  5
AA
330
1F
100
AcDbEntity
  8
0
  6
SLD-Solid
 62
     7
370
    15
100
AcDbCircle
 10
657.4453217947
 20
582.8386190365
 30
0.0
 40
1.000000000000002
100
AcDbArc
 50
312.227745318
 51
18.0
  0
LINE
  5
AB
330
1F
100
AcDbEntity
  8
0
  6
SLD-Solid
 62
     7
370
    15
100
AcDbLine
 10
485.5482113616
 20
382.2301697001
 30
0.0
 11
501.2482113616
 21
382.2301697001
 31
0.0
  0
LINE
  5
AC
330
1F
100
AcDbEntity
  8
0
  6
SLD-Solid
 62
     7
370
    15
100
AcDbLine
 10
501.2482113616
 20
382.2301697001
 30
0.0
 11
503.7482113616
 21
382.2301697001
 31
0.0
  0
LINE
  5
AD
330
1F
100
AcDbEntity
  8
0
  6
SLD-Solid
 62
   142
420
    32960
370
     0
100
AcDbLine
 10
503.7482113616
 20
382.2301697001
 30
0.0
 11
504.7482113616
 21
382.2301697001
 31
0.0
  0
LINE
  5
AE
330
1F
100
AcDbEntity
  8
0
  6
SLD-Solid
 62
   142
420
    32960
370
     0
100
AcDbLine
 10
504.7482113616
 20
382.2301697001
 30
0.0
 11
507.2482113616
 21
382.2301697001
 31
0.0
  0
LINE
  5
AF
330
1F
100
AcDbEntity
  8
0
  6
SLD-Solid
 62
     7
370
    15
100
AcDbLine
 10
507.2482113616
 20
382.2301697001
 30
0.0
 11
523.1339977993
 21
382.2301697001
 31
0.0
  0
LINE
  5
B0
330
1F
100
AcDbEntity
  8
0
  6
SLD-Solid
 62
     7
370
    15
100
AcDbLine
 10
562.962424924
 20
382.2301697001
 30
0.0
 11
578.8482113616
 21
382.2301697001
 31
0.0
  0
LINE
  5
B1
330
1F
100
AcDbEntity
  8
0
  6
SLD-Solid
 62
   142
420
    32960
370
     0
100
AcDbLine
 10
578.8482113616
 20
382.2301697001
 30
0.0
 11
581.3482113616
 21
382.2301697001
 31
0.0
  0
LINE
  5
B2
330
1F
100
AcDbEntity
  8
0
  6
SLD-Solid
 62
   142
420
    32960
370
     0
100
AcDbLine
 10
581.3482113616
 20
382.2301697001
 30
0.0
 11
582.3482113616
 21
382.2301697001
 31
0.0
  0
LINE
  5
B3
330
1F
100
AcDbEntity
  8
0
  6
SLD-Solid
 62
     7
370
    15
100
AcDbLine
 10
582.3482113616
 20
382.2301697001
 30
0.0
 11
584.8482113616
 21
382.2301697001
 31
0.0
  0
LINE
  5
B4
330
1F
100
AcDbEntity
  8
0
  6
SLD-Solid
 62
     7
370
    15
100
AcDbLine
 10
584.8482113616
 20
382.2301697001
 30
0.0
 11
600.5482113616
 21
382.2301697001
 31
0.0
  0
LINE
  5
B5
330
1F
100
AcDbEntity
  8
0
  6
SLD-Solid
 62
     7
370
    15
100
AcDbLine
 10
600.5482113616
 20
382.2301697001
 30
0.0
 11
603.0482113616
 21
382.2301697001
 31
0.0
  0
LINE
  5
B6
330
1F
100
AcDbEntity
  8
0
  6
SLD-Solid
 62
   142
420
    32960
370
     0
100
AcDbLine
 10
483.0482113616
 20
382.2301697001
 30
0.0
 11
485.5482113616
 21
382.2301697001
 31
0.0
  0
LINE
  5
B7
330
1F
100
AcDbEntity
  8
0
  6
SLD-Solid
 62
   142
420
    32960
370
     0
100
AcDbLine
 10
485.5482113616
 20
382.2301697001
 30
0.0
 11
485.5482113616
 21
384.7301697001
 31
0.0
  0
LINE
  5
B8
330
1F
100
AcDbEntity
  8
0
  6
SLD-Solid
 62
   142
420
    32960
370
     0
100
AcDbLine
 10
485.5482113616
 20
384.7301697001
 30
0.0
 11
501.2482113616
 21
384.7301697001
 31
0.0
  0
LINE
  5
B9
330
1F
100
AcDbEntity
  8
0
  6
SLD-Solid
 62
   142
420
    32960
370
     0
100
AcDbLine
 10
501.2482113616
 20
384.7301697001
 30
0.0
 11
503.7482113616
 21
384.7301697001
 31
0.0
  0
LINE
  5
BA
330
1F
100
AcDbEntity
  8
0
  6
SLD-Solid
 62
   142
420
    32960
370
     0
100
AcDbLine
 10
503.7482113616
 20
382.2301697001
 30
0.0
 11
503.7482113616
 21
384.7301697001
 31
0.0
  0
LINE
  5
BB
330
1F
100
AcDbEntity
  8
0
  6
SLD-Solid
 62
   142
420
    32960
370
     0
100
AcDbLine
 10
507.2482113616
 20
384.7301697001
 30
0.0
 11
578.8482113616
 21
384.7301697001
 31
0.0
  0
LINE
  5
BC
330
1F
100
AcDbEntity
  8
0
  6
SLD-Solid
 62
   142
420
    32960
370
     0
100
AcDbLine
 10
507.2482113616
 20
382.2301697001
 30
0.0
 11
507.2482113616
 21
384.7301697001
 31
0.0
  0
LINE
  5
BD
330
1F
100
AcDbEntity
  8
0
  6
SLD-Solid
 62
   142
420
    32960
370
     0
100
AcDbLine
 10
578.8482113616
 20
382.2301697001
 30
0.0
 11
578.8482113616
 21
384.7301697001
 31
0.0
  0
LINE
  5
BE
330
1F
100
AcDbEntity
  8
0
  6
SLD-Solid
 62
   142
420
    32960
370
     0
100
AcDbLine
 10
584.8482113616
 20
384.7301697001
 30
0.0
 11
600.5482113616
 21
384.7301697001
 31
0.0
  0
LINE
  5
BF
330
1F
100
AcDbEntity
  8
0
  6
SLD-Solid
 62
   142
420
    32960
370
     0
100
AcDbLine
 10
582.3482113616
 20
384.7301697001
 30
0.0
 11
584.8482113616
 21
384.7301697001
 31
0.0
  0
LINE
  5
C0
330
1F
100
AcDbEntity
  8
0
  6
SLD-Solid
 62
   142
420
    32960
370
     0
100
AcDbLine
 10
582.3482113616
 20
382.2301697001
 30
0.0
 11
582.3482113616
 21
384.7301697001
 31
0.0
  0
LINE
  5
C1
330
1F
100
AcDbEntity
  8
0
  6
SLD-Solid
 62
     7
370
    15
100
AcDbLine
 10
603.0482113616
 20
382.2301697001
 30
0.0
 11
603.0482113616
 21
384.7301697001
 31
0.0
  0
LINE
  5
C2
330
1F
100
AcDbEntity
  8
0
  6
SLD-Solid
 62
   142
420
    32960
370
     0
100
AcDbLine
 10
600.5482113616
 20
384.7301697001
 30
0.0
 11
603.0482113616
 21
384.7301697001
 31
0.0
  0
LINE
  5
C3
330
1F
100
AcDbEntity
  8
0
  6
SLD-Solid
 62
   142
420
    32960
370
     0
100
AcDbLine
 10
483.0482113616
 20
382.2301697001
 30
0.0
 11
483.0482113616
 21
384.7301697001
 31
0.0
  0
LINE
  5
C4
330
1F
100
AcDbEntity
  8
0
  6
SLD-Solid
 62
   142
420
    32960
370
     0
100
AcDbLine
 10
505.1482113616
 20
382.2301697001
 30
0.0
 11
505.1482113616
 21
384.7301697001
 31
0.0
  0
LINE
  5
C5
330
1F
100
AcDbEntity
  8
0
  6
SLD-Solid
 62
   142
420
    32960
370
     0
100
AcDbLine
 10
580.9482113616
 20
382.2301697001
 30
0.0
 11
580.9482113616
 21
384.7301697001
 31
0.0
  0
LINE
  5
C6
330
1F
100
AcDbEntity
  8
0
  6
SLD-Solid
 62
   142
420
    32960
370
     0
100
AcDbLine
 10
580.9482113616
 20
384.7301697001
 30
0.0
 11
582.3482113616
 21
384.7301697001
 31
0.0
  0
SPLINE
  5
C7
330
1F
100
AcDbEntity
  8
0
  6
SLD-Solid
 62
   142
420
    32960
370
     0
100
AcDbSpline
210
0.0
220
0.0
230
1.0
 70
     8
 71
     3
 72
     9
 73
     5
 74
     0
 42
0.00000001
 43
0.00000001
 40
0.0
 40
0.0
 40
0.0
 40
0.0
 40
0.4963320672236988
 40
1.0
 40
1.0
 40
1.0
 40
1.0
 10
631.8276199311923
 20
587.455250464107
 30
0.0
 10
631.4501049037783
 20
587.3891533824445
 30
0.0
 10
630.6894951178226
 20
587.2559822939184
 30
0.0
 10
629.9278098964498
 20
587.1230868592714
 30
0.0
 10
629.5441734755749
 20
587.0561516904272
 30
0.0
  0
SPLINE
  5
C8
330
1F
100
AcDbEntity
  8
0
  6
SLD-Solid
 62
   142
420
    32960
370
     0
100
AcDbSpline
210
0.0
220
0.0
230
1.0
 70
     8
 71
     3
 72
     9
 73
     5
 74
     0
 42
0.00000001
 43
0.00000001
 40
0.0
 40
0.0
 40
0.0
 40
0.0
 40
0.4998981072624313
 40
1.0
 40
1.0
 40
1.0
 40
1.0
 10
631.7626109656275
 20
588.1520832684472
 30
0.0
 10
631.7738317153179
 20
588.0358697801613
 30
0.0
 10
631.7962777888824
 20
587.8033954286934
 30
0.0
 10
631.8171711311691
 20
587.5713145505399
 30
0.0
 10
631.8276199311923
 20
587.455250464107
 30
0.0
  0
SPLINE
  5
C9
330
1F
100
AcDbEntity
  8
0
  6
SLD-Solid
 62
   142
420
    32960
370
     0
100
AcDbSpline
210
0.0
220
0.0
230
1.0
 70
     8
 71
     3
 72
    12
 73
     8
 74
     0
 42
0.00000001
 43
0.00000001
 40
0.0
 40
0.0
 40
0.0
 40
0.0
 40
0.1251099641819191
 40
0.2501560287775246
 40
0.4998854219306511
 40
0.7498967401005585
 40
0.9999999999999999
 40
0.9999999999999999
 40
0.9999999999999999
 40
0.9999999999999999
 10
631.3633697602017
 20
588.5526876735497
 30
0.0
 10
631.3721546282762
 20
588.5288610011787
 30
0.0
 10
631.3897198775766
 20
588.4812198258471
 30
0.0
 10
631.4394197857183
 20
588.3944185433932
 30
0.0
 10
631.5196220870578
 20
588.3011665242333
 30
0.0
 10
631.6345540070951
 20
588.2134193281182
 30
0.0
 10
631.7199197462527
 20
588.1725312823959
 30
0.0
 10
631.762610462707
 20
588.1520835010781
 30
0.0
  0
SPLINE
  5
CA
330
1F
100
AcDbEntity
  8
0
  6
SLD-Solid
 62
   142
420
    32960
370
     0
100
AcDbSpline
210
0.0
220
0.0
230
1.0
 70
     8
 71
     3
 72
    16
 73
    12
 74
     0
 42
0.00000001
 43
0.00000001
 40
0.0
 40
0.0
 40
0.0
 40
0.0
 40
0.125086380537736
 40
0.2500995968202172
 40
0.3751035203423811
 40
0.5000746512833849
 40
0.6250242473268357
 40
0.749942791061333
 40
0.8748498777442001
 40
0.937419856727288
 40
1.0
 40
1.0
 40
1.0
 40
1.0
 10
631.7817650629997
 20
589.3937420936132
 30
0.0
 10
631.7442917000583
 20
589.3765038820549
 30
0.0
 10
631.6693668927142
 20
589.342037541738
 30
0.0
 10
631.5682090256806
 20
589.2658980340262
 30
0.0
 10
631.4782512506043
 20
589.174360037696
 30
0.0
 10
631.4088762212251
 20
589.0632440688095
 30
0.0
 10
631.3579676862968
 20
588.9415994511355
 30
0.0
 10
631.3297381717007
 20
588.8114053827139
 30
0.0
 10
631.3317233074577
 20
588.7008694281897
 30
0.0
 10
631.3451106031944
 20
588.6147367730124
 30
0.0
 10
631.3572815704301
 20
588.5733768176436
 30
0.0
 10
631.3633675482914
 20
588.5526951603982
 30
0.0
  0
SPLINE
  5
CB
330
1F
100
AcDbEntity
  8
0
  6
SLD-Solid
 62
   142
420
    32960
370
     0
100
AcDbSpline
210
0.0
220
0.0
230
1.0
 70
     8
 71
     3
 72
    17
 73
    13
 74
     0
 42
0.00000001
 43
0.00000001
 40
0.0
 40
0.0
 40
0.0
 40
0.0
 40
0.0625881928241715
 40
0.1251529137078524
 40
0.2501008805885644
 40
0.3750040730282159
 40
0.5000096249504673
 40
0.6250016255043106
 40
0.7499345076396748
 40
0.8748676060176664
 40
0.9374272079981719
 40
1.0
 40
1.0
 40
1.0
 40
1.0
 10
632.6088927968219
 20
589.0277134147918
 30
0.0
 10
632.6014392159068
 20
589.0489157129526
 30
0.0
 10
632.5865348493326
 20
589.091312357949
 30
0.0
 10
632.5478314818711
 20
589.1715071740479
 30
0.0
 10
632.4844970319099
 20
589.2618172139915
 30
0.0
 10
632.3876818517978
 20
589.3480593462338
 30
0.0
 10
632.2762009673942
 20
589.4099902580516
 30
0.0
 10
632.1553842388134
 20
589.4485088285347
 30
0.0
 10
632.0288269980651
 20
589.456131261366
 30
0.0
 10
631.9237586208358
 20
589.4409052073087
 30
0.0
 10
631.8417699870927
 20
589.4172335964372
 30
0.0
 10
631.8017681098771
 20
589.4015731448029
 30
0.0
 10
631.7817650629997
 20
589.3937420936132
 30
0.0
  0
SPLINE
  5
CC
330
1F
100
AcDbEntity
  8
0
  6
SLD-Solid
 62
   142
420
    32960
370
     0
100
AcDbSpline
210
0.0
220
0.0
230
1.0
 70
     8
 71
     3
 72
    13
 73
     9
 74
     0
 42
0.00000001
 43
0.00000001
 40
0.0
 40
0.0
 40
0.0
 40
0.0
 40
0.1252129687240284
 40
0.2503508891031153
 40
0.500034105357211
 40
0.7496609058298015
 40
0.8747812225091309
 40
1.0
 40
1.0
 40
1.0
 40
1.0
 10
632.4329090224107
 20
588.2749852592252
 30
0.0
 10
632.4541479852603
 20
588.3006686827553
 30
0.0
 10
632.496613181056
 20
588.3520201360549
 30
0.0
 10
632.5682914892797
 20
588.4660933952213
 30
0.0
 10
632.6313690129534
 20
588.6257079094277
 30
0.0
 10
632.6501005708355
 20
588.7970133780742
 30
0.0
 10
632.635426269749
 20
588.9313017843584
 30
0.0
 10
632.6177408925615
 20
588.9955631106773
 30
0.0
 10
632.6088947260519
 20
589.0277064111403
 30
0.0
  0
SPLINE
  5
CD
330
1F
100
AcDbEntity
  8
0
  6
SLD-Solid
 62
   142
420
    32960
370
     0
100
AcDbSpline
210
0.0
220
0.0
230
1.0
 70
     8
 71
     3
 72
     9
 73
     5
 74
     0
 42
0.00000001
 43
0.00000001
 40
0.0
 40
0.0
 40
0.0
 40
0.0
 40
0.5000084574257095
 40
0.9999999999999999
 40
0.9999999999999999
 40
0.9999999999999999
 40
0.9999999999999999
 10
632.6849842919005
 20
587.4499757171111
 30
0.0
 10
632.643630409986
 20
587.5873018137594
 30
0.0
 10
632.5609240451236
 20
587.8619493614332
 30
0.0
 10
632.4755802154556
 20
588.1373081791788
 30
0.0
 10
632.4329090224107
 20
588.2749852592252
 30
0.0
  0
SPLINE
  5
CE
330
1F
100
AcDbEntity
  8
0
  6
SLD-Solid
 62
   142
420
    32960
370
     0
100
AcDbSpline
210
0.0
220
0.0
230
1.0
 70
     8
 71
     3
 72
    17
 73
    13
 74
     0
 42
0.00000001
 43
0.00000001
 40
0.0
 40
0.0
 40
0.0
 40
0.0
 40
0.0625702169189209
 40
0.1251279424568637
 40
0.2501349728727763
 40
0.3750873360729433
 40
0.5000457796182399
 40
0.6249919778469406
 40
0.7499544397767055
 40
0.8749053120345734
 40
0.9374472680349637
 40
1.0
 40
1.0
 40
1.0
 40
1.0
 10
633.2920433528934
 20
589.2963385975006
 30
0.0
 10
633.3043132630785
 20
589.2551000878896
 30
0.0
 10
633.3288506339107
 20
589.1726313014331
 30
0.0
 10
633.3636408398245
 20
589.003029987102
 30
0.0
 10
633.38604326847
 20
588.7855745961848
 30
0.0
 10
633.3656614105012
 20
588.5216007076588
 30
0.0
 10
633.3037239794542
 20
588.2637109751904
 30
0.0
 10
633.2010121776019
 20
588.019493960772
 30
0.0
 10
633.0589944330301
 20
587.7984529188216
 30
0.0
 10
632.9137750118316
 20
587.6386918252288
 30
0.0
 10
632.7860656991511
 20
587.5261956519071
 30
0.0
 10
632.71868002924
 20
587.4753838210618
 30
0.0
 10
632.6849842919005
 20
587.4499757171111
 30
0.0
  0
SPLINE
  5
CF
330
1F
100
AcDbEntity
  8
0
  6
SLD-Solid
 62
   142
420
    32960
370
     0
100
AcDbSpline
210
0.0
220
0.0
230
1.0
 70
     8
 71
     3
 72
    17
 73
    13
 74
     0
 42
0.00000001
 43
0.00000001
 40
0.0
 40
0.0
 40
0.0
 40
0.0
 40
0.0625643078841621
 40
0.1251082847994252
 40
0.2500544378946451
 40
0.3722205946401673
 40
0.4999775367650112
 40
0.6249324855518057
 40
0.7498976924322668
 40
0.8748587485724727
 40
0.9374185882520852
 40
1.0
 40
1.0
 40
1.0
 40
1.0
 10
631.4939431764011
 20
590.1563366557915
 30
0.0
 10
631.5377432590301
 20
590.1733381541193
 30
0.0
 10
631.6253291909633
 20
590.2073356259489
 30
0.0
 10
631.805464541272
 20
590.2566021333403
 30
0.0
 10
632.0351073858611
 20
590.2815787744742
 30
0.0
 10
632.3113419112761
 20
590.2475942854293
 30
0.0
 10
632.5738811483532
 20
590.1532612611315
 30
0.0
 10
632.8164330179451
 20
590.0075123277993
 30
0.0
 10
633.0253792233154
 20
589.8132550534035
 30
0.0
 10
633.1597115473677
 20
589.6116498255566
 30
0.0
 10
633.2437515849938
 20
589.4357279444948
 30
0.0
 10
633.2759442471178
 20
589.342807052454
 30
0.0
 10
633.2920433528934
 20
589.2963385975006
 30
0.0
  0
SPLINE
  5
D0
330
1F
100
AcDbEntity
  8
0
  6
SLD-Solid
 62
   142
420
    32960
370
     0
100
AcDbSpline
210
0.0
220
0.0
230
1.0
 70
     8
 71
     3
 72
    19
 73
    15
 74
     0
 42
0.00000001
 43
0.00000001
 40
0.0
 40
0.0
 40
0.0
 40
0.0
 40
0.0625636241951982
 40
0.125109439561856
 40
0.1876542639276343
 40
0.2501954071452951
 40
0.3216525366447524
 40
0.393117203582363
 40
0.5002367421285255
 40
0.6251150582598965
 40
0.7499809907806936
 40
0.8749164961190404
 40
0.9374501041531962
 40
1.0
 40
1.0
 40
1.0
 40
1.0
 10
630.6609270793202
 20
588.3075518169088
 30
0.0
 10
630.6474690038576
 20
588.3522217806969
 30
0.0
 10
630.6205566837934
 20
588.4415489929015
 30
0.0
 10
630.595023903652
 20
588.5806926182114
 30
0.0
 10
630.579496440601
 20
588.7220038592676
 30
0.0
 10
630.5803631842932
 20
588.8717746839894
 30
0.0
 10
630.5948249457905
 20
589.0281136226024
 30
0.0
 10
630.636905986069
 20
589.2144819862746
 30
0.0
 10
630.7157931332172
 20
589.4319645435639
 30
0.0
 10
630.8501180949567
 20
589.6662154019364
 30
0.0
 10
631.0344974012058
 20
589.8751816027059
 30
0.0
 10
631.2159299867798
 20
590.0131997397766
 30
0.0
 10
631.3722428920621
 20
590.1012203341385
 30
0.0
 10
631.4533728934932
 20
590.1379629537543
 30
0.0
 10
631.4939431764011
 20
590.1563366557915
 30
0.0
  0
SPLINE
  5
D1
330
1F
100
AcDbEntity
  8
0
  6
SLD-Solid
 62
   142
420
    32960
370
     0
100
AcDbSpline
210
0.0
220
0.0
230
1.0
 70
     8
 71
     3
 72
     9
 73
     5
 74
     0
 42
0.00000001
 43
0.00000001
 40
0.0
 40
0.0
 40
0.0
 40
0.0
 40
0.5000907651098907
 40
0.9999999999999999
 40
0.9999999999999999
 40
0.9999999999999999
 40
0.9999999999999999
 10
630.7826176698288
 20
588.0545435203189
 30
0.0
 10
630.7583517217713
 20
588.0942404388956
 30
0.0
 10
630.7098286340633
 20
588.173619866284
 30
0.0
 10
630.6772256247575
 20
588.2629132365156
 30
0.0
 10
630.6609270793202
 20
588.3075518169088
 30
0.0
  0
LINE
  5
D2
330
1F
100
AcDbEntity
  8
0
  6
SLD-Solid
 62
   142
420
    32960
370
     0
100
AcDbLine
 10
630.0295716479
 20
587.9296814942
 30
0.0
 11
630.782617272
 21
588.054543218
 31
0.0
  0
SPLINE
  5
D3
330
1F
100
AcDbEntity
  8
0
  6
SLD-Solid
 62
   142
420
    32960
370
     0
100
AcDbSpline
210
0.0
220
0.0
230
1.0
 70
     8
 71
     3
 72
     9
 73
     5
 74
     0
 42
0.00000001
 43
0.00000001
 40
0.0
 40
0.0
 40
0.0
 40
0.0
 40
0.5000030761515505
 40
1.0
 40
1.0
 40
1.0
 40
1.0
 10
629.583000566546
 20
589.2856018787347
 30
0.0
 10
629.6590711879719
 20
589.0593593558747
 30
0.0
 10
629.8112114948102
 20
588.6068770939627
 30
0.0
 10
629.956785228746
 20
588.1554124349584
 30
0.0
 10
630.029571647907
 20
587.9296814942298
 30
0.0
  0
LINE
  5
D4
330
1F
100
AcDbEntity
  8
0
  6
SLD-Solid
 62
   142
420
    32960
370
     0
100
AcDbLine
 10
628.9106634198
 20
589.0020017464
 30
0.0
 11
629.5830005665
 21
589.2856018787
 31
0.0
  0
SPLINE
  5
D5
330
1F
100
AcDbEntity
  8
0
  6
SLD-Solid
 62
   142
420
    32960
370
     0
100
AcDbSpline
210
0.0
220
0.0
230
1.0
 70
     8
 71
     3
 72
    11
 73
     7
 74
     0
 42
0.00000001
 43
0.00000001
 40
0.0
 40
0.0
 40
0.0
 40
0.0
 40
0.2500092344259802
 40
0.4999993581481839
 40
0.749989802880627
 40
1.0
 40
1.0
 40
1.0
 40
1.0
 10
629.5441734755749
 20
587.0561516904272
 30
0.0
 10
629.4933194885546
 20
587.2179437535733
 30
0.0
 10
629.3916154017925
 20
587.5415155124815
 30
0.0
 10
629.2346596155589
 20
588.0278061301847
 30
0.0
 10
629.0748067980157
 20
588.5146053252744
 30
0.0
 10
628.965379320196
 20
588.839531993999
 30
0.0
 10
628.9106634198351
 20
589.0020017464302
 30
0.0
  0
LINE
  5
D6
330
1F
100
AcDbEntity
  8
0
  6
SLD-Solid
 62
     7
370
    15
100
AcDbLine
 10
-128.4517874892
 20
657.0301697001
 30
0.0
 11
-128.5063636679
 21
657.0301697001
 31
0.0
  0
LINE
  5
D7
330
1F
100
AcDbEntity
  8
0
  6
SLD-Solid
 62
   142
420
    32960
370
     0
100
AcDbLine
 10
-128.4517874892
 20
657.0301697001
 30
0.0
 11
-128.4517874892
 21
654.9801697001
 31
0.0
  0
SPLINE
  5
D8
330
1F
100
AcDbEntity
  8
0
  6
SLD-Solid
 62
   142
420
    32960
370
     0
100
AcDbSpline
210
0.0
220
0.0
230
1.0
 70
     8
 71
     3
 72
    14
 73
    10
 74
     0
 42
0.00000001
 43
0.00000001
 40
0.0
 40
0.0
 40
0.0
 40
0.0
 40
0.25
 40
0.25
 40
0.5
 40
0.5
 40
0.75
 40
0.75
 40
1.0
 40
1.0
 40
1.0
 40
1.0
 10
-191.394716421435
 20
654.9801697001064
 30
0.0
 10
-191.3953056770857
 20
655.2485140726004
 30
0.0
 10
-191.3958949327371
 20
655.516752863043
 30
0.0
 10
-191.3970734440386
 20
656.0125886098667
 30
0.0
 10
-191.3976626996899
 20
656.2399904760549
 30
0.0
 10
-191.3988412109919
 20
656.6194867270227
 30
0.0
 10
-191.3994304666429
 20
656.7714317962325
 30
0.0
 10
-191.4006089779447
 20
656.9768136872765
 30
0.0
 10
-191.4011982335957
 20
657.0301697001063
 30
0.0
 10
-191.4017874892468
 20
657.0301697001063
 30
0.0
  0
LINE
  5
D9
330
1F
100
AcDbEntity
  8
0
  6
SLD-Solid
 62
     7
370
    15
100
AcDbLine
 10
-191.4017874892
 20
657.0301697001
 30
0.0
 11
-128.5063636679
 21
657.0301697001
 31
0.0
  0
LINE
  5
DA
330
1F
100
AcDbEntity
  8
0
  6
SLD-Solid
 62
   142
420
    32960
370
     0
100
AcDbLine
 10
-191.4017874892
 20
654.9730986323
 30
0.0
 11
-181.4517874892
 21
645.0230986323
 31
0.0
  0
LINE
  5
DB
330
1F
100
AcDbEntity
  8
0
  6
SLD-Solid
 62
   142
420
    32960
370
     0
100
AcDbLine
 10
-191.4017874892
 20
497.8301697001
 30
0.0
 11
-181.4517874892
 21
497.8301697001
 31
0.0
  0
LINE
  5
DC
330
1F
100
AcDbEntity
  8
0
  6
SLD-Solid
 62
   142
420
    32960
370
     0
100
AcDbLine
 10
-181.4517874892
 20
497.8301697001
 30
0.0
 11
-181.4517874892
 21
645.0230986323
 31
0.0
  0
LINE
  5
DD
330
1F
100
AcDbEntity
  8
0
  6
SLD-Solid
 62
     7
370
    15
100
AcDbLine
 10
-193.4517874892
 20
497.8301697001
 30
0.0
 11
-193.4517874892
 21
654.9801697001
 31
0.0
  0
LINE
  5
DE
330
1F
100
AcDbEntity
  8
0
  6
SLD-Solid
 62
   142
420
    32960
370
     0
100
AcDbLine
 10
-191.4017874892
 20
497.8301697001
 30
0.0
 11
-193.4517874892
 21
497.8301697001
 31
0.0
  0
SPLINE
  5
DF
330
1F
100
AcDbEntity
  8
0
  6
SLD-Solid
 62
   142
420
    32960
370
     0
100
AcDbSpline
210
0.0
220
0.0
230
1.0
 70
     8
 71
     3
 72
    14
 73
    10
 74
     0
 42
0.00000001
 43
0.00000001
 40
0.0
 40
0.0
 40
0.0
 40
0.0
 40
0.25
 40
0.25
 40
0.5
 40
0.5
 40
0.75
 40
0.75
 40
1.0
 40
1.0
 40
1.0
 40
1.0
 10
-193.4517874892467
 20
654.9801697001064
 30
0.0
 10
-193.4517874892466
 20
654.9795804444552
 30
0.0
 10
-193.3984314764167
 20
654.9789911888046
 30
0.0
 10
-193.1930495853728
 20
654.9778126775025
 30
0.0
 10
-193.0411045161629
 20
654.9772234218514
 30
0.0
 10
-192.6616082651954
 20
654.9760449105495
 30
0.0
 10
-192.4342063990071
 20
654.9754556548985
 30
0.0
 10
-191.9383706521833
 20
654.9742771435967
 30
0.0
 10
-191.6701318617409
 20
654.9736878879456
 30
0.0
 10
-191.4017874892467
 20
654.9730986322946
 30
0.0
  0
LINE
  5
E0
330
1F
100
AcDbEntity
  8
0
  6
SLD-Solid
 62
     7
370
    15
100
AcDbLine
 10
-181.4447164214
 20
645.0301697001
 30
0.0
 11
-128.4517874892
 21
645.0301697001
 31
0.0
  0
LINE
  5
E1
330
1F
100
AcDbEntity
  8
0
  6
SLD-Solid
 62
   142
420
    32960
370
     0
100
AcDbLine
 10
-181.4447164214
 20
645.0301697001
 30
0.0
 11
-191.3947164214
 21
654.9801697001
 31
0.0
  0
LINE
  5
E2
330
1F
100
AcDbEntity
  8
0
  6
SLD-Solid
 62
   142
420
    32960
370
     0
100
AcDbLine
 10
-128.4517874892
 20
645.0301697001
 30
0.0
 11
-128.4517874892
 21
654.9801697001
 31
0.0
  0
ARC
  5
E3
330
1F
100
AcDbEntity
  8
0
  6
SLD-Solid
 62
   142
420
    32960
370
     0
100
AcDbCircle
 10
-191.4017874892
 20
654.9801697001
 30
0.0
 40
2.049999999999983
100
AcDbArc
 50
90.0
 51
180.0
  0
ARC
  5
E4
330
1F
100
AcDbEntity
  8
0
  6
SLD-Solid
 62
   142
420
    32960
370
     0
100
AcDbCircle
 10
-191.4017874892
 20
654.9801697001
 30
0.0
 40
1.25
100
AcDbArc
 50
90.0
 51
180.0
  0
SPLINE
  5
E5
330
1F
100
AcDbEntity
  8
0
  6
SLD-Solid
 62
   142
420
    32960
370
     0
100
AcDbSpline
210
0.0
220
0.0
230
1.0
 70
     8
 71
     3
 72
     8
 73
     4
 74
     0
 42
0.00000001
 43
0.00000001
 40
0.0
 40
0.0
 40
0.0
 40
0.0
 40
1.0
 40
1.0
 40
1.0
 40
1.0
 10
-128.4517969661066
 20
657.0294433458324
 30
0.0
 10
-128.4103706158041
 20
657.0283402724058
 30
0.0
 10
-128.3689777332599
 20
657.0259806552654
 30
0.0
 10
-128.3276943952497
 20
657.022368831197
 30
0.0
  0
LINE
  5
E6
330
1F
100
AcDbEntity
  8
0
  6
SLD-Solid
 62
   142
420
    32960
370
     0
100
AcDbLine
 10
-123.4010894046
 20
656.5913467448
 30
0.0
 11
-128.3276943952
 21
657.0223688312
 31
0.0
  0
LINE
  5
E7
330
1F
100
AcDbEntity
  8
0
  6
SLD-Solid
 62
   142
420
    32960
370
     0
100
AcDbLine
 10
-190.3017874893
 20
497.0301697001
 30
0.0
 11
-191.4017874892
 21
497.0301697001
 31
0.0
  0
ARC
  5
E8
330
1F
100
AcDbEntity
  8
0
  6
SLD-Solid
 62
   142
420
    32960
370
     0
100
AcDbCircle
 10
-191.4017874892
 20
499.0801697001
 30
0.0
 40
2.049999999999996
100
AcDbArc
 50
217.5718693197
 51
270.0
  0
LINE
  5
E9
330
1F
100
AcDbEntity
  8
0
  6
SLD-Solid
 62
   142
420
    32960
370
     0
100
AcDbLine
 10
641.6725049713
 20
549.7787465859
 30
0.0
 11
646.3750394286
 21
548.0798735248
 31
0.0
  0
LINE
  5
EA
330
1F
100
AcDbEntity
  8
0
  6
SLD-Solid
 62
   142
420
    32960
370
     0
100
AcDbLine
 10
36.7425748348
 20
696.7301697002
 30
0.0
 11
206.6482125109
 21
696.7301697002
 31
0.0
  0
LINE
  5
EB
330
1F
100
AcDbEntity
  8
0
  6
SLD-Solid
 62
   142
420
    32960
370
     0
100
AcDbLine
 10
19.6482125109
 20
696.7301697002
 30
0.0
 11
36.7425748348
 21
696.7301697002
 31
0.0
  0
LINE
  5
EC
330
1F
100
AcDbEntity
  8
0
  6
SLD-Solid
 62
     7
370
    15
100
AcDbLine
 10
36.7425748348
 20
698.2301697002
 30
0.0
 11
19.6482125109
 21
698.2301697002
 31
0.0
  0
LINE
  5
ED
330
1F
100
AcDbEntity
  8
0
  6
SLD-Solid
 62
     7
370
    15
100
AcDbLine
 10
206.6482125109
 20
698.2301697002
 30
0.0
 11
36.7425748348
 21
698.2301697002
 31
0.0
  0
LINE
  5
EE
330
1F
100
AcDbEntity
  8
0
  6
SLD-Solid
 62
     7
370
    15
100
AcDbLine
 10
38.3769200257
 20
700.2301697002
 30
0.0
 11
204.6482125109
 21
700.2301697002
 31
0.0
  0
LINE
  5
EF
330
1F
100
AcDbEntity
  8
0
  6
SLD-Solid
 62
     7
370
    15
100
AcDbLine
 10
21.6482125109
 20
700.2301697002
 30
0.0
 11
38.3769200257
 21
700.2301697002
 31
0.0
  0
ARC
  5
F0
330
1F
100
AcDbEntity
  8
0
  6
SLD-Solid
 62
     7
370
    15
100
AcDbCircle
 10
-38.1017874892
 20
669.4801697001
 30
0.0
 40
1.25
100
AcDbArc
 50
180.0
 51
270.0
  0
LINE
  5
F1
330
1F
100
AcDbEntity
  8
0
  6
SLD-Solid
 62
     7
370
    15
100
AcDbLine
 10
-38.1017874892
 20
667.4301697001
 30
0.0
 11
-15.9017874892
 21
667.4301697001
 31
0.0
  0
ARC
  5
F2
330
1F
100
AcDbEntity
  8
0
  6
SLD-Solid
 62
   142
420
    32960
370
     0
100
AcDbCircle
 10
-15.9017874892
 20
666.1801697001
 30
0.0
 40
2.049999999999995
100
AcDbArc
 50
0.0
 51
90.0
  0
LINE
  5
F3
330
1F
100
AcDbEntity
  8
0
  6
SLD-Solid
 62
   142
420
    32960
370
     0
100
AcDbLine
 10
-13.8517874892
 20
666.1801697001
 30
0.0
 11
-13.8517874892
 21
657.4301697001
 31
0.0
  0
ARC
  5
F4
330
1F
100
AcDbEntity
  8
0
  6
SLD-Solid
 62
   142
420
    32960
370
     0
100
AcDbCircle
 10
-41.4017874892
 20
686.1801697001
 30
0.0
 40
1.250000000000114
100
AcDbArc
 50
0.0
 51
90.0
  0
LINE
  5
F5
330
1F
100
AcDbEntity
  8
0
  6
SLD-Solid
 62
     7
370
    15
100
AcDbLine
 10
-40.1517874892
 20
686.1801697001
 30
0.0
 11
-40.1517874892
 21
669.4801697001
 31
0.0
  0
LINE
  5
F6
330
1F
100
AcDbEntity
  8
0
  6
SLD-Solid
 62
   142
420
    32960
370
     0
100
AcDbLine
 10
-39.3517874892
 20
686.1801697001
 30
0.0
 11
-40.1517874892
 21
686.1801697001
 31
0.0
  0
LINE
  5
F7
330
1F
100
AcDbEntity
  8
0
  6
SLD-Solid
 62
     7
370
    15
100
AcDbLine
 10
-39.3517874892
 20
686.1801697001
 30
0.0
 11
-39.3517874892
 21
669.4801697001
 31
0.0
  0
LINE
  5
F8
330
1F
100
AcDbEntity
  8
0
  6
SLD-Solid
 62
     7
370
    15
100
AcDbLine
 10
-62.6017874892
 20
687.4301697001
 30
0.0
 11
-41.4017874892
 21
687.4301697001
 31
0.0
  0
LINE
  5
F9
330
1F
100
AcDbEntity
  8
0
  6
SLD-Solid
 62
     7
370
    15
100
AcDbLine
 10
-38.1017874892
 20
668.2301697001
 30
0.0
 11
-15.9017874892
 21
668.2301697001
 31
0.0
  0
LINE
  5
FA
330
1F
100
AcDbEntity
  8
0
  6
SLD-Solid
 62
   142
420
    32960
370
     0
100
AcDbLine
 10
-15.9017874892
 20
667.4301697001
 30
0.0
 11
-15.9017874892
 21
668.2301697001
 31
0.0
  0
ARC
  5
FB
330
1F
100
AcDbEntity
  8
0
  6
SLD-Solid
 62
     7
370
    15
100
AcDbCircle
 10
-62.6017874892
 20
689.4801697001
 30
0.0
 40
1.25
100
AcDbArc
 50
180.0
 51
270.0
  0
ARC
  5
FC
330
1F
100
AcDbEntity
  8
0
  6
SLD-Solid
 62
     7
370
    15
100
AcDbCircle
 10
-116.8017874892
 20
736.2096248599
 30
0.0
 40
2.049999999999997
100
AcDbArc
 50
75.0
 51
180.0
  0
ARC
  5
FD
330
1F
100
AcDbEntity
  8
0
  6
SLD-Solid
 62
   142
420
    32960
370
     0
100
AcDbCircle
 10
-116.8017874892
 20
736.2096248599
 30
0.0
 40
1.250000000000085
100
AcDbArc
 50
75.0
 51
180.0
  0
LINE
  5
FE
330
1F
100
AcDbEntity
  8
0
  6
SLD-Solid
 62
   142
420
    32960
370
     0
100
AcDbLine
 10
-118.0517874892
 20
736.2096248599
 30
0.0
 11
-118.8517874892
 21
736.2096248599
 31
0.0
  0
LINE
  5
FF
330
1F
100
AcDbEntity
  8
0
  6
SLD-Solid
 62
     7
370
    15
100
AcDbLine
 10
-116.2712084468
 20
738.1897728038
 30
0.0
 11
-82.9742561256
 21
729.2678813189
 31
0.0
  0
LINE
  5
100
330
1F
100
AcDbEntity
  8
0
  6
SLD-Solid
 62
     7
370
    15
100
AcDbLine
 10
-116.4782636829
 20
737.4170321428
 30
0.0
 11
-83.1813113617
 21
728.4951406579
 31
0.0
  0
ARC
  5
101
330
1F
100
AcDbEntity
  8
0
  6
SLD-Solid
 62
     7
370
    15
100
AcDbCircle
 10
-89.6517874892
 20
704.3469950007
 30
0.0
 40
25.79999999999995
100
AcDbArc
 50
0.0
 51
75.0
  0
LINE
  5
102
330
1F
100
AcDbEntity
  8
0
  6
SLD-Solid
 62
   142
420
    32960
370
     0
100
AcDbLine
 10
-63.8517874892
 20
704.3469950007
 30
0.0
 11
-64.6517874892
 21
704.3469950007
 31
0.0
  0
ARC
  5
103
330
1F
100
AcDbEntity
  8
0
  6
SLD-Solid
 62
     7
370
    15
100
AcDbCircle
 10
-89.6517874892
 20
704.3469950007
 30
0.0
 40
25.0
100
AcDbArc
 50
0.0
 51
75.0
  0
LINE
  5
104
330
1F
100
AcDbEntity
  8
0
  6
SLD-Solid
 62
     7
370
    15
100
AcDbLine
 10
-62.6017874892
 20
688.2301697001
 30
0.0
 11
-41.4017874892
 21
688.2301697001
 31
0.0
  0
LINE
  5
105
330
1F
100
AcDbEntity
  8
0
  6
SLD-Solid
 62
   142
420
    32960
370
     0
100
AcDbLine
 10
-41.4017874892
 20
687.4301697001
 30
0.0
 11
-41.4017874892
 21
688.2301697001
 31
0.0
  0
ARC
  5
106
330
1F
100
AcDbEntity
  8
0
  6
SLD-Solid
 62
     7
370
    15
100
AcDbCircle
 10
-62.6017874892
 20
689.4801697001
 30
0.0
 40
2.04999999999999
100
AcDbArc
 50
180.0
 51
270.0
  0
LINE
  5
107
330
1F
100
AcDbEntity
  8
0
  6
SLD-Solid
 62
   142
420
    32960
370
     0
100
AcDbLine
 10
-64.6517874892
 20
689.4801697001
 30
0.0
 11
-63.8517874892
 21
689.4801697001
 31
0.0
  0
LINE
  5
108
330
1F
100
AcDbEntity
  8
0
  6
SLD-Solid
 62
   142
420
    32960
370
     0
100
AcDbLine
 10
-64.6517874892
 20
704.3469950007
 30
0.0
 11
-64.6517874892
 21
689.4801697001
 31
0.0
  0
LINE
  5
109
330
1F
100
AcDbEntity
  8
0
  6
SLD-Solid
 62
   142
420
    32960
370
     0
100
AcDbLine
 10
-118.8517874892
 20
687.4301697001
 30
0.0
 11
-118.0517874892
 21
687.4301697001
 31
0.0
  0
ARC
  5
10A
330
1F
100
AcDbEntity
  8
0
  6
SLD-Solid
 62
   142
420
    32960
370
     0
100
AcDbCircle
 10
-41.4017874892
 20
686.1801697001
 30
0.0
 40
2.050000000000111
100
AcDbArc
 50
0.0
 51
90.0
  0
LINE
  5
10B
330
1F
100
AcDbEntity
  8
0
  6
SLD-Solid
 62
   142
420
    32960
370
     0
100
AcDbLine
 10
-118.0517874892
 20
687.4301697001
 30
0.0
 11
-118.0517874892
 21
736.2096248599
 31
0.0
  0
ARC
  5
10C
330
1F
100
AcDbEntity
  8
0
  6
SLD-Solid
 62
     7
370
    15
100
AcDbCircle
 10
-38.1017874892
 20
669.4801697001
 30
0.0
 40
2.050000000000068
100
AcDbArc
 50
180.0
 51
270.0
  0
ARC
  5
10D
330
1F
100
AcDbEntity
  8
0
  6
SLD-Solid
 62
   142
420
    32960
370
     0
100
AcDbCircle
 10
-15.9017874892
 20
666.1801697001
 30
0.0
 40
1.249999999999973
100
AcDbArc
 50
0.0
 51
90.0
  0
LINE
  5
10E
330
1F
100
AcDbEntity
  8
0
  6
SLD-Solid
 62
   142
420
    32960
370
     0
100
AcDbLine
 10
-63.8517874892
 20
704.3469950007
 30
0.0
 11
-63.8517874892
 21
689.4801697001
 31
0.0
  0
LINE
  5
10F
330
1F
100
AcDbEntity
  8
0
  6
SLD-Solid
 62
   142
420
    32960
370
     0
100
AcDbLine
 10
-118.8517874892
 20
687.4301697001
 30
0.0
 11
-118.8517874892
 21
736.2096248599
 31
0.0
  0
LINE
  5
110
330
1F
100
AcDbEntity
  8
0
  6
SLD-Solid
 62
   142
420
    32960
370
     0
100
AcDbLine
 10
-14.6517874892
 20
666.1801697001
 30
0.0
 11
-14.6517874892
 21
657.4301697001
 31
0.0
  0
LINE
  5
111
330
1F
100
AcDbEntity
  8
0
  6
SLD-Solid
 62
   142
420
    32960
370
     0
100
AcDbLine
 10
-118.0517874892
 20
695.7801697001
 30
0.0
 11
-118.8517874892
 21
695.7801697001
 31
0.0
  0
LINE
  5
112
330
1F
100
AcDbEntity
  8
0
  6
SLD-Solid
 62
   142
420
    32960
370
     0
100
AcDbLine
 10
-118.0517874892
 20
702.0801697001
 30
0.0
 11
-118.8517874892
 21
702.0801697001
 31
0.0
  0
LINE
  5
113
330
1F
100
AcDbEntity
  8
0
  6
SLD-Solid
 62
   142
420
    32960
370
     0
100
AcDbLine
 10
-94.4517886384
 20
-30.0698302999
 30
0.0
 11
-95.9517886384
 21
-30.0698302999
 31
0.0
  0
LINE
  5
114
330
1F
100
AcDbEntity
  8
0
  6
SLD-Solid
 62
   142
420
    32960
370
     0
100
AcDbLine
 10
-95.9517886384
 20
-25.7698302999
 30
0.0
 11
-95.9517886384
 21
-30.0698302999
 31
0.0
  0
ARC
  5
115
330
1F
100
AcDbEntity
  8
0
  6
SLD-Solid
 62
     7
370
    15
100
AcDbCircle
 10
-93.2017886384
 20
-28.8198302999
 30
0.0
 40
2.749999999999963
100
AcDbArc
 50
180.0
 51
243.1295854597
  0
LINE
  5
116
330
1F
100
AcDbEntity
  8
0
  6
SLD-Solid
 62
   142
420
    32960
370
     0
100
AcDbLine
 10
-94.4517886384
 20
-28.8198302999
 30
0.0
 11
-94.4447175706
 21
-28.952599534
 31
0.0
  0
LINE
  5
117
330
1F
100
AcDbEntity
  8
0
  6
SLD-Solid
 62
   142
420
    32960
370
     0
100
AcDbLine
 10
-94.4517886384
 20
-28.8198302999
 30
0.0
 11
-95.9517886384
 21
-28.8198302999
 31
0.0
  0
SPLINE
  5
118
330
1F
100
AcDbEntity
  8
0
  6
SLD-Solid
 62
   142
420
    32960
370
     0
100
AcDbSpline
210
0.0
220
0.0
230
1.0
 70
     8
 71
     3
 72
    18
 73
    14
 74
     0
 42
0.00000001
 43
0.00000001
 40
0.0
 40
0.0
 40
0.0
 40
0.0
 40
0.0624918951733563
 40
0.1249105512569254
 40
0.1873596185527931
 40
0.2497844363471386
 40
0.321919219062262
 40
0.3747344688689643
 40
0.4996727452920799
 40
0.6247178670878542
 40
0.749804289046668
 40
0.8702709287662785
 40
1.0
 40
1.0
 40
1.0
 40
1.0
 10
618.2320602735339
 20
623.9232835907391
 30
0.0
 10
618.2342115553749
 20
623.9230446251663
 30
0.0
 10
618.2385115978035
 20
623.9225669740832
 30
0.0
 10
618.2774530076651
 20
623.9191537241999
 30
0.0
 10
618.3385263693153
 20
623.9140131908441
 30
0.0
 10
618.4238777735529
 20
623.9070422042138
 30
0.0
 10
618.5256343132377
 20
623.899160751807
 30
0.0
 10
618.6725747859898
 20
623.8881443377857
 30
0.0
 10
618.8611623700837
 20
623.8743745685846
 30
0.0
 10
619.1023503199042
 20
623.8574332029114
 30
0.0
 10
619.3428427636788
 20
623.8409485782341
 30
0.0
 10
619.5870395805784
 20
623.8244441173597
 30
0.0
 10
619.7499802883027
 20
623.8135818659101
 30
0.0
 10
619.8344667353273
 20
623.8079496758669
 30
0.0
  0
SPLINE
  5
119
330
1F
100
AcDbEntity
  8
0
  6
SLD-Solid
 62
   142
420
    32960
370
     0
100
AcDbSpline
210
0.0
220
0.0
230
1.0
 70
     8
 71
     3
 72
    18
 73
    14
 74
     0
 42
0.00000001
 43
0.00000001
 40
0.0
 40
0.0
 40
0.0
 40
0.0
 40
0.1251255006785599
 40
0.2502350516673847
 40
0.3753411032989355
 40
0.5004073679950114
 40
0.6305324696096032
 40
0.7500665776784918
 40
0.8126479510472112
 40
0.8749934902351014
 40
0.9374600700548849
 40
0.9687214628022318
 40
1.0
 40
1.0
 40
1.0
 40
1.0
 10
619.8344667353273
 20
623.8079496758669
 30
0.0
 10
619.9113177116991
 20
623.802863385058
 30
0.0
 10
620.0650098682843
 20
623.7926914517872
 30
0.0
 10
620.2952170430881
 20
623.7777108479155
 30
0.0
 10
620.5242221140684
 20
623.7631079745198
 30
0.0
 10
620.753268426971
 20
623.7489149959364
 30
0.0
 10
620.9698306694378
 20
623.7361747484407
 30
0.0
 10
621.1271852037446
 20
623.7276081957705
 30
0.0
 10
621.2256847701625
 20
623.7224949147743
 30
0.0
 10
621.2839651832373
 20
623.7195883144431
 30
0.0
 10
621.3116674716597
 20
623.7183236518591
 30
0.0
 10
621.3225124113167
 20
623.7178785595571
 30
0.0
 10
621.3234165569663
 20
623.7178700218069
 30
0.0
 10
621.3238687537206
 20
623.7178657517618
 30
0.0
  0
LINE
  5
11A
330
1F
100
AcDbEntity
  8
0
  6
SLD-Solid
 62
     7
370
    15
100
AcDbLine
 10
646.5776972778
 20
513.3787664159
 30
0.0
 11
608.176193972
 21
631.5664409431
 31
0.0
  0
LINE
  5
11B
330
1F
100
AcDbEntity
  8
0
  6
SLD-Solid
 62
   142
420
    32960
370
     0
100
AcDbLine
 10
607.7798261844
 20
632.7863355575
 30
0.0
 11
608.176193972
 21
631.5664409431
 31
0.0
  0
LINE
  5
11C
330
1F
100
AcDbEntity
  8
0
  6
SLD-Solid
 62
     7
370
    15
100
AcDbLine
 10
647.3385424908
 20
513.6259800114
 30
0.0
 11
608.937039185
 21
631.8136545386
 31
0.0
  0
LINE
  5
11D
330
1F
100
AcDbEntity
  8
0
  6
SLD-Solid
 62
   142
420
    32960
370
     0
100
AcDbLine
 10
608.5406713974
 20
633.033549153
 30
0.0
 11
608.937039185
 21
631.8136545386
 31
0.0
  0
LINE
  5
11E
330
1F
100
AcDbEntity
  8
0
  6
SLD-Solid
 62
   142
420
    32960
370
     0
100
AcDbLine
 10
608.176193972
 20
631.5664409431
 30
0.0
 11
608.937039185
 21
631.8136545386
 31
0.0
  0
LINE
  5
11F
330
1F
100
AcDbEntity
  8
0
  6
SLD-Solid
 62
     7
370
    15
100
AcDbLine
 10
590.7482125107
 20
510.942495173
 30
0.0
 11
645.3888766324
 21
510.942495173
 31
0.0
  0
LINE
  5
120
330
1F
100
AcDbEntity
  8
0
  6
SLD-Solid
 62
   142
420
    32960
370
     0
100
AcDbLine
 10
590.7482125107
 20
510.942495173
 30
0.0
 11
588.7482125107
 21
510.942495173
 31
0.0
  0
ARC
  5
121
330
1F
100
AcDbEntity
  8
0
  6
SLD-Solid
 62
     7
370
    15
100
AcDbCircle
 10
645.3888766324
 20
512.992495173
 30
0.0
 40
2.050000000000019
100
AcDbArc
 50
270.0
 51
18.0
  0
LINE
  5
122
330
1F
100
AcDbEntity
  8
0
  6
SLD-Solid
 62
     7
370
    15
100
AcDbLine
 10
590.7482125107
 20
511.742495173
 30
0.0
 11
645.3888766324
 21
511.742495173
 31
0.0
  0
LINE
  5
123
330
1F
100
AcDbEntity
  8
0
  6
SLD-Solid
 62
   142
420
    32960
370
     0
100
AcDbLine
 10
590.7482125107
 20
511.742495173
 30
0.0
 11
590.7482125107
 21
510.942495173
 31
0.0
  0
ARC
  5
124
330
1F
100
AcDbEntity
  8
0
  6
SLD-Solid
 62
   142
420
    32960
370
     0
100
AcDbCircle
 10
645.3888766324
 20
512.992495173
 30
0.0
 40
1.250000000000067
100
AcDbArc
 50
270.0
 51
18.0
  0
LINE
  5
125
330
1F
100
AcDbEntity
  8
0
  6
SLD-Solid
 62
   142
420
    32960
370
     0
100
AcDbLine
 10
588.7482125107
 20
511.742495173
 30
0.0
 11
590.7482125107
 21
511.742495173
 31
0.0
  0
LINE
  5
126
330
1F
100
AcDbEntity
  8
0
  6
SLD-Solid
 62
     7
370
    15
100
AcDbLine
 10
608.493962758
 20
633.2301697001
 30
0.0
 11
608.5406713974
 21
633.033549153
 31
0.0
  0
LWPOLYLINE
  5
127
330
1F
100
AcDbEntity
  8
0
  6
SLD-Solid
 62
   142
420
    32960
370
     0
100
AcDbPolyline
 90
        3
 70
   128
 43
0.0
 10
607.6882834269
 20
633.2301697001
 10
607.697030077
 20
633.1522417019
 10
607.7798261844
 20
632.7863355575
  0
LINE
  5
128
330
1F
100
AcDbEntity
  8
0
  6
SLD-Solid
 62
   142
420
    32960
370
     0
100
AcDbLine
 10
608.5406713974
 20
633.033549153
 30
0.0
 11
607.7798261844
 21
632.7863355575
 31
0.0
  0
LINE
  5
129
330
1F
100
AcDbEntity
  8
0
  6
SLD-Solid
 62
   142
420
    32960
370
     0
100
AcDbLine
 10
609.6923659386
 20
634.7105874074
 30
0.0
 11
609.4423659386
 21
634.219934781
 31
0.0
  0
LINE
  5
12A
330
1F
100
AcDbEntity
  8
0
  6
SLD-Solid
 62
   142
420
    32960
370
     0
100
AcDbLine
 10
608.9380554409
 20
633.2301697001
 30
0.0
 11
608.8914579774
 21
633.1387170287
 31
0.0
  0
ARC
  5
12B
330
1F
100
AcDbEntity
  8
0
  6
SLD-Solid
 62
   142
420
    32960
370
     0
100
AcDbCircle
 10
610.0052161326
 20
632.571228904
 30
0.0
 40
1.249999999999875
100
AcDbArc
 50
153.0
 51
198.0
  0
LINE
  5
12C
330
1F
100
AcDbEntity
  8
0
  6
SLD-Solid
 62
     7
370
    15
100
AcDbLine
 10
211.2476245589
 20
688.5433046043
 30
0.0
 11
15.0488004628
 21
688.5433046044
 31
0.0
  0
LINE
  5
12D
330
1F
100
AcDbEntity
  8
0
  6
SLD-Solid
 62
   142
420
    32960
370
     0
100
AcDbLine
 10
204.7460456854
 20
696.6367371523
 30
0.0
 11
21.5503793363
 21
696.6367371523
 31
0.0
  0
LINE
  5
12E
330
1F
100
AcDbEntity
  8
0
  6
SLD-Solid
 62
   142
420
    32960
370
     0
100
AcDbLine
 10
524.5482113616
 20
382.2301697001
 30
0.0
 11
561.5482113616
 21
382.2301697001
 31
0.0
  0
LINE
  5
12F
330
1F
100
AcDbEntity
  8
0
  6
SLD-Solid
 62
     7
370
    15
100
AcDbLine
 10
523.0482113616
 20
382.2301697001
 30
0.0
 11
523.0482113616
 21
9.2301697001
 31
0.0
  0
LINE
  5
130
330
1F
100
AcDbEntity
  8
0
  6
SLD-Solid
 62
   142
420
    32960
370
     0
100
AcDbLine
 10
523.0482113616
 20
382.2301697001
 30
0.0
 11
524.5482113616
 21
382.2301697001
 31
0.0
  0
LINE
  5
131
330
1F
100
AcDbEntity
  8
0
  6
SLD-Solid
 62
     7
370
    15
100
AcDbLine
 10
563.0482113616
 20
382.2301697001
 30
0.0
 11
563.0482113616
 21
9.2301697001
 31
0.0
  0
LINE
  5
132
330
1F
100
AcDbEntity
  8
0
  6
SLD-Solid
 62
   142
420
    32960
370
     0
100
AcDbLine
 10
561.5482113616
 20
382.2301697001
 30
0.0
 11
563.0482113616
 21
382.2301697001
 31
0.0
  0
SPLINE
  5
133
330
1F
100
AcDbEntity
  8
0
  6
SLD-Solid
 62
   142
420
    32960
370
     0
100
AcDbSpline
210
0.0
220
0.0
230
1.0
 70
     8
 71
     3
 72
     9
 73
     5
 74
     0
 42
0.00000001
 43
0.00000001
 40
0.0
 40
0.0
 40
0.0
 40
0.0
 40
0.5002973359052777
 40
1.0
 40
1.0
 40
1.0
 40
1.0
 10
620.9554172565796
 20
613.2016917241607
 30
0.0
 10
620.9846419423242
 20
613.2932760964042
 30
0.0
 10
621.043056576277
 20
613.4763359803386
 30
0.0
 10
621.1008202780756
 20
613.656738387027
 30
0.0
 10
621.1296849537522
 20
613.7468859502584
 30
0.0
  0
SPLINE
  5
134
330
1F
100
AcDbEntity
  8
0
  6
SLD-Solid
 62
   142
420
    32960
370
     0
100
AcDbSpline
210
0.0
220
0.0
230
1.0
 70
     8
 71
     3
 72
     9
 73
     5
 74
     0
 42
0.00000001
 43
0.00000001
 40
0.0
 40
0.0
 40
0.0
 40
0.0
 40
0.5021063700103188
 40
1.0
 40
1.0
 40
1.0
 40
1.0
 10
621.1296849537522
 20
613.7468859502584
 30
0.0
 10
621.4032528966912
 20
613.6682213226163
 30
0.0
 10
621.94809351071
 20
613.5115520741449
 30
0.0
 10
622.4921704201462
 20
613.3517750824782
 30
0.0
 10
622.7630628475789
 20
613.2722231361084
 30
0.0
  0
SPLINE
  5
135
330
1F
100
AcDbEntity
  8
0
  6
SLD-Solid
 62
   142
420
    32960
370
     0
100
AcDbSpline
210
0.0
220
0.0
230
1.0
 70
     8
 71
     3
 72
    17
 73
    13
 74
     0
 42
0.00000001
 43
0.00000001
 40
0.0
 40
0.0
 40
0.0
 40
0.0
 40
0.0625898720845093
 40
0.1251584348691812
 40
0.2500880473126099
 40
0.3722058205421812
 40
0.5000142366037589
 40
0.6261797773091071
 40
0.7499077458238352
 40
0.8748707082029066
 40
0.9374264529672205
 40
1.0
 40
1.0
 40
1.0
 40
1.0
 10
622.7630633660373
 20
613.2722231567428
 30
0.0
 10
622.7536101850939
 20
613.305790744821
 30
0.0
 10
622.7347070416299
 20
613.3729144925824
 30
0.0
 10
622.7154906803138
 20
613.5065747751161
 30
0.0
 10
622.7285148648667
 20
613.6685002483383
 30
0.0
 10
622.8007062736923
 20
613.8493781749859
 30
0.0
 10
622.9248929256975
 20
614.0088290610428
 30
0.0
 10
623.0908741017032
 20
614.1445455603033
 30
0.0
 10
623.2970815772776
 20
614.2461215038728
 30
0.0
 10
623.4940072076847
 20
614.3008754395601
 30
0.0
 10
623.6622451779976
 20
614.3269049100811
 30
0.0
 10
623.7489448459684
 20
614.3340367822188
 30
0.0
 10
623.7923008473775
 20
614.3376032256168
 30
0.0
  0
SPLINE
  5
136
330
1F
100
AcDbEntity
  8
0
  6
SLD-Solid
 62
   142
420
    32960
370
     0
100
AcDbSpline
210
0.0
220
0.0
230
1.0
 70
     8
 71
     3
 72
    17
 73
    13
 74
     0
 42
0.00000001
 43
0.00000001
 40
0.0
 40
0.0
 40
0.0
 40
0.0
 40
0.0625676359347561
 40
0.1251154344200253
 40
0.2500603063877558
 40
0.3723532437666221
 40
0.4999350074274297
 40
0.6249101580537768
 40
0.7498785838256117
 40
0.8748454675625683
 40
0.9374147209788418
 40
1.0
 40
1.0
 40
1.0
 40
1.0
 10
623.7923008473775
 20
614.3376032256168
 30
0.0
 10
623.8361902743109
 20
614.3396607891624
 30
0.0
 10
623.9239552127681
 20
614.34377526389
 30
0.0
 10
624.1031228073837
 20
614.3365509879833
 30
0.0
 10
624.32745101128
 20
614.3055803542997
 30
0.0
 10
624.5908867240472
 20
614.2276173762026
 30
0.0
 10
624.8347913112115
 20
614.1142381839793
 30
0.0
 10
625.0552344954756
 20
613.9727968949952
 30
0.0
 10
625.2403317717291
 20
613.8070579315942
 30
0.0
 10
625.3531460064445
 20
613.6503785328125
 30
0.0
 10
625.4192386616994
 20
613.5195737692769
 30
0.0
 10
625.4432773742866
 20
613.452702794573
 30
0.0
 10
625.4552982696172
 20
613.4192630259226
 30
0.0
  0
SPLINE
  5
137
330
1F
100
AcDbEntity
  8
0
  6
SLD-Solid
 62
   142
420
    32960
370
     0
100
AcDbSpline
210
0.0
220
0.0
230
1.0
 70
     8
 71
     3
 72
    16
 73
    12
 74
     0
 42
0.00000001
 43
0.00000001
 40
0.0
 40
0.0
 40
0.0
 40
0.0
 40
0.0626507922522724
 40
0.1252806213229613
 40
0.2503657415437021
 40
0.3754569779319999
 40
0.5005519515656386
 40
0.7497120075897464
 40
0.8747729394597236
 40
0.9373750112929058
 40
1.0
 40
1.0
 40
1.0
 40
1.0
 10
625.4553006650762
 20
613.4192563574989
 30
0.0
 10
625.4647565810982
 20
613.3855541091028
 30
0.0
 10
625.4836652491587
 20
613.3181608892047
 30
0.0
 10
625.5051303499604
 20
613.182554883091
 30
0.0
 10
625.4959729648011
 20
613.0144778433937
 30
0.0
 10
625.4297106374441
 20
612.8237375357319
 30
0.0
 10
625.2666321865559
 20
612.599963670403
 30
0.0
 10
625.0264046333014
 20
612.4156493172342
 30
0.0
 10
624.7556610783238
 20
612.3239819925228
 30
0.0
 10
624.5892398734807
 20
612.2916722260117
 30
0.0
 10
624.5024009278173
 20
612.2844430825661
 30
0.0
 10
624.4589735091106
 20
612.2808278493675
 30
0.0
  0
SPLINE
  5
138
330
1F
100
AcDbEntity
  8
0
  6
SLD-Solid
 62
   142
420
    32960
370
     0
100
AcDbSpline
210
0.0
220
0.0
230
1.0
 70
     8
 71
     3
 72
    13
 73
     9
 74
     0
 42
0.00000001
 43
0.00000001
 40
0.0
 40
0.0
 40
0.0
 40
0.0
 40
0.1249899061224874
 40
0.249964412677304
 40
0.3724809068367329
 40
0.4999240967755274
 40
0.7137358362876915
 40
1.0
 40
1.0
 40
1.0
 40
1.0
 10
624.4589735091106
 20
612.2808278493676
 30
0.0
 10
624.413773731557
 20
612.2791697711195
 30
0.0
 10
624.3233797453556
 20
612.2758538189094
 30
0.0
 10
624.1860227829951
 20
612.2848433601123
 30
0.0
 10
624.0476174459352
 20
612.3030104498655
 30
0.0
 10
623.8773207915451
 20
612.3374854109319
 30
0.0
 10
623.6497609382271
 20
612.3981911599959
 30
0.0
 10
623.4701961732052
 20
612.4521573565543
 30
0.0
 10
623.3674058628548
 20
612.4830498431286
 30
0.0
  0
SPLINE
  5
139
330
1F
100
AcDbEntity
  8
0
  6
SLD-Solid
 62
   142
420
    32960
370
     0
100
AcDbSpline
210
0.0
220
0.0
230
1.0
 70
     8
 71
     3
 72
     9
 73
     5
 74
     0
 42
0.00000001
 43
0.00000001
 40
0.0
 40
0.0
 40
0.0
 40
0.0
 40
0.4969069419346163
 40
1.0
 40
1.0
 40
1.0
 40
1.0
 10
623.3674027593581
 20
612.4830507868829
 30
0.0
 10
622.9683380682611
 20
612.6037790049772
 30
0.0
 10
622.1652406320626
 20
612.8467384162992
 30
0.0
 10
621.3603517347011
 20
613.0828869177404
 30
0.0
 10
620.9554177179248
 20
613.2016915894883
 30
0.0
  0
SPLINE
  5
13A
330
1F
100
AcDbEntity
  8
0
  6
SLD-Solid
 62
   142
420
    32960
370
     0
100
AcDbSpline
210
0.0
220
0.0
230
1.0
 70
     8
 71
     3
 72
    13
 73
     9
 74
     0
 42
0.00000001
 43
0.00000001
 40
0.0
 40
0.0
 40
0.0
 40
0.0
 40
0.1254186250859595
 40
0.2506548107813891
 40
0.4999888138654333
 40
0.7492939533272728
 40
0.8745662032988135
 40
1.0
 40
1.0
 40
1.0
 40
1.0
 10
624.6991171657488
 20
613.3603034739833
 30
0.0
 10
624.6881983425694
 20
613.3888981992706
 30
0.0
 10
624.6663765792063
 20
613.4460460547135
 30
0.0
 10
624.5839182609611
 20
613.5521174297019
 30
0.0
 10
624.4333607046602
 20
613.661778719479
 30
0.0
 10
624.2468098745544
 20
613.7277539790166
 30
0.0
 10
624.0926262339312
 20
613.7470192010311
 30
0.0
 10
624.01723295561
 20
613.7449468882932
 30
0.0
 10
623.979512025975
 20
613.743910064259
 30
0.0
  0
SPLINE
  5
13B
330
1F
100
AcDbEntity
  8
0
  6
SLD-Solid
 62
   142
420
    32960
370
     0
100
AcDbSpline
210
0.0
220
0.0
230
1.0
 70
     8
 71
     3
 72
    13
 73
     9
 74
     0
 42
0.00000001
 43
0.00000001
 40
0.0
 40
0.0
 40
0.0
 40
0.0
 40
0.1254264937543769
 40
0.2506940358653844
 40
0.4999552364688428
 40
0.7492722256129931
 40
0.8745345344692151
 40
1.0
 40
1.0
 40
1.0
 40
1.0
 10
623.979512025975
 20
613.743910064259
 30
0.0
 10
623.9426695415551
 20
613.7405160886804
 30
0.0
 10
623.8690312627987
 20
613.7337324386713
 30
0.0
 10
623.7349652545937
 20
613.694994241087
 30
0.0
 10
623.5988063926036
 20
613.609254696805
 30
0.0
 10
623.527927999483
 20
613.4837036998363
 30
0.0
 10
623.5217771859427
 20
613.3713860676579
 30
0.0
 10
623.5358627411923
 20
613.3140760083546
 30
0.0
 10
623.542911225354
 20
613.2853977604516
 30
0.0
  0
SPLINE
  5
13C
330
1F
100
AcDbEntity
  8
0
  6
SLD-Solid
 62
   142
420
    32960
370
     0
100
AcDbSpline
210
0.0
220
0.0
230
1.0
 70
     8
 71
     3
 72
    13
 73
     9
 74
     0
 42
0.00000001
 43
0.00000001
 40
0.0
 40
0.0
 40
0.0
 40
0.0
 40
0.1254430846231318
 40
0.2506629620678818
 40
0.4999171420598961
 40
0.7492849684471615
 40
0.8745639970614822
 40
1.0
 40
1.0
 40
1.0
 40
1.0
 10
623.542911225354
 20
613.2853977604516
 30
0.0
 10
623.5539146821276
 20
613.2574128914572
 30
0.0
 10
623.5759020166718
 20
613.2014929483513
 30
0.0
 10
623.6540808095322
 20
613.0957989393039
 30
0.0
 10
623.8039392821504
 20
612.9876734097206
 30
0.0
 10
623.9864143907516
 20
612.9227887684568
 30
0.0
 10
624.137156590312
 20
612.9040061412742
 30
0.0
 10
624.2108742558745
 20
612.9061906061895
 30
0.0
 10
624.2477561662125
 20
612.9072835225008
 30
0.0
  0
SPLINE
  5
13D
330
1F
100
AcDbEntity
  8
0
  6
SLD-Solid
 62
   142
420
    32960
370
     0
100
AcDbSpline
210
0.0
220
0.0
230
1.0
 70
     8
 71
     3
 72
    13
 73
     9
 74
     0
 42
0.00000001
 43
0.00000001
 40
0.0
 40
0.0
 40
0.0
 40
0.0
 40
0.1254031087735945
 40
0.2506359213588927
 40
0.5000145471522469
 40
0.7494681278465557
 40
0.8746242136673869
 40
1.0
 40
1.0
 40
1.0
 40
1.0
 10
624.2477561662125
 20
612.9072835225008
 30
0.0
 10
624.283978925245
 20
612.911019629098
 30
0.0
 10
624.3563752531595
 20
612.918486768696
 30
0.0
 10
624.4909546548622
 20
612.9550268021416
 30
0.0
 10
624.623992368486
 20
613.0434025706802
 30
0.0
 10
624.7050931903213
 20
613.1639734264081
 30
0.0
 10
624.7198273346986
 20
613.275109741961
 30
0.0
 10
624.7060245901084
 20
613.3318889660536
 30
0.0
 10
624.6991171657488
 20
613.3603034739833
 30
0.0
  0
LINE
  5
13E
330
1F
100
AcDbEntity
  8
0
  6
SLD-Solid
 62
   142
420
    32960
370
     0
100
AcDbLine
 10
590.7482125107
 20
633.2301697001
 30
0.0
 11
606.9873733266
 21
633.2301697001
 31
0.0
  0
LINE
  5
13F
330
1F
100
AcDbEntity
  8
0
  6
SLD-Solid
 62
   142
420
    32960
370
     0
100
AcDbLine
 10
590.7482125107
 20
633.2301697001
 30
0.0
 11
590.7482125107
 21
632.4301697001
 31
0.0
  0
LINE
  5
140
330
1F
100
AcDbEntity
  8
0
  6
SLD-Solid
 62
   142
420
    32960
370
     0
100
AcDbLine
 10
590.7482125107
 20
632.4301697001
 30
0.0
 11
606.9873733266
 21
632.4301697001
 31
0.0
  0
LINE
  5
141
330
1F
100
AcDbEntity
  8
0
  6
SLD-Solid
 62
   142
420
    32960
370
     0
100
AcDbLine
 10
606.9873733266
 20
632.4301697001
 30
0.0
 11
606.9873733266
 21
633.2301697001
 31
0.0
  0
LINE
  5
142
330
1F
100
AcDbEntity
  8
0
  6
SLD-Solid
 62
     7
370
    15
100
AcDbLine
 10
626.2255882755
 20
618.9254618817
 30
0.0
 11
624.7422381979
 21
623.4907439953
 31
0.0
  0
LINE
  5
143
330
1F
100
AcDbEntity
  8
0
  6
SLD-Solid
 62
     7
370
    15
100
AcDbLine
 10
642.3562068773
 20
569.2805225665
 30
0.0
 11
640.8728567997
 21
573.84580468
 31
0.0
  0
SPLINE
  5
144
330
1F
100
AcDbEntity
  8
0
  6
SLD-Solid
 62
   142
420
    32960
370
     0
100
AcDbSpline
210
0.0
220
0.0
230
1.0
 70
     8
 71
     3
 72
     8
 73
     4
 74
     0
 42
0.00000001
 43
0.00000001
 40
0.0
 40
0.0
 40
0.0
 40
0.0
 40
1.0
 40
1.0
 40
1.0
 40
1.0
 10
639.1657084578936
 20
570.8188300573672
 30
0.0
 10
638.9266460483324
 20
570.6332736678153
 30
0.0
 10
638.6875909185985
 20
570.4476948732585
 30
0.0
 10
638.4485430589147
 20
570.2620937037882
 30
0.0
  0
SPLINE
  5
145
330
1F
100
AcDbEntity
  8
0
  6
SLD-Solid
 62
   142
420
    32960
370
     0
100
AcDbSpline
210
0.0
220
0.0
230
1.0
 70
     8
 71
     3
 72
     9
 73
     5
 74
     0
 42
0.00000001
 43
0.00000001
 40
0.0
 40
0.0
 40
0.0
 40
0.0
 40
0.4999955739392668
 40
1.0
 40
1.0
 40
1.0
 40
1.0
 10
639.2903417679478
 20
570.4606184795795
 30
0.0
 10
639.2704024890503
 20
570.519404482427
 30
0.0
 10
639.2305235782427
 20
570.6369775288929
 30
0.0
 10
639.187318840524
 20
570.7582162385934
 30
0.0
 10
639.1657162804379
 20
570.8188361300533
 30
0.0
  0
LINE
  5
146
330
1F
100
AcDbEntity
  8
0
  6
SLD-Solid
 62
   142
420
    32960
370
     0
100
AcDbLine
 10
639.2903417679
 20
570.4606184796
 30
0.0
 11
638.5730375183
 21
569.9040349675
 31
0.0
  0
SPLINE
  5
147
330
1F
100
AcDbEntity
  8
0
  6
SLD-Solid
 62
   142
420
    32960
370
     0
100
AcDbSpline
210
0.0
220
0.0
230
1.0
 70
     8
 71
     3
 72
    11
 73
     7
 74
     0
 42
0.00000001
 43
0.00000001
 40
0.0
 40
0.0
 40
0.0
 40
0.0
 40
0.2500151131446908
 40
0.5000078356072523
 40
0.7499966392901722
 40
1.0
 40
1.0
 40
1.0
 40
1.0
 10
638.8124547162603
 20
569.1217681406365
 30
0.0
 10
638.7951121884046
 20
569.1840271449705
 30
0.0
 10
638.7604286858433
 20
569.3085395778895
 30
0.0
 10
638.7025179992285
 20
569.5019447401304
 30
0.0
 10
638.6406966257346
 20
569.6997312847046
 30
0.0
 10
638.5955857758939
 20
569.8359283705769
 30
0.0
 10
638.5730296942835
 20
569.9040288961687
 30
0.0
  0
SPLINE
  5
148
330
1F
100
AcDbEntity
  8
0
  6
SLD-Solid
 62
   142
420
    32960
370
     0
100
AcDbSpline
210
0.0
220
0.0
230
1.0
 70
     8
 71
     3
 72
     8
 73
     4
 74
     0
 42
0.00000001
 43
0.00000001
 40
0.0
 40
0.0
 40
0.0
 40
0.0
 40
1.0
 40
1.0
 40
1.0
 40
1.0
 10
638.1985242608309
 20
568.6446240587035
 30
0.0
 10
638.4031739103477
 20
568.8036531140228
 30
0.0
 10
638.6078173920508
 20
568.962701151921
 30
0.0
 10
638.8124547162603
 20
569.1217681406365
 30
0.0
  0
SPLINE
  5
149
330
1F
100
AcDbEntity
  8
0
  6
SLD-Solid
 62
   142
420
    32960
370
     0
100
AcDbSpline
210
0.0
220
0.0
230
1.0
 70
     8
 71
     3
 72
    11
 73
     7
 74
     0
 42
0.00000001
 43
0.00000001
 40
0.0
 40
0.0
 40
0.0
 40
0.0
 40
0.2528456380631529
 40
0.5037920205482012
 40
0.7528423195117083
 40
1.0
 40
1.0
 40
1.0
 40
1.0
 10
635.7128724974574
 20
567.6744684878765
 30
0.0
 10
635.9249074588995
 20
567.7533945810956
 30
0.0
 10
636.3473846765015
 20
567.910653912446
 30
0.0
 10
636.9731065997153
 20
568.1519001229799
 30
0.0
 10
637.5902951509452
 20
568.3955921399055
 30
0.0
 10
637.996297410566
 20
568.5618247652537
 30
0.0
 10
638.1985242608309
 20
568.6446240587035
 30
0.0
  0
SPLINE
  5
14A
330
1F
100
AcDbEntity
  8
0
  6
SLD-Solid
 62
   142
420
    32960
370
     0
100
AcDbSpline
210
0.0
220
0.0
230
1.0
 70
     8
 71
     3
 72
     9
 73
     5
 74
     0
 42
0.00000001
 43
0.00000001
 40
0.0
 40
0.0
 40
0.0
 40
0.0
 40
0.5000039696612633
 40
1.0
 40
1.0
 40
1.0
 40
1.0
 10
635.5864089277021
 20
568.0396420283932
 30
0.0
 10
635.6083074975593
 20
567.9778736337722
 30
0.0
 10
635.6521042895565
 20
567.8543378253205
 30
0.0
 10
635.6926165353705
 20
567.7344246163481
 30
0.0
 10
635.7128724974574
 20
567.6744684878765
 30
0.0
  0
SPLINE
  5
14B
330
1F
100
AcDbEntity
  8
0
  6
SLD-Solid
 62
   142
420
    32960
370
     0
100
AcDbSpline
210
0.0
220
0.0
230
1.0
 70
     8
 71
     3
 72
     8
 73
     4
 74
     0
 42
0.00000001
 43
0.00000001
 40
0.0
 40
0.0
 40
0.0
 40
0.0
 40
1.0
 40
1.0
 40
1.0
 40
1.0
 10
637.8345369974004
 20
569.7850383126042
 30
0.0
 10
637.0850934951134
 20
569.2034472303753
 30
0.0
 10
636.3357175615549
 20
568.6216481929824
 30
0.0
 10
635.5864089277021
 20
568.0396420283932
 30
0.0
  0
SPLINE
  5
14C
330
1F
100
AcDbEntity
  8
0
  6
SLD-Solid
 62
   142
420
    32960
370
     0
100
AcDbSpline
210
0.0
220
0.0
230
1.0
 70
     8
 71
     3
 72
     8
 73
     4
 74
     0
 42
0.00000001
 43
0.00000001
 40
0.0
 40
0.0
 40
0.0
 40
0.0
 40
1.0
 40
1.0
 40
1.0
 40
1.0
 10
637.7706905998815
 20
569.9618729102551
 30
0.0
 10
637.7922138891491
 20
569.9021858401774
 30
0.0
 10
637.8134965750751
 20
569.8432392710432
 30
0.0
 10
637.8345369974004
 20
569.7850383126042
 30
0.0
  0
SPLINE
  5
14D
330
1F
100
AcDbEntity
  8
0
  6
SLD-Solid
 62
   142
420
    32960
370
     0
100
AcDbSpline
210
0.0
220
0.0
230
1.0
 70
     8
 71
     3
 72
     8
 73
     4
 74
     0
 42
0.00000001
 43
0.00000001
 40
0.0
 40
0.0
 40
0.0
 40
0.0
 40
1.0
 40
1.0
 40
1.0
 40
1.0
 10
638.3845906945187
 20
570.4390441107378
 30
0.0
 10
638.1799499305887
 20
570.2800098158478
 30
0.0
 10
637.9753165695489
 20
570.120952737204
 30
0.0
 10
637.7706905998815
 20
569.9618729102551
 30
0.0
  0
SPLINE
  5
14E
330
1F
100
AcDbEntity
  8
0
  6
SLD-Solid
 62
   142
420
    32960
370
     0
100
AcDbSpline
210
0.0
220
0.0
230
1.0
 70
     8
 71
     3
 72
     8
 73
     4
 74
     0
 42
0.00000001
 43
0.00000001
 40
0.0
 40
0.0
 40
0.0
 40
0.0
 40
1.0
 40
1.0
 40
1.0
 40
1.0
 10
638.4485430589147
 20
570.2620937037882
 30
0.0
 10
638.427469639907
 20
570.3203261078347
 30
0.0
 10
638.4061516204957
 20
570.3793113145173
 30
0.0
 10
638.3845906945187
 20
570.4390441107378
 30
0.0
  0
SPLINE
  5
14F
330
1F
100
AcDbEntity
  8
0
  6
SLD-Solid
 62
   142
420
    32960
370
     0
100
AcDbSpline
210
0.0
220
0.0
230
1.0
 70
     8
 71
     3
 72
     9
 73
     5
 74
     0
 42
0.00000001
 43
0.00000001
 40
0.0
 40
0.0
 40
0.0
 40
0.0
 40
0.7193044036261426
 40
1.0
 40
1.0
 40
1.0
 40
1.0
 10
635.8975172351269
 20
568.3121821798817
 30
0.0
 10
635.815256566068
 20
568.1680912736057
 30
0.0
 10
635.7008951515623
 20
567.9677714847243
 30
0.0
 10
635.7087679158013
 20
567.8336794966793
 30
0.0
 10
635.7109777660546
 20
567.7960404661262
 30
0.0
  0
SPLINE
  5
150
330
1F
100
AcDbEntity
  8
0
  6
SLD-Solid
 62
   142
420
    32960
370
     0
100
AcDbSpline
210
0.0
220
0.0
230
1.0
 70
     8
 71
     3
 72
    18
 73
    14
 74
     0
 42
0.00000001
 43
0.00000001
 40
0.0
 40
0.0
 40
0.0
 40
0.0
 40
0.0625457692087463
 40
0.1250799684438696
 40
0.2500402054669369
 40
0.3749579694246847
 40
0.4999189686768744
 40
0.562451670392223
 40
0.6249777403764648
 40
0.7499527049293604
 40
0.8749216484551019
 40
0.9374548383199945
 40
0.9999999999999999
 40
0.9999999999999999
 40
0.9999999999999999
 40
0.9999999999999999
 10
638.4270978440437
 20
568.934203787801
 30
0.0
 10
638.4018784467329
 20
568.9152575966111
 30
0.0
 10
638.3514443172992
 20
568.8773687189755
 30
0.0
 10
638.2501435540632
 20
568.8059342670405
 30
0.0
 10
638.1234154442095
 20
568.7247207878065
 30
0.0
 10
637.9768849258729
 20
568.6485165624849
 30
0.0
 10
637.861419374181
 20
568.600783802784
 30
0.0
 10
637.7764438016428
 20
568.5756339862057
 30
0.0
 10
637.695353009021
 20
568.5568183783938
 30
0.0
 10
637.606147990252
 20
568.5511469348278
 30
0.0
 10
637.5306730328182
 20
568.5627839789165
 30
0.0
 10
637.4798108839772
 20
568.5829084025714
 30
0.0
 10
637.457985800637
 20
568.5968599652108
 30
0.0
 10
637.447072214478
 20
568.6038364142141
 30
0.0
  0
SPLINE
  5
151
330
1F
100
AcDbEntity
  8
0
  6
SLD-Solid
 62
   142
420
    32960
370
     0
100
AcDbSpline
210
0.0
220
0.0
230
1.0
 70
     8
 71
     3
 72
    15
 73
    11
 74
     0
 42
0.00000001
 43
0.00000001
 40
0.0
 40
0.0
 40
0.0
 40
0.0
 40
0.0835339649063227
 40
0.1662993711381275
 40
0.2492890870933214
 40
0.3334868898303241
 40
0.4999394943540302
 40
0.6665550288746491
 40
0.8332170716210884
 40
1.0
 40
1.0
 40
1.0
 40
1.0
 10
638.704493710646
 20
570.0459993504057
 30
0.0
 10
638.6949935226789
 20
570.0500194101523
 30
0.0
 10
638.6760805537278
 20
570.0580225428728
 30
0.0
 10
638.641562523562
 20
570.0633623636558
 30
0.0
 10
638.6028198464976
 20
570.0635682320661
 30
0.0
 10
638.5458978601201
 20
570.0567061886712
 30
0.0
 10
638.4657112678442
 20
570.0343327696296
 30
0.0
 10
638.3609896798318
 20
569.9874124031594
 30
0.0
 10
638.2530488501723
 20
569.928245331141
 30
0.0
 10
638.1804978760341
 20
569.8819959181253
 30
0.0
 10
638.144209237814
 20
569.858862828091
 30
0.0
  0
SPLINE
  5
152
330
1F
100
AcDbEntity
  8
0
  6
SLD-Solid
 62
   142
420
    32960
370
     0
100
AcDbSpline
210
0.0
220
0.0
230
1.0
 70
     8
 71
     3
 72
    16
 73
    12
 74
     0
 42
0.00000001
 43
0.00000001
 40
0.0
 40
0.0
 40
0.0
 40
0.0
 40
0.1251550241341965
 40
0.2502776384447826
 40
0.375326690013799
 40
0.5003123172052157
 40
0.6252569473066956
 40
0.7501103526638633
 40
0.8749032999777928
 40
0.9374290942462182
 40
1.0
 40
1.0
 40
1.0
 40
1.0
 10
637.6420021748686
 20
569.2710233156906
 30
0.0
 10
637.6512491691351
 20
569.2468204483556
 30
0.0
 10
637.6697407630902
 20
569.1984209811981
 30
0.0
 10
637.7112468287869
 20
569.1383869004923
 30
0.0
 10
637.769438278591
 20
569.0947067851178
 30
0.0
 10
637.8449287173916
 20
569.069325374154
 30
0.0
 10
637.9460199794229
 20
569.0754700467113
 30
0.0
 10
638.0633868394592
 20
569.1063649226156
 30
0.0
 10
638.176096340585
 20
569.1613365372856
 30
0.0
 10
638.268901174332
 20
569.2207045124389
 30
0.0
 10
638.3150716532107
 20
569.2548125287899
 30
0.0
 10
638.3381652174854
 20
569.2718726868609
 30
0.0
  0
LINE
  5
153
330
1F
100
AcDbEntity
  8
0
  6
SLD-Solid
 62
   142
420
    32960
370
     0
100
AcDbLine
 10
637.6420021749
 20
569.2710233157
 30
0.0
 11
637.0699221526
 21
568.8341087534
 31
0.0
  0
SPLINE
  5
154
330
1F
100
AcDbEntity
  8
0
  6
SLD-Solid
 62
   142
420
    32960
370
     0
100
AcDbSpline
210
0.0
220
0.0
230
1.0
 70
     8
 71
     3
 72
    16
 73
    12
 74
     0
 42
0.00000001
 43
0.00000001
 40
0.0
 40
0.0
 40
0.0
 40
0.0
 40
0.0625673302418943
 40
0.1250855726671811
 40
0.2498929634954605
 40
0.3725235571271883
 40
0.4996061982594712
 40
0.6245918599936316
 40
0.7496747919363669
 40
0.8748253249824145
 40
1.0
 40
1.0
 40
1.0
 40
1.0
 10
636.7301685448066
 20
568.1686902154374
 30
0.0
 10
636.7474107961855
 20
568.1823081447964
 30
0.0
 10
636.7818817713651
 20
568.2095333194335
 30
0.0
 10
636.8473322327377
 20
568.2697210558941
 30
0.0
 10
636.9203764299488
 20
568.3496616243899
 30
0.0
 10
636.9912732378391
 20
568.4473287113789
 30
0.0
 10
637.0404265805382
 20
568.5404109591817
 30
0.0
 10
637.0690066818927
 20
568.625747644243
 30
0.0
 10
637.0778317202584
 20
568.700222237357
 30
0.0
 10
637.0776505205638
 20
568.7693706595091
 30
0.0
 10
637.0724984408806
 20
568.81252800138
 30
0.0
 10
637.0699221525996
 20
568.8341087534147
 30
0.0
  0
SPLINE
  5
155
330
1F
100
AcDbEntity
  8
0
  6
SLD-Solid
 62
   142
420
    32960
370
     0
100
AcDbSpline
210
0.0
220
0.0
230
1.0
 70
     8
 71
     3
 72
    13
 73
     9
 74
     0
 42
0.00000001
 43
0.00000001
 40
0.0
 40
0.0
 40
0.0
 40
0.0
 40
0.1252599288361104
 40
0.250426495196818
 40
0.4999423658797447
 40
0.7495827737088062
 40
0.8747276607280915
 40
1.0
 40
1.0
 40
1.0
 40
1.0
 10
636.58580493852
 20
568.5837251250299
 30
0.0
 10
636.5651628630957
 20
568.5625036613302
 30
0.0
 10
636.523894097816
 20
568.5200765513465
 30
0.0
 10
636.4521165952386
 20
568.4317384307935
 30
0.0
 10
636.381893152215
 20
568.3212956877494
 30
0.0
 10
636.342629105018
 20
568.2204164385304
 30
0.0
 10
636.3356199898423
 20
568.1534866561699
 30
0.0
 10
636.340663088127
 20
568.1260421615946
 30
0.0
 10
636.343185920636
 20
568.1123129302372
 30
0.0
  0
LINE
  5
156
330
1F
100
AcDbEntity
  8
0
  6
SLD-Solid
 62
   142
420
    32960
370
     0
100
AcDbLine
 10
628.9066171366
 20
589.002436471
 30
0.0
 11
629.5789551971
 21
589.286033791
 31
0.0
  0
SPLINE
  5
157
330
1F
100
AcDbEntity
  8
0
  6
SLD-Solid
 62
   142
420
    32960
370
     0
100
AcDbSpline
210
0.0
220
0.0
230
1.0
 70
     8
 71
     3
 72
     9
 73
     5
 74
     0
 42
0.00000001
 43
0.00000001
 40
0.0
 40
0.0
 40
0.0
 40
0.0
 40
0.4999969146687001
 40
0.9999999999999999
 40
0.9999999999999999
 40
0.9999999999999999
 40
0.9999999999999999
 10
630.0253936663294
 20
587.9305215446009
 30
0.0
 10
629.9526290809857
 20
588.1561846295034
 30
0.0
 10
629.8070990122814
 20
588.6075135843071
 30
0.0
 10
629.6550034483253
 20
589.059859458336
 30
0.0
 10
629.5789551970819
 20
589.2860337909874
 30
0.0
  0
LINE
  5
158
330
1F
100
AcDbEntity
  8
0
  6
SLD-Solid
 62
   142
420
    32960
370
     0
100
AcDbLine
 10
630.0253936663
 20
587.9305215446
 30
0.0
 11
630.7784227587
 21
588.0554358634
 31
0.0
  0
SPLINE
  5
159
330
1F
100
AcDbEntity
  8
0
  6
SLD-Solid
 62
   142
420
    32960
370
     0
100
AcDbSpline
210
0.0
220
0.0
230
1.0
 70
     8
 71
     3
 72
     9
 73
     5
 74
     0
 42
0.00000001
 43
0.00000001
 40
0.0
 40
0.0
 40
0.0
 40
0.0
 40
0.4999059913039284
 40
1.0
 40
1.0
 40
1.0
 40
1.0
 10
630.6567584432457
 20
588.3083631047787
 30
0.0
 10
630.6730525950899
 20
588.2637381600792
 30
0.0
 10
630.7056470270982
 20
588.1744714869931
 30
0.0
 10
630.7541611409999
 20
588.0951193777883
 30
0.0
 10
630.7784227586994
 20
588.0554358633976
 30
0.0
  0
SPLINE
  5
15A
330
1F
100
AcDbEntity
  8
0
  6
SLD-Solid
 62
   142
420
    32960
370
     0
100
AcDbSpline
210
0.0
220
0.0
230
1.0
 70
     8
 71
     3
 72
    19
 73
    15
 74
     0
 42
0.00000001
 43
0.00000001
 40
0.0
 40
0.0
 40
0.0
 40
0.0
 40
0.062558346505125
 40
0.1251001633860386
 40
0.2500501157123664
 40
0.3749255740713197
 40
0.4998063905395687
 40
0.599996246412104
 40
0.674872524912529
 40
0.7498430831687728
 40
0.8123758319883273
 40
0.8749111362463962
 40
0.9374468170257395
 40
1.0
 40
1.0
 40
1.0
 40
1.0
 10
631.4899062353389
 20
590.15674262809
 30
0.0
 10
631.4493358049917
 20
590.1383694602016
 30
0.0
 10
631.3682056641137
 20
590.1016279791174
 30
0.0
 10
631.2118917001696
 20
590.0136151109925
 30
0.0
 10
631.0304565310898
 20
589.8756151083189
 30
0.0
 10
630.846064357782
 20
589.6666970501628
 30
0.0
 10
630.7143351746257
 20
589.4370088291437
 30
0.0
 10
630.6352830809672
 20
589.2227142183423
 30
0.0
 10
630.5917111150812
 20
589.0366897499756
 30
0.0
 10
630.5762367467594
 20
588.8751096268053
 30
0.0
 10
630.5753729449473
 20
588.7226970674716
 30
0.0
 10
630.5908795603007
 20
588.5814241879962
 30
0.0
 10
630.6164014719285
 20
588.4423203530891
 30
0.0
 10
630.6433048647162
 20
588.3530196858085
 30
0.0
 10
630.6567584432457
 20
588.3083631047787
 30
0.0
  0
SPLINE
  5
15B
330
1F
100
AcDbEntity
  8
0
  6
SLD-Solid
 62
   142
420
    32960
370
     0
100
AcDbSpline
210
0.0
220
0.0
230
1.0
 70
     8
 71
     3
 72
    17
 73
    13
 74
     0
 42
0.00000001
 43
0.00000001
 40
0.0
 40
0.0
 40
0.0
 40
0.0
 40
0.0625713784685233
 40
0.1251215088470895
 40
0.2500656599897245
 40
0.3750200963255951
 40
0.4999716825898623
 40
0.6277208470488751
 40
0.7499098671822597
 40
0.8748726880329805
 40
0.9374260668416148
 40
1.0
 40
1.0
 40
1.0
 40
1.0
 10
633.2878628614507
 20
589.2971863724421
 30
0.0
 10
633.2717685301476
 20
589.3436401130301
 30
0.0
 10
633.2395853328803
 20
589.4365318193695
 30
0.0
 10
633.1555634794086
 20
589.6123968142739
 30
0.0
 10
633.0212507731532
 20
589.8139342737559
 30
0.0
 10
632.812327597409
 20
590.0081128126369
 30
0.0
 10
632.569804922456
 20
590.1537887721413
 30
0.0
 10
632.3072837763275
 20
590.2480627824326
 30
0.0
 10
632.0310649104385
 20
590.2820122038064
 30
0.0
 10
631.8014235214778
 20
590.2570145760491
 30
0.0
 10
631.621291838697
 20
590.2077421272912
 30
0.0
 10
631.533706232281
 20
590.1737443227352
 30
0.0
 10
631.4899062353389
 20
590.15674262809
 30
0.0
  0
SPLINE
  5
15C
330
1F
100
AcDbEntity
  8
0
  6
SLD-Solid
 62
   142
420
    32960
370
     0
100
AcDbSpline
210
0.0
220
0.0
230
1.0
 70
     8
 71
     3
 72
    17
 73
    13
 74
     0
 42
0.00000001
 43
0.00000001
 40
0.0
 40
0.0
 40
0.0
 40
0.0
 40
0.0625627776868668
 40
0.125114119602917
 40
0.2500805960564312
 40
0.375052710050798
 40
0.500001331745367
 40
0.624955192736008
 40
0.7498969439063293
 40
0.8748889489927835
 40
0.9374383434517429
 40
1.0
 40
1.0
 40
1.0
 40
1.0
 10
632.6806634625245
 20
587.4512554077992
 30
0.0
 10
632.7143600337714
 20
587.4766606920083
 30
0.0
 10
632.7817470169117
 20
587.5274666166273
 30
0.0
 10
632.9094598793026
 20
587.6399466303776
 30
0.0
 10
633.0546855945142
 20
587.7996788014195
 30
0.0
 10
633.196717567916
 20
588.0206749342062
 30
0.0
 10
633.2994483675562
 20
588.2648373444823
 30
0.0
 10
633.3614076726969
 20
588.5226645472977
 30
0.0
 10
633.3818134812703
 20
588.7865698333239
 30
0.0
 10
633.3594315139824
 20
589.0039660530202
 30
0.0
 10
633.3246576742646
 20
589.1735173971547
 30
0.0
 10
633.3001286004173
 20
589.2559606872672
 30
0.0
 10
633.2878628614507
 20
589.2971863724421
 30
0.0
  0
SPLINE
  5
15D
330
1F
100
AcDbEntity
  8
0
  6
SLD-Solid
 62
   142
420
    32960
370
     0
100
AcDbSpline
210
0.0
220
0.0
230
1.0
 70
     8
 71
     3
 72
     9
 73
     5
 74
     0
 42
0.00000001
 43
0.00000001
 40
0.0
 40
0.0
 40
0.0
 40
0.0
 40
0.4999915155784079
 40
1.0
 40
1.0
 40
1.0
 40
1.0
 10
632.428670694322
 20
588.27601103706
 30
0.0
 10
632.471327988678
 20
588.1383763621587
 30
0.0
 10
632.5566440251042
 20
587.8631023412743
 30
0.0
 10
632.6393231823946
 20
587.5885392719636
 30
0.0
 10
632.6806634625245
 20
587.4512554077992
 30
0.0
  0
SPLINE
  5
15E
330
1F
100
AcDbEntity
  8
0
  6
SLD-Solid
 62
   142
420
    32960
370
     0
100
AcDbSpline
210
0.0
220
0.0
230
1.0
 70
     8
 71
     3
 72
    13
 73
     9
 74
     0
 42
0.00000001
 43
0.00000001
 40
0.0
 40
0.0
 40
0.0
 40
0.0
 40
0.1252132507906293
 40
0.2503205428080352
 40
0.4999327495223998
 40
0.749622523863523
 40
0.8747717100022763
 40
1.0
 40
1.0
 40
1.0
 40
1.0
 10
632.6047144114631
 20
589.0285547078739
 30
0.0
 10
632.6135581443259
 20
588.996418875347
 30
0.0
 10
632.6312381262507
 20
588.9321744044869
 30
0.0
 10
632.6459004138746
 20
588.7979189600544
 30
0.0
 10
632.6271519246778
 20
588.6266529764092
 30
0.0
 10
632.5640623051041
 20
588.467078876746
 30
0.0
 10
632.49237815861
 20
588.3530311913939
 30
0.0
 10
632.449910988088
 20
588.3016898287407
 30
0.0
 10
632.428670694322
 20
588.27601103706
 30
0.0
  0
SPLINE
  5
15F
330
1F
100
AcDbEntity
  8
0
  6
SLD-Solid
 62
   142
420
    32960
370
     0
100
AcDbSpline
210
0.0
220
0.0
230
1.0
 70
     8
 71
     3
 72
    17
 73
    13
 74
     0
 42
0.00000001
 43
0.00000001
 40
0.0
 40
0.0
 40
0.0
 40
0.0
 40
0.0625820088414557
 40
0.1251506259511032
 40
0.2501000092855303
 40
0.3750446097038932
 40
0.5000411091552499
 40
0.6250436569435661
 40
0.7499362197475693
 40
0.8748672129465508
 40
0.9374220428778685
 40
1.0
 40
1.0
 40
1.0
 40
1.0
 10
631.7776501189289
 20
589.3943881344874
 30
0.0
 10
631.7976531103297
 20
589.4022193223796
 30
0.0
 10
631.8376548127525
 20
589.4178800223923
 30
0.0
 10
631.9196419512939
 20
589.441554359957
 30
0.0
 10
632.0247061458934
 20
589.4567882023076
 30
0.0
 10
632.1512565982814
 20
589.4491831702741
 30
0.0
 10
632.272065645805
 20
589.4106898468968
 30
0.0
 10
632.3835370675139
 20
589.3487894886051
 30
0.0
 10
632.480341977475
 20
589.2625824910183
 30
0.0
 10
632.5436676890205
 20
589.1723029964885
 30
0.0
 10
632.582362907211
 20
589.0921337885728
 30
0.0
 10
632.597262992095
 20
589.0497503458929
 30
0.0
 10
632.6047144114631
 20
589.0285547078739
 30
0.0
  0
SPLINE
  5
160
330
1F
100
AcDbEntity
  8
0
  6
SLD-Solid
 62
   142
420
    32960
370
     0
100
AcDbSpline
210
0.0
220
0.0
230
1.0
 70
     8
 71
     3
 72
    16
 73
    12
 74
     0
 42
0.00000001
 43
0.00000001
 40
0.0
 40
0.0
 40
0.0
 40
0.0
 40
0.062576891525528
 40
0.1251365117523901
 40
0.2500258664706408
 40
0.3749336302796438
 40
0.4998800117691172
 40
0.6248549835765178
 40
0.7498694666724925
 40
0.8748972018541995
 40
1.0
 40
1.0
 40
1.0
 40
1.0
 10
631.3591963975778
 20
588.5535135082432
 30
0.0
 10
631.3531116177776
 20
588.5741913943028
 30
0.0
 10
631.3409437375839
 20
588.6155414593001
 30
0.0
 10
631.3275638793541
 20
588.7016529219921
 30
0.0
 10
631.3255890106161
 20
588.8121615558423
 30
0.0
 10
631.3538298418798
 20
588.9423237344955
 30
0.0
 10
631.404747564586
 20
589.0639407148634
 30
0.0
 10
631.4741304054601
 20
589.175034020446
 30
0.0
 10
631.5640921863237
 20
589.2665558297418
 30
0.0
 10
631.6652523502547
 20
589.3426853477748
 30
0.0
 10
631.7401767012258
 20
589.3771504246489
 30
0.0
 10
631.7776501189289
 20
589.3943881344874
 30
0.0
  0
SPLINE
  5
161
330
1F
100
AcDbEntity
  8
0
  6
SLD-Solid
 62
   142
420
    32960
370
     0
100
AcDbSpline
210
0.0
220
0.0
230
1.0
 70
     8
 71
     3
 72
    12
 73
     8
 74
     0
 42
0.00000001
 43
0.00000001
 40
0.0
 40
0.0
 40
0.0
 40
0.0
 40
0.2501215802572117
 40
0.5001385013493205
 40
0.749860598454195
 40
0.874899045678323
 40
1.0
 40
1.0
 40
1.0
 40
1.0
 10
631.75838752545
 20
588.1530632260027
 30
0.0
 10
631.7157004241471
 20
588.173500310011
 30
0.0
 10
631.6303440832403
 20
588.2143659264736
 30
0.0
 10
631.5154236382268
 20
588.3020753838878
 30
0.0
 10
631.4352307561261
 20
588.3952941071793
 30
0.0
 10
631.3855394480746
 20
588.4820675197836
 30
0.0
 10
631.3679788771416
 20
588.5296942116271
 30
0.0
 10
631.3591963975778
 20
588.5535135082432
 30
0.0
  0
SPLINE
  5
162
330
1F
100
AcDbEntity
  8
0
  6
SLD-Solid
 62
   142
420
    32960
370
     0
100
AcDbSpline
210
0.0
220
0.0
230
1.0
 70
     8
 71
     3
 72
     9
 73
     5
 74
     0
 42
0.00000001
 43
0.00000001
 40
0.0
 40
0.0
 40
0.0
 40
0.0
 40
0.5001021414442044
 40
1.0
 40
1.0
 40
1.0
 40
1.0
 10
631.8233331714681
 20
587.4564252991889
 30
0.0
 10
631.8128948179577
 20
587.5724569899655
 30
0.0
 10
631.7920223748199
 20
587.8044729746229
 30
0.0
 10
631.7695976149083
 20
588.0368823012924
 30
0.0
 10
631.75838752545
 20
588.1530632260028
 30
0.0
  0
SPLINE
  5
163
330
1F
100
AcDbEntity
  8
0
  6
SLD-Solid
 62
   142
420
    32960
370
     0
100
AcDbSpline
210
0.0
220
0.0
230
1.0
 70
     8
 71
     3
 72
     9
 73
     5
 74
     0
 42
0.00000001
 43
0.00000001
 40
0.0
 40
0.0
 40
0.0
 40
0.0
 40
0.5036675688378672
 40
1.0
 40
1.0
 40
1.0
 40
1.0
 10
629.5399389244772
 20
587.0571658438791
 30
0.0
 10
629.9235663138512
 20
587.1241270219675
 30
0.0
 10
630.6852341541274
 20
587.2570741923462
 30
0.0
 10
631.4458265155833
 20
587.3903006751057
 30
0.0
 10
631.8233331714681
 20
587.4564252991889
 30
0.0
  0
SPLINE
  5
164
330
1F
100
AcDbEntity
  8
0
  6
SLD-Solid
 62
   142
420
    32960
370
     0
100
AcDbSpline
210
0.0
220
0.0
230
1.0
 70
     8
 71
     3
 72
    11
 73
     7
 74
     0
 42
0.00000001
 43
0.00000001
 40
0.0
 40
0.0
 40
0.0
 40
0.0
 40
0.2500102014516468
 40
0.5000006436975577
 40
0.7499907640102768
 40
1.0
 40
1.0
 40
1.0
 40
1.0
 10
628.9066171365888
 20
589.0024364710151
 30
0.0
 10
628.9613171000692
 20
588.8400152321465
 30
0.0
 10
629.0707127038951
 20
588.515185591144
 30
0.0
 10
629.2305182579167
 20
588.0285314570795
 30
0.0
 10
629.3874271565802
 20
587.5423855456886
 30
0.0
 10
629.4891003728083
 20
587.2189098667922
 30
0.0
 10
629.5399389244772
 20
587.0571658438791
 30
0.0
  0
SPLINE
  5
165
330
1F
100
AcDbEntity
  8
0
  6
SLD-Solid
 62
   142
420
    32960
370
     0
100
AcDbSpline
210
0.0
220
0.0
230
1.0
 70
     8
 71
     3
 72
    21
 73
    17
 74
     0
 42
0.00000001
 43
0.00000001
 40
0.0
 40
0.0
 40
0.0
 40
0.0
 40
0.0058710092808698
 40
0.0679694924427185
 40
0.1298970787197935
 40
0.1923195363555963
 40
0.2542898596691127
 40
0.325181843834468
 40
0.3959557723149431
 40
0.4494641890342319
 40
0.5029207417835895
 40
0.626821242550522
 40
0.7513131241816278
 40
0.8757012581326421
 40
0.9377771560630552
 40
1.0
 40
1.0
 40
1.0
 40
1.0
 10
622.1132284619677
 20
623.6654220218493
 30
0.0
 10
622.1130849454647
 20
623.6654340642942
 30
0.0
 10
622.1114234349136
 20
623.6655734813571
 30
0.0
 10
622.1040428497024
 20
623.6656191754208
 30
0.0
 10
622.070028535606
 20
623.6660343596117
 30
0.0
 10
622.0081524224838
 20
623.6671987890508
 30
0.0
 10
621.9134224372552
 20
623.6695121857447
 30
0.0
 10
621.7798503028371
 20
623.6736960168008
 30
0.0
 10
621.6221264188249
 20
623.6797724475907
 30
0.0
 10
621.4651109318119
 20
623.6864187349499
 30
0.0
 10
621.2473530228233
 20
623.6965062743493
 30
0.0
 10
620.9445915939446
 20
623.71185586313
 30
0.0
 10
620.5529270326434
 20
623.7347438000295
 30
0.0
 10
620.2229477377136
 20
623.7554531865838
 30
0.0
 10
619.9583725013937
 20
623.7727002684218
 30
0.0
 10
619.8260825876974
 20
623.7815385980504
 30
0.0
 10
619.7598594342633
 20
623.7859629872025
 30
0.0
  0
SPLINE
  5
166
330
1F
100
AcDbEntity
  8
0
  6
SLD-Solid
 62
   142
420
    32960
370
     0
100
AcDbSpline
210
0.0
220
0.0
230
1.0
 70
     8
 71
     3
 72
    18
 73
    14
 74
     0
 42
0.00000001
 43
0.00000001
 40
0.0
 40
0.0
 40
0.0
 40
0.0
 40
0.1251615752902248
 40
0.2503026028558698
 40
0.3753841869036747
 40
0.500339962943574
 40
0.6302195788122555
 40
0.7498108645913556
 40
0.8125874632032581
 40
0.8748654797413357
 40
0.9374191148115164
 40
0.9687073650343845
 40
1.0
 40
1.0
 40
1.0
 40
1.0
 10
619.8189277924413
 20
623.7779895701402
 30
0.0
 10
619.9511483054818
 20
623.7692719022516
 30
0.0
 10
620.2155676249749
 20
623.7518379976501
 30
0.0
 10
620.610700866155
 20
623.7273225505656
 30
0.0
 10
621.0005282117538
 20
623.705100064515
 30
0.0
 10
621.3746914550926
 20
623.68692974381
 30
0.0
 10
621.7051870193455
 20
623.6737454822165
 30
0.0
 10
621.9139184918894
 20
623.6678782549939
 30
0.0
 10
622.0233200532681
 20
623.665799151721
 30
0.0
 10
622.0791439247604
 20
623.6651860717849
 30
0.0
 10
622.1028975876401
 20
623.6652375687154
 30
0.0
 10
622.1127357110671
 20
623.6653053400396
 30
0.0
 10
622.1130642039955
 20
623.665383126096
 30
0.0
 10
622.1132284619677
 20
623.6654220218493
 30
0.0
  0
SPLINE
  5
167
330
1F
100
AcDbEntity
  8
0
  6
SLD-Solid
 62
   142
420
    32960
370
     0
100
AcDbSpline
210
0.0
220
0.0
230
1.0
 70
     8
 71
     3
 72
    14
 73
    10
 74
     0
 42
0.00000001
 43
0.00000001
 40
0.0
 40
0.0
 40
0.0
 40
0.0
 40
0.0625271511718644
 40
0.1250385665834501
 40
0.2500185759795688
 40
0.4998671003519327
 40
0.7498915699466204
 40
0.8749419633117811
 40
1.0
 40
1.0
 40
1.0
 40
1.0
 10
618.0363375963495
 20
623.9131838462962
 30
0.0
 10
618.0689410564654
 20
623.9102365588916
 30
0.0
 10
618.1341397716176
 20
623.9043427258049
 30
0.0
 10
618.2699034836954
 20
623.8923621109979
 30
0.0
 10
618.5218387044806
 20
623.8714357831485
 30
0.0
 10
618.8976654335844
 20
623.842283318201
 30
0.0
 10
619.2805762789615
 20
623.8147023650815
 30
0.0
 10
619.5880786130441
 20
623.7935093110856
 30
0.0
 10
619.7419764982673
 20
623.7831629225172
 30
0.0
 10
619.8189277924413
 20
623.7779895701402
 30
0.0
  0
SPLINE
  5
168
330
1F
100
AcDbEntity
  8
0
  6
SLD-Solid
 62
   142
420
    32960
370
     0
100
AcDbSpline
210
0.0
220
0.0
230
1.0
 70
     8
 71
     3
 72
    13
 73
     9
 74
     0
 42
0.00000001
 43
0.00000001
 40
0.0
 40
0.0
 40
0.0
 40
0.0
 40
0.1251938662589931
 40
0.2503283849861636
 40
0.5000192369710064
 40
0.7496882904451705
 40
0.8748125585586275
 40
1.0
 40
1.0
 40
1.0
 40
1.0
 10
617.4247173341745
 20
623.9768862375381
 30
0.0
 10
617.426825278252
 20
623.9765439853527
 30
0.0
 10
617.4310401671465
 20
623.9758596432254
 30
0.0
 10
617.4665186209469
 20
623.9712233813046
 30
0.0
 10
617.5642746861558
 20
623.9599552322129
 30
0.0
 10
617.7315060600081
 20
623.9424006448619
 30
0.0
 10
617.8970672817929
 20
623.926185620378
 30
0.0
 10
617.9899063479651
 20
623.917518500122
 30
0.0
 10
618.0363375963495
 20
623.9131838462962
 30
0.0
  0
SPLINE
  5
169
330
1F
100
AcDbEntity
  8
0
  6
SLD-Solid
 62
   142
420
    32960
370
     0
100
AcDbSpline
210
0.0
220
0.0
230
1.0
 70
     8
 71
     3
 72
    19
 73
    15
 74
     0
 42
0.00000001
 43
0.00000001
 40
0.0
 40
0.0
 40
0.0
 40
0.0
 40
0.1252636569322576
 40
0.2504606304605764
 40
0.3754117004534107
 40
0.5012496476207047
 40
0.5377354893582942
 40
0.5727333229857142
 40
0.627109413691898
 40
0.7507320422279402
 40
0.8205725051889277
 40
0.8746429677350855
 40
0.9790193147360946
 40
1.0
 40
1.0
 40
1.0
 40
1.0
 10
619.7598594342633
 20
623.7859629872024
 30
0.0
 10
619.6259350445747
 20
623.7950471137941
 30
0.0
 10
619.3581575590938
 20
623.8132105310934
 30
0.0
 10
618.9585154725775
 20
623.8417922222807
 30
0.0
 10
618.5633404667929
 20
623.8716928132029
 30
0.0
 10
618.2761564873115
 20
623.8955337218855
 30
0.0
 10
618.0918676381758
 20
623.9115766878319
 30
0.0
 10
617.979833906267
 20
623.9216338809272
 30
0.0
 10
617.8009224170298
 20
623.9381118834896
 30
0.0
 10
617.6313651554823
 20
623.955032164863
 30
0.0
 10
617.5191837977143
 20
623.966873271185
 30
0.0
 10
617.4487380973768
 20
623.9744835341784
 30
0.0
 10
617.4255559991421
 20
623.9770466577795
 30
0.0
 10
617.4248375749846
 20
623.9769092372587
 30
0.0
 10
617.4247173341745
 20
623.9768862375381
 30
0.0
  0
LINE
  5
16A
330
1F
100
AcDbEntity
  8
0
  6
SLD-Solid
 62
   142
420
    32960
370
     0
100
AcDbLine
 10
624.6786662829
 20
613.2719513812
 30
0.0
 11
623.5377136124
 21
613.2001081284
 31
0.0
  0
SPLINE
  5
16B
330
1F
100
AcDbEntity
  8
0
  6
SLD-Solid
 62
   142
420
    32960
370
     0
100
AcDbSpline
210
0.0
220
0.0
230
1.0
 70
     8
 71
     3
 72
     9
 73
     5
 74
     0
 42
0.00000001
 43
0.00000001
 40
0.0
 40
0.0
 40
0.0
 40
0.0
 40
0.5000002533571842
 40
0.9999999999999999
 40
0.9999999999999999
 40
0.9999999999999999
 40
0.9999999999999999
 10
621.6301480368096
 20
613.762546248021
 30
0.0
 10
621.666717137945
 20
613.6521546409366
 30
0.0
 10
621.7398553031557
 20
613.4313715386421
 30
0.0
 10
621.8119250220544
 20
613.206262536077
 30
0.0
 10
621.8479598632442
 20
613.0937080918271
 30
0.0
  0
SPLINE
  5
16C
330
1F
100
AcDbEntity
  8
0
  6
SLD-Solid
 62
   142
420
    32960
370
     0
100
AcDbSpline
210
0.0
220
0.0
230
1.0
 70
     8
 71
     3
 72
     9
 73
     5
 74
     0
 42
0.00000001
 43
0.00000001
 40
0.0
 40
0.0
 40
0.0
 40
0.0
 40
0.4978933901263109
 40
0.9999999999999999
 40
0.9999999999999999
 40
0.9999999999999999
 40
0.9999999999999999
 10
622.7613540131441
 20
613.2654655238717
 30
0.0
 10
622.4904705939273
 20
613.3449885879926
 30
0.0
 10
621.9464115150386
 20
613.5047076477306
 30
0.0
 10
621.4015895229314
 20
613.6613215721843
 30
0.0
 10
621.1280307994898
 20
613.739958458851
 30
0.0
  0
SPLINE
  5
16D
330
1F
100
AcDbEntity
  8
0
  6
SLD-Solid
 62
   142
420
    32960
370
     0
100
AcDbSpline
210
0.0
220
0.0
230
1.0
 70
     8
 71
     3
 72
    17
 73
    13
 74
     0
 42
0.00000001
 43
0.00000001
 40
0.0
 40
0.0
 40
0.0
 40
0.0
 40
0.0625828327880251
 40
0.1251475851228467
 40
0.2501263684710707
 40
0.3738523636076244
 40
0.5000343517336374
 40
0.6278306699013687
 40
0.749946900827495
 40
0.874860432767107
 40
0.9374196577040576
 40
1.0
 40
1.0
 40
1.0
 40
1.0
 10
623.7906897064747
 20
614.3305433527004
 30
0.0
 10
623.7473336113804
 20
614.3269773014197
 30
0.0
 10
623.6606339469566
 20
614.319846229106
 30
0.0
 10
623.4923956163998
 20
614.2938223050894
 30
0.0
 10
623.2954772162456
 20
614.2390847379355
 30
0.0
 10
623.0892571560098
 20
614.1375421393498
 30
0.0
 10
622.9232668712565
 20
614.0018665252046
 30
0.0
 10
622.7990575832085
 20
613.8424582256362
 30
0.0
 10
622.7268453854306
 20
613.6616328080169
 30
0.0
 10
622.7138040575703
 20
613.4997482110082
 30
0.0
 10
622.7330075109252
 20
613.3661266806191
 30
0.0
 10
622.7519041161343
 20
613.2990230173788
 30
0.0
 10
622.7613540131441
 20
613.2654655238717
 30
0.0
  0
SPLINE
  5
16E
330
1F
100
AcDbEntity
  8
0
  6
SLD-Solid
 62
   142
420
    32960
370
     0
100
AcDbSpline
210
0.0
220
0.0
230
1.0
 70
     8
 71
     3
 72
    17
 73
    13
 74
     0
 42
0.00000001
 43
0.00000001
 40
0.0
 40
0.0
 40
0.0
 40
0.0
 40
0.0625792467947379
 40
0.1251386172826944
 40
0.2500882291406241
 40
0.3750454651189778
 40
0.5000166197722143
 40
0.6275888092705015
 40
0.7499048935735629
 40
0.8748659115759279
 40
0.9374228974929599
 40
1.0
 40
1.0
 40
1.0
 40
1.0
 10
625.4535883481625
 20
613.4125078723258
 30
0.0
 10
625.4415701570791
 20
613.4459393489576
 30
0.0
 10
625.4175375921087
 20
613.5127916837764
 30
0.0
 10
625.351456768369
 20
613.6435582253876
 30
0.0
 10
625.2386557516428
 20
613.8001901937299
 30
0.0
 10
625.0535740993068
 20
613.9658743954374
 30
0.0
 10
624.8331534019114
 20
614.1072634183726
 30
0.0
 10
624.5892606838188
 20
614.2206014158273
 30
0.0
 10
624.3258373284975
 20
614.2985394188536
 30
0.0
 10
624.1015080867359
 20
614.3294964226175
 30
0.0
 10
623.9223437130943
 20
614.3367156268573
 30
0.0
 10
623.8345790783701
 20
614.3326009979089
 30
0.0
 10
623.7906897064747
 20
614.3305433527004
 30
0.0
  0
SPLINE
  5
16F
330
1F
100
AcDbEntity
  8
0
  6
SLD-Solid
 62
   142
420
    32960
370
     0
100
AcDbSpline
210
0.0
220
0.0
230
1.0
 70
     8
 71
     3
 72
    16
 73
    12
 74
     0
 42
0.00000001
 43
0.00000001
 40
0.0
 40
0.0
 40
0.0
 40
0.0
 40
0.0626347164105538
 40
0.1252462045551224
 40
0.2503234762037473
 40
0.4994982808584151
 40
0.6245902168365619
 40
0.7496705979364943
 40
0.8747389694974436
 40
0.9373591468078101
 40
1.0
 40
1.0
 40
1.0
 40
1.0
 10
624.4571555756338
 20
612.2744044185516
 30
0.0
 10
624.5005829772108
 20
612.2780195987951
 30
0.0
 10
624.5874216751868
 20
612.2852486185822
 30
0.0
 10
624.7538431508815
 20
612.3175522901357
 30
0.0
 10
625.0245827110177
 20
612.4091933763018
 30
0.0
 10
625.2648304557687
 20
612.5934521794527
 30
0.0
 10
625.4279359225858
 20
612.8171659001057
 30
0.0
 10
625.4942191236307
 20
613.0078501164827
 30
0.0
 10
625.5033942146541
 20
613.175878758389
 30
0.0
 10
625.4819426748817
 20
613.311443929024
 30
0.0
 10
625.4630408303965
 20
613.3788161843507
 30
0.0
 10
625.4535883481625
 20
613.4125078723258
 30
0.0
  0
SPLINE
  5
170
330
1F
100
AcDbEntity
  8
0
  6
SLD-Solid
 62
   142
420
    32960
370
     0
100
AcDbSpline
210
0.0
220
0.0
230
1.0
 70
     8
 71
     3
 72
    13
 73
     9
 74
     0
 42
0.00000001
 43
0.00000001
 40
0.0
 40
0.0
 40
0.0
 40
0.0
 40
0.2862474508623503
 40
0.5000653653801207
 40
0.6274835430651581
 40
0.750027288454526
 40
0.8750054630897238
 40
1.0
 40
1.0
 40
1.0
 40
1.0
 10
623.3656159155654
 20
612.4765402796849
 30
0.0
 10
623.4683994953567
 20
612.4456610529594
 30
0.0
 10
623.647959202277
 20
612.3917160073402
 30
0.0
 10
623.8755018152929
 20
612.3310332341983
 30
0.0
 10
624.0457966998543
 20
612.2965728800604
 30
0.0
 10
624.1841989327735
 20
612.2784124276308
 30
0.0
 10
624.3215629269456
 20
612.2694286987802
 30
0.0
 10
624.4119560538062
 20
612.2727457729202
 30
0.0
 10
624.4571555756338
 20
612.2744044185516
 30
0.0
  0
SPLINE
  5
171
330
1F
100
AcDbEntity
  8
0
  6
SLD-Solid
 62
   142
420
    32960
370
     0
100
AcDbSpline
210
0.0
220
0.0
230
1.0
 70
     8
 71
     3
 72
     9
 73
     5
 74
     0
 42
0.00000001
 43
0.00000001
 40
0.0
 40
0.0
 40
0.0
 40
0.0
 40
0.5030935291777731
 40
1.0
 40
1.0
 40
1.0
 40
1.0
 10
620.9537123632393
 20
613.1949203915775
 30
0.0
 10
621.358632681614
 20
613.0761579724226
 30
0.0
 10
622.1634935969124
 20
612.8400936776803
 30
0.0
 10
622.9665646919238
 20
612.5972238624436
 30
0.0
 10
623.3656159155654
 20
612.4765402796847
 30
0.0
  0
SPLINE
  5
172
330
1F
100
AcDbEntity
  8
0
  6
SLD-Solid
 62
   142
420
    32960
370
     0
100
AcDbSpline
210
0.0
220
0.0
230
1.0
 70
     8
 71
     3
 72
     9
 73
     5
 74
     0
 42
0.00000001
 43
0.00000001
 40
0.0
 40
0.0
 40
0.0
 40
0.0
 40
0.4997022537551319
 40
1.0
 40
1.0
 40
1.0
 40
1.0
 10
621.1280307994898
 20
613.739958458851
 30
0.0
 10
621.0991575975858
 20
613.649836797031
 30
0.0
 10
621.0413767857383
 20
613.4694860758906
 30
0.0
 10
620.9829454358824
 20
613.2864786128719
 30
0.0
 10
620.9537123632393
 20
613.1949203915775
 30
0.0
  0
SPLINE
  5
173
330
1F
100
AcDbEntity
  8
0
  6
SLD-Solid
 62
   142
420
    32960
370
     0
100
AcDbSpline
210
0.0
220
0.0
230
1.0
 70
     8
 71
     3
 72
    10
 73
     6
 74
     0
 42
0.00000001
 43
0.00000001
 40
0.0
 40
0.0
 40
0.0
 40
0.0
 40
0.5
 40
0.5
 40
1.0
 40
1.0
 40
1.0
 40
1.0
 10
640.8728567997147
 20
573.845804680045
 30
0.0
 10
640.6390429548958
 20
573.8882717357639
 30
0.0
 10
640.4427093448911
 20
573.9832230545071
 30
0.0
 10
640.1247684770257
 20
574.2765457773008
 30
0.0
 10
640.0096347744637
 20
574.4683063934787
 30
0.0
 10
639.9336391455302
 20
574.702196889545
 30
0.0
  0
LINE
  5
174
330
1F
100
AcDbEntity
  8
0
  6
SLD-Solid
 62
   142
420
    32960
370
     0
100
AcDbLine
 10
634.0817096918
 20
562.3861265576
 30
0.0
 11
613.9956050574
 21
624.2048001167
 31
0.0
  0
LINE
  5
175
330
1F
100
AcDbEntity
  8
0
  6
SLD-Solid
 62
     7
370
    15
100
AcDbLine
 10
626.7924425799
 20
617.1808637209
 30
0.0
 11
640.3060024952
 21
575.5904028409
 31
0.0
  0
ARC
  5
176
330
1F
100
AcDbEntity
  8
0
  6
SLD-Solid
 62
   142
420
    32960
370
     0
100
AcDbCircle
 10
639.514211042
 20
575.4001901768
 30
0.0
 40
0.8143184653804824
100
AcDbArc
 50
301.001895257
 51
13.508234223
  0
SPLINE
  5
177
330
1F
100
AcDbEntity
  8
0
  6
SLD-Solid
 62
     7
370
    15
100
AcDbSpline
210
0.0
220
0.0
230
1.0
 70
     8
 71
     3
 72
    12
 73
     8
 74
     0
 42
0.00000001
 43
0.00000001
 40
0.0
 40
0.0
 40
0.0
 40
0.0
 40
0.25
 40
0.25
 40
0.5
 40
0.5
 40
1.0
 40
1.0
 40
1.0
 40
1.0
 10
626.2465848945578
 20
618.9030981196576
 30
0.0
 10
626.3301100254799
 20
618.871417150489
 30
0.0
 10
626.4097412237721
 20
618.8296700961179
 30
0.0
 10
626.5614097421209
 20
618.7265455590682
 30
0.0
 10
626.6323138649736
 20
618.6655400676149
 30
0.0
 10
626.8205214733065
 20
618.4631215813621
 30
0.0
 10
626.9156446687624
 20
618.297813549589
 30
0.0
 10
626.9639078763338
 20
618.1310932865355
 30
0.0
  0
SPLINE
  5
178
330
1F
100
AcDbEntity
  8
0
  6
SLD-Solid
 62
     7
370
    15
100
AcDbSpline
210
0.0
220
0.0
230
1.0
 70
     8
 71
     3
 72
    17
 73
    13
 74
     0
 42
0.00000001
 43
0.00000001
 40
0.0
 40
0.0
 40
0.0
 40
0.0
 40
0.0000166887075715
 40
0.0000166887075715
 40
0.0000166887075715
 40
0.0000336582619935
 40
0.0000336582619935
 40
0.0000336582619935
 40
0.0000426621382239
 40
0.0000426621382239
 40
0.0000426621382239
 40
0.0000451385286554
 40
0.0000451385286554
 40
0.0000451385286554
 40
0.0000451385286554
 10
626.225588275455
 20
618.9254618817432
 30
0.0
 10
626.2265430568127
 20
618.922523366877
 30
0.0
 10
626.2278259741215
 20
618.9195524537066
 30
0.0
 10
626.2296868100357
 20
618.9166138372917
 30
0.0
 10
626.2315646535382
 20
618.9136483626365
 30
0.0
 10
626.2340865940972
 20
618.9106321504553
 30
0.0
 10
626.237666538866
 20
618.9079446044113
 30
0.0
 10
626.2395818639899
 20
618.9065067262339
 30
0.0
 10
626.2418543300623
 20
618.905143194822
 30
0.0
 10
626.2443960129349
 20
618.9040025644181
 30
0.0
 10
626.2451045381216
 20
618.9036845997425
 30
0.0
 10
626.2458359840743
 20
618.9033821803907
 30
0.0
 10
626.2465848945577
 20
618.9030981196574
 30
0.0
  0
SPLINE
  5
179
330
1F
100
AcDbEntity
  8
0
  6
SLD-Solid
 62
   142
420
    32960
370
     0
100
AcDbSpline
210
0.0
220
0.0
230
1.0
 70
     8
 71
     3
 72
    10
 73
     6
 74
     0
 42
0.00000001
 43
0.00000001
 40
0.0
 40
0.0
 40
0.0
 40
0.0
 40
0.5
 40
0.5
 40
1.0
 40
1.0
 40
1.0
 40
1.0
 10
640.3060024952306
 20
575.5904028409327
 30
0.0
 10
640.3668539392324
 20
575.4031213535148
 30
0.0
 10
640.4538176804987
 20
575.2498082596287
 30
0.0
 10
640.6900642209336
 20
575.0195394802399
 30
0.0
 10
640.8342533671977
 20
574.9485878121619
 30
0.0
 10
641.0032517589598
 20
574.9224357462374
 30
0.0
  0
SPLINE
  5
17A
330
1F
100
AcDbEntity
  8
0
  6
SLD-Solid
 62
   142
420
    32960
370
     0
100
AcDbSpline
210
0.0
220
0.0
230
1.0
 70
     8
 71
     3
 72
    14
 73
    10
 74
     0
 42
0.00000001
 43
0.00000001
 40
0.0
 40
0.0
 40
0.0
 40
0.0
 40
0.25
 40
0.25
 40
0.5
 40
0.5
 40
0.75
 40
0.75
 40
1.0
 40
1.0
 40
1.0
 40
1.0
 10
641.0032517589598
 20
574.9224357462372
 30
0.0
 10
641.1583930996422
 20
574.9064641585946
 30
0.0
 10
641.3278723223818
 20
574.9317046997833
 30
0.0
 10
641.6924153078636
 20
575.0532688053952
 30
0.0
 10
641.8794894471843
 20
575.1469058380052
 30
0.0
 10
642.258234653851
 20
575.3832000420832
 30
0.0
 10
642.453059168751
 20
575.528642458903
 30
0.0
 10
642.8318353250693
 20
575.8511209032896
 30
0.0
 10
643.0175919743066
 20
576.0289400340127
 30
0.0
 10
643.1999537943435
 20
576.2225089819593
 30
0.0
  0
SPLINE
  5
17B
330
1F
100
AcDbEntity
  8
0
  6
SLD-Solid
 62
   142
420
    32960
370
     0
100
AcDbSpline
210
0.0
220
0.0
230
1.0
 70
     8
 71
     3
 72
    16
 73
    12
 74
     0
 42
0.00000001
 43
0.00000001
 40
0.0
 40
0.0
 40
0.0
 40
0.0
 40
0.2500000000000004
 40
0.2500000000000004
 40
0.5000000000000009
 40
0.5000000000000009
 40
0.6250000000000007
 40
0.6250000000000007
 40
0.7500000000000004
 40
0.7500000000000004
 40
1.0
 40
1.0
 40
1.0
 40
1.0
 10
643.9286995672936
 20
575.2511509315634
 30
0.0
 10
643.663175812659
 20
575.0233163309468
 30
0.0
 10
643.3949526278999
 20
574.8182085964854
 30
0.0
 10
642.8526684198401
 20
574.4544276711769
 30
0.0
 10
642.5766118376192
 20
574.2955234140651
 30
0.0
 10
642.1809122346274
 20
574.1104080542427
 30
0.0
 10
642.0511132857603
 20
574.0569171355851
 30
0.0
 10
641.7956249087757
 20
573.967438414214
 30
0.0
 10
641.6689290504762
 20
573.9312615164171
 30
0.0
 10
641.3033717062655
 20
573.8538513960494
 30
0.0
 10
641.0799454274473
 20
573.8427083757754
 30
0.0
 10
640.8766983318536
 20
573.8762388466872
 30
0.0
  0
SPLINE
  5
17C
330
1F
100
AcDbEntity
  8
0
  6
SLD-Solid
 62
   142
420
    32960
370
     0
100
AcDbSpline
210
0.0
220
0.0
230
1.0
 70
     8
 71
     3
 72
    14
 73
    10
 74
     0
 42
0.00000001
 43
0.00000001
 40
0.0
 40
0.0
 40
0.0
 40
0.0
 40
0.0000095361705259
 40
0.0000095361705259
 40
0.0000095361705259
 40
0.0000219642949667
 40
0.0000219642949667
 40
0.0000219642949667
 40
0.0000450544384129
 40
0.0000450544384129
 40
0.0000450544384129
 40
0.0000450544384129
 10
640.8766983318536
 20
573.8762388466872
 30
0.0
 10
640.8750319293725
 20
573.8736950629374
 30
0.0
 10
640.8737320146264
 20
573.8710636239666
 30
0.0
 10
640.8728397015072
 20
573.868594289903
 30
0.0
 10
640.8716760023609
 20
573.8653739383471
 30
0.0
 10
640.8711304081704
 20
573.8623185693364
 30
0.0
 10
640.8709619049479
 20
573.8595281720809
 30
0.0
 10
640.8706495622727
 20
573.8543558072433
 30
0.0
 10
640.8715379303309
 20
573.8498637426335
 30
0.0
 10
640.8728567997142
 20
573.8458046800449
 30
0.0
  0
LINE
  5
17D
330
1F
100
AcDbEntity
  8
0
  6
SLD-Solid
 62
     7
370
    15
100
AcDbLine
 10
644.4495109912
 20
621.2894657158
 30
0.0
 11
645.9193656307
 21
621.1275070946
 31
0.0
  0
LINE
  5
17E
330
1F
100
AcDbEntity
  8
0
  6
SLD-Solid
 62
   142
420
    32960
370
     0
100
AcDbLine
 10
646.9662156732
 20
617.905633953
 30
0.0
 11
645.9193656307
 21
621.1275070946
 31
0.0
  0
SPLINE
  5
17F
330
1F
100
AcDbEntity
  8
0
  6
SLD-Solid
 62
   142
420
    32960
370
     0
100
AcDbSpline
210
0.0
220
0.0
230
1.0
 70
     8
 71
     3
 72
     8
 73
     4
 74
     0
 42
0.00000001
 43
0.00000001
 40
0.0
 40
0.0
 40
0.0
 40
0.0
 40
1.0
 40
1.0
 40
1.0
 40
1.0
 10
625.4716509444252
 20
623.4100036857142
 30
0.0
 10
631.7990910329715
 20
622.71586712873
 30
0.0
 10
638.1256201130465
 20
622.0139427917192
 30
0.0
 10
644.449510991205
 20
621.2894657158103
 30
0.0
  0
SPLINE
  5
180
330
1F
100
AcDbEntity
  8
0
  6
SLD-Solid
 62
   142
420
    32960
370
     0
100
AcDbSpline
210
0.0
220
0.0
230
1.0
 70
     8
 71
     3
 72
    10
 73
     6
 74
     0
 42
0.00000001
 43
0.00000001
 40
0.0
 40
0.0
 40
0.0
 40
0.0
 40
0.5
 40
0.5
 40
1.0
 40
1.0
 40
1.0
 40
1.0
 10
625.4716509444252
 20
623.4100036857142
 30
0.0
 10
625.4088473506581
 20
623.4168934025242
 30
0.0
 10
625.3490739851612
 20
623.4236804868084
 30
0.0
 10
625.2638929582467
 20
623.4335303786439
 30
0.0
 10
625.2392835815284
 20
623.4364679610107
 30
0.0
 10
625.2392870445547
 20
623.4364996955742
 30
0.0
  0
LINE
  5
181
330
1F
100
AcDbEntity
  8
0
  6
SLD-Solid
 62
   142
420
    32960
370
     0
100
AcDbLine
 10
625.2392870446
 20
623.4364996956
 30
0.0
 11
625.2485874893
 21
623.4353830896
 31
0.0
  0
ARC
  5
182
330
1F
100
AcDbEntity
  8
0
  6
SLD-Solid
 62
   142
420
    32960
370
     0
100
AcDbCircle
 10
652.3648709982
 20
583.7057499934
 30
0.0
 40
5.651480467557958
100
AcDbArc
 50
33.9496313682
 51
44.8769008127
  0
ARC
  5
183
330
1F
100
AcDbEntity
  8
0
  6
SLD-Solid
 62
   142
420
    32960
370
     0
100
AcDbCircle
 10
640.2462261923
 20
573.2474783688
 30
0.0
 40
4.192292200784617
100
AcDbArc
 50
28.5510775205
 51
45.205872348
  0
ARC
  5
184
330
1F
100
AcDbEntity
  8
0
  6
SLD-Solid
 62
   142
420
    32960
370
     0
100
AcDbCircle
 10
646.980283112
 20
617.0699985294
 30
0.0
 40
0.8357538238397682
100
AcDbArc
 50
21.1613837536
 51
90.9644501976
  0
LINE
  5
185
330
1F
100
AcDbEntity
  8
0
  6
SLD-Solid
 62
     7
370
    15
100
AcDbLine
 10
647.7596798135
 20
617.3717024169
 30
0.0
 11
657.3810259134
 21
587.7602439199
 31
0.0
  0
ARC
  5
186
330
1F
100
AcDbEntity
  8
0
  6
SLD-Solid
 62
   142
420
    32960
370
     0
100
AcDbCircle
 10
656.9464341884
 20
586.6517858169
 30
0.0
 40
1.190608807907207
100
AcDbArc
 50
68.5914088265
 51
118.9762263586
  0
LINE
  5
187
330
1F
100
AcDbEntity
  8
0
  6
SLD-Solid
 62
     7
370
    15
100
AcDbLine
 10
657.3810259134
 20
587.7602439199
 30
0.0
 11
658.396378312
 21
584.6353105583
 31
0.0
  0
ARC
  5
188
330
1F
100
AcDbEntity
  8
0
  6
SLD-Solid
 62
   142
420
    32960
370
     0
100
AcDbCircle
 10
656.5731436409
 20
587.5462096053
 30
0.0
 40
0.8357538238402489
100
AcDbArc
 50
305.0355498025
 51
14.8386162464
  0
LINE
  5
189
330
1F
100
AcDbEntity
  8
0
  6
SLD-Solid
 62
   142
420
    32960
370
     0
100
AcDbLine
 10
646.7627960067
 20
620.4397952979
 30
0.0
 11
647.7596798135
 21
617.3717024169
 31
0.0
  0
SPLINE
  5
18A
330
1F
100
AcDbEntity
  8
0
  6
SLD-Solid
 62
   142
420
    32960
370
     0
100
AcDbSpline
210
0.0
220
0.0
230
1.0
 70
     8
 71
     3
 72
    10
 73
     6
 74
     0
 42
0.00000001
 43
0.00000001
 40
0.0
 40
0.0
 40
0.0
 40
0.0
 40
0.4999999999999991
 40
0.4999999999999991
 40
1.0
 40
1.0
 40
1.0
 40
1.0
 10
645.9193656307064
 20
621.1275070945882
 30
0.0
 10
646.1115714672885
 20
621.1063222540334
 30
0.0
 10
646.2936597935341
 20
621.0291931390362
 30
0.0
 10
646.5899204899035
 20
620.7878228454693
 30
0.0
 10
646.7030458062135
 20
620.6236875061187
 30
0.0
 10
646.7627960066525
 20
620.4397952978848
 30
0.0
  0
SPLINE
  5
18B
330
1F
100
AcDbEntity
  8
0
  6
SLD-Solid
 62
   142
420
    32960
370
     0
100
AcDbSpline
210
0.0
220
0.0
230
1.0
 70
     8
 71
     3
 72
    12
 73
     8
 74
     0
 42
0.00000001
 43
0.00000001
 40
0.0
 40
0.0
 40
0.0
 40
0.0
 40
0.2500000000000747
 40
0.2500000000000747
 40
0.5000000000001494
 40
0.5000000000001494
 40
1.0
 40
1.0
 40
1.0
 40
1.0
 10
640.8766983318538
 20
573.8762388466873
 30
0.0
 10
640.9256499757716
 20
573.9509641292951
 30
0.0
 10
640.9655346655861
 20
574.0315442497254
 30
0.0
 10
641.0276219924152
 20
574.2041222710583
 30
0.0
 10
641.0491265045865
 20
574.2951531481345
 30
0.0
 10
641.0824110571879
 20
574.5695388000365
 30
0.0
 10
641.0622017157133
 20
574.7591878184875
 30
0.0
 10
641.0032517589575
 20
574.9224357462438
 30
0.0
  0
LINE
  5
18C
330
1F
100
AcDbEntity
  8
0
  6
SLD-Solid
 62
   142
420
    32960
370
     0
100
AcDbLine
 10
649.1051482798
 20
546.9872481698
 30
0.0
 11
649.139125741
 21
547.081298859
 31
0.0
  0
LINE
  5
18D
330
1F
100
AcDbEntity
  8
0
  6
SLD-Solid
 62
   142
420
    32960
370
     0
100
AcDbLine
 10
644.5174825394
 20
548.6446228919
 30
0.0
 11
644.5514600006
 21
548.7386735811
 31
0.0
  0
LINE
  5
18E
330
1F
100
AcDbEntity
  8
0
  6
SLD-Solid
 62
     7
370
    15
100
AcDbLine
 10
657.0924767763
 20
519.8291362821
 30
0.0
 11
662.84569879
 21
526.7189142086
 31
0.0
  0
LINE
  5
18F
330
1F
100
AcDbEntity
  8
0
  6
SLD-Solid
 62
   142
420
    32960
370
     0
100
AcDbLine
 10
657.0924767763
 20
519.8291362821
 30
0.0
 11
655.810564781
 21
518.2939810338
 31
0.0
  0
ARC
  5
190
330
1F
100
AcDbEntity
  8
0
  6
SLD-Solid
 62
     7
370
    15
100
AcDbCircle
 10
654.5558604492
 20
533.6412389832
 30
0.0
 40
10.00000000000001
100
AcDbArc
 50
320.1368571726
 51
70.1368571726
  0
ARC
  5
191
330
1F
100
AcDbEntity
  8
0
  6
SLD-Solid
 62
     7
370
    15
100
AcDbCircle
 10
654.5558604492
 20
533.6412389832
 30
0.0
 40
10.79999999999998
100
AcDbArc
 50
320.1368571726
 51
70.1368571726
  0
LINE
  5
192
330
1F
100
AcDbEntity
  8
0
  6
SLD-Solid
 62
   142
420
    32960
370
     0
100
AcDbLine
 10
657.9536065713
 20
543.0463078978
 30
0.0
 11
658.2254262611
 21
543.798713411
 31
0.0
  0
LINE
  5
193
330
1F
100
AcDbEntity
  8
0
  6
SLD-Solid
 62
     7
370
    15
100
AcDbLine
 10
656.478414677
 20
520.3419010802
 30
0.0
 11
662.2316366907
 21
527.2316790067
 31
0.0
  0
LINE
  5
194
330
1F
100
AcDbEntity
  8
0
  6
SLD-Solid
 62
   142
420
    32960
370
     0
100
AcDbLine
 10
655.1965026817
 20
518.8067458319
 30
0.0
 11
656.478414677
 21
520.3419010802
 31
0.0
  0
LINE
  5
195
330
1F
100
AcDbEntity
  8
0
  6
SLD-Solid
 62
   142
420
    32960
370
     0
100
AcDbLine
 10
657.9536065713
 20
543.0463078978
 30
0.0
 11
640.2038173088
 21
549.4587306224
 31
0.0
  0
LINE
  5
196
330
1F
100
AcDbEntity
  8
0
  6
SLD-Solid
 62
   142
420
    32960
370
     0
100
AcDbLine
 10
640.2038173088
 20
549.4587306224
 30
0.0
 11
635.5012828515
 21
551.1576036835
 31
0.0
  0
LINE
  5
197
330
1F
100
AcDbEntity
  8
0
  6
SLD-Solid
 62
   142
420
    32960
370
     0
100
AcDbLine
 10
635.5012828515
 20
551.1576036835
 30
0.0
 11
635.2294631617
 21
551.2558033144
 31
0.0
  0
LINE
  5
198
330
1F
100
AcDbEntity
  8
0
  6
SLD-Solid
 62
   142
420
    32960
370
     0
100
AcDbLine
 10
635.7731025412
 20
551.9100091966
 30
0.0
 11
640.4756369986
 21
550.2111361356
 31
0.0
  0
LINE
  5
199
330
1F
100
AcDbEntity
  8
0
  6
SLD-Solid
 62
   142
420
    32960
370
     0
100
AcDbLine
 10
658.2254262611
 20
543.798713411
 30
0.0
 11
640.4756369986
 21
550.2111361356
 31
0.0
  0
LINE
  5
19A
330
1F
100
AcDbEntity
  8
0
  6
SLD-Solid
 62
   142
420
    32960
370
     0
100
AcDbLine
 10
635.7731025412
 20
551.9100091966
 30
0.0
 11
635.5012828515
 21
552.0082088276
 31
0.0
  0
LINE
  5
19B
330
1F
100
AcDbEntity
  8
0
  6
SLD-Solid
 62
   142
420
    32960
370
     0
100
AcDbLine
 10
656.478414677
 20
520.3419010802
 30
0.0
 11
657.0924767763
 21
519.8291362821
 31
0.0
  0
LINE
  5
19C
330
1F
100
AcDbEntity
  8
0
  6
SLD-Solid
 62
   142
420
    32960
370
     0
100
AcDbLine
 10
655.810564781
 20
518.2939810338
 30
0.0
 11
655.1965026817
 21
518.8067458319
 31
0.0
  0
ARC
  5
19D
330
1F
100
AcDbEntity
  8
0
  6
SLD-Solid
 62
   142
420
    32960
370
     0
100
AcDbCircle
 10
634.8047448965
 20
550.0801697001
 30
0.0
 40
2.05000000000001
100
AcDbArc
 50
70.1368571726
 51
90.0
  0
LINE
  5
19E
330
1F
100
AcDbEntity
  8
0
  6
SLD-Solid
 62
   142
420
    32960
370
     0
100
AcDbLine
 10
641.6385275101
 20
549.6846958967
 30
0.0
 11
641.6725049713
 21
549.7787465859
 31
0.0
  0
LINE
  5
19F
330
1F
100
AcDbEntity
  8
0
  6
SLD-Solid
 62
   142
420
    32960
370
     0
100
AcDbLine
 10
651.9841033162
 20
545.9471751624
 30
0.0
 11
652.0180807774
 21
546.0412258516
 31
0.0
  0
LINE
  5
1A0
330
1F
100
AcDbEntity
  8
0
  6
SLD-Solid
 62
   142
420
    32960
370
     0
100
AcDbLine
 10
506.3582125108
 20
665.7801697001
 30
0.0
 11
506.3582125108
 21
653.0801697001
 31
0.0
  0
ARC
  5
1A1
330
1F
100
AcDbEntity
  8
0
  6
SLD-Solid
 62
   142
420
    32960
370
     0
100
AcDbCircle
 10
507.5982125108
 20
665.7801697001
 30
0.0
 40
1.240000000000009
100
AcDbArc
 50
90.0
 51
180.0
  0
LINE
  5
1A2
330
1F
100
AcDbEntity
  8
0
  6
SLD-Solid
 62
     7
370
    15
100
AcDbLine
 10
529.3982125108
 20
667.0201697001
 30
0.0
 11
507.5982125108
 21
667.0201697001
 31
0.0
  0
ARC
  5
1A3
330
1F
100
AcDbEntity
  8
0
  6
SLD-Solid
 62
   142
420
    32960
370
     0
100
AcDbCircle
 10
529.3982125108
 20
669.4801697001
 30
0.0
 40
2.46000000000015
100
AcDbArc
 50
270.0
 51
0.0
  0
LINE
  5
1A4
330
1F
100
AcDbEntity
  8
0
  6
SLD-Solid
 62
   142
420
    32960
370
     0
100
AcDbLine
 10
531.8582125108
 20
685.7301697001
 30
0.0
 11
531.8582125108
 21
669.4801697001
 31
0.0
  0
LINE
  5
1A5
330
1F
100
AcDbEntity
  8
0
  6
SLD-Solid
 62
   142
420
    32960
370
     0
100
AcDbLine
 10
533.0982125108
 20
685.7301697001
 30
0.0
 11
531.8582125108
 21
685.7301697001
 31
0.0
  0
LINE
  5
1A6
330
1F
100
AcDbEntity
  8
0
  6
SLD-Solid
 62
   142
420
    32960
370
     0
100
AcDbLine
 10
533.0982125108
 20
685.7801697001
 30
0.0
 11
533.0982125108
 21
685.7301697001
 31
0.0
  0
LINE
  5
1A7
330
1F
100
AcDbEntity
  8
0
  6
SLD-Solid
 62
   142
420
    32960
370
     0
100
AcDbLine
 10
624.4150210092
 20
685.7301697001
 30
0.0
 11
624.4150210092
 21
685.7801697001
 31
0.0
  0
LINE
  5
1A8
330
1F
100
AcDbEntity
  8
0
  6
SLD-Solid
 62
   142
420
    32960
370
     0
100
AcDbLine
 10
624.9150210092
 20
685.7301697001
 30
0.0
 11
624.4150210092
 21
685.7301697001
 31
0.0
  0
LINE
  5
1A9
330
1F
100
AcDbEntity
  8
0
  6
SLD-Solid
 62
   142
420
    32960
370
     0
100
AcDbLine
 10
624.9150210092
 20
686.924487148
 30
0.0
 11
624.9150210092
 21
685.7301697001
 31
0.0
  0
ARC
  5
1AA
330
1F
100
AcDbEntity
  8
0
  6
SLD-Solid
 62
     7
370
    15
100
AcDbCircle
 10
624.4150210092
 20
664.9301697001
 30
0.0
 40
21.99999999999999
100
AcDbArc
 50
293.5
 51
88.6977110648
  0
LINE
  5
1AB
330
1F
100
AcDbEntity
  8
0
  6
SLD-Solid
 62
     7
370
    15
100
AcDbLine
 10
609.6923659386
 20
634.5388727938
 30
0.0
 11
633.1875005256
 21
644.7548480636
 31
0.0
  0
LINE
  5
1AC
330
1F
100
AcDbEntity
  8
0
  6
SLD-Solid
 62
   142
420
    32960
370
     0
100
AcDbLine
 10
609.6923659386
 20
634.5388727938
 30
0.0
 11
609.6923659386
 21
635.6801697001
 31
0.0
  0
ARC
  5
1AD
330
1F
100
AcDbEntity
  8
0
  6
SLD-Solid
 62
   142
420
    32960
370
     0
100
AcDbCircle
 10
609.5673659386
 20
635.6801697001
 30
0.0
 40
0.125
100
AcDbArc
 50
0.0
 51
180.0
  0
LINE
  5
1AE
330
1F
100
AcDbEntity
  8
0
  6
SLD-Solid
 62
   142
420
    32960
370
     0
100
AcDbLine
 10
589.2482125108
 20
653.1301697001
 30
0.0
 11
589.2482125108
 21
635.6801697001
 31
0.0
  0
LINE
  5
1AF
330
1F
100
AcDbEntity
  8
0
  6
SLD-Solid
 62
   142
420
    32960
370
     0
100
AcDbLine
 10
589.2377769031
 20
653.1301697001
 30
0.0
 11
589.2482125108
 21
653.1301697001
 31
0.0
  0
ARC
  5
1B0
330
1F
100
AcDbEntity
  8
0
  6
SLD-Solid
 62
   142
420
    32960
370
     0
100
AcDbCircle
 10
589.1232125108
 20
653.0801697001
 30
0.0
 40
0.1250000000000767
100
AcDbArc
 50
23.5781784782
 51
156.4218215218
  0
LINE
  5
1B1
330
1F
100
AcDbEntity
  8
0
  6
SLD-Solid
 62
   142
420
    32960
370
     0
100
AcDbLine
 10
588.9982125108
 20
653.1301697001
 30
0.0
 11
589.0086481184
 21
653.1301697001
 31
0.0
  0
LINE
  5
1B2
330
1F
100
AcDbEntity
  8
0
  6
SLD-Solid
 62
   142
420
    32960
370
     0
100
AcDbLine
 10
588.9982125108
 20
653.0801697001
 30
0.0
 11
588.9982125108
 21
653.1301697001
 31
0.0
  0
ARC
  5
1B3
330
1F
100
AcDbEntity
  8
0
  6
SLD-Solid
 62
     7
370
    15
100
AcDbCircle
 10
612.407084147
 20
649.6229693388
 30
0.0
 40
0.2500000000000596
100
AcDbArc
 50
99.9421486627
 51
279.9421486626
  0
ARC
  5
1B4
330
1F
100
AcDbEntity
  8
0
  6
SLD-Solid
 62
   142
420
    32960
370
     0
100
AcDbCircle
 10
611.9150210092
 20
652.4301697001
 30
0.0
 40
3.100000000000069
100
AcDbArc
 50
279.9421486627
 51
80.0578513373
  0
ARC
  5
1B5
330
1F
100
AcDbEntity
  8
0
  6
SLD-Solid
 62
   142
420
    32960
370
     0
100
AcDbCircle
 10
612.407084147
 20
655.2373700614
 30
0.0
 40
0.2500000000000596
100
AcDbArc
 50
80.0578513374
 51
260.0578513373
  0
ARC
  5
1B6
330
1F
100
AcDbEntity
  8
0
  6
SLD-Solid
 62
   142
420
    32960
370
     0
100
AcDbCircle
 10
611.9150210092
 20
652.4301697001
 30
0.0
 40
2.600000000000082
100
AcDbArc
 50
279.9421486627
 51
80.0578513373
  0
ARC
  5
1B7
330
1F
100
AcDbEntity
  8
0
  6
SLD-Solid
 62
   142
420
    32960
370
     0
100
AcDbCircle
 10
611.4229578714
 20
655.2373700614
 30
0.0
 40
0.2500000000000596
100
AcDbArc
 50
279.9421486627
 51
99.9421486627
  0
ARC
  5
1B8
330
1F
100
AcDbEntity
  8
0
  6
SLD-Solid
 62
   142
420
    32960
370
     0
100
AcDbCircle
 10
611.9150210092
 20
652.4301697001
 30
0.0
 40
3.099999999999937
100
AcDbArc
 50
99.9421486627
 51
260.0578513373
  0
ARC
  5
1B9
330
1F
100
AcDbEntity
  8
0
  6
SLD-Solid
 62
   142
420
    32960
370
     0
100
AcDbCircle
 10
611.4229578714
 20
649.6229693388
 30
0.0
 40
0.2500000000000793
100
AcDbArc
 50
260.0578513374
 51
80.0578513373
  0
ARC
  5
1BA
330
1F
100
AcDbEntity
  8
0
  6
SLD-Solid
 62
     7
370
    15
100
AcDbCircle
 10
611.9150210092
 20
652.4301697001
 30
0.0
 40
2.600000000000042
100
AcDbArc
 50
99.9421486627
 51
260.0578513373
  0
LINE
  5
1BB
330
1F
100
AcDbEntity
  8
0
  6
SLD-Solid
 62
   142
420
    32960
370
     0
100
AcDbLine
 10
609.4423659386
 20
635.6801697001
 30
0.0
 11
609.4423659386
 21
633.2301697001
 31
0.0
  0
LINE
  5
1BC
330
1F
100
AcDbEntity
  8
0
  6
SLD-Solid
 62
     7
370
    15
100
AcDbLine
 10
589.2482125108
 20
633.2301697001
 30
0.0
 11
590.7482125107
 21
633.2301697001
 31
0.0
  0
LINE
  5
1BD
330
1F
100
AcDbEntity
  8
0
  6
SLD-Solid
 62
     7
370
    15
100
AcDbLine
 10
606.9873733266
 20
633.2301697001
 30
0.0
 11
609.4423659386
 21
633.2301697001
 31
0.0
  0
LINE
  5
1BE
330
1F
100
AcDbEntity
  8
0
  6
SLD-Solid
 62
   142
420
    32960
370
     0
100
AcDbLine
 10
589.2482125108
 20
633.2301697001
 30
0.0
 11
589.2482125108
 21
635.6801697001
 31
0.0
  0
LINE
  5
1BF
330
1F
100
AcDbEntity
  8
0
  6
SLD-Solid
 62
   142
420
    32960
370
     0
100
AcDbLine
 10
506.3582125108
 20
650.6301697001
 30
0.0
 11
506.3582125108
 21
653.0801697001
 31
0.0
  0
LINE
  5
1C0
330
1F
100
AcDbEntity
  8
0
  6
SLD-Solid
 62
   142
420
    32960
370
     0
100
AcDbLine
 10
588.9982125108
 20
650.6301697001
 30
0.0
 11
506.3582125108
 21
650.6301697001
 31
0.0
  0
LINE
  5
1C1
330
1F
100
AcDbEntity
  8
0
  6
SLD-Solid
 62
   142
420
    32960
370
     0
100
AcDbLine
 10
588.9982125108
 20
653.0801697001
 30
0.0
 11
588.9982125108
 21
650.6301697001
 31
0.0
  0
LINE
  5
1C2
330
1F
100
AcDbEntity
  8
0
  6
SLD-Solid
 62
     7
370
    15
100
AcDbLine
 10
533.0982125108
 20
688.2301697001
 30
0.0
 11
624.4150210092
 21
688.2301697001
 31
0.0
  0
LINE
  5
1C3
330
1F
100
AcDbEntity
  8
0
  6
SLD-Solid
 62
   142
420
    32960
370
     0
100
AcDbLine
 10
533.0982125108
 20
685.7801697001
 30
0.0
 11
533.0982125108
 21
688.2301697001
 31
0.0
  0
LINE
  5
1C4
330
1F
100
AcDbEntity
  8
0
  6
SLD-Solid
 62
   142
420
    32960
370
     0
100
AcDbLine
 10
624.4150210092
 20
688.2301697001
 30
0.0
 11
624.4150210092
 21
685.7801697001
 31
0.0
  0
LINE
  5
1C5
330
1F
100
AcDbEntity
  8
0
  6
SLD-Solid
 62
   142
420
    32960
370
     0
100
AcDbLine
 10
530.6482125108
 20
685.7801697001
 30
0.0
 11
530.6482125108
 21
669.4801697001
 31
0.0
  0
ARC
  5
1C6
330
1F
100
AcDbEntity
  8
0
  6
SLD-Solid
 62
   142
420
    32960
370
     0
100
AcDbCircle
 10
529.3982125108
 20
669.4801697001
 30
0.0
 40
1.250000000000114
100
AcDbArc
 50
270.0
 51
0.0
  0
LINE
  5
1C7
330
1F
100
AcDbEntity
  8
0
  6
SLD-Solid
 62
     7
370
    15
100
AcDbLine
 10
529.3982125108
 20
668.2301697001
 30
0.0
 11
507.5982125108
 21
668.2301697001
 31
0.0
  0
ARC
  5
1C8
330
1F
100
AcDbEntity
  8
0
  6
SLD-Solid
 62
     7
370
    15
100
AcDbCircle
 10
624.4150210092
 20
664.9301697001
 30
0.0
 40
23.30000000000005
100
AcDbArc
 50
293.5
 51
88.7703824493
  0
LINE
  5
1C9
330
1F
100
AcDbEntity
  8
0
  6
SLD-Solid
 62
   142
420
    32960
370
     0
100
AcDbLine
 10
624.9150210092
 20
687.0245128675
 30
0.0
 11
624.9150210092
 21
688.2248042755
 31
0.0
  0
ARC
  5
1CA
330
1F
100
AcDbEntity
  8
0
  6
SLD-Solid
 62
   142
420
    32960
370
     0
100
AcDbCircle
 10
624.4150210092
 20
664.9301697001
 30
0.0
 40
22.10000000000001
100
AcDbArc
 50
293.5
 51
88.703604783
  0
LINE
  5
1CB
330
1F
100
AcDbEntity
  8
0
  6
SLD-Solid
 62
     7
370
    15
100
AcDbLine
 10
610.9733327539
 20
634.9868089066
 30
0.0
 11
633.2273754325
 21
644.6631420562
 31
0.0
  0
LINE
  5
1CC
330
1F
100
AcDbEntity
  8
0
  6
SLD-Solid
 62
   142
420
    32960
370
     0
100
AcDbLine
 10
610.0562726795
 20
634.5880598377
 30
0.0
 11
610.9733327539
 21
634.9868089066
 31
0.0
  0
LINE
  5
1CD
330
1F
100
AcDbEntity
  8
0
  6
SLD-Solid
 62
     7
370
    15
100
AcDbLine
 10
529.3982125108
 20
667.0301697001
 30
0.0
 11
507.5982125108
 21
667.0301697001
 31
0.0
  0
LINE
  5
1CE
330
1F
100
AcDbEntity
  8
0
  6
SLD-Solid
 62
   142
420
    32960
370
     0
100
AcDbLine
 10
507.5982125108
 20
668.2301697001
 30
0.0
 11
507.5982125108
 21
667.0301697001
 31
0.0
  0
LINE
  5
1CF
330
1F
100
AcDbEntity
  8
0
  6
SLD-Solid
 62
   142
420
    32960
370
     0
100
AcDbLine
 10
529.3982125108
 20
667.0301697001
 30
0.0
 11
529.3982125108
 21
668.2301697001
 31
0.0
  0
ARC
  5
1D0
330
1F
100
AcDbEntity
  8
0
  6
SLD-Solid
 62
   142
420
    32960
370
     0
100
AcDbCircle
 10
624.4150210092
 20
664.9301697001
 30
0.0
 40
23.30000000000002
100
AcDbArc
 50
88.7703824493
 51
90.0
  0
LINE
  5
1D1
330
1F
100
AcDbEntity
  8
0
  6
SLD-Solid
 62
     7
370
    15
100
AcDbLine
 10
611.4518316366
 20
633.8863368174
 30
0.0
 11
633.7058743152
 21
643.5626699669
 31
0.0
  0
LINE
  5
1D2
330
1F
100
AcDbEntity
  8
0
  6
SLD-Solid
 62
   142
420
    32960
370
     0
100
AcDbLine
 10
611.4518316366
 20
633.8863368174
 30
0.0
 11
610.5347715622
 21
633.4875877484
 31
0.0
  0
LINE
  5
1D3
330
1F
100
AcDbEntity
  8
0
  6
SLD-Solid
 62
   142
420
    32960
370
     0
100
AcDbLine
 10
610.9733327539
 20
634.9868089066
 30
0.0
 11
611.4518316366
 21
633.8863368174
 31
0.0
  0
ARC
  5
1D4
330
1F
100
AcDbEntity
  8
0
  6
SLD-Solid
 62
   142
420
    32960
370
     0
100
AcDbCircle
 10
533.0982125108
 20
685.7801697001
 30
0.0
 40
2.450000000000045
100
AcDbArc
 50
90.0
 51
180.0
  0
LINE
  5
1D5
330
1F
100
AcDbEntity
  8
0
  6
SLD-Solid
 62
   142
420
    32960
370
     0
100
AcDbLine
 10
-118.0517874892
 20
652.0301697001
 30
0.0
 11
-118.0517874892
 21
687.4301697001
 31
0.0
  0
LINE
  5
1D6
330
1F
100
AcDbEntity
  8
0
  6
SLD-Solid
 62
   142
420
    32960
370
     0
100
AcDbLine
 10
-117.5517874892
 20
736.2269389577
 30
0.0
 11
-118.0516675723
 21
736.2269389577
 31
0.0
  0
LINE
  5
1D7
330
1F
100
AcDbEntity
  8
0
  6
SLD-Solid
 62
   142
420
    32960
370
     0
100
AcDbLine
 10
-118.0517874892
 20
652.0301697001
 30
0.0
 11
-117.5517874892
 21
652.0301697001
 31
0.0
  0
LINE
  5
1D8
330
1F
100
AcDbEntity
  8
0
  6
SLD-Solid
 62
   142
420
    32960
370
     0
100
AcDbLine
 10
-150.9488399711
 20
494.0301697001
 30
0.0
 11
-147.0517874892
 21
494.0301697001
 31
0.0
  0
LINE
  5
1D9
330
1F
100
AcDbEntity
  8
0
  6
SLD-Solid
 62
     7
370
    15
100
AcDbLine
 10
-172.0517874892
 20
481.0301697001
 30
0.0
 11
-147.0517874892
 21
481.0301697001
 31
0.0
  0
LINE
  5
1DA
330
1F
100
AcDbEntity
  8
0
  6
SLD-Solid
 62
   142
420
    32960
370
     0
100
AcDbLine
 10
-148.0517874892
 20
480.0301697001
 30
0.0
 11
-171.0517874892
 21
480.0301697001
 31
0.0
  0
LINE
  5
1DB
330
1F
100
AcDbEntity
  8
0
  6
SLD-Solid
 62
     7
370
    15
100
AcDbLine
 10
471.6482125108
 20
698.2301697001
 30
0.0
 11
284.6482125108
 21
698.2301697001
 31
0.0
  0
LINE
  5
1DC
330
1F
100
AcDbEntity
  8
0
  6
SLD-Solid
 62
   142
420
    32960
370
     0
100
AcDbLine
 10
284.6482125108
 20
696.7301697001
 30
0.0
 11
471.6482125108
 21
696.7301697001
 31
0.0
  0
LINE
  5
1DD
330
1F
100
AcDbEntity
  8
0
  6
SLD-Solid
 62
     7
370
    15
100
AcDbLine
 10
286.6482125108
 20
700.2301697001
 30
0.0
 11
469.6482125108
 21
700.2301697001
 31
0.0
  0
LINE
  5
1DE
330
1F
100
AcDbEntity
  8
0
  6
SLD-Solid
 62
     7
370
    15
100
AcDbLine
 10
-19.4517887058
 20
-202.0698302999
 30
0.0
 11
-72.451788635
 21
-202.0698302999
 31
0.0
  0
LINE
  5
1DF
330
1F
100
AcDbEntity
  8
0
  6
SLD-Solid
 62
     7
370
    15
100
AcDbLine
 10
-17.451788635
 20
-196.0698302999
 30
0.0
 11
-74.451788635
 21
-196.0698302999
 31
0.0
  0
LINE
  5
1E0
330
1F
100
AcDbEntity
  8
0
  6
SLD-Solid
 62
     7
370
    15
100
AcDbLine
 10
-65.1517874892
 20
689.4801697001
 30
0.0
 11
-64.6517874892
 21
689.4801697001
 31
0.0
  0
LINE
  5
1E1
330
1F
100
AcDbEntity
  8
0
  6
SLD-Solid
 62
   142
420
    32960
370
     0
100
AcDbLine
 10
-64.6517874892
 20
697.4801697001
 30
0.0
 11
-65.1517874892
 21
697.4801697001
 31
0.0
  0
LINE
  5
1E2
330
1F
100
AcDbEntity
  8
0
  6
SLD-Solid
 62
   142
420
    32960
370
     0
100
AcDbLine
 10
-62.6017874892
 20
687.4301697001
 30
0.0
 11
-62.6017874892
 21
686.9301697001
 31
0.0
  0
LINE
  5
1E3
330
1F
100
AcDbEntity
  8
0
  6
SLD-Solid
 62
     7
370
    15
100
AcDbLine
 10
-116.1447175706
 20
-25.7698302999
 30
0.0
 11
642.2411402938
 21
-25.7698302999
 31
0.0
  0
LINE
  5
1E4
330
1F
100
AcDbEntity
  8
0
  6
SLD-Solid
 62
   142
420
    32960
370
     0
100
AcDbLine
 10
642.2411402938
 20
7.1801697001
 30
0.0
 11
642.2411402938
 21
-25.7698302999
 31
0.0
  0
LINE
  5
1E5
330
1F
100
AcDbEntity
  8
0
  6
SLD-Solid
 62
   142
420
    32960
370
     0
100
AcDbLine
 10
-116.1447175706
 20
7.1801697001
 30
0.0
 11
-116.1447175706
 21
-25.7698302999
 31
0.0
  0
LINE
  5
1E6
330
1F
100
AcDbEntity
  8
0
  6
SLD-Solid
 62
     7
370
    15
100
AcDbLine
 10
-114.9017886384
 20
9.2301697001
 30
0.0
 11
640.9982113616
 21
9.2301697001
 31
0.0
  0
SPLINE
  5
1E7
330
1F
100
AcDbEntity
  8
0
  6
SLD-Solid
 62
   142
420
    32960
370
     0
100
AcDbSpline
210
0.0
220
0.0
230
1.0
 70
     8
 71
     3
 72
    22
 73
    18
 74
     0
 42
0.00000001
 43
0.00000001
 40
0.0
 40
0.0
 40
0.0
 40
0.0
 40
0.125
 40
0.125
 40
0.25
 40
0.25
 40
0.375
 40
0.375
 40
0.5
 40
0.5
 40
0.625
 40
0.625
 40
0.75
 40
0.75
 40
0.875
 40
0.875
 40
1.0
 40
1.0
 40
1.0
 40
1.0
 10
-116.1447175705562
 20
7.180169700105543
 30
0.0
 10
-116.0924667744264
 20
7.315539052962228
 30
0.0
 10
-116.0410233798142
 20
7.448795560243249
 30
0.0
 10
-115.9379976348853
 20
7.710605206693977
 30
0.0
 10
-115.8860293778647
 20
7.840098862391232
 30
0.0
 10
-115.781996171496
 20
8.089111265010441
 30
0.0
 10
-115.730642218802
 20
8.206974202983218
 30
0.0
 10
-115.6275337311363
 20
8.42918313027119
 30
0.0
 10
-115.5752384520407
 20
8.5344855471699
 30
0.0
 10
-115.471580527602
 20
8.724418620632612
 30
0.0
 10
-115.4202746854182
 20
8.80916833750156
 30
0.0
 10
-115.3169983693253
 20
8.95803713810539
 30
0.0
 10
-115.2645691019188
 20
9.022463082651754
 30
0.0
 10
-115.1611984172695
 20
9.125062438049113
 30
0.0
 10
-115.1099006501328
 20
9.163954176602706
 30
0.0
 10
-115.006371185948
 20
9.21661002916574
 30
0.0
 10
-114.9540394359109
 20
9.230169700105485
 30
0.0
 10
-114.901788638368
 20
9.230169700105485
 30
0.0
  0
SPLINE
  5
1E8
330
1F
100
AcDbEntity
  8
0
  6
SLD-Solid
 62
   142
420
    32960
370
     0
100
AcDbSpline
210
0.0
220
0.0
230
1.0
 70
     8
 71
     3
 72
    22
 73
    18
 74
     0
 42
0.00000001
 43
0.00000001
 40
0.0
 40
0.0
 40
0.0
 40
0.0
 40
0.125
 40
0.125
 40
0.25
 40
0.25
 40
0.375
 40
0.375
 40
0.5
 40
0.5
 40
0.625
 40
0.625
 40
0.75
 40
0.75
 40
0.875
 40
0.875
 40
1.0
 40
1.0
 40
1.0
 40
1.0
 10
640.9982113616319
 20
9.230169700105485
 30
0.0
 10
641.0504621577618
 20
9.230169700105485
 30
0.0
 10
641.101905552374
 20
9.21687115177855
 30
0.0
 10
641.2049312973029
 20
9.164848724364127
 30
0.0
 10
641.2568995543235
 20
9.125717042284986
 30
0.0
 10
641.3609327606922
 20
9.022582843644432
 30
0.0
 10
641.4122867133864
 20
8.95949929822465
 30
0.0
 10
641.515395201052
 20
8.811214382859035
 30
0.0
 10
641.5676904801477
 20
8.72495406878382
 30
0.0
 10
641.6713484045864
 20
8.535096056323244
 30
0.0
 10
641.7226542467702
 20
8.431873687677506
 30
0.0
 10
641.8259305628626
 20
8.20953202992014
 30
0.0
 10
641.8783598302693
 20
8.089227150108291
 30
0.0
 10
641.9817305149185
 20
7.841851340075534
 30
0.0
 10
642.0330282820553
 20
7.714104540951894
 30
0.0
 10
642.1365577462401
 20
7.451090444305642
 30
0.0
 10
642.1888894962773
 20
7.315539056623132
 30
0.0
 10
642.2411402938202
 20
7.180169700105543
 30
0.0
  0
SPLINE
  5
1E9
330
1F
100
AcDbEntity
  8
0
  6
SLD-Solid
 62
   142
420
    32960
370
     0
100
AcDbSpline
210
0.0
220
0.0
230
1.0
 70
     8
 71
     3
 72
    22
 73
    18
 74
     0
 42
0.00000001
 43
0.00000001
 40
0.0
 40
0.0
 40
0.0
 40
0.0
 40
0.125
 40
0.125
 40
0.25
 40
0.25
 40
0.375
 40
0.375
 40
0.5
 40
0.5
 40
0.625
 40
0.625
 40
0.75
 40
0.75
 40
0.875
 40
0.875
 40
1.0
 40
1.0
 40
1.0
 40
1.0
 10
643.0482113616321
 20
7.180169700105543
 30
0.0
 10
643.0482113616321
 20
7.315539052962228
 30
0.0
 10
643.034912813305
 20
7.448795560243305
 30
0.0
 10
642.9828903858908
 20
7.710605206693977
 30
0.0
 10
642.9437587038115
 20
7.840098862391232
 30
0.0
 10
642.8406245051709
 20
8.089111265010496
 30
0.0
 10
642.7775409597511
 20
8.206974202983218
 30
0.0
 10
642.6292560443856
 20
8.42918313027119
 30
0.0
 10
642.5429957303104
 20
8.5344855471699
 30
0.0
 10
642.3531377178498
 20
8.724418620632612
 30
0.0
 10
642.249915349204
 20
8.80916833750156
 30
0.0
 10
642.0275736914467
 20
8.958037138105446
 30
0.0
 10
641.9072688116347
 20
9.022463082651754
 30
0.0
 10
641.659893001602
 20
9.12506243804917
 30
0.0
 10
641.5321462024783
 20
9.163954176602761
 30
0.0
 10
641.269132105832
 20
9.21661002916574
 30
0.0
 10
641.1335807181496
 20
9.23016970010554
 30
0.0
 10
640.9982113616319
 20
9.23016970010554
 30
0.0
  0
SPLINE
  5
1EA
330
1F
100
AcDbEntity
  8
0
  6
SLD-Solid
 62
   142
420
    32960
370
     0
100
AcDbSpline
210
0.0
220
0.0
230
1.0
 70
     8
 71
     3
 72
    22
 73
    18
 74
     0
 42
0.00000001
 43
0.00000001
 40
0.0
 40
0.0
 40
0.0
 40
0.0
 40
0.125
 40
0.125
 40
0.25
 40
0.25
 40
0.375
 40
0.375
 40
0.5
 40
0.5
 40
0.625
 40
0.625
 40
0.75
 40
0.75
 40
0.875
 40
0.875
 40
1.0
 40
1.0
 40
1.0
 40
1.0
 10
-114.9017886383679
 20
9.23016970010554
 30
0.0
 10
-115.0371579912247
 20
9.23016970010554
 30
0.0
 10
-115.1704144985056
 20
9.216871151778605
 30
0.0
 10
-115.4322241449562
 20
9.164848724364184
 30
0.0
 10
-115.5617178006539
 20
9.125717042284986
 30
0.0
 10
-115.8107302032728
 20
9.022582843644432
 30
0.0
 10
-115.9285931412459
 20
8.959499298224705
 30
0.0
 10
-116.1508020685336
 20
8.811214382859035
 30
0.0
 10
-116.2561044854323
 20
8.724954068783875
 30
0.0
 10
-116.446037558895
 20
8.5350960563233
 30
0.0
 10
-116.530787275764
 20
8.43187368767756
 30
0.0
 10
-116.6796560763679
 20
8.209532029920197
 30
0.0
 10
-116.7440820209141
 20
8.089227150108346
 30
0.0
 10
-116.8466813763116
 20
7.841851340075589
 30
0.0
 10
-116.8855731148652
 20
7.714104540951894
 30
0.0
 10
-116.9382289674281
 20
7.451090444305586
 30
0.0
 10
-116.9517886383681
 20
7.315539056623188
 30
0.0
 10
-116.951788638368
 20
7.180169700105543
 30
0.0
  0
LINE
  5
1EB
330
1F
100
AcDbEntity
  8
0
  6
SLD-Solid
 62
   142
420
    32960
370
     0
100
AcDbLine
 10
642.2482113616
 20
7.1801697001
 30
0.0
 11
642.2482113616
 21
-25.7698302999
 31
0.0
  0
LINE
  5
1EC
330
1F
100
AcDbEntity
  8
0
  6
SLD-Solid
 62
   142
420
    32960
370
     0
100
AcDbLine
 10
643.0482113616
 20
7.1801697001
 30
0.0
 11
643.0482113616
 21
-25.7698302999
 31
0.0
  0
LINE
  5
1ED
330
1F
100
AcDbEntity
  8
0
  6
SLD-Solid
 62
   142
420
    32960
370
     0
100
AcDbLine
 10
-116.9517886384
 20
7.1801697001
 30
0.0
 11
-116.9517886384
 21
-25.7698302999
 31
0.0
  0
LINE
  5
1EE
330
1F
100
AcDbEntity
  8
0
  6
SLD-Solid
 62
   142
420
    32960
370
     0
100
AcDbLine
 10
643.0482113616
 20
-25.7698302999
 30
0.0
 11
642.2482113616
 21
-25.7698302999
 31
0.0
  0
LINE
  5
1EF
330
1F
100
AcDbEntity
  8
0
  6
SLD-Solid
 62
   142
420
    32960
370
     0
100
AcDbLine
 10
-116.9517886384
 20
-25.7698302999
 30
0.0
 11
-116.1517886384
 21
-25.7698302999
 31
0.0
  0
LINE
  5
1F0
330
1F
100
AcDbEntity
  8
0
  6
SLD-Solid
 62
   142
420
    32960
370
     0
100
AcDbLine
 10
-116.1517886384
 20
7.1801697001
 30
0.0
 11
-116.1517886384
 21
-25.7698302999
 31
0.0
  0
LINE
  5
1F1
330
1F
100
AcDbEntity
  8
0
  6
SLD-Solid
 62
     7
370
    15
100
AcDbLine
 10
-103.4517886384
 20
382.2301697001
 30
0.0
 11
-87.7517886384
 21
382.2301697001
 31
0.0
  0
LINE
  5
1F2
330
1F
100
AcDbEntity
  8
0
  6
SLD-Solid
 62
   142
420
    32960
370
     0
100
AcDbLine
 10
-87.7517886384
 20
382.2301697001
 30
0.0
 11
-85.2517886384
 21
382.2301697001
 31
0.0
  0
LINE
  5
1F3
330
1F
100
AcDbEntity
  8
0
  6
SLD-Solid
 62
   142
420
    32960
370
     0
100
AcDbLine
 10
-85.2517886384
 20
382.2301697001
 30
0.0
 11
-84.2517886384
 21
382.2301697001
 31
0.0
  0
LINE
  5
1F4
330
1F
100
AcDbEntity
  8
0
  6
SLD-Solid
 62
     7
370
    15
100
AcDbLine
 10
-84.2517886384
 20
382.2301697001
 30
0.0
 11
-81.7517886384
 21
382.2301697001
 31
0.0
  0
LINE
  5
1F5
330
1F
100
AcDbEntity
  8
0
  6
SLD-Solid
 62
     7
370
    15
100
AcDbLine
 10
-81.7517886384
 20
382.2301697001
 30
0.0
 11
-65.8660022007
 21
382.2301697001
 31
0.0
  0
LINE
  5
1F6
330
1F
100
AcDbEntity
  8
0
  6
SLD-Solid
 62
     7
370
    15
100
AcDbLine
 10
-27.4517886384
 20
382.2301697001
 30
0.0
 11
-10.1517886384
 21
382.2301697001
 31
0.0
  0
LINE
  5
1F7
330
1F
100
AcDbEntity
  8
0
  6
SLD-Solid
 62
     7
370
    15
100
AcDbLine
 10
-10.1517886384
 20
382.2301697001
 30
0.0
 11
-7.6517886384
 21
382.2301697001
 31
0.0
  0
LINE
  5
1F8
330
1F
100
AcDbEntity
  8
0
  6
SLD-Solid
 62
   142
420
    32960
370
     0
100
AcDbLine
 10
-7.6517886384
 20
382.2301697001
 30
0.0
 11
-6.6517886384
 21
382.2301697001
 31
0.0
  0
LINE
  5
1F9
330
1F
100
AcDbEntity
  8
0
  6
SLD-Solid
 62
   142
420
    32960
370
     0
100
AcDbLine
 10
-6.6517886384
 20
382.2301697001
 30
0.0
 11
-4.1517886384
 21
382.2301697001
 31
0.0
  0
LINE
  5
1FA
330
1F
100
AcDbEntity
  8
0
  6
SLD-Solid
 62
     7
370
    15
100
AcDbLine
 10
-4.1517886384
 20
382.2301697001
 30
0.0
 11
11.5482113616
 21
382.2301697001
 31
0.0
  0
LINE
  5
1FB
330
1F
100
AcDbEntity
  8
0
  6
SLD-Solid
 62
     7
370
    15
100
AcDbLine
 10
11.5482113616
 20
382.2301697001
 30
0.0
 11
14.0482113616
 21
382.2301697001
 31
0.0
  0
LINE
  5
1FC
330
1F
100
AcDbEntity
  8
0
  6
SLD-Solid
 62
   142
420
    32960
370
     0
100
AcDbLine
 10
-105.9517886384
 20
382.2301697001
 30
0.0
 11
-103.4517886384
 21
382.2301697001
 31
0.0
  0
LINE
  5
1FD
330
1F
100
AcDbEntity
  8
0
  6
SLD-Solid
 62
   142
420
    32960
370
     0
100
AcDbLine
 10
-87.7517886384
 20
382.2301697001
 30
0.0
 11
-87.7517886384
 21
384.7301697001
 31
0.0
  0
LINE
  5
1FE
330
1F
100
AcDbEntity
  8
0
  6
SLD-Solid
 62
   142
420
    32960
370
     0
100
AcDbLine
 10
-103.4517886384
 20
382.2301697001
 30
0.0
 11
-103.4517886384
 21
384.7301697001
 31
0.0
  0
LINE
  5
1FF
330
1F
100
AcDbEntity
  8
0
  6
SLD-Solid
 62
     7
370
    15
100
AcDbLine
 10
-103.4517886384
 20
384.7301697001
 30
0.0
 11
-87.7517886384
 21
384.7301697001
 31
0.0
  0
LINE
  5
200
330
1F
100
AcDbEntity
  8
0
  6
SLD-Solid
 62
     7
370
    15
100
AcDbLine
 10
11.5482113616
 20
384.7301697001
 30
0.0
 11
14.0482113616
 21
384.7301697001
 31
0.0
  0
LINE
  5
201
330
1F
100
AcDbEntity
  8
0
  6
SLD-Solid
 62
     7
370
    15
100
AcDbLine
 10
-4.1517886384
 20
384.7301697001
 30
0.0
 11
11.5482113616
 21
384.7301697001
 31
0.0
  0
LINE
  5
202
330
1F
100
AcDbEntity
  8
0
  6
SLD-Solid
 62
   142
420
    32960
370
     0
100
AcDbLine
 10
-6.6517886384
 20
384.7301697001
 30
0.0
 11
-4.1517886384
 21
384.7301697001
 31
0.0
  0
LINE
  5
203
330
1F
100
AcDbEntity
  8
0
  6
SLD-Solid
 62
   142
420
    32960
370
     0
100
AcDbLine
 10
-7.6517886384
 20
384.7301697001
 30
0.0
 11
-6.6517886384
 21
384.7301697001
 31
0.0
  0
LINE
  5
204
330
1F
100
AcDbEntity
  8
0
  6
SLD-Solid
 62
     7
370
    15
100
AcDbLine
 10
-10.1517886384
 20
384.7301697001
 30
0.0
 11
-7.6517886384
 21
384.7301697001
 31
0.0
  0
LINE
  5
205
330
1F
100
AcDbEntity
  8
0
  6
SLD-Solid
 62
     7
370
    15
100
AcDbLine
 10
-81.7517886384
 20
384.7301697001
 30
0.0
 11
-10.1517886384
 21
384.7301697001
 31
0.0
  0
LINE
  5
206
330
1F
100
AcDbEntity
  8
0
  6
SLD-Solid
 62
     7
370
    15
100
AcDbLine
 10
-84.2517886384
 20
384.7301697001
 30
0.0
 11
-81.7517886384
 21
384.7301697001
 31
0.0
  0
LINE
  5
207
330
1F
100
AcDbEntity
  8
0
  6
SLD-Solid
 62
   142
420
    32960
370
     0
100
AcDbLine
 10
-85.2517886384
 20
384.7301697001
 30
0.0
 11
-84.2517886384
 21
384.7301697001
 31
0.0
  0
LINE
  5
208
330
1F
100
AcDbEntity
  8
0
  6
SLD-Solid
 62
   142
420
    32960
370
     0
100
AcDbLine
 10
-87.7517886384
 20
384.7301697001
 30
0.0
 11
-85.2517886384
 21
384.7301697001
 31
0.0
  0
LINE
  5
209
330
1F
100
AcDbEntity
  8
0
  6
SLD-Solid
 62
   142
420
    32960
370
     0
100
AcDbLine
 10
-105.9517886384
 20
384.7301697001
 30
0.0
 11
-103.4517886384
 21
384.7301697001
 31
0.0
  0
LINE
  5
20A
330
1F
100
AcDbEntity
  8
0
  6
SLD-Solid
 62
   142
420
    32960
370
     0
100
AcDbLine
 10
-84.2517886384
 20
382.2301697001
 30
0.0
 11
-84.2517886384
 21
384.7301697001
 31
0.0
  0
LINE
  5
20B
330
1F
100
AcDbEntity
  8
0
  6
SLD-Solid
 62
   142
420
    32960
370
     0
100
AcDbLine
 10
-7.6517886384
 20
382.2301697001
 30
0.0
 11
-7.6517886384
 21
384.7301697001
 31
0.0
  0
LINE
  5
20C
330
1F
100
AcDbEntity
  8
0
  6
SLD-Solid
 62
   142
420
    32960
370
     0
100
AcDbLine
 10
-4.1517886384
 20
382.2301697001
 30
0.0
 11
-4.1517886384
 21
384.7301697001
 31
0.0
  0
LINE
  5
20D
330
1F
100
AcDbEntity
  8
0
  6
SLD-Solid
 62
     7
370
    15
100
AcDbLine
 10
14.0482113616
 20
382.2301697001
 30
0.0
 11
14.0482113616
 21
384.7301697001
 31
0.0
  0
LINE
  5
20E
330
1F
100
AcDbEntity
  8
0
  6
SLD-Solid
 62
   142
420
    32960
370
     0
100
AcDbLine
 10
-105.9517886384
 20
382.2301697001
 30
0.0
 11
-105.9517886384
 21
384.7301697001
 31
0.0
  0
LINE
  5
20F
330
1F
100
AcDbEntity
  8
0
  6
SLD-Solid
 62
   142
420
    32960
370
     0
100
AcDbLine
 10
-85.6517886384
 20
382.2301697001
 30
0.0
 11
-85.6517886384
 21
384.7301697001
 31
0.0
  0
LINE
  5
210
330
1F
100
AcDbEntity
  8
0
  6
SLD-Solid
 62
   142
420
    32960
370
     0
100
AcDbLine
 10
-6.2517886384
 20
382.2301697001
 30
0.0
 11
-6.2517886384
 21
384.7301697001
 31
0.0
  0
LINE
  5
211
330
1F
100
AcDbEntity
  8
0
  6
SLD-Solid
 62
   142
420
    32960
370
     0
100
AcDbLine
 10
469.7460456854
 20
696.6367371522
 30
0.0
 11
286.5503793363
 21
696.6367371522
 31
0.0
  0
LINE
  5
212
330
1F
100
AcDbEntity
  8
0
  6
SLD-Solid
 62
   142
420
    32960
370
     0
100
AcDbLine
 10
476.2476245589
 20
688.5433046043
 30
0.0
 11
280.0488004628
 21
688.5433046043
 31
0.0
  0
LINE
  5
213
330
1F
100
AcDbEntity
  8
0
  6
SLD-Solid
 62
     7
370
    15
100
AcDbLine
 10
541.6982125108
 20
650.4301697001
 30
0.0
 11
589.2482125108
 21
650.4301697001
 31
0.0
  0
LINE
  5
214
330
1F
100
AcDbEntity
  8
0
  6
SLD-Solid
 62
   142
420
    32960
370
     0
100
AcDbLine
 10
541.6982125108
 20
650.4301697001
 30
0.0
 11
541.6982125108
 21
650.6301697001
 31
0.0
  0
LINE
  5
215
330
1F
100
AcDbEntity
  8
0
  6
SLD-Solid
 62
   142
420
    32960
370
     0
100
AcDbLine
 10
588.9982125108
 20
652.8801697001
 30
0.0
 11
589.2482125108
 21
652.8801697001
 31
0.0
  0
LINE
  5
216
330
1F
100
AcDbEntity
  8
0
  6
SLD-Solid
 62
   142
420
    32960
370
     0
100
AcDbLine
 10
-15.9017874892
 20
667.4301697001
 30
0.0
 11
-15.9017874892
 21
666.9301697001
 31
0.0
  0
LINE
  5
217
330
1F
100
AcDbEntity
  8
0
  6
SLD-Solid
 62
   142
420
    32960
370
     0
100
AcDbLine
 10
-38.1017874892
 20
667.4301697001
 30
0.0
 11
-38.1017874892
 21
666.9301697001
 31
0.0
  0
ARC
  5
218
330
1F
100
AcDbEntity
  8
0
  6
SLD-Solid
 62
   142
420
    32960
370
     0
100
AcDbCircle
 10
-117.0517874892
 20
652.0301697001
 30
0.0
 40
0.5000000000000568
100
AcDbArc
 50
180.0
 51
270.0
  0
ARC
  5
219
330
1F
100
AcDbEntity
  8
0
  6
SLD-Solid
 62
   142
420
    32960
370
     0
100
AcDbCircle
 10
-15.6517874892
 20
652.0301697001
 30
0.0
 40
0.5000000000000568
100
AcDbArc
 50
270.0
 51
0.0
  0
LINE
  5
21A
330
1F
100
AcDbEntity
  8
0
  6
SLD-Solid
 62
   142
420
    32960
370
     0
100
AcDbLine
 10
-15.1517874892
 20
652.0301697001
 30
0.0
 11
-15.1517874892
 21
666.1801697001
 31
0.0
  0
ARC
  5
21B
330
1F
100
AcDbEntity
  8
0
  6
SLD-Solid
 62
   142
420
    32960
370
     0
100
AcDbCircle
 10
-15.9017874892
 20
666.1801697001
 30
0.0
 40
0.7500000000000284
100
AcDbArc
 50
0.0
 51
90.0
  0
ARC
  5
21C
330
1F
100
AcDbEntity
  8
0
  6
SLD-Solid
 62
   142
420
    32960
370
     0
100
AcDbCircle
 10
-38.1017874892
 20
669.4801697001
 30
0.0
 40
2.550000000000068
100
AcDbArc
 50
180.0
 51
270.0
  0
LINE
  5
21D
330
1F
100
AcDbEntity
  8
0
  6
SLD-Solid
 62
   142
420
    32960
370
     0
100
AcDbLine
 10
-40.6517874892
 20
669.4801697001
 30
0.0
 11
-40.6517874892
 21
686.1801697001
 31
0.0
  0
ARC
  5
21E
330
1F
100
AcDbEntity
  8
0
  6
SLD-Solid
 62
   142
420
    32960
370
     0
100
AcDbCircle
 10
-41.4017874892
 20
686.1801697001
 30
0.0
 40
0.7500000000000284
100
AcDbArc
 50
0.0
 51
90.0
  0
LINE
  5
21F
330
1F
100
AcDbEntity
  8
0
  6
SLD-Solid
 62
   142
420
    32960
370
     0
100
AcDbLine
 10
-41.4017874892
 20
686.9301697001
 30
0.0
 11
-62.6017874892
 21
686.9301697001
 31
0.0
  0
ARC
  5
220
330
1F
100
AcDbEntity
  8
0
  6
SLD-Solid
 62
   142
420
    32960
370
     0
100
AcDbCircle
 10
-62.6017874892
 20
689.4801697001
 30
0.0
 40
2.550000000000054
100
AcDbArc
 50
180.0
 51
270.0
  0
LINE
  5
221
330
1F
100
AcDbEntity
  8
0
  6
SLD-Solid
 62
   142
420
    32960
370
     0
100
AcDbLine
 10
-65.1517874892
 20
689.4801697001
 30
0.0
 11
-65.1517874892
 21
704.3643090985
 31
0.0
  0
ARC
  5
222
330
1F
100
AcDbEntity
  8
0
  6
SLD-Solid
 62
   142
420
    32960
370
     0
100
AcDbCircle
 10
-116.8017874892
 20
736.2269389577
 30
0.0
 40
0.7499999999995879
100
AcDbArc
 50
75.0
 51
180.0000000001
  0
LINE
  5
223
330
1F
100
AcDbEntity
  8
0
  6
SLD-Solid
 62
   142
420
    32960
370
     0
100
AcDbLine
 10
-117.5517874892
 20
736.2269389577
 30
0.0
 11
-117.5517874892
 21
652.0301697001
 31
0.0
  0
LINE
  5
224
330
1F
100
AcDbEntity
  8
0
  6
SLD-Solid
 62
     7
370
    15
100
AcDbLine
 10
-15.6517874892
 20
651.0301697001
 30
0.0
 11
-117.0517874892
 21
651.0301697001
 31
0.0
  0
LINE
  5
225
330
1F
100
AcDbEntity
  8
0
  6
SLD-Solid
 62
   142
420
    32960
370
     0
100
AcDbLine
 10
-15.6517874892
 20
651.0301697001
 30
0.0
 11
-15.6517874892
 21
651.5301697001
 31
0.0
  0
LINE
  5
226
330
1F
100
AcDbEntity
  8
0
  6
SLD-Solid
 62
   142
420
    32960
370
     0
100
AcDbLine
 10
-117.0517874892
 20
651.5301697001
 30
0.0
 11
-117.0517874892
 21
651.0301697001
 31
0.0
  0
LINE
  5
227
330
1F
100
AcDbEntity
  8
0
  6
SLD-Solid
 62
   142
420
    32960
370
     0
100
AcDbLine
 10
-65.1517874892
 20
704.3643090985
 30
0.0
 11
-64.6517874892
 21
704.3643090985
 31
0.0
  0
LINE
  5
228
330
1F
100
AcDbEntity
  8
0
  6
SLD-Solid
 62
   142
420
    32960
370
     0
100
AcDbLine
 10
-116.6076732054
 20
736.9513833274
 30
0.0
 11
-116.4825942863
 21
737.4181842085
 31
0.0
  0
ARC
  5
229
330
1F
100
AcDbEntity
  8
0
  6
SLD-Solid
 62
   142
420
    32960
370
     0
100
AcDbCircle
 10
-15.6517874892
 20
652.0301697001
 30
0.0
 40
1.000000000000002
100
AcDbArc
 50
270.0
 51
0.0
  0
LINE
  5
22A
330
1F
100
AcDbEntity
  8
0
  6
SLD-Solid
 62
   142
420
    32960
370
     0
100
AcDbLine
 10
-14.6517874892
 20
657.4301697001
 30
0.0
 11
-14.6517874892
 21
652.0301697001
 31
0.0
  0
LINE
  5
22B
330
1F
100
AcDbEntity
  8
0
  6
SLD-Solid
 62
   142
420
    32960
370
     0
100
AcDbLine
 10
-25.9517886384
 20
382.2301697001
 30
0.0
 11
-25.9517886384
 21
9.2301697001
 31
0.0
  0
LINE
  5
22C
330
1F
100
AcDbEntity
  8
0
  6
SLD-Solid
 62
   142
420
    32960
370
     0
100
AcDbLine
 10
589.5482125107
 20
386.2495662408
 30
0.0
 11
589.5482125107
 21
509.6354241051
 31
0.0
  0
LINE
  5
22D
330
1F
100
AcDbEntity
  8
0
  6
SLD-Solid
 62
     7
370
    15
100
AcDbLine
 10
-80.951788635
 20
-34.0698302999
 30
0.0
 11
-80.951788635
 21
-32.0698302999
 31
0.0
  0
LINE
  5
22E
330
1F
100
AcDbEntity
  8
0
  6
SLD-Solid
 62
     7
370
    15
100
AcDbLine
 10
-10.951788635
 20
-34.0698302999
 30
0.0
 11
-10.951788635
 21
-32.0698302999
 31
0.0
  0
LINE
  5
22F
330
1F
100
AcDbEntity
  8
0
  6
SLD-Solid
 62
     7
370
    15
100
AcDbLine
 10
-80.951788635
 20
-34.0698302999
 30
0.0
 11
-10.951788635
 21
-34.0698302999
 31
0.0
  0
LINE
  5
230
330
1F
100
AcDbEntity
  8
0
  6
SLD-Solid
 62
   142
420
    32960
370
     0
100
AcDbLine
 10
-80.951788635
 20
-32.0698302999
 30
0.0
 11
-10.951788635
 21
-32.0698302999
 31
0.0
  0
LINE
  5
231
330
1F
100
AcDbEntity
  8
0
  6
SLD-Solid
 62
     7
370
    15
100
AcDbLine
 10
-14.9921384147
 20
-128.0698302999
 30
0.0
 11
-76.9114388554
 21
-128.0698302999
 31
0.0
  0
LINE
  5
232
330
1F
100
AcDbEntity
  8
0
  6
SLD-Solid
 62
   142
420
    32960
370
     0
100
AcDbLine
 10
647.5482125107
 20
475.442495173
 30
0.0
 11
649.1482125107
 21
475.442495173
 31
0.0
  0
LINE
  5
233
330
1F
100
AcDbEntity
  8
0
  6
SLD-Solid
 62
   142
420
    32960
370
     0
100
AcDbLine
 10
647.5482125107
 20
473.4437467378
 30
0.0
 11
649.1482125107
 21
473.4437467378
 31
0.0
  0
LINE
  5
234
330
1F
100
AcDbEntity
  8
0
  6
SLD-Solid
 62
   142
420
    32960
370
     0
100
AcDbLine
 10
-117.2517874892
 20
651.5719121306
 30
0.0
 11
-117.2517874892
 21
649.5301697001
 31
0.0
  0
LINE
  5
235
330
1F
100
AcDbEntity
  8
0
  6
SLD-Solid
 62
   142
420
    32960
370
     0
100
AcDbLine
 10
-117.2517874892
 20
648.1398406885
 30
0.0
 11
-117.2517874892
 21
386.8901920432
 31
0.0
  0
LINE
  5
236
330
1F
100
AcDbEntity
  8
0
  6
SLD-Solid
 62
   142
420
    32960
370
     0
100
AcDbLine
 10
-117.2517874892
 20
385.9301697001
 30
0.0
 11
-117.2517874892
 21
385.2301697001
 31
0.0
  0
LINE
  5
237
330
1F
100
AcDbEntity
  8
0
  6
SLD-Solid
 62
   142
420
    32960
370
     0
100
AcDbLine
 10
-118.0517874892
 20
652.0301697001
 30
0.0
 11
-118.0517874892
 21
385.2301697001
 31
0.0
  0
LINE
  5
238
330
1F
100
AcDbEntity
  8
0
  6
SLD-Solid
 62
   142
420
    32960
370
     0
100
AcDbLine
 10
-118.0517874892
 20
385.2301697001
 30
0.0
 11
-117.2517874892
 21
385.2301697001
 31
0.0
  0
LINE
  5
239
330
1F
100
AcDbEntity
  8
0
  6
SLD-Solid
 62
   142
420
    32960
370
     0
100
AcDbLine
 10
-118.0517874892
 20
403.2301697001
 30
0.0
 11
-117.2517874892
 21
403.2301697001
 31
0.0
  0
LINE
  5
23A
330
1F
100
AcDbEntity
  8
0
  6
SLD-Solid
 62
   142
420
    32960
370
     0
100
AcDbLine
 10
-118.0517874892
 20
409.2301697001
 30
0.0
 11
-117.2517874892
 21
409.2301697001
 31
0.0
  0
LINE
  5
23B
330
1F
100
AcDbEntity
  8
0
  6
SLD-Solid
 62
   142
420
    32960
370
     0
100
AcDbLine
 10
-118.0517874892
 20
436.6368017627
 30
0.0
 11
-117.2517874892
 21
436.6368017627
 31
0.0
  0
LINE
  5
23C
330
1F
100
AcDbEntity
  8
0
  6
SLD-Solid
 62
   142
420
    32960
370
     0
100
AcDbLine
 10
-118.0517874892
 20
431.6601535155
 30
0.0
 11
-117.2517874892
 21
431.6601535155
 31
0.0
  0
LINE
  5
23D
330
1F
100
AcDbEntity
  8
0
  6
SLD-Solid
 62
   142
420
    32960
370
     0
100
AcDbLine
 10
-118.0517874892
 20
431.1104277073
 30
0.0
 11
-117.2517874892
 21
431.1104277073
 31
0.0
  0
LINE
  5
23E
330
1F
100
AcDbEntity
  8
0
  6
SLD-Solid
 62
   142
420
    32960
370
     0
100
AcDbLine
 10
-118.0517874892
 20
429.8301697001
 30
0.0
 11
-117.2517874892
 21
429.8301697001
 31
0.0
  0
LINE
  5
23F
330
1F
100
AcDbEntity
  8
0
  6
SLD-Solid
 62
   142
420
    32960
370
     0
100
AcDbLine
 10
-118.0517874892
 20
438.8301697001
 30
0.0
 11
-117.2517874892
 21
438.8301697001
 31
0.0
  0
LINE
  5
240
330
1F
100
AcDbEntity
  8
0
  6
SLD-Solid
 62
   142
420
    32960
370
     0
100
AcDbLine
 10
-118.0517874892
 20
439.3301697001
 30
0.0
 11
-117.2517874892
 21
439.3301697001
 31
0.0
  0
LINE
  5
241
330
1F
100
AcDbEntity
  8
0
  6
SLD-Solid
 62
   142
420
    32960
370
     0
100
AcDbLine
 10
-27.4517886384
 20
382.2301697001
 30
0.0
 11
-27.4517886384
 21
9.2301697001
 31
0.0
  0
LINE
  5
242
330
1F
100
AcDbEntity
  8
0
  6
SLD-Solid
 62
   142
420
    32960
370
     0
100
AcDbLine
 10
-64.4517886384
 20
382.2301697001
 30
0.0
 11
-27.4517886384
 21
382.2301697001
 31
0.0
  0
LINE
  5
243
330
1F
100
AcDbEntity
  8
0
  6
SLD-Solid
 62
     7
370
    15
100
AcDbLine
 10
-65.9517886384
 20
382.2301697001
 30
0.0
 11
-65.9517886384
 21
9.2301697001
 31
0.0
  0
LINE
  5
244
330
1F
100
AcDbEntity
  8
0
  6
SLD-Solid
 62
   142
420
    32960
370
     0
100
AcDbLine
 10
-65.9517886384
 20
382.2301697001
 30
0.0
 11
-64.4517886384
 21
382.2301697001
 31
0.0
  0
LINE
  5
245
330
1F
100
AcDbEntity
  8
0
  6
SLD-Solid
 62
   142
420
    32960
370
     0
100
AcDbLine
 10
590.7982125107
 20
508.392495173
 30
0.0
 11
590.7982125107
 21
387.492495173
 31
0.0
  0
SPLINE
  5
246
330
1F
100
AcDbEntity
  8
0
  6
SLD-Solid
 62
   142
420
    32960
370
     0
100
AcDbSpline
210
0.0
220
0.0
230
1.0
 70
     8
 71
     3
 72
    14
 73
    10
 74
     0
 42
0.00000001
 43
0.00000001
 40
0.0
 40
0.0
 40
0.0
 40
0.0
 40
0.25
 40
0.25
 40
0.5
 40
0.5
 40
0.75
 40
0.75
 40
1.0
 40
1.0
 40
1.0
 40
1.0
 10
645.4982125107458
 20
508.3924951729601
 30
0.0
 10
645.4923199542411
 20
508.6608395454542
 30
0.0
 10
645.4864273977363
 20
508.9290783358966
 30
0.0
 10
645.4746422847269
 20
509.4249140827204
 30
0.0
 10
645.4687497282221
 20
509.6523159489088
 30
0.0
 10
645.4569646152127
 20
510.0318121998764
 30
0.0
 10
645.451072058708
 20
510.1837572690864
 30
0.0
 10
645.4392869456985
 20
510.3891391601304
 30
0.0
 10
645.4333943891938
 20
510.4424951729603
 30
0.0
 10
645.427501832689
 20
510.4424951729602
 30
0.0
  0
LINE
  5
247
330
1F
100
AcDbEntity
  8
0
  6
SLD-Solid
 62
   142
420
    32960
370
     0
100
AcDbLine
 10
589.5552835786
 20
510.442495173
 30
0.0
 11
645.4275018327
 21
510.442495173
 31
0.0
  0
SPLINE
  5
248
330
1F
100
AcDbEntity
  8
0
  6
SLD-Solid
 62
   142
420
    32960
370
     0
100
AcDbSpline
210
0.0
220
0.0
230
1.0
 70
     8
 71
     3
 72
    22
 73
    18
 74
     0
 42
0.00000001
 43
0.00000001
 40
0.0
 40
0.0
 40
0.0
 40
0.0
 40
0.125
 40
0.125
 40
0.25
 40
0.25
 40
0.375
 40
0.375
 40
0.5
 40
0.5
 40
0.625
 40
0.625
 40
0.75
 40
0.75
 40
0.875
 40
0.875
 40
1.0
 40
1.0
 40
1.0
 40
1.0
 10
589.5552835785612
 20
510.4424951729602
 30
0.0
 10
589.6075343746909
 20
510.4424951729602
 30
0.0
 10
589.6589777693032
 20
510.4291966246334
 30
0.0
 10
589.7620035142319
 20
510.3771741972186
 30
0.0
 10
589.8139717712525
 20
510.3380425151396
 30
0.0
 10
589.918004977621
 20
510.2349083164991
 30
0.0
 10
589.9693589303151
 20
510.1718247710792
 30
0.0
 10
590.0724674179806
 20
510.0235398557137
 30
0.0
 10
590.1247626970762
 20
509.9372795416387
 30
0.0
 10
590.2284206215148
 20
509.7474215291779
 30
0.0
 10
590.2797264636987
 20
509.644199160532
 30
0.0
 10
590.383002779791
 20
509.4218575027747
 30
0.0
 10
590.4354320471977
 20
509.301552622963
 30
0.0
 10
590.5388027318468
 20
509.0541768129303
 30
0.0
 10
590.5901004989835
 20
508.9264300138063
 30
0.0
 10
590.6936299631682
 20
508.6634159171598
 30
0.0
 10
590.7459617132052
 20
508.5278645294778
 30
0.0
 10
590.798212510748
 20
508.3924951729601
 30
0.0
  0
LINE
  5
249
330
1F
100
AcDbEntity
  8
0
  6
SLD-Solid
 62
     7
370
    15
100
AcDbLine
 10
647.5482125107
 20
508.392495173
 30
0.0
 11
647.5482125107
 21
387.492495173
 31
0.0
  0
LINE
  5
24A
330
1F
100
AcDbEntity
  8
0
  6
SLD-Solid
 62
     7
370
    15
100
AcDbLine
 10
647.5482125107
 20
387.492495173
 30
0.0
 11
645.4982125107
 21
387.492495173
 31
0.0
  0
LINE
  5
24B
330
1F
100
AcDbEntity
  8
0
  6
SLD-Solid
 62
   142
420
    32960
370
     0
100
AcDbLine
 10
645.4982125107
 20
508.392495173
 30
0.0
 11
647.5482125107
 21
508.392495173
 31
0.0
  0
LINE
  5
24C
330
1F
100
AcDbEntity
  8
0
  6
SLD-Solid
 62
     7
370
    15
100
AcDbLine
 10
589.5552835786
 20
385.442495173
 30
0.0
 11
645.3567911545
 21
385.442495173
 31
0.0
  0
SPLINE
  5
24D
330
1F
100
AcDbEntity
  8
0
  6
SLD-Solid
 62
   142
420
    32960
370
     0
100
AcDbSpline
210
0.0
220
0.0
230
1.0
 70
     8
 71
     3
 72
    14
 73
    10
 74
     0
 42
0.00000001
 43
0.00000001
 40
0.0
 40
0.0
 40
0.0
 40
0.0
 40
0.25
 40
0.25
 40
0.5
 40
0.5
 40
0.75
 40
0.75
 40
1.0
 40
1.0
 40
1.0
 40
1.0
 10
645.3567911545085
 20
385.44249517296
 30
0.0
 10
645.3685762675283
 20
385.4424951729599
 30
0.0
 10
645.380361380548
 20
385.4958511857896
 30
0.0
 10
645.4039316065875
 20
385.701233076833
 30
0.0
 10
645.4157167196073
 20
385.8531781460431
 30
0.0
 10
645.4392869456469
 20
386.2326743970108
 30
0.0
 10
645.4510720586667
 20
386.4600762631992
 30
0.0
 10
645.4746422847062
 20
386.9559120100233
 30
0.0
 10
645.486427397726
 20
387.2241508004657
 30
0.0
 10
645.4982125107458
 20
387.49249517296
 30
0.0
  0
SPLINE
  5
24E
330
1F
100
AcDbEntity
  8
0
  6
SLD-Solid
 62
   142
420
    32960
370
     0
100
AcDbSpline
210
0.0
220
0.0
230
1.0
 70
     8
 71
     3
 72
    14
 73
    10
 74
     0
 42
0.00000001
 43
0.00000001
 40
0.0
 40
0.0
 40
0.0
 40
0.0
 40
0.25
 40
0.25
 40
0.5
 40
0.5
 40
0.75
 40
0.75
 40
1.0
 40
1.0
 40
1.0
 40
1.0
 10
590.7982125107475
 20
387.4924951729623
 30
0.0
 10
590.6946350997315
 20
387.224150800468
 30
0.0
 10
590.5910576887156
 20
386.9559120100254
 30
0.0
 10
590.3839028666837
 20
386.4600762632011
 30
0.0
 10
590.2803254556679
 20
386.2326743970126
 30
0.0
 10
590.073170633636
 20
385.8531781460443
 30
0.0
 10
589.9695932226201
 20
385.7012330768342
 30
0.0
 10
589.7624384005882
 20
385.4958511857902
 30
0.0
 10
589.6588609895723
 20
385.44249517296
 30
0.0
 10
589.5552835785563
 20
385.44249517296
 30
0.0
  0
LINE
  5
24F
330
1F
100
AcDbEntity
  8
0
  6
SLD-Solid
 62
   142
420
    32960
370
     0
100
AcDbLine
 10
589.5552835786
 20
386.242495173
 30
0.0
 11
589.5552835786
 21
385.442495173
 31
0.0
  0
ARC
  5
250
330
1F
100
AcDbEntity
  8
0
  6
SLD-Solid
 62
     7
370
    15
100
AcDbCircle
 10
645.4982125107
 20
508.392495173
 30
0.0
 40
1.25
100
AcDbArc
 50
0.0
 51
90.0
  0
ARC
  5
251
330
1F
100
AcDbEntity
  8
0
  6
SLD-Solid
 62
     7
370
    15
100
AcDbCircle
 10
645.4982125107
 20
508.392495173
 30
0.0
 40
2.049999999999955
100
AcDbArc
 50
0.0
 51
90.0
  0
LINE
  5
252
330
1F
100
AcDbEntity
  8
0
  6
SLD-Solid
 62
   142
420
    32960
370
     0
100
AcDbLine
 10
645.4982125107
 20
509.642495173
 30
0.0
 11
645.4982125107
 21
510.442495173
 31
0.0
  0
ARC
  5
253
330
1F
100
AcDbEntity
  8
0
  6
SLD-Solid
 62
   142
420
    32960
370
     0
100
AcDbCircle
 10
645.4982125107
 20
387.492495173
 30
0.0
 40
2.050000000000068
100
AcDbArc
 50
270.0
 51
360.0
  0
LINE
  5
254
330
1F
100
AcDbEntity
  8
0
  6
SLD-Solid
 62
   142
420
    32960
370
     0
100
AcDbLine
 10
645.4982125107
 20
385.442495173
 30
0.0
 11
645.3567911545
 21
385.442495173
 31
0.0
  0
LINE
  5
255
330
1F
100
AcDbEntity
  8
0
  6
SLD-Solid
 62
   142
420
    32960
370
     0
100
AcDbLine
 10
589.5552835786
 20
385.442495173
 30
0.0
 11
588.7482125107
 21
385.442495173
 31
0.0
  0
LINE
  5
256
330
1F
100
AcDbEntity
  8
0
  6
SLD-Solid
 62
   142
420
    32960
370
     0
100
AcDbLine
 10
588.7482125107
 20
385.442495173
 30
0.0
 11
588.7482125107
 21
386.242495173
 31
0.0
  0
LINE
  5
257
330
1F
100
AcDbEntity
  8
0
  6
SLD-Solid
 62
   142
420
    32960
370
     0
100
AcDbLine
 10
641.6385275101
 20
549.6846958967
 30
0.0
 11
646.3410619674
 21
547.9858228357
 31
0.0
  0
LINE
  5
258
330
1F
100
AcDbEntity
  8
0
  6
SLD-Solid
 62
   142
420
    32960
370
     0
100
AcDbLine
 10
642.5790344015
 20
549.3449212845
 30
0.0
 11
645.4005550759
 21
548.3255974479
 31
0.0
  0
LINE
  5
259
330
1F
100
AcDbEntity
  8
0
  6
SLD-Solid
 62
   142
420
    32960
370
     0
100
AcDbLine
 10
589.6482125108
 20
513.8801697001
 30
0.0
 11
589.6482125108
 21
536.3801697001
 31
0.0
  0
ARC
  5
25A
330
1F
100
AcDbEntity
  8
0
  6
SLD-Solid
 62
   142
420
    32960
370
     0
100
AcDbCircle
 10
591.6982125108
 20
513.8801697001
 30
0.0
 40
2.050000000000068
100
AcDbArc
 50
180.0
 51
233.5865727938
  0
ARC
  5
25B
330
1F
100
AcDbEntity
  8
0
  6
SLD-Solid
 62
   142
420
    32960
370
     0
100
AcDbCircle
 10
588.3982125108
 20
536.3801697001
 30
0.0
 40
1.25
100
AcDbArc
 50
0.0
 51
73.7397952918
  0
LINE
  5
25C
330
1F
100
AcDbEntity
  8
0
  6
SLD-Solid
 62
   142
420
    32960
370
     0
100
AcDbLine
 10
647.5482125107
 20
415.442495173
 30
0.0
 11
649.1482125107
 21
415.442495173
 31
0.0
  0
SPLINE
  5
25D
330
1F
100
AcDbEntity
  8
0
  6
SLD-Solid
 62
   142
420
    32960
370
     0
100
AcDbSpline
210
0.0
220
0.0
230
1.0
 70
     8
 71
     3
 72
    18
 73
    14
 74
     0
 42
0.00000001
 43
0.00000001
 40
0.0
 40
0.0
 40
0.0
 40
0.0
 40
0.1251150348332581
 40
0.2502142338132838
 40
0.3753103425832128
 40
0.5003678378249643
 40
0.6304875666387565
 40
0.7500246333156937
 40
0.8126119443874696
 40
0.8749668753729752
 40
0.9374460115587133
 40
0.9687143461569494
 40
0.9999999999999999
 40
0.9999999999999999
 40
0.9999999999999999
 40
0.9999999999999999
 10
619.8351306234933
 20
623.8179248930028
 30
0.0
 10
619.9119816067409
 20
623.8128386053121
 30
0.0
 10
620.0656738461805
 20
623.8026666737042
 30
0.0
 10
620.2958812590896
 20
623.7876861438532
 30
0.0
 10
620.5248869053644
 20
623.7730834167536
 30
0.0
 10
620.7539352544026
 20
623.7588906252106
 30
0.0
 10
620.9705011821676
 20
623.7461506899471
 30
0.0
 10
621.1278528807082
 20
623.7375849048691
 30
0.0
 10
621.2263498664724
 20
623.7324722091059
 30
0.0
 10
621.2846294254042
 20
623.7295659582713
 30
0.0
 10
621.3123306292248
 20
623.72830152927
 30
0.0
 10
621.3231754161369
 20
623.7278565297759
 30
0.0
 10
621.3240795480776
 20
623.7278480087435
 30
0.0
 10
621.324531739211
 20
623.7278437470477
 30
0.0
  0
SPLINE
  5
25E
330
1F
100
AcDbEntity
  8
0
  6
SLD-Solid
 62
   142
420
    32960
370
     0
100
AcDbSpline
210
0.0
220
0.0
230
1.0
 70
     8
 71
     3
 72
    18
 73
    14
 74
     0
 42
0.00000001
 43
0.00000001
 40
0.0
 40
0.0
 40
0.0
 40
0.0
 40
0.0625056993940025
 40
0.1249366024064205
 40
0.1873950569475853
 40
0.2498256751883349
 40
0.3219622618204916
 40
0.3747766092284787
 40
0.4997092147424207
 40
0.6247460768752796
 40
0.7498233215064692
 40
0.8702808453861011
 40
1.0
 40
1.0
 40
1.0
 40
1.0
 10
618.2327232606037
 20
623.9332615811637
 30
0.0
 10
618.2348745084156
 20
623.933022590079
 30
0.0
 10
618.2391744297853
 20
623.9325448938945
 30
0.0
 10
618.278114938303
 20
623.9291314728478
 30
0.0
 10
618.3391875879147
 20
623.9239906724582
 30
0.0
 10
618.4245376023018
 20
623.9170193987671
 30
0.0
 10
618.5262954471717
 20
623.909137495063
 30
0.0
 10
618.6732360839001
 20
623.898120687112
 30
0.0
 10
618.8618236363487
 20
623.8843505342584
 30
0.0
 10
619.1030132946491
 20
623.8674087613574
 30
0.0
 10
619.3435063523309
 20
623.8509239334732
 30
0.0
 10
619.5877033704509
 20
623.8344193659065
 30
0.0
 10
619.7506441635326
 20
623.8235570923965
 30
0.0
 10
619.8351306234933
 20
623.8179248930028
 30
0.0
  0
SPLINE
  5
25F
330
1F
100
AcDbEntity
  8
0
  6
SLD-Solid
 62
   142
420
    32960
370
     0
100
AcDbSpline
210
0.0
220
0.0
230
1.0
 70
     8
 71
     3
 72
    16
 73
    12
 74
     0
 42
0.00000001
 43
0.00000001
 40
0.0
 40
0.0
 40
0.0
 40
0.0
 40
0.1252631461791278
 40
0.2505188863277844
 40
0.375753858542654
 40
0.5009662291660304
 40
0.6260366187426416
 40
0.750924097672495
 40
0.8647214306627531
 40
0.9776019377437231
 40
1.0
 40
1.0
 40
1.0
 40
1.0
 10
619.7759122524034
 20
623.8236524555102
 30
0.0
 10
619.6973408762605
 20
623.8289067743
 30
0.0
 10
619.5402027694116
 20
623.8394151012245
 30
0.0
 10
619.3047171539336
 20
623.8553481330232
 30
0.0
 10
619.0706372560397
 20
623.871489398513
 30
0.0
 10
618.8388981003093
 20
623.887721853599
 30
0.0
 10
618.614784058801
 20
623.9039579434271
 30
0.0
 10
618.4227362176538
 20
623.9185320798488
 30
0.0
 10
618.2781662689499
 20
623.9297677641638
 30
0.0
 10
618.2348521235015
 20
623.9332074925686
 30
0.0
 10
618.2330256668844
 20
623.9332538978456
 30
0.0
 10
618.2327232606037
 20
623.9332615811637
 30
0.0
  0
SPLINE
  5
260
330
1F
100
AcDbEntity
  8
0
  6
SLD-Solid
 62
   142
420
    32960
370
     0
100
AcDbSpline
210
0.0
220
0.0
230
1.0
 70
     8
 71
     3
 72
    13
 73
     9
 74
     0
 42
0.00000001
 43
0.00000001
 40
0.0
 40
0.0
 40
0.0
 40
0.0
 40
0.0625234477983339
 40
0.1250288441722384
 40
0.2500295548749958
 40
0.499912311242718
 40
0.7499314087066116
 40
1.0
 40
1.0
 40
1.0
 40
1.0
 10
621.0150393849145
 20
623.7450504424766
 30
0.0
 10
620.9917386203576
 20
623.7464123331954
 30
0.0
 10
620.9451438185116
 20
623.7491357214354
 30
0.0
 10
620.848156538052
 20
623.7548860715116
 30
0.0
 10
620.6712463158589
 20
623.7656589398689
 30
0.0
 10
620.4104296274618
 20
623.7820369801761
 30
0.0
 10
620.0935555464138
 20
623.802580165684
 30
0.0
 10
619.8818003362326
 20
623.8166278954654
 30
0.0
 10
619.7759122524034
 20
623.8236524555102
 30
0.0
  0
SPLINE
  5
261
330
1F
100
AcDbEntity
  8
0
  6
SLD-Solid
 62
   142
420
    32960
370
     0
100
AcDbSpline
210
0.0
220
0.0
230
1.0
 70
     8
 71
     3
 72
    13
 73
     9
 74
     0
 42
0.00000001
 43
0.00000001
 40
0.0
 40
0.0
 40
0.0
 40
0.0
 40
0.042727156243734
 40
0.2820231572482085
 40
0.520288506182292
 40
0.7600182588244896
 40
0.8796329299928964
 40
1.0
 40
1.0
 40
1.0
 40
1.0
 10
621.324531739211
 20
623.7278437470478
 30
0.0
 10
621.3241691048383
 20
623.7278726775992
 30
0.0
 10
621.321775514914
 20
623.7280636354398
 30
0.0
 10
621.3056353439448
 20
623.7288776311664
 30
0.0
 10
621.2370412082441
 20
623.7325470644215
 30
0.0
 10
621.1545048501896
 20
623.7370736140234
 30
0.0
 10
621.077206160295
 20
623.7414621916029
 30
0.0
 10
621.0358049109053
 20
623.7438518614608
 30
0.0
 10
621.0150393849145
 20
623.7450504424766
 30
0.0
  0
SPLINE
  5
262
330
1F
100
AcDbEntity
  8
0
  6
SLD-Solid
 62
   142
420
    32960
370
     0
100
AcDbSpline
210
0.0
220
0.0
230
1.0
 70
     8
 71
     3
 72
    13
 73
     9
 74
     0
 42
0.00000001
 43
0.00000001
 40
0.0
 40
0.0
 40
0.0
 40
0.0
 40
0.1251713704823756
 40
0.2502865226305486
 40
0.4999512569307836
 40
0.7496532036844196
 40
0.8747965534411198
 40
0.9999999999999999
 40
0.9999999999999999
 40
0.9999999999999999
 40
0.9999999999999999
 10
618.0369996951426
 20
623.9231550633182
 30
0.0
 10
617.9905691393592
 20
623.9274900282512
 30
0.0
 10
617.8977288811909
 20
623.9361580111503
 30
0.0
 10
617.7321653213277
 20
623.9523748370191
 30
0.0
 10
617.5649335500589
 20
623.9699314205808
 30
0.0
 10
617.4671813173555
 20
623.9812005581031
 30
0.0
 10
617.4317031817773
 20
623.9858374420081
 30
0.0
 10
617.4274882813697
 20
623.9865219029622
 30
0.0
 10
617.4253803252636
 20
623.9868642155931
 30
0.0
  0
SPLINE
  5
263
330
1F
100
AcDbEntity
  8
0
  6
SLD-Solid
 62
   142
420
    32960
370
     0
100
AcDbSpline
210
0.0
220
0.0
230
1.0
 70
     8
 71
     3
 72
    12
 73
     8
 74
     0
 42
0.00000001
 43
0.00000001
 40
0.0
 40
0.0
 40
0.0
 40
0.0
 40
0.2420149892903019
 40
0.4835752954378931
 40
0.7152139663226983
 40
0.9667770194125647
 40
1.0
 40
1.0
 40
1.0
 40
1.0
 10
622.1138914469473
 20
623.6754000187074
 30
0.0
 10
622.1078792763448
 20
623.6752410588712
 30
0.0
 10
622.0958662304431
 20
623.6749234378428
 30
0.0
 10
621.9561762871347
 20
623.676536615278
 30
0.0
 10
621.702764656181
 20
623.6842469485306
 30
0.0
 10
621.4790873273766
 20
623.6917421525982
 30
0.0
 10
621.3297596982978
 20
623.6997155582815
 30
0.0
 10
621.31233921999
 20
623.7006457313619
 30
0.0
  0
LINE
  5
264
330
1F
100
AcDbEntity
  8
0
  6
SLD-Solid
 62
   142
420
    32960
370
     0
100
AcDbLine
 10
622.0939500117
 20
623.6757091364
 30
0.0
 11
622.1138914469
 21
623.6754000187
 31
0.0
  0
LINE
  5
265
330
1F
100
AcDbEntity
  8
0
  6
SLD-Solid
 62
     7
370
    15
100
AcDbLine
 10
-178.575420414
 20
493.2301697001
 30
0.0
 11
-169.9724728959
 21
493.2301697001
 31
0.0
  0
LINE
  5
266
330
1F
100
AcDbEntity
  8
0
  6
SLD-Solid
 62
     7
370
    15
100
AcDbLine
 10
-169.9724728959
 20
493.2301697001
 30
0.0
 11
-150.9488399711
 21
493.2301697001
 31
0.0
  0
LINE
  5
267
330
1F
100
AcDbEntity
  8
0
  6
SLD-Solid
 62
   142
420
    32960
370
     0
100
AcDbLine
 10
-150.9488399711
 20
493.2301697001
 30
0.0
 11
-140.5281545645
 21
493.2301697001
 31
0.0
  0
LINE
  5
268
330
1F
100
AcDbEntity
  8
0
  6
SLD-Solid
 62
     7
370
    15
100
AcDbLine
 10
-169.9724728959
 20
496.2301697001
 30
0.0
 11
-169.9724728959
 21
493.2301697001
 31
0.0
  0
LINE
  5
269
330
1F
100
AcDbEntity
  8
0
  6
SLD-Solid
 62
   142
420
    32960
370
     0
100
AcDbLine
 10
-150.9488399711
 20
496.2301697001
 30
0.0
 11
-150.9488399711
 21
493.2301697001
 31
0.0
  0
LINE
  5
26A
330
1F
100
AcDbEntity
  8
0
  6
SLD-Solid
 62
     7
370
    15
100
AcDbLine
 10
-178.575420414
 20
496.2301697001
 30
0.0
 11
-178.575420414
 21
493.2301697001
 31
0.0
  0
LINE
  5
26B
330
1F
100
AcDbEntity
  8
0
  6
SLD-Solid
 62
   142
420
    32960
370
     0
100
AcDbLine
 10
642.6130118627
 20
549.4389719737
 30
0.0
 11
645.4345325371
 21
548.4196481371
 31
0.0
  0
LINE
  5
26C
330
1F
100
AcDbEntity
  8
0
  6
SLD-Solid
 62
   142
420
    32960
370
     0
100
AcDbLine
 10
-7.3517874892
 20
649.5301697001
 30
0.0
 11
-7.3517874892
 21
650.4301697001
 31
0.0
  0
LINE
  5
26D
330
1F
100
AcDbEntity
  8
0
  6
SLD-Solid
 62
   142
420
    32960
370
     0
100
AcDbLine
 10
649.1482125107
 20
473.4481172932
 30
0.0
 11
649.1482125107
 21
417.4364785029
 31
0.0
  0
LINE
  5
26E
330
1F
100
AcDbEntity
  8
0
  6
SLD-Solid
 62
     7
370
    15
100
AcDbLine
 10
650.5482125107
 20
472.9047796649
 30
0.0
 11
650.5482125107
 21
417.9802106811
 31
0.0
  0
SPLINE
  5
26F
330
1F
100
AcDbEntity
  8
0
  6
SLD-Solid
 62
   142
420
    32960
370
     0
100
AcDbSpline
210
0.0
220
0.0
230
1.0
 70
     8
 71
     3
 72
    19
 73
    15
 74
     0
 42
0.00000001
 43
0.00000001
 40
0.0
 40
0.0
 40
0.0
 40
0.0
 40
0.0570959080926636
 40
0.1156518052371082
 40
0.1756735616979807
 40
0.2371666253302729
 40
0.3001360595090827
 40
0.3645865770444704
 40
0.4305225705602802
 40
0.4979481397533481
 40
0.616204390729848
 40
0.7486213188526902
 40
0.8538534972356723
 40
1.0
 40
1.0
 40
1.0
 40
1.0
 10
649.1482125107456
 20
417.4364785028692
 30
0.0
 10
649.1968380777271
 20
417.4433044590318
 30
0.0
 10
649.2953326071942
 20
417.4571309166369
 30
0.0
 10
649.4371137264548
 20
417.4804941069137
 30
0.0
 10
649.5757595555576
 20
417.5060839671929
 30
0.0
 10
649.7097166246897
 20
417.5340835906269
 30
0.0
 10
649.8380630939178
 20
417.5644421355931
 30
0.0
 10
649.9596344520728
 20
417.5971738342183
 30
0.0
 10
650.0732911890628
 20
417.6322746152395
 30
0.0
 10
650.2032763687533
 20
417.6788859170639
 30
0.0
 10
650.3413646381686
 20
417.7410347973874
 30
0.0
 10
650.4528205910034
 20
417.8138457030881
 30
0.0
 10
650.5316820268396
 20
417.8949540557714
 30
0.0
 10
650.5421352293314
 20
417.9488668615243
 30
0.0
 10
650.5482125107455
 20
417.9802106810522
 30
0.0
  0
SPLINE
  5
270
330
1F
100
AcDbEntity
  8
0
  6
SLD-Solid
 62
     7
370
    15
100
AcDbSpline
210
0.0
220
0.0
230
1.0
 70
     8
 71
     3
 72
    19
 73
    15
 74
     0
 42
0.00000001
 43
0.00000001
 40
0.0
 40
0.0
 40
0.0
 40
0.0
 40
0.0571115640936047
 40
0.1156812592866445
 40
0.1757147833894042
 40
0.2372174247608469
 40
0.3001940990521368
 40
0.3646493820584512
 40
0.4305875391447104
 40
0.4980125516486575
 40
0.6162616165384428
 40
0.7486631924159406
 40
0.8538790033185841
 40
1.0
 40
1.0
 40
1.0
 40
1.0
 10
649.1482125107456
 20
475.4424951729622
 30
0.0
 10
649.1968377068065
 20
475.4106822375668
 30
0.0
 10
649.2953295622241
 20
475.3462441419457
 30
0.0
 10
649.4371110274961
 20
475.2376251856271
 30
0.0
 10
649.575756783634
 20
475.1185257879172
 30
0.0
 10
649.709713955439
 20
474.9879922707806
 30
0.0
 10
649.8380605255769
 20
474.8461900591466
 30
0.0
 10
649.9596320315909
 20
474.6930917868353
 30
0.0
 10
650.073288944721
 20
474.5288438839665
 30
0.0
 10
650.2032726524748
 20
474.311001796629
 30
0.0
 10
650.3413608280123
 20
474.0214935193865
 30
0.0
 10
650.4528188209853
 20
473.6811404450439
 30
0.0
 10
650.5316816704778
 20
473.3034100234291
 30
0.0
 10
650.5421351288701
 20
473.0513317382615
 30
0.0
 10
650.5482125107455
 20
472.9047796648723
 30
0.0
  0
SPLINE
  5
271
330
1F
100
AcDbEntity
  8
0
  6
SLD-Solid
 62
   142
420
    32960
370
     0
100
AcDbSpline
210
0.0
220
0.0
230
1.0
 70
     8
 71
     3
 72
    10
 73
     6
 74
     0
 42
0.00000001
 43
0.00000001
 40
0.0
 40
0.0
 40
0.0
 40
0.0
 40
0.5
 40
0.5
 40
1.0
 40
1.0
 40
1.0
 40
1.0
 10
649.1482125107456
 20
475.4424951729622
 30
0.0
 10
649.1476709135434
 20
475.442836643675
 30
0.0
 10
649.1482125107456
 20
475.2198939921985
 30
0.0
 10
649.1482125107456
 20
474.4968976170413
 30
0.0
 10
649.148754301999
 20
473.9977029056224
 30
0.0
 10
649.1482125107456
 20
473.4481172932358
 30
0.0
  0
SPLINE
  5
272
330
1F
100
AcDbEntity
  8
0
  6
SLD-Solid
 62
   142
420
    32960
370
     0
100
AcDbSpline
210
0.0
220
0.0
230
1.0
 70
     8
 71
     3
 72
    19
 73
    15
 74
     0
 42
0.00000001
 43
0.00000001
 40
0.0
 40
0.0
 40
0.0
 40
0.0
 40
0.0571143122037916
 40
0.115685969538609
 40
0.175720669903824
 40
0.2372237019665144
 40
0.3001999818643065
 40
0.3646540860234727
 40
0.4305902805559991
 40
0.4980125476391939
 40
0.6162771910106167
 40
0.7486631870564209
 40
0.8538896613728839
 40
1.0
 40
1.0
 40
1.0
 40
1.0
 10
649.1482125107456
 20
415.4424951729623
 30
0.0
 10
649.1968400253079
 20
415.4743096801889
 30
0.0
 10
649.2953358480065
 20
415.5387504827107
 30
0.0
 10
649.4371216600534
 20
415.6473736553427
 30
0.0
 10
649.575769510243
 20
415.7664761456538
 30
0.0
 10
649.709726734234
 20
415.8970113345203
 30
0.0
 10
649.8380716207462
 20
416.0388134535
 30
0.0
 10
649.9596400582452
 20
416.191909558457
 30
0.0
 10
650.0732929341104
 20
416.3561529667415
 30
0.0
 10
650.2032818601328
 20
416.5740044776898
 30
0.0
 10
650.3413667069591
 20
416.8635115988864
 30
0.0
 10
650.4528253331615
 20
417.2038754041922
 30
0.0
 10
650.5316831486805
 20
417.5815910579375
 30
0.0
 10
650.5421359526948
 20
417.8336693160265
 30
0.0
 10
650.5482125107455
 20
417.9802106810522
 30
0.0
  0
LINE
  5
273
330
1F
100
AcDbEntity
  8
0
  6
SLD-Solid
 62
   142
420
    32960
370
     0
100
AcDbLine
 10
571.5482113616
 20
-196.0698302999
 30
0.0
 11
514.5482113616
 21
-196.0698302999
 31
0.0
  0
LINE
  5
274
330
1F
100
AcDbEntity
  8
0
  6
SLD-Solid
 62
     7
370
    15
100
AcDbLine
 10
569.5482112908
 20
-202.0698302999
 30
0.0
 11
516.5482113616
 21
-202.0698302999
 31
0.0
  0
LINE
  5
275
330
1F
100
AcDbEntity
  8
0
  6
SLD-Solid
 62
   142
420
    32960
370
     0
100
AcDbLine
 10
-14.9030382715
 20
666.2301697001
 30
0.0
 11
-14.9017874892
 21
666.1801697001
 31
0.0
  0
LINE
  5
276
330
1F
100
AcDbEntity
  8
0
  6
SLD-Solid
 62
   142
420
    32960
370
     0
100
AcDbLine
 10
-14.9017874892
 20
666.1801697001
 30
0.0
 11
-14.9017874892
 21
652.0301697001
 31
0.0
  0
ARC
  5
277
330
1F
100
AcDbEntity
  8
0
  6
SLD-Solid
 62
   142
420
    32960
370
     0
100
AcDbCircle
 10
-15.6517874892
 20
652.0301697001
 30
0.0
 40
0.7500000000000284
100
AcDbArc
 50
270.0
 51
0.0
  0
ARC
  5
278
330
1F
100
AcDbEntity
  8
0
  6
SLD-Solid
 62
   142
420
    32960
370
     0
100
AcDbCircle
 10
-117.0517874892
 20
652.0301697001
 30
0.0
 40
0.7500000000000284
100
AcDbArc
 50
180.0
 51
270.0
  0
ARC
  5
279
330
1F
100
AcDbEntity
  8
0
  6
SLD-Solid
 62
   142
420
    32960
370
     0
100
AcDbCircle
 10
-116.8017874892
 20
736.2269389577
 30
0.0
 40
1.00000000000002
100
AcDbArc
 50
75.0
 51
180.0
  0
LINE
  5
27A
330
1F
100
AcDbEntity
  8
0
  6
SLD-Solid
 62
   142
420
    32960
370
     0
100
AcDbLine
 10
-64.9017874892
 20
704.3643090985
 30
0.0
 11
-64.9017874892
 21
697.4801697001
 31
0.0
  0
LINE
  5
27B
330
1F
100
AcDbEntity
  8
0
  6
SLD-Solid
 62
   142
420
    32960
370
     0
100
AcDbLine
 10
-62.6017874892
 20
687.1801697001
 30
0.0
 11
-41.4017874892
 21
687.1801697001
 31
0.0
  0
ARC
  5
27C
330
1F
100
AcDbEntity
  8
0
  6
SLD-Solid
 62
   142
420
    32960
370
     0
100
AcDbCircle
 10
-41.4017874892
 20
686.1801697001
 30
0.0
 40
0.9999999999998863
100
AcDbArc
 50
0.0
 51
90.0
  0
LINE
  5
27D
330
1F
100
AcDbEntity
  8
0
  6
SLD-Solid
 62
   142
420
    32960
370
     0
100
AcDbLine
 10
-40.4017874892
 20
686.1801697001
 30
0.0
 11
-40.4017874892
 21
669.4801697001
 31
0.0
  0
ARC
  5
27E
330
1F
100
AcDbEntity
  8
0
  6
SLD-Solid
 62
   142
420
    32960
370
     0
100
AcDbCircle
 10
-38.1017874892
 20
669.4801697001
 30
0.0
 40
2.299999999999969
100
AcDbArc
 50
180.0
 51
270.0
  0
LINE
  5
27F
330
1F
100
AcDbEntity
  8
0
  6
SLD-Solid
 62
   142
420
    32960
370
     0
100
AcDbLine
 10
-118.8517874892
 20
648.7230986323
 30
0.0
 11
-118.8517874892
 21
386.7372407679
 31
0.0
  0
LINE
  5
280
330
1F
100
AcDbEntity
  8
0
  6
SLD-Solid
 62
   142
420
    32960
370
     0
100
AcDbLine
 10
-118.8517874892
 20
386.7372407679
 30
0.0
 11
-118.0517874892
 21
386.7372407679
 31
0.0
  0
LINE
  5
281
330
1F
100
AcDbEntity
  8
0
  6
SLD-Solid
 62
   142
420
    32960
370
     0
100
AcDbLine
 10
-118.8517874892
 20
575.2301697001
 30
0.0
 11
-118.0517874892
 21
575.2301697001
 31
0.0
  0
LINE
  5
282
330
1F
100
AcDbEntity
  8
0
  6
SLD-Solid
 62
   142
420
    32960
370
     0
100
AcDbLine
 10
-118.8517874892
 20
460.2301697001
 30
0.0
 11
-118.0517874892
 21
460.2301697001
 31
0.0
  0
LINE
  5
283
330
1F
100
AcDbEntity
  8
0
  6
SLD-Solid
 62
   142
420
    32960
370
     0
100
AcDbLine
 10
-118.8517874892
 20
562.0801697001
 30
0.0
 11
-118.0517874892
 21
562.0801697001
 31
0.0
  0
LINE
  5
284
330
1F
100
AcDbEntity
  8
0
  6
SLD-Solid
 62
   142
420
    32960
370
     0
100
AcDbLine
 10
-118.8517874892
 20
570.2301697001
 30
0.0
 11
-118.0517874892
 21
570.2301697001
 31
0.0
  0
LINE
  5
285
330
1F
100
AcDbEntity
  8
0
  6
SLD-Solid
 62
   142
420
    32960
370
     0
100
AcDbLine
 10
-125.3517874893
 20
600.2301697001
 30
0.0
 11
-125.3517874893
 21
612.7301697001
 31
0.0
  0
LINE
  5
286
330
1F
100
AcDbEntity
  8
0
  6
SLD-Solid
 62
   142
420
    32960
370
     0
100
AcDbLine
 10
-125.3517874893
 20
587.7301697001
 30
0.0
 11
-125.3517874893
 21
600.2301697001
 31
0.0
  0
LINE
  5
287
330
1F
100
AcDbEntity
  8
0
  6
SLD-Solid
 62
   142
420
    32960
370
     0
100
AcDbLine
 10
639.7575137271
 20
550.3642451212
 30
0.0
 11
641.6385275101
 21
549.6846958967
 31
0.0
  0
LINE
  5
288
330
1F
100
AcDbEntity
  8
0
  6
SLD-Solid
 62
   142
420
    32960
370
     0
100
AcDbLine
 10
641.6385275101
 20
549.6846958967
 30
0.0
 11
651.9841033162
 21
545.9471751624
 31
0.0
  0
LINE
  5
289
330
1F
100
AcDbEntity
  8
0
  6
SLD-Solid
 62
   142
420
    32960
370
     0
100
AcDbLine
 10
651.9841033162
 20
545.9471751624
 30
0.0
 11
653.8651170991
 21
545.267625938
 31
0.0
  0
LINE
  5
28A
330
1F
100
AcDbEntity
  8
0
  6
SLD-Solid
 62
   142
420
    32960
370
     0
100
AcDbLine
 10
-116.8017874892
 20
647.4801697001
 30
0.0
 11
-116.8017874892
 21
387.9801697001
 31
0.0
  0
SPLINE
  5
28B
330
1F
100
AcDbEntity
  8
0
  6
SLD-Solid
 62
   142
420
    32960
370
     0
100
AcDbSpline
210
0.0
220
0.0
230
1.0
 70
     8
 71
     3
 72
    22
 73
    18
 74
     0
 42
0.00000001
 43
0.00000001
 40
0.0
 40
0.0
 40
0.0
 40
0.0
 40
0.125
 40
0.125
 40
0.25
 40
0.25
 40
0.375
 40
0.375
 40
0.5
 40
0.5
 40
0.625
 40
0.625
 40
0.75
 40
0.75
 40
0.875
 40
0.875
 40
1.0
 40
1.0
 40
1.0
 40
1.0
 10
-116.8017874892438
 20
647.4801697001086
 30
0.0
 10
-116.8540382853734
 20
647.6155390529652
 30
0.0
 10
-116.9054816799862
 20
647.7487955602467
 30
0.0
 10
-117.0085074249148
 20
648.010605206697
 30
0.0
 10
-117.0604756819357
 20
648.1400988623948
 30
0.0
 10
-117.1645088883042
 20
648.3891112650139
 30
0.0
 10
-117.2158628409981
 20
648.5069742029865
 30
0.0
 10
-117.3189713286638
 20
648.7291831302744
 30
0.0
 10
-117.3712666077596
 20
648.8344855471734
 30
0.0
 10
-117.4749245321984
 20
649.0244186206359
 30
0.0
 10
-117.5262303743821
 20
649.1091683375046
 30
0.0
 10
-117.6295066904745
 20
649.2580371381083
 30
0.0
 10
-117.6819359578815
 20
649.3224630826548
 30
0.0
 10
-117.7853066425306
 20
649.4250624380521
 30
0.0
 10
-117.8366044096672
 20
649.463954176606
 30
0.0
 10
-117.9401338738521
 20
649.5166100291691
 30
0.0
 10
-117.9924656238893
 20
649.5301697001086
 30
0.0
 10
-118.0447164214321
 20
649.5301697001086
 30
0.0
  0
LINE
  5
28C
330
1F
100
AcDbEntity
  8
0
  6
SLD-Solid
 62
     7
370
    15
100
AcDbLine
 10
-118.0447164214
 20
649.5301697001
 30
0.0
 11
587.9411414429
 21
649.5301697001
 31
0.0
  0
SPLINE
  5
28D
330
1F
100
AcDbEntity
  8
0
  6
SLD-Solid
 62
   142
420
    32960
370
     0
100
AcDbSpline
210
0.0
220
0.0
230
1.0
 70
     8
 71
     3
 72
    22
 73
    18
 74
     0
 42
0.00000001
 43
0.00000001
 40
0.0
 40
0.0
 40
0.0
 40
0.0
 40
0.125
 40
0.125
 40
0.25
 40
0.25
 40
0.375
 40
0.375
 40
0.5
 40
0.5
 40
0.625
 40
0.625
 40
0.75
 40
0.75
 40
0.875
 40
0.875
 40
1.0
 40
1.0
 40
1.0
 40
1.0
 10
587.9411414429443
 20
649.5301697001086
 30
0.0
 10
587.8888906468145
 20
649.5301697001084
 30
0.0
 10
587.8374472522021
 20
649.5168711517817
 30
0.0
 10
587.7344215072733
 20
649.4648487243671
 30
0.0
 10
587.6824532502526
 20
649.4257170422878
 30
0.0
 10
587.5784200438841
 20
649.3225828436472
 30
0.0
 10
587.52706609119
 20
649.2594992982275
 30
0.0
 10
587.4239576035243
 20
649.111214382862
 30
0.0
 10
587.3716623244286
 20
649.024954068787
 30
0.0
 10
587.2680043999901
 20
648.8350960563265
 30
0.0
 10
587.2166985578061
 20
648.7318736876806
 30
0.0
 10
587.1134222417136
 20
648.5095320299231
 30
0.0
 10
587.0609929743069
 20
648.3892271501114
 30
0.0
 10
586.9576222896575
 20
648.1418513400787
 30
0.0
 10
586.9063245225209
 20
648.0141045409551
 30
0.0
 10
586.8027950583361
 20
647.7510904443086
 30
0.0
 10
586.7504633082989
 20
647.6155390566261
 30
0.0
 10
586.6982125107562
 20
647.4801697001085
 30
0.0
  0
SPLINE
  5
28E
330
1F
100
AcDbEntity
  8
0
  6
SLD-Solid
 62
     7
370
    15
100
AcDbSpline
210
0.0
220
0.0
230
1.0
 70
     8
 71
     3
 72
    22
 73
    18
 74
     0
 42
0.00000001
 43
0.00000001
 40
0.0
 40
0.0
 40
0.0
 40
0.0
 40
0.125
 40
0.125
 40
0.25
 40
0.25
 40
0.375
 40
0.375
 40
0.5
 40
0.5
 40
0.625
 40
0.625
 40
0.75
 40
0.75
 40
0.875
 40
0.875
 40
1.0
 40
1.0
 40
1.0
 40
1.0
 10
586.6982125107562
 20
387.9801697001084
 30
0.0
 10
586.750463306886
 20
387.8448003472516
 30
0.0
 10
586.8019067014982
 20
387.7115438399708
 30
0.0
 10
586.9049324464271
 20
387.4497341935199
 30
0.0
 10
586.9569007034477
 20
387.3202405378228
 30
0.0
 10
587.0609339098163
 20
387.0712281352034
 30
0.0
 10
587.1122878625104
 20
386.9533651972307
 30
0.0
 10
587.2153963501761
 20
386.7311562699427
 30
0.0
 10
587.2676916292718
 20
386.625853853044
 30
0.0
 10
587.3713495537103
 20
386.4359207795813
 30
0.0
 10
587.4226553958944
 20
386.3511710627125
 30
0.0
 10
587.5259317119868
 20
386.2023022621086
 30
0.0
 10
587.5783609793937
 20
386.1378763175624
 30
0.0
 10
587.6817316640428
 20
386.035276962165
 30
0.0
 10
587.7330294311796
 20
385.9963852236113
 30
0.0
 10
587.8365588953642
 20
385.9437293710482
 30
0.0
 10
587.8888906454014
 20
385.9301697001085
 30
0.0
 10
587.9411414429442
 20
385.9301697001084
 30
0.0
  0
LINE
  5
28F
330
1F
100
AcDbEntity
  8
0
  6
SLD-Solid
 62
     7
370
    15
100
AcDbLine
 10
587.9411414429
 20
385.9301697001
 30
0.0
 11
-118.0447164214
 21
385.9301697001
 31
0.0
  0
SPLINE
  5
290
330
1F
100
AcDbEntity
  8
0
  6
SLD-Solid
 62
   142
420
    32960
370
     0
100
AcDbSpline
210
0.0
220
0.0
230
1.0
 70
     8
 71
     3
 72
    22
 73
    18
 74
     0
 42
0.00000001
 43
0.00000001
 40
0.0
 40
0.0
 40
0.0
 40
0.0
 40
0.125
 40
0.125
 40
0.25
 40
0.25
 40
0.375
 40
0.375
 40
0.5
 40
0.5
 40
0.625
 40
0.625
 40
0.75
 40
0.75
 40
0.875
 40
0.875
 40
1.0
 40
1.0
 40
1.0
 40
1.0
 10
-118.0447164214321
 20
385.9301697001084
 30
0.0
 10
-117.992465625302
 20
385.9301697001084
 30
0.0
 10
-117.9410222306899
 20
385.9434682484353
 30
0.0
 10
-117.8379964857612
 20
385.9954906758496
 30
0.0
 10
-117.7860282287405
 20
386.034622357929
 30
0.0
 10
-117.6819950223719
 20
386.1377565565696
 30
0.0
 10
-117.630641069678
 20
386.2008401019892
 30
0.0
 10
-117.5275325820119
 20
386.3491250173548
 30
0.0
 10
-117.4752373029163
 20
386.43538533143
 30
0.0
 10
-117.3715793784779
 20
386.6252433438906
 30
0.0
 10
-117.3202735362941
 20
386.7284657125366
 30
0.0
 10
-117.2169972202016
 20
386.9508073702938
 30
0.0
 10
-117.1645679527947
 20
387.0711122501057
 30
0.0
 10
-117.0611972681452
 20
387.3184880601384
 30
0.0
 10
-117.0098995010086
 20
387.4462348592622
 30
0.0
 10
-116.906370036824
 20
387.7092489559085
 30
0.0
 10
-116.8540382867869
 20
387.844800343591
 30
0.0
 10
-116.8017874892439
 20
387.9801697001085
 30
0.0
  0
LINE
  5
291
330
1F
100
AcDbEntity
  8
0
  6
SLD-Solid
 62
     7
370
    15
100
AcDbLine
 10
588.7482125108
 20
386.7372407679
 30
0.0
 11
588.7482125108
 21
648.7230986323
 31
0.0
  0
SPLINE
  5
292
330
1F
100
AcDbEntity
  8
0
  6
SLD-Solid
 62
   142
420
    32960
370
     0
100
AcDbSpline
210
0.0
220
0.0
230
1.0
 70
     8
 71
     3
 72
    22
 73
    18
 74
     0
 42
0.00000001
 43
0.00000001
 40
0.0
 40
0.0
 40
0.0
 40
0.0
 40
0.125
 40
0.125
 40
0.25
 40
0.25
 40
0.375
 40
0.375
 40
0.5
 40
0.5
 40
0.625
 40
0.625
 40
0.75
 40
0.75
 40
0.875
 40
0.875
 40
1.0
 40
1.0
 40
1.0
 40
1.0
 10
588.7482125107562
 20
386.7372407679202
 30
0.0
 10
588.7482125107562
 20
386.78949156405
 30
0.0
 10
588.7349139624291
 20
386.8409349586622
 30
0.0
 10
588.6828915350148
 20
386.9439607035912
 30
0.0
 10
588.6437598529355
 20
386.9959289606119
 30
0.0
 10
588.5406256542951
 20
387.0999621669803
 30
0.0
 10
588.4775421088752
 20
387.1513161196747
 30
0.0
 10
588.3292571935096
 20
387.2544246073404
 30
0.0
 10
588.2429968794345
 20
387.306719886436
 30
0.0
 10
588.0531388669739
 20
387.4103778108745
 30
0.0
 10
587.9499164983282
 20
387.4616836530585
 30
0.0
 10
587.7275748405708
 20
387.5649599691508
 30
0.0
 10
587.6072699607588
 20
387.6173892365577
 30
0.0
 10
587.3598941507261
 20
387.720759921207
 30
0.0
 10
587.2321473516024
 20
387.7720576883436
 30
0.0
 10
586.9691332549562
 20
387.8755871525284
 30
0.0
 10
586.8335818672737
 20
387.9279189025657
 30
0.0
 10
586.6982125107561
 20
387.9801697001084
 30
0.0
  0
SPLINE
  5
293
330
1F
100
AcDbEntity
  8
0
  6
SLD-Solid
 62
   142
420
    32960
370
     0
100
AcDbSpline
210
0.0
220
0.0
230
1.0
 70
     8
 71
     3
 72
    22
 73
    18
 74
     0
 42
0.00000001
 43
0.00000001
 40
0.0
 40
0.0
 40
0.0
 40
0.0
 40
0.125
 40
0.125
 40
0.25
 40
0.25
 40
0.375
 40
0.375
 40
0.5
 40
0.5
 40
0.625
 40
0.625
 40
0.75
 40
0.75
 40
0.875
 40
0.875
 40
1.0
 40
1.0
 40
1.0
 40
1.0
 10
586.6982125107561
 20
647.4801697001085
 30
0.0
 10
586.8335818636128
 20
647.5324204962384
 30
0.0
 10
586.9668383708938
 20
647.5838638908507
 30
0.0
 10
587.2286480173445
 20
647.6868896357792
 30
0.0
 10
587.3581416730418
 20
647.7388578928002
 30
0.0
 10
587.6071540756611
 20
647.8428910991688
 30
0.0
 10
587.7250170136336
 20
647.8942450518626
 30
0.0
 10
587.9472259409217
 20
647.9973535395284
 30
0.0
 10
588.0525283578205
 20
648.0496488186241
 30
0.0
 10
588.2424614312832
 20
648.1533067430628
 30
0.0
 10
588.3272111481522
 20
648.2046125852467
 30
0.0
 10
588.4760799487559
 20
648.3078889013387
 30
0.0
 10
588.5405058933023
 20
648.3603181687462
 30
0.0
 10
588.6431052486998
 20
648.4636888533951
 30
0.0
 10
588.6819969872532
 20
648.5149866205321
 30
0.0
 10
588.7346528398162
 20
648.6185160847164
 30
0.0
 10
588.7482125107562
 20
648.6708478347535
 30
0.0
 10
588.7482125107562
 20
648.7230986322966
 30
0.0
  0
LINE
  5
294
330
1F
100
AcDbEntity
  8
0
  6
SLD-Solid
 62
   142
420
    32960
370
     0
100
AcDbLine
 10
587.9411414429
 20
385.9301697001
 30
0.0
 11
587.9411414429
 21
386.7301697001
 31
0.0
  0
SPLINE
  5
295
330
1F
100
AcDbEntity
  8
0
  6
SLD-Solid
 62
   142
420
    32960
370
     0
100
AcDbSpline
210
0.0
220
0.0
230
1.0
 70
     8
 71
     3
 72
    14
 73
    10
 74
     0
 42
0.00000001
 43
0.00000001
 40
0.0
 40
0.0
 40
0.0
 40
0.0
 40
0.25
 40
0.25
 40
0.5
 40
0.5
 40
0.75
 40
0.75
 40
1.0
 40
1.0
 40
1.0
 40
1.0
 10
586.6982125107562
 20
387.9801697001084
 30
0.0
 10
586.8027506814436
 20
387.8150273393172
 30
0.0
 10
586.9043674072409
 20
387.654455512251
 30
0.0
 10
587.1132377875339
 20
387.3495902428725
 30
0.0
 10
587.2150601403532
 20
387.213189289709
 30
0.0
 10
587.4237242509066
 20
386.9800194956264
 30
0.0
 10
587.5257541562124
 20
386.8886693874558
 30
0.0
 10
587.7342204978503
 20
386.7624815975114
 30
0.0
 10
587.8366032745299
 20
386.7301697001084
 30
0.0
 10
587.9411414429442
 20
386.7301697001084
 30
0.0
  0
LINE
  5
296
330
1F
100
AcDbEntity
  8
0
  6
SLD-Solid
 62
     7
370
    15
100
AcDbLine
 10
-118.0447164214
 20
648.7301697001
 30
0.0
 11
-117.3257221747
 21
648.7301697001
 31
0.0
  0
LINE
  5
297
330
1F
100
AcDbEntity
  8
0
  6
SLD-Solid
 62
     7
370
    15
100
AcDbLine
 10
587.2272224196
 20
648.7301697001
 30
0.0
 11
587.9411414429
 21
648.7301697001
 31
0.0
  0
SPLINE
  5
298
330
1F
100
AcDbEntity
  8
0
  6
SLD-Solid
 62
   142
420
    32960
370
     0
100
AcDbSpline
210
0.0
220
0.0
230
1.0
 70
     8
 71
     3
 72
    14
 73
    10
 74
     0
 42
0.00000001
 43
0.00000001
 40
0.0
 40
0.0
 40
0.0
 40
0.0
 40
0.25
 40
0.25
 40
0.5
 40
0.5
 40
0.75
 40
0.75
 40
1.0
 40
1.0
 40
1.0
 40
1.0
 10
-116.8017874892438
 20
647.4801697001085
 30
0.0
 10
-116.9063256599313
 20
647.6453120608994
 30
0.0
 10
-117.0079423857289
 20
647.8058838879659
 30
0.0
 10
-117.2168127660215
 20
648.1107491573446
 30
0.0
 10
-117.3186351188409
 20
648.247150110508
 30
0.0
 10
-117.5272992293943
 20
648.4803199045905
 30
0.0
 10
-117.6293291347001
 20
648.5716700127612
 30
0.0
 10
-117.8377954763385
 20
648.6978578027055
 30
0.0
 10
-117.9401782530179
 20
648.7301697001087
 30
0.0
 10
-118.0447164214321
 20
648.7301697001086
 30
0.0
  0
SPLINE
  5
299
330
1F
100
AcDbEntity
  8
0
  6
SLD-Solid
 62
   142
420
    32960
370
     0
100
AcDbSpline
210
0.0
220
0.0
230
1.0
 70
     8
 71
     3
 72
    14
 73
    10
 74
     0
 42
0.00000001
 43
0.00000001
 40
0.0
 40
0.0
 40
0.0
 40
0.0
 40
0.25
 40
0.25
 40
0.5
 40
0.5
 40
0.75
 40
0.75
 40
1.0
 40
1.0
 40
1.0
 40
1.0
 10
587.9411414429443
 20
648.7301697001086
 30
0.0
 10
587.8366032722568
 20
648.7301697001085
 30
0.0
 10
587.7349865464594
 20
648.6982126153127
 30
0.0
 10
587.5261161661665
 20
648.5719974445637
 30
0.0
 10
587.4242938133473
 20
648.4808722400002
 30
0.0
 10
587.2156297027938
 20
648.2478702222896
 30
0.0
 10
587.1135997974881
 20
648.1112323786778
 30
0.0
 10
586.9051334558501
 20
647.80704692721
 30
0.0
 10
586.8027506791705
 20
647.6453120573085
 30
0.0
 10
586.6982125107562
 20
647.4801697001085
 30
0.0
  0
LINE
  5
29A
330
1F
100
AcDbEntity
  8
0
  6
SLD-Solid
 62
   142
420
    32960
370
     0
100
AcDbLine
 10
588.7482125108
 20
386.7372407679
 30
0.0
 11
587.9482125108
 21
386.7372407679
 31
0.0
  0
LINE
  5
29B
330
1F
100
AcDbEntity
  8
0
  6
SLD-Solid
 62
   142
420
    32960
370
     0
100
AcDbLine
 10
-118.0447164214
 20
649.5301697001
 30
0.0
 11
-118.0447164214
 21
648.7301697001
 31
0.0
  0
LINE
  5
29C
330
1F
100
AcDbEntity
  8
0
  6
SLD-Solid
 62
   142
420
    32960
370
     0
100
AcDbLine
 10
-118.0447164214
 20
385.9301697001
 30
0.0
 11
-118.0447164214
 21
386.7301697001
 31
0.0
  0
LINE
  5
29D
330
1F
100
AcDbEntity
  8
0
  6
SLD-Solid
 62
   142
420
    32960
370
     0
100
AcDbLine
 10
-118.0447164214
 20
386.7301697001
 30
0.0
 11
-117.3337716297
 21
386.7301697001
 31
0.0
  0
LINE
  5
29E
330
1F
100
AcDbEntity
  8
0
  6
SLD-Solid
 62
   142
420
    32960
370
     0
100
AcDbLine
 10
588.7482125108
 20
648.7230986323
 30
0.0
 11
587.9377524318
 21
648.7230986323
 31
0.0
  0
LINE
  5
29F
330
1F
100
AcDbEntity
  8
0
  6
SLD-Solid
 62
   142
420
    32960
370
     0
100
AcDbLine
 10
-129.6017874893
 20
645.0301697001
 30
0.0
 11
-129.6017874893
 21
497.7372764813
 31
0.0
  0
LINE
  5
2A0
330
1F
100
AcDbEntity
  8
0
  6
SLD-Solid
 62
     7
370
    15
100
AcDbLine
 10
-129.6017874893
 20
497.7372764813
 30
0.0
 11
-191.5517874893
 21
497.7372764813
 31
0.0
  0
LINE
  5
2A1
330
1F
100
AcDbEntity
  8
0
  6
SLD-Solid
 62
   142
420
    32960
370
     0
100
AcDbLine
 10
-191.5517874893
 20
497.8301697001
 30
0.0
 11
-191.5517874893
 21
497.7372764813
 31
0.0
  0
LINE
  5
2A2
330
1F
100
AcDbEntity
  8
0
  6
SLD-Solid
 62
   142
420
    32960
370
     0
100
AcDbLine
 10
-190.5947164214
 20
654.1801697001
 30
0.0
 11
-190.6088585571
 21
654.1801697001
 31
0.0
  0
LINE
  5
2A3
330
1F
100
AcDbEntity
  8
0
  6
SLD-Solid
 62
     7
370
    15
100
AcDbLine
 10
578.0482113616
 20
-34.0698302999
 30
0.0
 11
578.0482113616
 21
-32.0698302999
 31
0.0
  0
LINE
  5
2A4
330
1F
100
AcDbEntity
  8
0
  6
SLD-Solid
 62
     7
370
    15
100
AcDbLine
 10
508.0482113616
 20
-34.0698302999
 30
0.0
 11
578.0482113616
 21
-34.0698302999
 31
0.0
  0
LINE
  5
2A5
330
1F
100
AcDbEntity
  8
0
  6
SLD-Solid
 62
     7
370
    15
100
AcDbLine
 10
508.0482113616
 20
-34.0698302999
 30
0.0
 11
508.0482113616
 21
-32.0698302999
 31
0.0
  0
LINE
  5
2A6
330
1F
100
AcDbEntity
  8
0
  6
SLD-Solid
 62
   142
420
    32960
370
     0
100
AcDbLine
 10
508.0482113616
 20
-32.0698302999
 30
0.0
 11
578.0482113616
 21
-32.0698302999
 31
0.0
  0
LINE
  5
2A7
330
1F
100
AcDbEntity
  8
0
  6
SLD-Solid
 62
     7
370
    15
100
AcDbLine
 10
574.007861582
 20
-128.0698302999
 30
0.0
 11
512.0885611413
 21
-128.0698302999
 31
0.0
  0
LINE
  5
2A8
330
1F
100
AcDbEntity
  8
0
  6
SLD-Solid
 62
   142
420
    32960
370
     0
100
AcDbLine
 10
588.9136912924
 20
538.4301697001
 30
0.0
 11
588.7482125108
 21
538.4301697001
 31
0.0
  0
LINE
  5
2A9
330
1F
100
AcDbEntity
  8
0
  6
SLD-Solid
 62
   142
420
    32960
370
     0
100
AcDbLine
 10
629.2860092557
 20
587.6726527399
 30
0.0
 11
629.5830005656
 21
587.7979273513
 31
0.0
  0
LINE
  5
2AA
330
1F
100
AcDbEntity
  8
0
  6
SLD-Solid
 62
     7
370
    15
100
AcDbLine
 10
-94.4447175706
 20
-31.5698302999
 30
0.0
 11
591.5411402938
 21
-31.5698302999
 31
0.0
  0
LINE
  5
2AB
330
1F
100
AcDbEntity
  8
0
  6
SLD-Solid
 62
   142
420
    32960
370
     0
100
AcDbLine
 10
-94.4447175706
 20
-31.5698302999
 30
0.0
 11
-94.4447175706
 21
-28.8198302999
 31
0.0
  0
LINE
  5
2AC
330
1F
100
AcDbEntity
  8
0
  6
SLD-Solid
 62
   142
420
    32960
370
     0
100
AcDbLine
 10
591.5411402938
 20
-28.8198302999
 30
0.0
 11
591.5411402938
 21
-31.5698302999
 31
0.0
  0
LINE
  5
2AD
330
1F
100
AcDbEntity
  8
0
  6
SLD-Solid
 62
   142
420
    32960
370
     0
100
AcDbLine
 10
591.5411402938
 20
-25.7698302999
 30
0.0
 11
591.5411402938
 21
-28.8198302999
 31
0.0
  0
LINE
  5
2AE
330
1F
100
AcDbEntity
  8
0
  6
SLD-Solid
 62
   142
420
    32960
370
     0
100
AcDbLine
 10
-94.4447175706
 20
-25.7698302999
 30
0.0
 11
-94.4447175706
 21
-28.8198302999
 31
0.0
  0
LINE
  5
2AF
330
1F
100
AcDbEntity
  8
0
  6
SLD-Solid
 62
   142
420
    32960
370
     0
100
AcDbLine
 10
-124.5517874892
 20
583.7301697001
 30
0.0
 11
-127.5517874892
 21
583.7301697001
 31
0.0
  0
LINE
  5
2B0
330
1F
100
AcDbEntity
  8
0
  6
SLD-Solid
 62
   142
420
    32960
370
     0
100
AcDbLine
 10
-124.5517874892
 20
583.7301697001
 30
0.0
 11
-124.5517874892
 21
587.7301697001
 31
0.0
  0
LINE
  5
2B1
330
1F
100
AcDbEntity
  8
0
  6
SLD-Solid
 62
     7
370
    15
100
AcDbLine
 10
-125.3517874893
 20
600.2301697001
 30
0.0
 11
-127.5517874892
 21
600.2301697001
 31
0.0
  0
LINE
  5
2B2
330
1F
100
AcDbEntity
  8
0
  6
SLD-Solid
 62
   142
420
    32960
370
     0
100
AcDbLine
 10
-127.5517874892
 20
583.7301697001
 30
0.0
 11
-127.5517874892
 21
600.2301697001
 31
0.0
  0
LINE
  5
2B3
330
1F
100
AcDbEntity
  8
0
  6
SLD-Solid
 62
   142
420
    32960
370
     0
100
AcDbLine
 10
-127.5517874892
 20
600.2301697001
 30
0.0
 11
-127.5517874892
 21
616.7301697001
 31
0.0
  0
LINE
  5
2B4
330
1F
100
AcDbEntity
  8
0
  6
SLD-Solid
 62
   142
420
    32960
370
     0
100
AcDbLine
 10
-124.5517874892
 20
616.7301697001
 30
0.0
 11
-127.5517874892
 21
616.7301697001
 31
0.0
  0
LINE
  5
2B5
330
1F
100
AcDbEntity
  8
0
  6
SLD-Solid
 62
   142
420
    32960
370
     0
100
AcDbLine
 10
-124.5517874892
 20
612.7301697001
 30
0.0
 11
-124.5517874892
 21
616.7301697001
 31
0.0
  0
LINE
  5
2B6
330
1F
100
AcDbEntity
  8
0
  6
SLD-Solid
 62
   142
420
    32960
370
     0
100
AcDbLine
 10
-191.5517874893
 20
656.2301697001
 30
0.0
 11
-191.4017874892
 21
656.2301697001
 31
0.0
  0
LINE
  5
2B7
330
1F
100
AcDbEntity
  8
0
  6
SLD-Solid
 62
   142
420
    32960
370
     0
100
AcDbLine
 10
588.9136912924
 20
539.2301697001
 30
0.0
 11
588.7482125108
 21
539.2301697001
 31
0.0
  0
LINE
  5
2B8
330
1F
100
AcDbEntity
  8
0
  6
SLD-Solid
 62
     7
370
    15
100
AcDbLine
 10
591.5482113616
 20
-30.0698302999
 30
0.0
 11
593.0482113616
 21
-30.0698302999
 31
0.0
  0
LINE
  5
2B9
330
1F
100
AcDbEntity
  8
0
  6
SLD-Solid
 62
     7
370
    15
100
AcDbLine
 10
593.0482113616
 20
-30.0698302999
 30
0.0
 11
593.0482113616
 21
-25.7698302999
 31
0.0
  0
LINE
  5
2BA
330
1F
100
AcDbEntity
  8
0
  6
SLD-Solid
 62
   142
420
    32960
370
     0
100
AcDbLine
 10
591.5482113616
 20
-25.7698302999
 30
0.0
 11
591.5482113616
 21
-30.0698302999
 31
0.0
  0
ARC
  5
2BB
330
1F
100
AcDbEntity
  8
0
  6
SLD-Solid
 62
     7
370
    15
100
AcDbCircle
 10
590.2982113616
 20
-28.8198302999
 30
0.0
 40
2.749999999999919
100
AcDbArc
 50
296.8704145403
 51
332.9643082106
  0
LINE
  5
2BC
330
1F
100
AcDbEntity
  8
0
  6
SLD-Solid
 62
   142
420
    32960
370
     0
100
AcDbLine
 10
591.5411402938
 20
-28.952599534
 30
0.0
 11
591.5482113616
 21
-28.8198302999
 31
0.0
  0
LINE
  5
2BD
330
1F
100
AcDbEntity
  8
0
  6
SLD-Solid
 62
     7
370
    15
100
AcDbLine
 10
498.1482125107
 20
676.2301697001
 30
0.0
 11
-6.8517874893
 21
676.2301697001
 31
0.0
  0
LINE
  5
2BE
330
1F
100
AcDbEntity
  8
0
  6
SLD-Solid
 62
   142
420
    32960
370
     0
100
AcDbLine
 10
-11.8517874893
 20
650.4301697001
 30
0.0
 11
-11.8517874893
 21
652.4801697001
 31
0.0
  0
LINE
  5
2BF
330
1F
100
AcDbEntity
  8
0
  6
SLD-Solid
 62
   142
420
    32960
370
     0
100
AcDbLine
 10
503.1482125107
 20
652.4801697001
 30
0.0
 11
503.1482125107
 21
650.4301697001
 31
0.0
  0
LINE
  5
2C0
330
1F
100
AcDbEntity
  8
0
  6
SLD-Solid
 62
     7
370
    15
100
AcDbLine
 10
503.1482125107
 20
650.4301697001
 30
0.0
 11
-11.8517874893
 21
650.4301697001
 31
0.0
  0
LINE
  5
2C1
330
1F
100
AcDbEntity
  8
0
  6
SLD-Solid
 62
   142
420
    32960
370
     0
100
AcDbLine
 10
-11.8517874893
 20
671.2301697001
 30
0.0
 11
-11.8517874893
 21
652.4801697001
 31
0.0
  0
ARC
  5
2C2
330
1F
100
AcDbEntity
  8
0
  6
SLD-Solid
 62
     7
370
    15
100
AcDbCircle
 10
-6.8517874893
 20
671.2301697001
 30
0.0
 40
5.000000000000115
100
AcDbArc
 50
90.0
 51
180.0
  0
ARC
  5
2C3
330
1F
100
AcDbEntity
  8
0
  6
SLD-Solid
 62
   142
420
    32960
370
     0
100
AcDbCircle
 10
498.1482125107
 20
671.2301697001
 30
0.0
 40
5.0
100
AcDbArc
 50
0.0
 51
90.0
  0
LINE
  5
2C4
330
1F
100
AcDbEntity
  8
0
  6
SLD-Solid
 62
   142
420
    32960
370
     0
100
AcDbLine
 10
503.1482125107
 20
652.4801697001
 30
0.0
 11
503.1482125107
 21
671.2301697001
 31
0.0
  0
LINE
  5
2C5
330
1F
100
AcDbEntity
  8
0
  6
SLD-Solid
 62
   142
420
    32960
370
     0
100
AcDbLine
 10
-181.4517874892
 20
491.0301697001
 30
0.0
 11
-181.4517874892
 21
495.7801697001
 31
0.0
  0
LINE
  5
2C6
330
1F
100
AcDbEntity
  8
0
  6
SLD-Solid
 62
   142
420
    32960
370
     0
100
AcDbLine
 10
-128.3517874893
 20
582.6301697001
 30
0.0
 11
-128.3517874893
 21
580.8301697001
 31
0.0
  0
LINE
  5
2C7
330
1F
100
AcDbEntity
  8
0
  6
SLD-Solid
 62
   142
420
    32960
370
     0
100
AcDbLine
 10
-128.3517874893
 20
607.6301697001
 30
0.0
 11
-128.3517874893
 21
602.8301697001
 31
0.0
  0
LINE
  5
2C8
330
1F
100
AcDbEntity
  8
0
  6
SLD-Solid
 62
   142
420
    32960
370
     0
100
AcDbLine
 10
-128.3517874893
 20
654.1801697001
 30
0.0
 11
-128.3517874893
 21
498.2801697001
 31
0.0
  0
LINE
  5
2C9
330
1F
100
AcDbEntity
  8
0
  6
SLD-Solid
 62
   142
420
    32960
370
     0
100
AcDbLine
 10
-128.3517874893
 20
612.9301697001
 30
0.0
 11
-128.3517874893
 21
587.5416128293
 31
0.0
  0
LINE
  5
2CA
330
1F
100
AcDbEntity
  8
0
  6
SLD-Solid
 62
   142
420
    32960
370
     0
100
AcDbLine
 10
-128.3517874893
 20
570.5801697001
 30
0.0
 11
-128.3517874893
 21
557.9264683496
 31
0.0
  0
LINE
  5
2CB
330
1F
100
AcDbEntity
  8
0
  6
SLD-Solid
 62
   142
420
    32960
370
     0
100
AcDbLine
 10
-128.3517874893
 20
524.5801697001
 30
0.0
 11
-128.3517874893
 21
511.9264683496
 31
0.0
  0
LINE
  5
2CC
330
1F
100
AcDbEntity
  8
0
  6
SLD-Solid
 62
   142
420
    32960
370
     0
100
AcDbLine
 10
-128.3517874893
 20
570.9301697001
 30
0.0
 11
-128.3517874893
 21
545.5416128293
 31
0.0
  0
LINE
  5
2CD
330
1F
100
AcDbEntity
  8
0
  6
SLD-Solid
 62
   142
420
    32960
370
     0
100
AcDbLine
 10
-128.3517874893
 20
650.9301697001
 30
0.0
 11
-128.3517874893
 21
625.5416128293
 31
0.0
  0
LINE
  5
2CE
330
1F
100
AcDbEntity
  8
0
  6
SLD-Solid
 62
   142
420
    32960
370
     0
100
AcDbLine
 10
-128.3517874893
 20
625.2301697001
 30
0.0
 11
-128.3517874893
 21
617.2413545114
 31
0.0
  0
LINE
  5
2CF
330
1F
100
AcDbEntity
  8
0
  6
SLD-Solid
 62
   142
420
    32960
370
     0
100
AcDbLine
 10
-128.3517874893
 20
625.2301697001
 30
0.0
 11
-128.3517874893
 21
617.2413545114
 31
0.0
  0
LINE
  5
2D0
330
1F
100
AcDbEntity
  8
0
  6
SLD-Solid
 62
   142
420
    32960
370
     0
100
AcDbLine
 10
-128.3517874893
 20
643.4301697001
 30
0.0
 11
-128.3517874893
 21
637.0787848905
 31
0.0
  0
LINE
  5
2D1
330
1F
100
AcDbEntity
  8
0
  6
SLD-Solid
 62
   142
420
    32960
370
     0
100
AcDbLine
 10
-128.3517874893
 20
625.2301697001
 30
0.0
 11
-128.3517874893
 21
617.2413545114
 31
0.0
  0
LINE
  5
2D2
330
1F
100
AcDbEntity
  8
0
  6
SLD-Solid
 62
   142
420
    32960
370
     0
100
AcDbLine
 10
-128.3517874893
 20
625.2301697001
 30
0.0
 11
-128.3517874893
 21
617.2413545114
 31
0.0
  0
LINE
  5
2D3
330
1F
100
AcDbEntity
  8
0
  6
SLD-Solid
 62
   142
420
    32960
370
     0
100
AcDbLine
 10
-128.3517874893
 20
625.2301697001
 30
0.0
 11
-128.3517874893
 21
617.2413545114
 31
0.0
  0
LINE
  5
2D4
330
1F
100
AcDbEntity
  8
0
  6
SLD-Solid
 62
   142
420
    32960
370
     0
100
AcDbLine
 10
-128.3517874893
 20
643.4301697001
 30
0.0
 11
-128.3517874893
 21
637.0787848905
 31
0.0
  0
LINE
  5
2D5
330
1F
100
AcDbEntity
  8
0
  6
SLD-Solid
 62
   142
420
    32960
370
     0
100
AcDbLine
 10
-128.3517874893
 20
625.2301697001
 30
0.0
 11
-128.3517874893
 21
617.2413545114
 31
0.0
  0
LINE
  5
2D6
330
1F
100
AcDbEntity
  8
0
  6
SLD-Solid
 62
   142
420
    32960
370
     0
100
AcDbLine
 10
-128.3517874893
 20
643.4301697001
 30
0.0
 11
-128.3517874893
 21
637.0787848905
 31
0.0
  0
LINE
  5
2D7
330
1F
100
AcDbEntity
  8
0
  6
SLD-Solid
 62
   142
420
    32960
370
     0
100
AcDbLine
 10
-128.3517874893
 20
606.8801697001
 30
0.0
 11
-128.3517874893
 21
603.5801697001
 31
0.0
  0
LINE
  5
2D8
330
1F
100
AcDbEntity
  8
0
  6
SLD-Solid
 62
   142
420
    32960
370
     0
100
AcDbLine
 10
-128.3517874893
 20
588.6301697001
 30
0.0
 11
-128.3517874893
 21
583.8301697001
 31
0.0
  0
LINE
  5
2D9
330
1F
100
AcDbEntity
  8
0
  6
SLD-Solid
 62
   142
420
    32960
370
     0
100
AcDbLine
 10
-128.3517874893
 20
568.8801697001
 30
0.0
 11
-128.3517874893
 21
565.5801697001
 31
0.0
  0
LINE
  5
2DA
330
1F
100
AcDbEntity
  8
0
  6
SLD-Solid
 62
   142
420
    32960
370
     0
100
AcDbLine
 10
-128.3517874893
 20
553.4301697001
 30
0.0
 11
-128.3517874893
 21
547.0787848905
 31
0.0
  0
LINE
  5
2DB
330
1F
100
AcDbEntity
  8
0
  6
SLD-Solid
 62
   142
420
    32960
370
     0
100
AcDbLine
 10
-128.3517874893
 20
553.4301697001
 30
0.0
 11
-128.3517874893
 21
547.0787848905
 31
0.0
  0
LINE
  5
2DC
330
1F
100
AcDbEntity
  8
0
  6
SLD-Solid
 62
   142
420
    32960
370
     0
100
AcDbLine
 10
-128.3517874893
 20
567.4301697001
 30
0.0
 11
-128.3517874893
 21
561.0787848905
 31
0.0
  0
LINE
  5
2DD
330
1F
100
AcDbEntity
  8
0
  6
SLD-Solid
 62
   142
420
    32960
370
     0
100
AcDbLine
 10
-128.3517874893
 20
567.4301697001
 30
0.0
 11
-128.3517874893
 21
561.0787848905
 31
0.0
  0
LINE
  5
2DE
330
1F
100
AcDbEntity
  8
0
  6
SLD-Solid
 62
   142
420
    32960
370
     0
100
AcDbLine
 10
-128.3517874893
 20
552.4301697001
 30
0.0
 11
-128.3517874893
 21
548.0301697001
 31
0.0
  0
LINE
  5
2DF
330
1F
100
AcDbEntity
  8
0
  6
SLD-Solid
 62
   142
420
    32960
370
     0
100
AcDbLine
 10
-128.3517874893
 20
552.4301697001
 30
0.0
 11
-128.3517874893
 21
548.0301697001
 31
0.0
  0
LINE
  5
2E0
330
1F
100
AcDbEntity
  8
0
  6
SLD-Solid
 62
   142
420
    32960
370
     0
100
AcDbLine
 10
-128.3517874893
 20
557.6301697001
 30
0.0
 11
-128.3517874893
 21
552.8301697001
 31
0.0
  0
LINE
  5
2E1
330
1F
100
AcDbEntity
  8
0
  6
SLD-Solid
 62
     7
370
    15
100
AcDbLine
 10
-35.3517874891
 20
688.2301697001
 30
0.0
 11
526.6482125109
 21
688.2301697001
 31
0.0
  0
LINE
  5
2E2
330
1F
100
AcDbEntity
  8
0
  6
SLD-Solid
 62
     7
370
    15
100
AcDbLine
 10
-15.1534560119
 20
666.2301697001
 30
0.0
 11
-11.8517874893
 21
666.2301697001
 31
0.0
  0
LINE
  5
2E3
330
1F
100
AcDbEntity
  8
0
  6
SLD-Solid
 62
     7
370
    15
100
AcDbLine
 10
503.1482125107
 20
666.2301697001
 30
0.0
 11
506.4427472365
 21
666.2301697001
 31
0.0
  0
LINE
  5
2E4
330
1F
100
AcDbEntity
  8
0
  6
SLD-Solid
 62
     7
370
    15
100
AcDbLine
 10
-35.3517874891
 20
668.2301697001
 30
0.0
 11
-35.3517874891
 21
688.2301697001
 31
0.0
  0
LINE
  5
2E5
330
1F
100
AcDbEntity
  8
0
  6
SLD-Solid
 62
     7
370
    15
100
AcDbLine
 10
526.6482125109
 20
667.0201697001
 30
0.0
 11
526.6482125109
 21
667.0301697001
 31
0.0
  0
LINE
  5
2E6
330
1F
100
AcDbEntity
  8
0
  6
SLD-Solid
 62
     7
370
    15
100
AcDbLine
 10
526.6482125109
 20
668.2301697001
 30
0.0
 11
526.6482125109
 21
688.2301697001
 31
0.0
  0
LINE
  5
2E7
330
1F
100
AcDbEntity
  8
0
  6
SLD-Solid
 62
   142
420
    32960
370
     0
100
AcDbLine
 10
-123.4708139988
 20
655.7943909864
 30
0.0
 11
-128.3974189894
 21
656.2254130727
 31
0.0
  0
SPLINE
  5
2E8
330
1F
100
AcDbEntity
  8
0
  6
SLD-Solid
 62
   142
420
    32960
370
     0
100
AcDbSpline
210
0.0
220
0.0
230
1.0
 70
     8
 71
     3
 72
    14
 73
    10
 74
     0
 42
0.00000001
 43
0.00000001
 40
0.0
 40
0.0
 40
0.0
 40
0.0
 40
0.25
 40
0.25
 40
0.5
 40
0.5
 40
0.75
 40
0.75
 40
1.0
 40
1.0
 40
1.0
 40
1.0
 10
-129.6017874892547
 20
496.2301697001068
 30
0.0
 10
-129.3334431167607
 20
496.2301697001068
 30
0.0
 10
-129.0652043263181
 20
496.2835257129366
 30
0.0
 10
-128.5693685794944
 20
496.4889076039804
 30
0.0
 10
-128.3419667133062
 20
496.6408526731905
 30
0.0
 10
-127.9624704623383
 20
497.0203489241584
 30
0.0
 10
-127.8105253931285
 20
497.2477507903466
 30
0.0
 10
-127.6051435020846
 20
497.7435865371703
 30
0.0
 10
-127.5517874892547
 20
498.0118253276128
 30
0.0
 10
-127.5517874892547
 20
498.2801697001068
 30
0.0
  0
LINE
  5
2E9
330
1F
100
AcDbEntity
  8
0
  6
SLD-Solid
 62
   142
420
    32960
370
     0
100
AcDbLine
 10
-129.6017874893
 20
497.0301697001
 30
0.0
 11
-190.3017874893
 21
497.0301697001
 31
0.0
  0
LINE
  5
2EA
330
1F
100
AcDbEntity
  8
0
  6
SLD-Solid
 62
   142
420
    32960
370
     0
100
AcDbLine
 10
-129.6017874893
 20
496.2301697001
 30
0.0
 11
-129.6017874893
 21
497.0301697001
 31
0.0
  0
LINE
  5
2EB
330
1F
100
AcDbEntity
  8
0
  6
SLD-Solid
 62
     7
370
    15
100
AcDbLine
 10
-129.6017874893
 20
496.2301697001
 30
0.0
 11
-190.3017874893
 21
496.2301697001
 31
0.0
  0
LINE
  5
2EC
330
1F
100
AcDbEntity
  8
0
  6
SLD-Solid
 62
   142
420
    32960
370
     0
100
AcDbLine
 10
-190.3017874893
 20
496.2301697001
 30
0.0
 11
-190.3017874893
 21
497.0301697001
 31
0.0
  0
LINE
  5
2ED
330
1F
100
AcDbEntity
  8
0
  6
SLD-Solid
 62
   142
420
    32960
370
     0
100
AcDbLine
 10
-192.3517874893
 20
486.2301697001
 30
0.0
 11
-192.3517874893
 21
491.2301697001
 31
0.0
  0
LINE
  5
2EE
330
1F
100
AcDbEntity
  8
0
  6
SLD-Solid
 62
   142
420
    32960
370
     0
100
AcDbLine
 10
-192.3517874893
 20
491.2301697001
 30
0.0
 11
-192.3517874893
 21
494.9801697001
 31
0.0
  0
LINE
  5
2EF
330
1F
100
AcDbEntity
  8
0
  6
SLD-Solid
 62
   142
420
    32960
370
     0
100
AcDbLine
 10
-191.5517874893
 20
491.2301697001
 30
0.0
 11
-191.5517874893
 21
494.9801697001
 31
0.0
  0
LINE
  5
2F0
330
1F
100
AcDbEntity
  8
0
  6
SLD-Solid
 62
   142
420
    32960
370
     0
100
AcDbLine
 10
-191.5517874893
 20
486.2301697001
 30
0.0
 11
-191.5517874893
 21
491.2301697001
 31
0.0
  0
ARC
  5
2F1
330
1F
100
AcDbEntity
  8
0
  6
SLD-Solid
 62
   142
420
    32960
370
     0
100
AcDbCircle
 10
-190.3017874893
 20
494.9801697001
 30
0.0
 40
1.25
100
AcDbArc
 50
90.0
 51
180.0
  0
ARC
  5
2F2
330
1F
100
AcDbEntity
  8
0
  6
SLD-Solid
 62
   142
420
    32960
370
     0
100
AcDbCircle
 10
-190.3017874893
 20
494.9801697001
 30
0.0
 40
2.050000000000239
100
AcDbArc
 50
90.0
 51
180.0
  0
LINE
  5
2F3
330
1F
100
AcDbEntity
  8
0
  6
SLD-Solid
 62
   142
420
    32960
370
     0
100
AcDbLine
 10
-192.3517874893
 20
486.2301697001
 30
0.0
 11
-191.5517874893
 21
486.2301697001
 31
0.0
  0
LINE
  5
2F4
330
1F
100
AcDbEntity
  8
0
  6
SLD-Solid
 62
   142
420
    32960
370
     0
100
AcDbLine
 10
-192.3517874893
 20
491.2301697001
 30
0.0
 11
-191.5517874893
 21
491.2301697001
 31
0.0
  0
SPLINE
  5
2F5
330
1F
100
AcDbEntity
  8
0
  6
SLD-Solid
 62
   142
420
    32960
370
     0
100
AcDbSpline
210
0.0
220
0.0
230
1.0
 70
     8
 71
     3
 72
    20
 73
    16
 74
     0
 42
0.00000001
 43
0.00000001
 40
0.0
 40
0.0
 40
0.0
 40
0.0
 40
0.1250000000000023
 40
0.1250000000000023
 40
0.2500000000000047
 40
0.2500000000000047
 40
0.375000000000007
 40
0.375000000000007
 40
0.5000000000000093
 40
0.5000000000000093
 40
0.6250000000000117
 40
0.6250000000000117
 40
0.750000000000014
 40
0.750000000000014
 40
1.0
 40
1.0
 40
1.0
 40
1.0
 10
646.5062281536226
 20
513.598725762837
 30
0.0
 10
646.494930041141
 20
513.6334977776226
 30
0.0
 10
646.4711779479381
 20
513.6636086957607
 30
0.0
 10
646.3994370931285
 20
513.7161064837479
 30
0.0
 10
646.3508373803714
 20
513.7386557726583
 30
0.0
 10
646.2304761544328
 20
513.7759583086963
 30
0.0
 10
646.1594868386625
 20
513.790640922567
 30
0.0
 10
645.9960493142596
 20
513.8134732686575
 30
0.0
 10
645.902478958216
 20
513.8216345655251
 30
0.0
 10
645.7000529795375
 20
513.8319358500077
 30
0.0
 10
645.590903003439
 20
513.834201550181
 30
0.0
 10
645.356509118053
 20
513.8342385512482
 30
0.0
 10
645.2309806276968
 20
513.831955907153
 30
0.0
 10
644.8455722943241
 20
513.8205334593205
 30
0.0
 10
644.5678220830905
 20
513.8066032631199
 30
0.0
 10
644.2877710960572
 20
513.792495172962
 30
0.0
  0
SPLINE
  5
2F6
330
1F
100
AcDbEntity
  8
0
  6
SLD-Solid
 62
   142
420
    32960
370
     0
100
AcDbSpline
210
0.0
220
0.0
230
1.0
 70
     8
 71
     3
 72
    14
 73
    10
 74
     0
 42
0.00000001
 43
0.00000001
 40
0.0
 40
0.0
 40
0.0
 40
0.0
 40
0.25
 40
0.25
 40
0.5
 40
0.5
 40
0.75
 40
0.75
 40
1.0
 40
1.0
 40
1.0
 40
1.0
 10
606.4061393041964
 20
630.3801697001023
 30
0.0
 10
606.6538783449566
 20
630.4860879636096
 30
0.0
 10
606.9015169712185
 20
630.5919736004682
 30
0.0
 10
607.3581415426246
 20
630.7911858567784
 30
0.0
 10
607.566941945969
 20
630.884452190045
 30
0.0
 10
607.9129210817387
 20
631.0477135650186
 30
0.0
 10
608.0499578066183
 20
631.1176624656777
 30
0.0
 10
608.2303443458017
 20
631.2271195444702
 30
0.0
 10
608.2736173061757
 20
631.2666027512482
 30
0.0
 10
608.2661456828641
 20
631.2895980433099
 30
0.0
  0
SPLINE
  5
2F7
330
1F
100
AcDbEntity
  8
0
  6
SLD-Solid
 62
   142
420
    32960
370
     0
100
AcDbSpline
210
0.0
220
0.0
230
1.0
 70
     8
 71
     3
 72
    14
 73
    10
 74
     0
 42
0.00000001
 43
0.00000001
 40
0.0
 40
0.0
 40
0.0
 40
0.0
 40
0.25
 40
0.25
 40
0.5
 40
0.5
 40
0.75
 40
0.75
 40
1.0
 40
1.0
 40
1.0
 40
1.0
 10
606.6962834754532
 20
632.4301697001023
 30
0.0
 10
606.6721047945151
 20
632.4301697001022
 30
0.0
 10
606.6479261135771
 20
632.3768136872724
 30
0.0
 10
606.599568751701
 20
632.1714317962284
 30
0.0
 10
606.5753900707629
 20
632.0194867270186
 30
0.0
 10
606.5270327088867
 20
631.6399904760508
 30
0.0
 10
606.5028540279487
 20
631.4125886098626
 30
0.0
 10
606.4544966660725
 20
630.9167528630387
 30
0.0
 10
606.4303179851345
 20
630.6485140725965
 30
0.0
 10
606.4061393041964
 20
630.3801697001022
 30
0.0
  0
LINE
  5
2F8
330
1F
100
AcDbEntity
  8
0
  6
SLD-Solid
 62
   142
420
    32960
370
     0
100
AcDbLine
 10
590.2553192919
 20
632.4301697001
 30
0.0
 11
590.7482125107
 21
632.4301697001
 31
0.0
  0
SPLINE
  5
2F9
330
1F
100
AcDbEntity
  8
0
  6
SLD-Solid
 62
   142
420
    32960
370
     0
100
AcDbSpline
210
0.0
220
0.0
230
1.0
 70
     8
 71
     3
 72
    14
 73
    10
 74
     0
 42
0.00000001
 43
0.00000001
 40
0.0
 40
0.0
 40
0.0
 40
0.0
 40
0.25
 40
0.25
 40
0.5
 40
0.5
 40
0.75
 40
0.75
 40
1.0
 40
1.0
 40
1.0
 40
1.0
 10
590.7982125107412
 20
630.3801697001022
 30
0.0
 10
590.7529714091735
 20
630.6485140725965
 30
0.0
 10
590.7077303076057
 20
630.9167528630389
 30
0.0
 10
590.6172481044701
 20
631.4125886098624
 30
0.0
 10
590.5720070029024
 20
631.6399904760508
 30
0.0
 10
590.4815247997668
 20
632.0194867270187
 30
0.0
 10
590.4362836981988
 20
632.1714317962284
 30
0.0
 10
590.3458014950634
 20
632.3768136872724
 30
0.0
 10
590.3005603934956
 20
632.4301697001024
 30
0.0
 10
590.2553192919278
 20
632.4301697001023
 30
0.0
  0
LINE
  5
2FA
330
1F
100
AcDbEntity
  8
0
  6
SLD-Solid
 62
   142
420
    32960
370
     0
100
AcDbLine
 10
590.7982125107
 20
630.3801697001
 30
0.0
 11
590.7982125107
 21
513.792495173
 31
0.0
  0
SPLINE
  5
2FB
330
1F
100
AcDbEntity
  8
0
  6
SLD-Solid
 62
   142
420
    32960
370
     0
100
AcDbSpline
210
0.0
220
0.0
230
1.0
 70
     8
 71
     3
 72
    14
 73
    10
 74
     0
 42
0.00000001
 43
0.00000001
 40
0.0
 40
0.0
 40
0.0
 40
0.0
 40
0.25
 40
0.25
 40
0.5
 40
0.5
 40
0.75
 40
0.75
 40
1.0
 40
1.0
 40
1.0
 40
1.0
 10
590.2553192919278
 20
511.7424951729623
 30
0.0
 10
590.3005603934956
 20
511.7424951729623
 30
0.0
 10
590.3458014950634
 20
511.7958511857923
 30
0.0
 10
590.436283698199
 20
512.0012330768361
 30
0.0
 10
590.4815247997668
 20
512.1531781460461
 30
0.0
 10
590.5720070029024
 20
512.5326743970139
 30
0.0
 10
590.6172481044701
 20
512.7600762632021
 30
0.0
 10
590.7077303076057
 20
513.2559120100259
 30
0.0
 10
590.7529714091735
 20
513.5241508004682
 30
0.0
 10
590.7982125107412
 20
513.7924951729623
 30
0.0
  0
SPLINE
  5
2FC
330
1F
100
AcDbEntity
  8
0
  6
SLD-Solid
 62
   142
420
    32960
370
     0
100
AcDbSpline
210
0.0
220
0.0
230
1.0
 70
     8
 71
     3
 72
    20
 73
    16
 74
     0
 42
0.00000001
 43
0.00000001
 40
0.0
 40
0.0
 40
0.0
 40
0.0
 40
0.1249999999999954
 40
0.1249999999999954
 40
0.2499999999999908
 40
0.2499999999999908
 40
0.3749999999999862
 40
0.3749999999999862
 40
0.4999999999999816
 40
0.4999999999999816
 40
0.6249999999999769
 40
0.6249999999999769
 40
0.7499999999999724
 40
0.7499999999999724
 40
1.0
 40
1.0
 40
1.0
 40
1.0
 10
644.2877710960571
 20
513.792495172962
 30
0.0
 10
644.324332556065
 20
513.6571432010059
 30
0.0
 10
644.3603095414235
 20
513.523975411798
 30
0.0
 10
644.4324070481068
 20
513.2621701524046
 30
0.0
 10
644.4688708334268
 20
513.1323454511058
 30
0.0
 10
644.5415413176787
 20
512.8837910466327
 30
0.0
 10
644.5774422182689
 20
512.7660307045816
 30
0.0
 10
644.6496620423596
 20
512.5436091637783
 30
0.0
 10
644.6863387271142
 20
512.4380988510773
 30
0.0
 10
644.7586888983619
 20
512.2486468935541
 30
0.0
 10
644.7945729048259
 20
512.1638793536818
 30
0.0
 10
644.8670397888939
 20
512.0145820403962
 30
0.0
 10
644.9036593021511
 20
511.9503165039708
 30
0.0
 10
645.0118936334934
 20
511.7967103629472
 30
0.0
 10
645.0844747650864
 20
511.7424951729621
 30
0.0
 10
645.157597688294
 20
511.7424951729621
 30
0.0
  0
LINE
  5
2FD
330
1F
100
AcDbEntity
  8
0
  6
SLD-Solid
 62
     7
370
    15
100
AcDbLine
 10
642.3562068763
 20
567.792848039
 30
0.0
 11
641.9758144133
 21
568.96357566
 31
0.0
  0
LINE
  5
2FE
330
1F
100
AcDbEntity
  8
0
  6
SLD-Solid
 62
   142
420
    32960
370
     0
100
AcDbLine
 10
629.2875344298
 20
587.6754357624
 30
0.0
 11
629.5789551961
 21
587.7983592635
 31
0.0
  0
LINE
  5
2FF
330
1F
100
AcDbEntity
  8
0
  6
SLD-Solid
 62
   142
420
    32960
370
     0
100
AcDbLine
 10
634.0817096908
 20
560.8984520301
 30
0.0
 11
626.2459216192
 21
585.014527979
 31
0.0
  0
LINE
  5
300
330
1F
100
AcDbEntity
  8
0
  6
SLD-Solid
 62
   142
420
    32960
370
     0
100
AcDbLine
 10
621.8313931281
 20
598.6010496404
 30
0.0
 11
613.9956050565
 21
622.7171255893
 31
0.0
  0
LINE
  5
301
330
1F
100
AcDbEntity
  8
0
  6
SLD-Solid
 62
     7
370
    15
100
AcDbLine
 10
658.2191943453
 20
583.6929522053
 30
0.0
 11
658.396378311
 21
583.1476360309
 31
0.0
  0
ENDSEC
  0
SECTION
  2
OBJECTS
  0
DICTIONARY
  5
C
330
0
100
AcDbDictionary
281
     1
  3
ACAD_GROUP
350
D
  3
ACAD_LAYOUT
350
1A
  3
ACAD_MATERIAL
350
3B
  3
ACAD_MLEADERSTYLE
350
303
  3
ACAD_MLINESTYLE
350
17
  3
ACAD_PLOTSETTINGS
350
19
  3
ACAD_PLOTSTYLENAME
350
E
  3
ACAD_TABLESTYLE
350
302
  3
ACAD_VISUALSTYLE
350
2A
  0
DICTIONARY
  5
D
102
{ACAD_REACTORS
330
C
102
}
330
C
100
AcDbDictionary
281
     1
  0
DICTIONARY
  5
1A
102
{ACAD_REACTORS
330
C
102
}
330
C
100
AcDbDictionary
281
     1
  3
Layout1
350
1E
  3
Layout2
350
26
  3
Model
350
22
  0
DICTIONARY
  5
3B
102
{ACAD_REACTORS
330
C
102
}
330
C
100
AcDbDictionary
281
     1
  3
ByBlock
350
3D
  3
ByLayer
350
3C
  3
Global
350
3E
  0
DICTIONARY
  5
303
102
{ACAD_REACTORS
330
C
102
}
330
C
100
AcDbDictionary
281
     1
  0
DICTIONARY
  5
17
102
{ACAD_REACTORS
330
C
102
}
330
C
100
AcDbDictionary
281
     1
  3
Standard
350
18
  0
DICTIONARY
  5
19
102
{ACAD_REACTORS
330
C
102
}
330
C
100
AcDbDictionary
281
     1
  0
ACDBDICTIONARYWDFLT
  5
E
102
{ACAD_REACTORS
330
C
102
}
330
C
100
AcDbDictionary
281
     1
  3
Normal
350
F
100
AcDbDictionaryWithDefault
340
F
  0
DICTIONARY
  5
302
102
{ACAD_REACTORS
330
C
102
}
330
C
100
AcDbDictionary
281
     1
  0
DICTIONARY
  5
2A
102
{ACAD_REACTORS
330
C
102
}
330
C
100
AcDbDictionary
281
     1
  3
2dWireframe
350
2F
  3
3D Hidden
350
31
  3
3dWireframe
350
30
  3
Basic
350
32
  3
Brighten
350
36
  3
ColorChange
350
3A
  3
Conceptual
350
34
  3
Dim
350
35
  3
Facepattern
350
39
  3
Flat
350
2B
  3
FlatWithEdges
350
2C
  3
Gouraud
350
2D
  3
GouraudWithEdges
350
2E
  3
Linepattern
350
38
  3
Realistic
350
33
  3
Thicken
350
37
  0
LAYOUT
  5
1E
102
{ACAD_REACTORS
330
1A
102
}
330
1A
100
AcDbPlotSettings
  1

  2
none_device
  4

  6

 40
0.0
 41
0.0
 42
0.0
 43
0.0
 44
0.0
 45
0.0
 46
0.0
 47
0.0
 48
0.0
 49
0.0
140
0.0
141
0.0
142
1.0
143
1.0
 70
   688
 72
     0
 73
     0
 74
     5
  7

 75
    16
 76
     0
 77
     2
 78
   300
147
1.0
148
0.0
149
0.0
100
AcDbLayout
  1
Layout1
 70
     1
 71
     1
 10
0.0
 20
0.0
 11
420.0
 21
297.0
 12
0.0
 22
0.0
 32
0.0
 14
1.0000000000E+20
 24
1.0000000000E+20
 34
1.0000000000E+20
 15
-1.0000000000E+20
 25
-1.0000000000E+20
 35
-1.0000000000E+20
146
0.0
 13
0.0
 23
0.0
 33
0.0
 16
1.0
 26
0.0
 36
0.0
 17
0.0
 27
1.0
 37
0.0
 76
     0
330
1B
  0
LAYOUT
  5
26
102
{ACAD_REACTORS
330
1A
102
}
330
1A
100
AcDbPlotSettings
  1

  2
none_device
  4

  6

 40
0.0
 41
0.0
 42
0.0
 43
0.0
 44
0.0
 45
0.0
 46
0.0
 47
0.0
 48
0.0
 49
0.0
140
0.0
141
0.0
142
1.0
143
1.0
 70
   688
 72
     0
 73
     0
 74
     5
  7

 75
    16
 76
     0
 77
     2
 78
   300
147
1.0
148
0.0
149
0.0
100
AcDbLayout
  1
Layout2
 70
     1
 71
     2
 10
0.0
 20
0.0
 11
0.0
 21
0.0
 12
0.0
 22
0.0
 32
0.0
 14
0.0
 24
0.0
 34
0.0
 15
0.0
 25
0.0
 35
0.0
146
0.0
 13
0.0
 23
0.0
 33
0.0
 16
1.0
 26
0.0
 36
0.0
 17
0.0
 27
1.0
 37
0.0
 76
     0
330
23
  0
LAYOUT
  5
22
102
{ACAD_REACTORS
330
1A
102
}
330
1A
100
AcDbPlotSettings
  1

  2
none_device
  4

  6

 40
0.0
 41
0.0
 42
0.0
 43
0.0
 44
0.0
 45
0.0
 46
0.0
 47
0.0
 48
0.0
 49
0.0
140
0.0
141
0.0
142
1.0
143
1.0
 70
  1712
 72
     0
 73
     0
 74
     0
  7

 75
     0
 76
     0
 77
     2
 78
   300
147
1.0
148
0.0
149
0.0
100
AcDbLayout
  1
Model
 70
     1
 71
     0
 10
0.0
 20
0.0
 11
841.0
 21
594.0
 12
0.0
 22
0.0
 32
0.0
 14
0.0
 24
0.0
 34
0.0
 15
841.0
 25
594.0
 35
0.0
146
0.0
 13
0.0
 23
0.0
 33
0.0
 16
1.0
 26
0.0
 36
0.0
 17
0.0
 27
1.0
 37
0.0
 76
     0
330
1F
331
29
  0
MATERIAL
  5
3D
102
{ACAD_REACTORS
330
3B
102
}
330
3B
100
AcDbMaterial
  1
ByBlock
 72
     1
 94
      127
  0
MATERIAL
  5
3C
102
{ACAD_REACTORS
330
3B
102
}
330
3B
100
AcDbMaterial
  1
ByLayer
 72
     1
 94
      127
  0
MATERIAL
  5
3E
102
{ACAD_REACTORS
330
3B
102
}
330
3B
100
AcDbMaterial
  1
Global
 72
     1
 94
      127
  0
MLINESTYLE
  5
18
102
{ACAD_REACTORS
330
17
102
}
330
17
100
AcDbMlineStyle
  2
Standard
 70
     0
  3

 62
   256
 51
90.0
 52
90.0
 71
     2
 49
0.5
 62
   256
  6
BYLAYER
 49
-0.5
 62
   256
  6
BYLAYER
  0
ACDBPLACEHOLDER
  5
F
102
{ACAD_REACTORS
330
E
102
}
330
E
  0
VISUALSTYLE
  5
2F
102
{ACAD_REACTORS
330
2A
102
}
330
2A
100
AcDbVisualStyle
  2
2dWireframe
 70
     4
 71
     0
 72
     2
 73
     0
 90
        0
 40
-0.6
 41
-30.0
 62
     5
 63
     7
421
 16777215
 74
     1
 91
        4
 64
     7
 65
   257
 75
     1
175
     1
 42
1.0
 92
        0
 66
   257
 43
1.0
 76
     1
 77
     6
 78
     2
 67
     7
 79
     5
170
     0
171
     0
290
     0
174
     0
 93
        1
 44
0.0
173
     0
291
     0
 45
0.0
  0
VISUALSTYLE
  5
31
102
{ACAD_REACTORS
330
2A
102
}
330
2A
100
AcDbVisualStyle
  2
3D Hidden
 70
     6
 71
     1
 72
     2
 73
     2
 90
        0
 40
-0.6
 41
-30.0
 62
     5
 63
     7
421
 16777215
 74
     2
 91
        2
 64
     7
 65
   257
 75
     2
175
     1
 42
40.0
 92
        0
 66
   257
 43
1.0
 76
     1
 77
     6
 78
     2
 67
     7
 79
     3
170
     0
171
     0
290
     0
174
     0
 93
        1
 44
0.0
173
     0
291
     0
 45
0.0
  0
VISUALSTYLE
  5
30
102
{ACAD_REACTORS
330
2A
102
}
330
2A
100
AcDbVisualStyle
  2
3dWireframe
 70
     5
 71
     0
 72
     2
 73
     0
 90
        0
 40
-0.6
 41
-30.0
 62
     5
 63
     7
421
 16777215
 74
     1
 91
        4
 64
     7
 65
   257
 75
     1
175
     1
 42
1.0
 92
        0
 66
   257
 43
1.0
 76
     1
 77
     6
 78
     2
 67
     7
 79
     5
170
     0
171
     0
290
     0
174
     0
 93
        1
 44
0.0
173
     0
291
     0
 45
0.0
  0
VISUALSTYLE
  5
32
102
{ACAD_REACTORS
330
2A
102
}
330
2A
100
AcDbVisualStyle
  2
Basic
 70
     7
 71
     1
 72
     0
 73
     1
 90
        0
 40
-0.6
 41
-30.0
 62
     5
 63
     7
421
 16777215
 74
     0
 91
        4
 64
     7
 65
   257
 75
     1
175
     1
 42
1.0
 92
        8
 66
     7
 43
1.0
 76
     1
 77
     6
 78
     2
 67
     7
 79
     5
170
     0
171
     0
290
     0
174
     0
 93
        1
 44
0.0
173
     0
291
     1
 45
0.0
  0
VISUALSTYLE
  5
36
102
{ACAD_REACTORS
330
2A
102
}
330
2A
100
AcDbVisualStyle
  2
Brighten
 70
    12
 71
     2
 72
     2
 73
     0
 90
        0
 40
-0.6
 41
-30.0
 62
     5
 63
     7
421
 16777215
 74
     1
 91
        4
 64
     7
 65
   257
 75
     1
175
     1
 42
1.0
 92
        8
 66
     7
 43
1.0
 76
     1
 77
     6
 78
     2
 67
     7
 79
     5
170
     0
171
     0
290
     0
174
     0
 93
        1
 44
50.0
173
     0
291
     1
 45
0.0
  0
VISUALSTYLE
  5
3A
102
{ACAD_REACTORS
330
2A
102
}
330
2A
100
AcDbVisualStyle
  2
ColorChange
 70
    16
 71
     2
 72
     2
 73
     3
 90
        0
 40
-0.6
 41
-30.0
 62
     5
 63
     8
421
  8421504
 74
     1
 91
        4
 64
     7
 65
   257
 75
     1
175
     1
 42
1.0
 92
        8
 66
     8
424
  8421504
 43
1.0
 76
     1
 77
     6
 78
     2
 67
     7
 79
     5
170
     0
171
     0
290
     0
174
     0
 93
        1
 44
0.0
173
     0
291
     1
 45
0.0
  0
VISUALSTYLE
  5
34
102
{ACAD_REACTORS
330
2A
102
}
330
2A
100
AcDbVisualStyle
  2
Conceptual
 70
     9
 71
     3
 72
     2
 73
     0
 90
        0
 40
-0.6
 41
-30.0
 62
     5
 63
     7
421
 16777215
 74
     2
 91
        2
 64
     7
 65
   257
 75
     1
175
     1
 42
40.0
 92
        8
 66
     7
 43
1.0
 76
     1
 77
     6
 78
     2
 67
     7
 79
     3
170
     0
171
     0
290
     0
174
     0
 93
        1
 44
0.0
173
     0
291
     0
 45
0.0
  0
VISUALSTYLE
  5
35
102
{ACAD_REACTORS
330
2A
102
}
330
2A
100
AcDbVisualStyle
  2
Dim
 70
    11
 71
     2
 72
     2
 73
     0
 90
        0
 40
-0.6
 41
-30.0
 62
     5
 63
     7
421
 16777215
 74
     1
 91
        4
 64
     7
 65
   257
 75
     1
175
     1
 42
1.0
 92
        8
 66
     7
 43
1.0
 76
     1
 77
     6
 78
     2
 67
     7
 79
     5
170
     0
171
     0
290
     0
174
     0
 93
        1
 44
-50.0
173
     0
291
     1
 45
0.0
  0
VISUALSTYLE
  5
39
102
{ACAD_REACTORS
330
2A
102
}
330
2A
100
AcDbVisualStyle
  2
Facepattern
 70
    15
 71
     2
 72
     2
 73
     0
 90
        0
 40
-0.6
 41
-30.0
 62
     5
 63
     7
421
 16777215
 74
     1
 91
        4
 64
     7
 65
   257
 75
     1
175
     1
 42
1.0
 92
        8
 66
     7
 43
1.0
 76
     1
 77
     6
 78
     2
 67
     7
 79
     5
170
     0
171
     0
290
     0
174
     0
 93
        1
 44
0.0
173
     0
291
     1
 45
0.0
  0
VISUALSTYLE
  5
2B
102
{ACAD_REACTORS
330
2A
102
}
330
2A
100
AcDbVisualStyle
  2
Flat
 70
     0
 71
     2
 72
     1
 73
     1
 90
        2
 40
-0.6
 41
30.0
 62
     5
 63
     7
421
 16777215
 74
     0
 91
        4
 64
     7
 65
   257
 75
     1
175
     1
 42
1.0
 92
        8
 66
     7
 43
1.0
 76
     1
 77
     6
 78
     2
 67
     7
 79
     5
170
     0
171
     0
290
     0
174
     0
 93
       13
 44
0.0
173
     0
291
     1
 45
0.0
  0
VISUALSTYLE
  5
2C
102
{ACAD_REACTORS
330
2A
102
}
330
2A
100
AcDbVisualStyle
  2
FlatWithEdges
 70
     1
 71
     2
 72
     1
 73
     1
 90
        2
 40
-0.6
 41
30.0
 62
     5
 63
     7
421
 16777215
 74
     1
 91
        4
 64
     7
 65
   257
 75
     1
175
     1
 42
1.0
 92
        0
 66
   257
 43
1.0
 76
     1
 77
     6
 78
     2
 67
     7
 79
     5
170
     0
171
     0
290
     0
174
     0
 93
       13
 44
0.0
173
     0
291
     1
 45
0.0
  0
VISUALSTYLE
  5
2D
102
{ACAD_REACTORS
330
2A
102
}
330
2A
100
AcDbVisualStyle
  2
Gouraud
 70
     2
 71
     2
 72
     2
 73
     1
 90
        2
 40
-0.6
 41
30.0
 62
     5
 63
     7
421
 16777215
 74
     0
 91
        4
 64
     7
 65
   257
 75
     1
175
     1
 42
1.0
 92
        0
 66
     7
 43
1.0
 76
     1
 77
     6
 78
     2
 67
     7
 79
     5
170
     0
171
     0
290
     0
174
     0
 93
       13
 44
0.0
173
     0
291
     1
 45
0.0
  0
VISUALSTYLE
  5
2E
102
{ACAD_REACTORS
330
2A
102
}
330
2A
100
AcDbVisualStyle
  2
GouraudWithEdges
 70
     3
 71
     2
 72
     2
 73
     1
 90
        2
 40
-0.6
 41
30.0
 62
     5
 63
     7
421
 16777215
 74
     1
 91
        4
 64
     7
 65
   257
 75
     1
175
     1
 42
1.0
 92
        0
 66
   257
 43
1.0
 76
     1
 77
     6
 78
     2
 67
     7
 79
     5
170
     0
171
     0
290
     0
174
     0
 93
       13
 44
0.0
173
     0
291
     1
 45
0.0
  0
VISUALSTYLE
  5
38
102
{ACAD_REACTORS
330
2A
102
}
330
2A
100
AcDbVisualStyle
  2
Linepattern
 70
    14
 71
     2
 72
     2
 73
     0
 90
        0
 40
-0.6
 41
-30.0
 62
     5
 63
     7
421
 16777215
 74
     1
 91
        4
 64
     7
 65
   257
 75
     7
175
     7
 42
1.0
 92
        8
 66
     7
 43
1.0
 76
     1
 77
     6
 78
     2
 67
     7
 79
     5
170
     0
171
     0
290
     0
174
     0
 93
        1
 44
0.0
173
     0
291
     1
 45
0.0
  0
VISUALSTYLE
  5
33
102
{ACAD_REACTORS
330
2A
102
}
330
2A
100
AcDbVisualStyle
  2
Realistic
 70
     8
 71
     2
 72
     2
 73
     0
 90
        0
 40
-0.6
 41
-30.0
 62
     5
 63
     7
421
 16777215
 74
     1
 91
        0
 64
     7
 65
   257
 75
     1
175
     1
 42
1.0
 92
        8
 66
     8
424
  7895160
 43
1.0
 76
     1
 77
     6
 78
     2
 67
     7
 79
     5
170
     0
171
     0
290
     0
174
     0
 93
       13
 44
0.0
173
     0
291
     0
 45
0.0
  0
VISUALSTYLE
  5
37
102
{ACAD_REACTORS
330
2A
102
}
330
2A
100
AcDbVisualStyle
  2
Thicken
 70
    13
 71
     2
 72
     2
 73
     0
 90
        0
 40
-0.6
 41
-30.0
 62
     5
 63
     7
421
 16777215
 74
     1
 91
        4
 64
     7
 65
   257
 75
     1
175
     1
 42
1.0
 92
       12
 66
     7
 43
1.0
 76
     1
 77
     6
 78
     2
 67
     7
 79
     5
170
     0
171
     0
290
     0
174
     0
 93
        1
 44
0.0
173
     0
291
     1
 45
0.0
  0
ENDSEC
  0
EOF
