  0
SECTION
  2
HEADER
  9
$ACADVER
  1
AC1021
  9
$ACADMAINTVER
 70
    25
  9
$DWGCODEPAGE
  3
ANSI_1252
  9
$INSBASE
 10
0.0
 20
0.0
 30
0.0
  9
$EXTMIN
 10
0.0
 20
0.0
 30
0.0
  9
$EXTMAX
 10
841.0
 20
594.0
 30
0.0
  9
$LIMMIN
 10
0.0
 20
0.0
  9
$LIMMAX
 10
841.0
 20
594.0
  9
$ORTHOMODE
 70
     0
  9
$REGENMODE
 70
     1
  9
$FILLMODE
 70
     1
  9
$QTEXTMODE
 70
     0
  9
$MIRRTEXT
 70
     1
  9
$LTSCALE
 40
1.0
  9
$ATTMODE
 70
     1
  9
$TEXTSIZE
 40
3.5
  9
$TRACEWID
 40
1.0
  9
$TEXTSTYLE
  7
STANDARD
  9
$CLAYER
  8
0
  9
$CELTYPE
  6
ByLayer
  9
$CECOLOR
 62
   256
  9
$CELTSCALE
 40
1.0
  9
$DISPSILH
 70
     0
  9
$DIMSCALE
 40
1.0
  9
$DIMASZ
 40
3.302
  9
$DIMEXO
 40
1.0
  9
$DIMDLI
 40
3.75
  9
$DIMRND
 40
0.0
  9
$DIMDLE
 40
0.0
  9
$DIMEXE
 40
1.0
  9
$DIMTP
 40
0.0
  9
$DIMTM
 40
0.0
  9
$DIMTXT
 40
3.5
  9
$DIMCEN
 40
2.5
  9
$DIMTSZ
 40
0.0
  9
$DIMTOL
 70
     0
  9
$DIMLIM
 70
     0
  9
$DIMTIH
 70
     1
  9
$DIMTOH
 70
     1
  9
$DIMSE1
 70
     0
  9
$DIMSE2
 70
     0
  9
$DIMTAD
 70
     1
  9
$DIMZIN
 70
     0
  9
$DIMBLK
  1

  9
$DIMASO
 70
     1
  9
$DIMSHO
 70
     1
  9
$DIMPOST
  1

  9
$DIMAPOST
  1

  9
$DIMALT
 70
     0
  9
$DIMALTD
 70
     3
  9
$DIMALTF
 40
0.0393700787
  9
$DIMLFAC
 40
1.0
  9
$DIMTOFL
 70
     1
  9
$DIMTVP
 40
0.0
  9
$DIMTIX
 70
     0
  9
$DIMSOXD
 70
     0
  9
$DIMSAH
 70
     0
  9
$DIMBLK1
  1

  9
$DIMBLK2
  1

  9
$DIMSTYLE
  2
ISO-25
  9
$DIMCLRD
 70
     0
  9
$DIMCLRE
 70
     0
  9
$DIMCLRT
 70
     0
  9
$DIMTFAC
 40
1.0
  9
$DIMGAP
 40
1.524
  9
$DIMJUST
 70
     0
  9
$DIMSD1
 70
     0
  9
$DIMSD2
 70
     0
  9
$DIMTOLJ
 70
     0
  9
$DIMTZIN
 70
     0
  9
$DIMALTZ
 70
     0
  9
$DIMALTTZ
 70
     0
  9
$DIMUPT
 70
     0
  9
$DIMDEC
 70
     1
  9
$DIMTDEC
 70
     1
  9
$DIMALTU
 70
     2
  9
$DIMALTTD
 70
     3
  9
$DIMTXSTY
  7
STANDARD
  9
$DIMAUNIT
 70
     0
  9
$DIMADEC
 70
     1
  9
$DIMALTRND
 40
0.0
  9
$DIMAZIN
 70
     0
  9
$DIMDSEP
 70
    44
  9
$DIMATFIT
 70
     3
  9
$DIMFRAC
 70
     0
  9
$DIMLDRBLK
  1

  9
$DIMLUNIT
 70
     2
  9
$DIMLWD
 70
    -2
  9
$DIMLWE
 70
    -2
  9
$DIMTMOVE
 70
     0
  9
$DIMFXL
 40
1.0
  9
$DIMFXLON
 70
     0
  9
$DIMJOGANG
 40
0.7853981634
  9
$DIMTFILL
 70
     0
  9
$DIMTFILLCLR
 70
     0
  9
$DIMARCSYM
 70
     0
  9
$DIMLTYPE
  6

  9
$DIMLTEX1
  6

  9
$DIMLTEX2
  6

  9
$LUNITS
 70
     2
  9
$LUPREC
 70
     1
  9
$SKETCHINC
 40
1.0
  9
$FILLETRAD
 40
10.0
  9
$AUNITS
 70
     0
  9
$AUPREC
 70
     1
  9
$MENU
  1
.
  9
$ELEVATION
 40
0.0
  9
$PELEVATION
 40
0.0
  9
$THICKNESS
 40
0.0
  9
$LIMCHECK
 70
     0
  9
$CHAMFERA
 40
10.0
  9
$CHAMFERB
 40
10.0
  9
$CHAMFERC
 40
20.0
  9
$CHAMFERD
 40
0.0
  9
$SKPOLY
 70
     0
  9
$TDCREATE
 40
2455700.665673137
  9
$TDUCREATE
 40
2455700.62400647
  9
$TDUPDATE
 40
2455700.665673148
  9
$TDUUPDATE
 40
2455700.624006481
  9
$TDINDWG
 40
0.0000000116
  9
$TDUSRTIMER
 40
0.0000000116
  9
$USRTIMER
 70
     1
  9
$ANGBASE
 50
0.0
  9
$ANGDIR
 70
     0
  9
$PDMODE
 70
     0
  9
$PDSIZE
 40
-1.0
  9
$PLINEWID
 40
0.0
  9
$SPLFRAME
 70
     0
  9
$SPLINETYPE
 70
     6
  9
$SPLINESEGS
 70
     8
  9
$HANDSEED
  5
28E
  9
$SURFTAB1
 70
     6
  9
$SURFTAB2
 70
     6
  9
$SURFTYPE
 70
     6
  9
$SURFU
 70
     6
  9
$SURFV
 70
     6
  9
$UCSBASE
  2

  9
$UCSNAME
  2

  9
$UCSORG
 10
0.0
 20
0.0
 30
0.0
  9
$UCSXDIR
 10
1.0
 20
0.0
 30
0.0
  9
$UCSYDIR
 10
0.0
 20
1.0
 30
0.0
  9
$UCSORTHOREF
  2

  9
$UCSORTHOVIEW
 70
     0
  9
$UCSORGTOP
 10
0.0
 20
0.0
 30
0.0
  9
$UCSORGBOTTOM
 10
0.0
 20
0.0
 30
0.0
  9
$UCSORGLEFT
 10
0.0
 20
0.0
 30
0.0
  9
$UCSORGRIGHT
 10
0.0
 20
0.0
 30
0.0
  9
$UCSORGFRONT
 10
0.0
 20
0.0
 30
0.0
  9
$UCSORGBACK
 10
0.0
 20
0.0
 30
0.0
  9
$PUCSBASE
  2

  9
$PUCSNAME
  2

  9
$PUCSORG
 10
0.0
 20
0.0
 30
0.0
  9
$PUCSXDIR
 10
1.0
 20
0.0
 30
0.0
  9
$PUCSYDIR
 10
0.0
 20
1.0
 30
0.0
  9
$PUCSORTHOREF
  2

  9
$PUCSORTHOVIEW
 70
     0
  9
$PUCSORGTOP
 10
0.0
 20
0.0
 30
0.0
  9
$PUCSORGBOTTOM
 10
0.0
 20
0.0
 30
0.0
  9
$PUCSORGLEFT
 10
0.0
 20
0.0
 30
0.0
  9
$PUCSORGRIGHT
 10
0.0
 20
0.0
 30
0.0
  9
$PUCSORGFRONT
 10
0.0
 20
0.0
 30
0.0
  9
$PUCSORGBACK
 10
0.0
 20
0.0
 30
0.0
  9
$USERI1
 70
     0
  9
$USERI2
 70
     0
  9
$USERI3
 70
     0
  9
$USERI4
 70
     0
  9
$USERI5
 70
     0
  9
$USERR1
 40
0.0
  9
$USERR2
 40
0.0
  9
$USERR3
 40
0.0
  9
$USERR4
 40
0.0
  9
$USERR5
 40
0.0
  9
$WORLDVIEW
 70
     1
  9
$SHADEDGE
 70
     3
  9
$SHADEDIF
 70
    70
  9
$TILEMODE
 70
     1
  9
$MAXACTVP
 70
    64
  9
$PINSBASE
 10
0.0
 20
0.0
 30
0.0
  9
$PLIMCHECK
 70
     0
  9
$PEXTMIN
 10
1.0000000000E+20
 20
1.0000000000E+20
 30
1.0000000000E+20
  9
$PEXTMAX
 10
-1.0000000000E+20
 20
-1.0000000000E+20
 30
-1.0000000000E+20
  9
$PLIMMIN
 10
0.0
 20
0.0
  9
$PLIMMAX
 10
420.0
 20
297.0
  9
$UNITMODE
 70
     0
  9
$VISRETAIN
 70
     1
  9
$PLINEGEN
 70
     0
  9
$PSLTSCALE
 70
     1
  9
$TREEDEPTH
 70
  3020
  9
$CMLSTYLE
  2
Standard
  9
$CMLJUST
 70
     0
  9
$CMLSCALE
 40
20.0
  9
$PROXYGRAPHICS
 70
     1
  9
$MEASUREMENT
 70
     1
  9
$CELWEIGHT
370
    -1
  9
$ENDCAPS
280
     0
  9
$JOINSTYLE
280
     0
  9
$LWDISPLAY
290
     1
  9
$INSUNITS
 70
     4
  9
$HYPERLINKBASE
  1

  9
$STYLESHEET
  1

  9
$XEDIT
290
     1
  9
$CEPSNTYPE
380
     0
  9
$PSTYLEMODE
290
     1
  9
$FINGERPRINTGUID
  2
{21AE150A-E0F1-4065-AC46-D6FE69AAE5A0}
  9
$VERSIONGUID
  2
{FAEB1C32-E019-11D5-929B-00C0DF256EC4}
  9
$EXTNAMES
290
     1
  9
$PSVPSCALE
 40
0.0
  9
$OLESTARTUP
290
     0
  9
$SORTENTS
280
   127
  9
$INDEXCTL
280
     0
  9
$HIDETEXT
280
     1
  9
$XCLIPFRAME
290
     0
  9
$HALOGAP
280
     0
  9
$OBSCOLOR
 70
   257
  9
$OBSLTYPE
280
     0
  9
$INTERSECTIONDISPLAY
280
     0
  9
$INTERSECTIONCOLOR
 70
   257
  9
$DIMASSOC
280
     2
  9
$PROJECTNAME
  1

  9
$CAMERADISPLAY
290
     0
  9
$LENSLENGTH
 40
50.0
  9
$CAMERAHEIGHT
 40
0.0
  9
$STEPSPERSEC
 40
2.0
  9
$STEPSIZE
 40
6.0
  9
$3DDWFPREC
 40
2.0
  9
$PSOLWIDTH
 40
5.0
  9
$PSOLHEIGHT
 40
80.0
  9
$LOFTANG1
 40
1.5707963268
  9
$LOFTANG2
 40
1.5707963268
  9
$LOFTMAG1
 40
0.0
  9
$LOFTMAG2
 40
0.0
  9
$LOFTPARAM
 70
     7
  9
$LOFTNORMALS
280
     1
  9
$LATITUDE
 40
37.795
  9
$LONGITUDE
 40
-122.394
  9
$NORTHDIRECTION
 40
0.0
  9
$TIMEZONE
 70
 -8000
  9
$LIGHTGLYPHDISPLAY
280
     1
  9
$TILEMODELIGHTSYNCH
280
     1
  9
$SOLIDHIST
280
     1
  9
$SHOWHIST
280
     1
  9
$DWFFRAME
280
     2
  9
$DGNFRAME
280
     2
  9
$REALWORLDSCALE
290
     1
  9
$INTERFERECOLOR
 62
   256
  9
$CSHADOW
280
     0
  9
$SHADOWPLANELOCATION
 40
0.0
  0
ENDSEC
  0
SECTION
  2
CLASSES
  0
CLASS
  1
ACDBDICTIONARYWDFLT
  2
AcDbDictionaryWithDefault
  3
ObjectDBX Classes
 90
        0
 91
        4
280
     0
281
     0
  0
CLASS
  1
VISUALSTYLE
  2
AcDbVisualStyle
  3
ObjectDBX Classes
 90
     4095
 91
        4
280
     0
281
     0
  0
CLASS
  1
MATERIAL
  2
AcDbMaterial
  3
ObjectDBX Classes
 90
     1153
 91
        4
280
     0
281
     0
  0
ENDSEC
  0
SECTION
  2
TABLES
  0
TABLE
  2
VPORT
  5
8
330
0
100
AcDbSymbolTable
 70
     1
  0
VPORT
  5
29
330
8
100
AcDbSymbolTableRecord
100
AcDbViewportTableRecord
  2
*Active
 70
     0
 10
0.0
 20
0.0
 11
1.0
 21
1.0
 12
420.5
 22
297.0
 13
0.0
 23
0.0
 14
10.0
 24
10.0
 15
10.0
 25
10.0
 16
0.0
 26
0.0
 36
1.0
 17
0.0
 27
0.0
 37
0.0
 40
594.0
 41
1.4158249158
 42
50.0
 43
0.0
 44
0.0
 50
0.0
 51
0.0
 71
     0
 72
  2000
 73
     1
 74
     3
 75
     0
 76
     0
 77
     0
 78
     0
281
     0
 65
     1
110
0.0
120
0.0
130
0.0
111
1.0
121
0.0
131
0.0
112
0.0
122
1.0
132
0.0
 79
     0
146
0.0
 60
     3
 61
     5
292
     1
282
     1
141
0.0
142
0.0
 63
   250
  0
ENDTAB
  0
TABLE
  2
LTYPE
  5
5
330
0
100
AcDbSymbolTable
 70
     8
  0
LTYPE
  5
14
330
5
100
AcDbSymbolTableRecord
100
AcDbLinetypeTableRecord
  2
ByBlock
 70
     0
  3

 72
    65
 73
     0
 40
0.0
  0
LTYPE
  5
15
330
5
100
AcDbSymbolTableRecord
100
AcDbLinetypeTableRecord
  2
ByLayer
 70
     0
  3

 72
    65
 73
     0
 40
0.0
  0
LTYPE
  5
16
330
5
100
AcDbSymbolTableRecord
100
AcDbLinetypeTableRecord
  2
Continuous
 70
     0
  3
Solid line
 72
    65
 73
     0
 40
0.0
  0
LTYPE
  5
3F
330
5
100
AcDbSymbolTableRecord
100
AcDbLinetypeTableRecord
  2
SLD-Solid
 70
     0
  3
SolidWorks Line Style
 72
    65
 73
     0
 40
0.0
  0
LTYPE
  5
40
330
5
100
AcDbSymbolTableRecord
100
AcDbLinetypeTableRecord
  2
SLD-Dashed
 70
     0
  3
SolidWorks Line Style
 72
    65
 73
     2
 40
1.905
 49
1.27
 74
     0
 49
-0.635
 74
     0
  0
LTYPE
  5
41
330
5
100
AcDbSymbolTableRecord
100
AcDbLinetypeTableRecord
  2
SLD-Phantom
 70
     0
  3
SolidWorks Line Style
 72
    65
 73
     6
 40
12.7
 49
6.35
 74
     0
 49
-1.27
 74
     0
 49
1.27
 74
     0
 49
-1.27
 74
     0
 49
1.27
 74
     0
 49
-1.27
 74
     0
  0
LTYPE
  5
42
330
5
100
AcDbSymbolTableRecord
100
AcDbLinetypeTableRecord
  2
SLD-Chain
 70
     0
  3
SolidWorks Line Style
 72
    65
 73
     4
 40
10.16
 49
6.35
 74
     0
 49
-1.27
 74
     0
 49
1.27
 74
     0
 49
-1.27
 74
     0
  0
LTYPE
  5
43
330
5
100
AcDbSymbolTableRecord
100
AcDbLinetypeTableRecord
  2
SLD-Center
 70
     0
  3
SolidWorks Line Style
 72
    65
 73
     4
 40
19.05
 49
15.24
 74
     0
 49
-1.27
 74
     0
 49
1.27
 74
     0
 49
-1.27
 74
     0
  0
LTYPE
  5
44
330
5
100
AcDbSymbolTableRecord
100
AcDbLinetypeTableRecord
  2
SLD-Stitch
 70
     0
  3
SolidWorks Line Style
 72
    65
 73
     2
 40
0.635
 49
0.0
 74
     0
 49
-0.635
 74
     0
  0
LTYPE
  5
45
330
5
100
AcDbSymbolTableRecord
100
AcDbLinetypeTableRecord
  2
SLD-Thin-Thick-Chain
 70
     0
  3
SolidWorks Line Style
 72
    65
 73
     4
 40
10.16
 49
6.35
 74
     0
 49
-1.27
 74
     0
 49
1.27
 74
     0
 49
-1.27
 74
     0
  0
ENDTAB
  0
TABLE
  2
LAYER
  5
2
330
0
100
AcDbSymbolTable
 70
     1
  0
LAYER
  5
10
330
2
100
AcDbSymbolTableRecord
100
AcDbLayerTableRecord
  2
0
 70
     0
 62
     7
  6
Continuous
370
    -3
390
F
347
3E
  0
ENDTAB
  0
TABLE
  2
STYLE
  5
3
330
0
100
AcDbSymbolTable
 70
     1
  0
STYLE
  5
11
330
3
100
AcDbSymbolTableRecord
100
AcDbTextStyleTableRecord
  2
STANDARD
 70
     0
 40
0.0
 41
1.0
 50
0.0
 71
     0
 42
2.5
  3
GOTHIC.TTF
  4

1001
ACAD
1000
CENTURY GOTHIC
1071
       34
  0
ENDTAB
  0
TABLE
  2
VIEW
  5
6
330
0
100
AcDbSymbolTable
 70
     0
  0
ENDTAB
  0
TABLE
  2
UCS
  5
7
330
0
100
AcDbSymbolTable
 70
     0
  0
ENDTAB
  0
TABLE
  2
APPID
  5
9
330
0
100
AcDbSymbolTable
 70
     1
  0
APPID
  5
12
330
9
100
AcDbSymbolTableRecord
100
AcDbRegAppTableRecord
  2
ACAD
 70
     0
  0
ENDTAB
  0
TABLE
  2
DIMSTYLE
  5
A
330
0
100
AcDbSymbolTable
 70
     1
100
AcDbDimStyleTable
  0
DIMSTYLE
105
27
330
A
100
AcDbSymbolTableRecord
100
AcDbDimStyleTableRecord
  2
ISO-25
 70
     0
 41
2.5
 42
0.625
 43
3.75
 44
1.25
 73
     0
 74
     0
 77
     1
 78
     8
140
2.5
141
2.5
143
0.0393700787
147
0.625
171
     3
172
     1
271
     2
272
     2
274
     3
278
    44
283
     0
284
     8
340
11
  0
ENDTAB
  0
TABLE
  2
BLOCK_RECORD
  5
1
330
0
100
AcDbSymbolTable
 70
     1
  0
BLOCK_RECORD
  5
1F
330
1
100
AcDbSymbolTableRecord
100
AcDbBlockTableRecord
  2
*Model_Space
340
22
 70
     0
280
     1
281
     0
  0
BLOCK_RECORD
  5
1B
330
1
100
AcDbSymbolTableRecord
100
AcDbBlockTableRecord
  2
*Paper_Space
340
1E
 70
     0
280
     1
281
     0
  0
BLOCK_RECORD
  5
23
330
1
100
AcDbSymbolTableRecord
100
AcDbBlockTableRecord
  2
*Paper_Space0
340
26
 70
     0
280
     1
281
     0
  0
ENDTAB
  0
ENDSEC
  0
SECTION
  2
BLOCKS
  0
BLOCK
  5
20
330
1F
100
AcDbEntity
  8
0
100
AcDbBlockBegin
  2
*Model_Space
 70
     0
 10
0.0
 20
0.0
 30
0.0
  3
*Model_Space
  1

  0
ENDBLK
  5
21
330
1F
100
AcDbEntity
  8
0
100
AcDbBlockEnd
  0
BLOCK
  5
1C
330
1B
100
AcDbEntity
 67
     1
  8
0
100
AcDbBlockBegin
  2
*Paper_Space
 70
     0
 10
0.0
 20
0.0
 30
0.0
  3
*Paper_Space
  1

  0
ENDBLK
  5
1D
330
1B
100
AcDbEntity
 67
     1
  8
0
100
AcDbBlockEnd
  0
BLOCK
  5
24
330
23
100
AcDbEntity
  8
0
100
AcDbBlockBegin
  2
*Paper_Space0
 70
     0
 10
0.0
 20
0.0
 30
0.0
  3
*Paper_Space0
  1

  0
ENDBLK
  5
25
330
23
100
AcDbEntity
  8
0
100
AcDbBlockEnd
  0
ENDSEC
  0
SECTION
  2
ENTITIES
  0
SPLINE
  5
46
330
1F
100
AcDbEntity
  8
0
  6
SLD-Solid
 62
     7
370
    15
100
AcDbSpline
210
0.0
220
0.0
230
1.0
 70
     8
 71
     3
 72
    11
 73
     7
 74
     0
 42
0.00000001
 43
0.00000001
 40
0.0
 40
0.0
 40
0.0
 40
0.0
 40
0.2899261135397778
 40
0.6397610325606933
 40
0.9763297031099405
 40
0.9999999999999999
 40
0.9999999999999999
 40
0.9999999999999999
 40
0.9999999999999999
 10
165.3770863088017
 20
-69.48489132014201
 30
0.0
 10
165.4061661893895
 20
-69.14295429004663
 30
0.0
 10
165.4703348639684
 20
-68.38842416244373
 30
0.0
 10
165.9543493479446
 20
-67.20700378834665
 30
0.0
 10
166.4883710121039
 20
-66.32691958692516
 30
0.0
 10
166.8490427889143
 20
-65.87626791268053
 30
0.0
 10
166.8727415244999
 20
-65.84665684922675
 30
0.0
  0
SPLINE
  5
47
330
1F
100
AcDbEntity
  8
0
  6
SLD-Solid
 62
     7
370
    15
100
AcDbSpline
210
0.0
220
0.0
230
1.0
 70
     8
 71
     3
 72
    12
 73
     8
 74
     0
 42
0.00000001
 43
0.00000001
 40
0.0
 40
0.0
 40
0.0
 40
0.0
 40
0.0903634329855642
 40
0.3849656906926763
 40
0.6832840920726052
 40
0.9910260862874972
 40
1.0
 40
1.0
 40
1.0
 40
1.0
 10
144.4829679046863
 20
-65.84665684922675
 30
0.0
 10
144.5803727001739
 20
-65.97080711830388
 30
0.0
 10
144.9953359561367
 20
-66.49971126133907
 30
0.0
 10
145.521150612687
 20
-67.42583791703433
 30
0.0
 10
145.9138543982603
 20
-68.6186597960804
 30
0.0
 10
146.0692776521071
 20
-69.41199308540746
 30
0.0
 10
146.0122869586368
 20
-69.82409435186293
 30
0.0
 10
146.0106721690009
 20
-69.83577093997678
 30
0.0
  0
SPLINE
  5
48
330
1F
100
AcDbEntity
  8
0
  6
SLD-Solid
 62
     7
370
    15
100
AcDbSpline
210
0.0
220
0.0
230
1.0
 70
     8
 71
     3
 72
    11
 73
     7
 74
     0
 42
0.00000001
 43
0.00000001
 40
0.0
 40
0.0
 40
0.0
 40
0.0
 40
0.0925535171471416
 40
0.4249799083406868
 40
0.7579032427929898
 40
1.0
 40
1.0
 40
1.0
 40
1.0
 10
159.6749521645118
 20
-76.43677947107314
 30
0.0
 10
159.9021452627823
 20
-76.42480212065055
 30
0.0
 10
160.9453525341506
 20
-76.36980547177485
 30
0.0
 10
162.7356716378646
 20
-76.17311789813624
 30
0.0
 10
164.8013272227937
 20
-75.88311465719983
 30
0.0
 10
166.0128890032456
 20
-75.64168793933051
 30
0.0
 10
166.5229845328766
 20
-75.54004170757771
 30
0.0
  0
SPLINE
  5
49
330
1F
100
AcDbEntity
  8
0
  6
SLD-Solid
 62
     7
370
    15
100
AcDbSpline
210
0.0
220
0.0
230
1.0
 70
     8
 71
     3
 72
    10
 73
     6
 74
     0
 42
0.00000001
 43
0.00000001
 40
0.0
 40
0.0
 40
0.0
 40
0.0
 40
0.2502355006436228
 40
0.7279697107284417
 40
1.0
 40
1.0
 40
1.0
 40
1.0
 10
144.8402820265692
 20
-75.54004170757767
 30
0.0
 10
145.2075644905983
 20
-75.61383106149417
 30
0.0
 10
146.276040020278
 20
-75.82849450647817
 30
0.0
 10
147.8348653845519
 20
-76.07900394451339
 30
0.0
 10
149.0768778939761
 20
-76.20482831886955
 30
0.0
 10
149.5275060879058
 20
-76.25048004148766
 30
0.0
  0
SPLINE
  5
4A
330
1F
100
AcDbEntity
  8
0
  6
SLD-Solid
 62
     7
370
    15
100
AcDbSpline
210
0.0
220
0.0
230
1.0
 70
     8
 71
     3
 72
     9
 73
     5
 74
     0
 42
0.00000001
 43
0.00000001
 40
0.0
 40
0.0
 40
0.0
 40
0.0
 40
0.7656645868303834
 40
0.9999999999999999
 40
0.9999999999999999
 40
0.9999999999999999
 40
0.9999999999999999
 10
167.3040976023298
 20
-74.72481354588668
 30
0.0
 10
167.6826194395608
 20
-72.4750317493626
 30
0.0
 10
168.1769897470576
 20
-69.53669316714156
 30
0.0
 10
168.8103107580424
 20
-66.5472007823778
 30
0.0
 10
168.9587202988206
 20
-65.84665684922675
 30
0.0
  0
LINE
  5
4B
330
1F
100
AcDbEntity
  8
0
  6
SLD-Solid
 62
     7
370
    15
100
AcDbLine
 10
143.9393858181
 20
-74.1710829507
 30
0.0
 11
144.0287667154
 21
-74.7117398922
 31
0.0
  0
SPLINE
  5
4C
330
1F
100
AcDbEntity
  8
0
  6
SLD-Solid
 62
     7
370
    15
100
AcDbSpline
210
0.0
220
0.0
230
1.0
 70
     8
 71
     3
 72
     9
 73
     5
 74
     0
 42
0.00000001
 43
0.00000001
 40
0.0
 40
0.0
 40
0.0
 40
0.0
 40
0.6236616071747008
 40
1.0
 40
1.0
 40
1.0
 40
1.0
 10
142.3981449904917
 20
-65.84665684922675
 30
0.0
 10
142.7592355916277
 20
-67.5942839068433
 30
0.0
 10
143.3382204080441
 20
-70.39648791862079
 30
0.0
 10
143.7750064580402
 20
-73.13897846580592
 30
0.0
 10
143.9393858181042
 20
-74.17108295067216
 30
0.0
  0
LINE
  5
4D
330
1F
100
AcDbEntity
  8
0
  6
SLD-Solid
 62
     7
370
    15
100
AcDbLine
 10
-2.81836672
 20
-83.4874962892
 30
0.0
 11
897.18163328
 21
-83.4874962892
 31
0.0
  0
LINE
  5
4E
330
1F
100
AcDbEntity
  8
0
  6
SLD-Solid
 62
     7
370
    15
100
AcDbLine
 10
-1.61836672
 20
-65.8466568492
 30
0.0
 11
895.98163328
 21
-65.8466568492
 31
0.0
  0
LINE
  5
4F
330
1F
100
AcDbEntity
  8
0
  6
SLD-Solid
 62
     7
370
    15
100
AcDbLine
 10
895.98163328
 20
-64.5466568492
 30
0.0
 11
897.18163328
 21
-64.5466568492
 31
0.0
  0
LINE
  5
50
330
1F
100
AcDbEntity
  8
0
  6
SLD-Solid
 62
     7
370
    15
100
AcDbLine
 10
-2.81836672
 20
-64.5466568492
 30
0.0
 11
-1.61836672
 21
-64.5466568492
 31
0.0
  0
SPLINE
  5
51
330
1F
100
AcDbEntity
  8
0
  6
SLD-Solid
 62
     7
370
    15
100
AcDbSpline
210
0.0
220
0.0
230
1.0
 70
     8
 71
     3
 72
    11
 73
     7
 74
     0
 42
0.00000001
 43
0.00000001
 40
0.0
 40
0.0
 40
0.0
 40
0.0
 40
0.2899261135418985
 40
0.6397610325654247
 40
0.976329703117185
 40
1.0
 40
1.0
 40
1.0
 40
1.0
 10
456.8770863087956
 20
-69.4848913201141
 30
0.0
 10
456.9061661893835
 20
-69.14295429001871
 30
0.0
 10
456.9703348639624
 20
-68.38842416241586
 30
0.0
 10
457.4543493479393
 20
-67.20700378831879
 30
0.0
 10
457.9883710120914
 20
-66.32691958690661
 30
0.0
 10
458.3490427888939
 20
-65.87626791267127
 30
0.0
 10
458.372741524472
 20
-65.84665684922675
 30
0.0
  0
SPLINE
  5
52
330
1F
100
AcDbEntity
  8
0
  6
SLD-Solid
 62
     7
370
    15
100
AcDbSpline
210
0.0
220
0.0
230
1.0
 70
     8
 71
     3
 72
    12
 73
     8
 74
     0
 42
0.00000001
 43
0.00000001
 40
0.0
 40
0.0
 40
0.0
 40
0.0
 40
0.0903634329794905
 40
0.384965690688575
 40
0.6832840920704821
 40
0.9910260862873299
 40
0.9999999999999999
 40
0.9999999999999999
 40
0.9999999999999999
 40
0.9999999999999999
 10
435.9829679047014
 20
-65.84665684922675
 30
0.0
 10
436.0803727001817
 20
-65.97080711829473
 30
0.0
 10
436.4953359561369
 20
-66.49971126132081
 30
0.0
 10
437.0211506126808
 20
-67.42583791700713
 30
0.0
 10
437.4138543982544
 20
-68.61865979605342
 30
0.0
 10
437.5692776521013
 20
-69.4119930853802
 30
0.0
 10
437.5122869586307
 20
-69.82409435183607
 30
0.0
 10
437.5106721689949
 20
-69.83577093995008
 30
0.0
  0
SPLINE
  5
53
330
1F
100
AcDbEntity
  8
0
  6
SLD-Solid
 62
     7
370
    15
100
AcDbSpline
210
0.0
220
0.0
230
1.0
 70
     8
 71
     3
 72
    11
 73
     7
 74
     0
 42
0.00000001
 43
0.00000001
 40
0.0
 40
0.0
 40
0.0
 40
0.0
 40
0.0925535171469922
 40
0.4249799083404686
 40
0.7579032427927161
 40
0.9999999999999999
 40
0.9999999999999999
 40
0.9999999999999999
 40
0.9999999999999999
 10
451.1749521645064
 20
-76.43677947104565
 30
0.0
 10
451.4021452627765
 20
-76.42480212062314
 30
0.0
 10
452.4453525341441
 20
-76.36980547174748
 30
0.0
 10
454.2356716378574
 20
-76.17311789810893
 30
0.0
 10
456.3013272227866
 20
-75.88311465717251
 30
0.0
 10
457.5128890032391
 20
-75.64168793930315
 30
0.0
 10
458.0229845328706
 20
-75.5400417075503
 30
0.0
  0
SPLINE
  5
54
330
1F
100
AcDbEntity
  8
0
  6
SLD-Solid
 62
     7
370
    15
100
AcDbSpline
210
0.0
220
0.0
230
1.0
 70
     8
 71
     3
 72
    10
 73
     6
 74
     0
 42
0.00000001
 43
0.00000001
 40
0.0
 40
0.0
 40
0.0
 40
0.0
 40
0.2502355006436264
 40
0.7279697107284533
 40
1.0
 40
1.0
 40
1.0
 40
1.0
 10
436.3402820265632
 20
-75.54004170755019
 30
0.0
 10
436.7075644905922
 20
-75.61383106146674
 30
0.0
 10
437.776040020272
 20
-75.82849450645074
 30
0.0
 10
439.3348653845458
 20
-76.07900394448592
 30
0.0
 10
440.57687789397
 20
-76.20482831884212
 30
0.0
 10
441.0275060878997
 20
-76.25048004146018
 30
0.0
  0
LINE
  5
55
330
1F
100
AcDbEntity
  8
0
  6
SLD-Solid
 62
     7
370
    15
100
AcDbLine
 10
435.4393858181
 20
-74.1710829506
 30
0.0
 11
435.5287667154
 21
-74.7117398922
 31
0.0
  0
SPLINE
  5
56
330
1F
100
AcDbEntity
  8
0
  6
SLD-Solid
 62
     7
370
    15
100
AcDbSpline
210
0.0
220
0.0
230
1.0
 70
     8
 71
     3
 72
     9
 73
     5
 74
     0
 42
0.00000001
 43
0.00000001
 40
0.0
 40
0.0
 40
0.0
 40
0.0
 40
0.6236616071744489
 40
1.0
 40
1.0
 40
1.0
 40
1.0
 10
433.898144990491
 20
-65.84665684922675
 30
0.0
 10
434.2592355916258
 20
-67.59428390683748
 30
0.0
 10
434.8382204080405
 20
-70.39648791860681
 30
0.0
 10
435.2750064580351
 20
-73.13897846578365
 30
0.0
 10
435.4393858180987
 20
-74.1710829506475
 30
0.0
  0
SPLINE
  5
57
330
1F
100
AcDbEntity
  8
0
  6
SLD-Solid
 62
     7
370
    15
100
AcDbSpline
210
0.0
220
0.0
230
1.0
 70
     8
 71
     3
 72
     9
 73
     5
 74
     0
 42
0.00000001
 43
0.00000001
 40
0.0
 40
0.0
 40
0.0
 40
0.0
 40
0.7656645868305818
 40
1.0
 40
1.0
 40
1.0
 40
1.0
 10
458.8040976023239
 20
-74.72481354585908
 30
0.0
 10
459.1826194395535
 20
-72.47503174934144
 30
0.0
 10
459.6769897470487
 20
-69.53669316712957
 30
0.0
 10
460.3103107580314
 20
-66.54720078237503
 30
0.0
 10
460.4587202988089
 20
-65.84665684922675
 30
0.0
  0
SPLINE
  5
58
330
1F
100
AcDbEntity
  8
0
  6
SLD-Solid
 62
     7
370
    15
100
AcDbSpline
210
0.0
220
0.0
230
1.0
 70
     8
 71
     3
 72
    11
 73
     7
 74
     0
 42
0.00000001
 43
0.00000001
 40
0.0
 40
0.0
 40
0.0
 40
0.0
 40
0.2899261135450477
 40
0.6397610325721949
 40
0.9763297031274872
 40
1.0
 40
1.0
 40
1.0
 40
1.0
 10
748.3770863087931
 20
-69.48489132007441
 30
0.0
 10
748.406166189381
 20
-69.1429542899789
 30
0.0
 10
748.4703348639596
 20
-68.38842416237611
 30
0.0
 10
748.9543493479375
 20
-67.20700378827898
 30
0.0
 10
749.4883710120787
 20
-66.32691958688014
 30
0.0
 10
749.8490427888702
 20
-65.87626791265805
 30
0.0
 10
749.8727415244376
 20
-65.84665684922675
 30
0.0
  0
SPLINE
  5
59
330
1F
100
AcDbEntity
  8
0
  6
SLD-Solid
 62
     7
370
    15
100
AcDbSpline
210
0.0
220
0.0
230
1.0
 70
     8
 71
     3
 72
    12
 73
     8
 74
     0
 42
0.00000001
 43
0.00000001
 40
0.0
 40
0.0
 40
0.0
 40
0.0
 40
0.0903634329706379
 40
0.3849656906826841
 40
0.6832840920674487
 40
0.9910260862873062
 40
1.0
 40
1.0
 40
1.0
 40
1.0
 10
727.4829679047295
 20
-65.84665684922675
 30
0.0
 10
727.5803727001993
 20
-65.97080711828134
 30
0.0
 10
727.9953359561433
 20
-66.49971126129422
 30
0.0
 10
728.5211506126777
 20
-67.42583791696732
 30
0.0
 10
728.9138543982523
 20
-68.61865979601367
 30
0.0
 10
729.069277652098
 20
-69.41199308534102
 30
0.0
 10
729.0122869586282
 20
-69.82409435179638
 30
0.0
 10
729.0106721689924
 20
-69.83577093991028
 30
0.0
  0
SPLINE
  5
5A
330
1F
100
AcDbEntity
  8
0
  6
SLD-Solid
 62
     7
370
    15
100
AcDbSpline
210
0.0
220
0.0
230
1.0
 70
     8
 71
     3
 72
    11
 73
     7
 74
     0
 42
0.00000001
 43
0.00000001
 40
0.0
 40
0.0
 40
0.0
 40
0.0
 40
0.0925535171471489
 40
0.4249799083407004
 40
0.7579032427930016
 40
0.9999999999999999
 40
0.9999999999999999
 40
0.9999999999999999
 40
0.9999999999999999
 10
742.6749521645028
 20
-76.43677947100569
 30
0.0
 10
742.9021452627732
 20
-76.42480212058311
 30
0.0
 10
743.9453525341416
 20
-76.36980547170747
 30
0.0
 10
745.7356716378558
 20
-76.1731178980688
 30
0.0
 10
747.8013272227851
 20
-75.88311465713238
 30
0.0
 10
749.0128890032371
 20
-75.64168793926301
 30
0.0
 10
749.5229845328679
 20
-75.54004170751027
 30
0.0
  0
SPLINE
  5
5B
330
1F
100
AcDbEntity
  8
0
  6
SLD-Solid
 62
     7
370
    15
100
AcDbSpline
210
0.0
220
0.0
230
1.0
 70
     8
 71
     3
 72
    10
 73
     6
 74
     0
 42
0.00000001
 43
0.00000001
 40
0.0
 40
0.0
 40
0.0
 40
0.0
 40
0.2502355006436257
 40
0.7279697107284503
 40
1.0
 40
1.0
 40
1.0
 40
1.0
 10
727.8402820265605
 20
-75.54004170751017
 30
0.0
 10
728.2075644905897
 20
-75.61383106142672
 30
0.0
 10
729.2760400202693
 20
-75.82849450641072
 30
0.0
 10
730.8348653845434
 20
-76.07900394444589
 30
0.0
 10
732.0768778939674
 20
-76.2048283188021
 30
0.0
 10
732.5275060878972
 20
-76.25048004142016
 30
0.0
  0
LINE
  5
5C
330
1F
100
AcDbEntity
  8
0
  6
SLD-Solid
 62
     7
370
    15
100
AcDbLine
 10
726.9393858181
 20
-74.1710829506
 30
0.0
 11
727.0287667154
 21
-74.7117398921
 31
0.0
  0
SPLINE
  5
5D
330
1F
100
AcDbEntity
  8
0
  6
SLD-Solid
 62
     7
370
    15
100
AcDbSpline
210
0.0
220
0.0
230
1.0
 70
     8
 71
     3
 72
     9
 73
     5
 74
     0
 42
0.00000001
 43
0.00000001
 40
0.0
 40
0.0
 40
0.0
 40
0.0
 40
0.6236616071721117
 40
1.0
 40
1.0
 40
1.0
 40
1.0
 10
725.3981449904963
 20
-65.84665684922675
 30
0.0
 10
725.7592355916278
 20
-67.5942839068216
 30
0.0
 10
726.3382204080393
 20
-70.396487918576
 30
0.0
 10
726.7750064580317
 20
-73.13897846573836
 30
0.0
 10
726.9393858180955
 20
-74.1710829506031
 30
0.0
  0
SPLINE
  5
5E
330
1F
100
AcDbEntity
  8
0
  6
SLD-Solid
 62
     7
370
    15
100
AcDbSpline
210
0.0
220
0.0
230
1.0
 70
     8
 71
     3
 72
     9
 73
     5
 74
     0
 42
0.00000001
 43
0.00000001
 40
0.0
 40
0.0
 40
0.0
 40
0.0
 40
0.7656645868353803
 40
1.0
 40
1.0
 40
1.0
 40
1.0
 10
750.3040976023215
 20
-74.72481354581912
 30
0.0
 10
750.6826194395514
 20
-72.47503174929743
 30
0.0
 10
751.1769897470442
 20
-69.53669316709865
 30
0.0
 10
751.8103107580243
 20
-66.54720078235754
 30
0.0
 10
751.9587202987981
 20
-65.84665684922675
 30
0.0
  0
LINE
  5
5F
330
1F
100
AcDbEntity
  8
0
  6
SLD-Solid
 62
     7
370
    15
100
AcDbLine
 10
850.68163328
 20
705.2694535646
 30
0.0
 11
850.68163328
 21
700.7201516492
 31
0.0
  0
LINE
  5
60
330
1F
100
AcDbEntity
  8
0
  6
SLD-Solid
 62
     7
370
    15
100
AcDbLine
 10
875.68163328
 20
700.7201516492
 30
0.0
 11
875.68163328
 21
705.2694535646
 31
0.0
  0
SPLINE
  5
61
330
1F
100
AcDbEntity
  8
0
  6
SLD-Solid
 62
     7
370
    15
100
AcDbSpline
210
0.0
220
0.0
230
1.0
 70
     8
 71
     3
 72
    12
 73
     8
 74
     0
 42
0.00000001
 43
0.00000001
 40
0.0
 40
0.0
 40
0.0
 40
0.0
 40
0.0903634327676814
 40
0.3849656905454532
 40
0.6832840919967649
 40
0.9910260862852646
 40
1.0
 40
1.0
 40
1.0
 40
1.0
 10
290.2329679057153
 20
-65.84665684922675
 30
0.0
 10
290.3303727009405
 20
-65.97080711797454
 30
0.0
 10
290.7453359566272
 20
-66.49971126067989
 30
0.0
 10
291.2711506129461
 20
-67.4258379160479
 30
0.0
 10
291.6638543985361
 20
-68.61865979509541
 30
0.0
 10
291.8192776523794
 20
-69.41199308442187
 30
0.0
 10
291.7622869589086
 20
-69.82409435087771
 30
0.0
 10
291.7606721692728
 20
-69.83577093899174
 30
0.0
  0
SPLINE
  5
62
330
1F
100
AcDbEntity
  8
0
  6
SLD-Solid
 62
     7
370
    15
100
AcDbSpline
210
0.0
220
0.0
230
1.0
 70
     8
 71
     3
 72
    11
 73
     7
 74
     0
 42
0.00000001
 43
0.00000001
 40
0.0
 40
0.0
 40
0.0
 40
0.0
 40
0.2899261136159634
 40
0.63976103272881
 40
0.97632970336651
 40
1.0
 40
1.0
 40
1.0
 40
1.0
 10
311.1270863090735
 20
-69.4848913191558
 30
0.0
 10
311.1561661896603
 20
-69.14295428906047
 30
0.0
 10
311.2203348642366
 20
-68.38842416145773
 30
0.0
 10
311.7043493482346
 20
-67.20700378735967
 30
0.0
 10
312.2383710121385
 20
-66.32691958626668
 30
0.0
 10
312.5990427886655
 20
-65.87626791235174
 30
0.0
 10
312.6227415239866
 20
-65.84665684922675
 30
0.0
  0
SPLINE
  5
63
330
1F
100
AcDbEntity
  8
0
  6
SLD-Solid
 62
     7
370
    15
100
AcDbSpline
210
0.0
220
0.0
230
1.0
 70
     8
 71
     3
 72
    11
 73
     7
 74
     0
 42
0.00000001
 43
0.00000001
 40
0.0
 40
0.0
 40
0.0
 40
0.0
 40
0.09255351714707
 40
0.4249799083405219
 40
0.7579032427928494
 40
1.0
 40
1.0
 40
1.0
 40
1.0
 10
305.4249521647837
 20
-76.43677947008703
 30
0.0
 10
305.652145263054
 20
-76.42480211966446
 30
0.0
 10
306.6953525344218
 20
-76.3698054707888
 30
0.0
 10
308.4856716381357
 20
-76.1731178971502
 30
0.0
 10
310.5513272230648
 20
-75.88311465621378
 30
0.0
 10
311.7628890035172
 20
-75.64168793834442
 30
0.0
 10
312.2729845331485
 20
-75.54004170659162
 30
0.0
  0
SPLINE
  5
64
330
1F
100
AcDbEntity
  8
0
  6
SLD-Solid
 62
     7
370
    15
100
AcDbSpline
210
0.0
220
0.0
230
1.0
 70
     8
 71
     3
 72
    10
 73
     6
 74
     0
 42
0.00000001
 43
0.00000001
 40
0.0
 40
0.0
 40
0.0
 40
0.0
 40
0.2502355006436275
 40
0.7279697107284532
 40
1.0
 40
1.0
 40
1.0
 40
1.0
 10
290.5902820268411
 20
-75.54004170659151
 30
0.0
 10
290.9575644908701
 20
-75.61383106050806
 30
0.0
 10
292.0260400205499
 20
-75.828494505492
 30
0.0
 10
293.5848653848237
 20
-76.07900394352724
 30
0.0
 10
294.8268778942479
 20
-76.20482831788338
 30
0.0
 10
295.2775060881776
 20
-76.2504800405015
 30
0.0
  0
SPLINE
  5
65
330
1F
100
AcDbEntity
  8
0
  6
SLD-Solid
 62
     7
370
    15
100
AcDbSpline
210
0.0
220
0.0
230
1.0
 70
     8
 71
     3
 72
     9
 73
     5
 74
     0
 42
0.00000001
 43
0.00000001
 40
0.0
 40
0.0
 40
0.0
 40
0.0
 40
0.7656645869145041
 40
0.9999999999999999
 40
0.9999999999999999
 40
0.9999999999999999
 40
0.9999999999999999
 10
313.0540976026016
 20
-74.72481354490057
 30
0.0
 10
313.4326194398294
 20
-72.47503174837816
 30
0.0
 10
313.926989747268
 20
-69.5366931664821
 30
0.0
 10
314.5603107581792
 20
-66.54720078204885
 30
0.0
 10
314.7087202988868
 20
-65.84665684922675
 30
0.0
  0
LINE
  5
66
330
1F
100
AcDbEntity
  8
0
  6
SLD-Solid
 62
     7
370
    15
100
AcDbLine
 10
289.6893858184
 20
-74.1710829497
 30
0.0
 11
289.7787667157
 21
-74.7117398912
 31
0.0
  0
SPLINE
  5
67
330
1F
100
AcDbEntity
  8
0
  6
SLD-Solid
 62
     7
370
    15
100
AcDbSpline
210
0.0
220
0.0
230
1.0
 70
     8
 71
     3
 72
     9
 73
     5
 74
     0
 42
0.00000001
 43
0.00000001
 40
0.0
 40
0.0
 40
0.0
 40
0.0
 40
0.6236616071297271
 40
1.0
 40
1.0
 40
1.0
 40
1.0
 10
288.1481449909578
 20
-65.84665684922675
 30
0.0
 10
288.509235592024
 20
-67.59428390651101
 30
0.0
 10
289.0882204083701
 20
-70.39648791795783
 30
0.0
 10
289.5250064583127
 20
-73.13897846481926
 30
0.0
 10
289.6893858183762
 20
-74.17108294968705
 30
0.0
  0
LINE
  5
68
330
1F
100
AcDbEntity
  8
0
  6
SLD-Solid
 62
     7
370
    15
100
AcDbLine
 10
897.18163328
 20
595.7201516492
 30
0.0
 11
897.18163328
 21
593.7201516493
 31
0.0
  0
LINE
  5
69
330
1F
100
AcDbEntity
  8
0
  6
SLD-Solid
 62
     7
370
    15
100
AcDbLine
 10
897.18163328
 20
78.7201516493
 30
0.0
 11
897.18163328
 21
75.5101516492
 31
0.0
  0
SPLINE
  5
6A
330
1F
100
AcDbEntity
  8
0
  6
SLD-Solid
 62
   142
420
    32960
370
     0
100
AcDbSpline
210
0.0
220
0.0
230
1.0
 70
    24
 71
     3
 72
     8
 73
     4
 74
     0
 42
0.00000001
 43
0.00000001
 40
0.0
 40
0.0
 40
0.0
 40
0.0
 40
1.0
 40
1.0
 40
1.0
 40
1.0
 10
883.1316332799869
 20
710.1960585552509
 30
0.0
 10
883.1316332799869
 20
710.2373418932617
 30
0.0
 10
883.1316332799869
 20
710.2787347758066
 30
0.0
 10
883.1316332799869
 20
710.3201611261098
 30
0.0
  0
SPLINE
  5
6B
330
1F
100
AcDbEntity
  8
0
  6
SLD-Solid
 62
   142
420
    32960
370
     0
100
AcDbSpline
210
0.0
220
0.0
230
1.0
 70
    24
 71
     3
 72
     8
 73
     4
 74
     0
 42
0.00000001
 43
0.00000001
 40
0.0
 40
0.0
 40
0.0
 40
0.0
 40
1.0
 40
1.0
 40
1.0
 40
1.0
 10
478.2316332799871
 20
710.3201611261068
 30
0.0
 10
478.2316332799871
 20
710.2787347758042
 30
0.0
 10
478.2316332799871
 20
710.2373418932599
 30
0.0
 10
478.2316332799871
 20
710.1960585552498
 30
0.0
  0
LINE
  5
6C
330
1F
100
AcDbEntity
  8
0
  6
SLD-Solid
 62
     7
370
    15
100
AcDbLine
 10
885.18163328
 20
710.3201516492
 30
0.0
 11
885.18163328
 21
773.2630805814
 31
0.0
  0
LINE
  5
6D
330
1F
100
AcDbEntity
  8
0
  6
SLD-Solid
 62
   142
420
    32960
370
     0
100
AcDbLine
 10
885.18163328
 20
710.3201516492
 30
0.0
 11
883.13163328
 21
710.3201516492
 31
0.0
  0
SPLINE
  5
6E
330
1F
100
AcDbEntity
  8
0
  6
SLD-Solid
 62
   142
420
    32960
370
     0
100
AcDbSpline
210
0.0
220
0.0
230
1.0
 70
     8
 71
     3
 72
    14
 73
    10
 74
     0
 42
0.00000001
 43
0.00000001
 40
0.0
 40
0.0
 40
0.0
 40
0.0
 40
0.25
 40
0.25
 40
0.5
 40
0.5
 40
0.75
 40
0.75
 40
1.0
 40
1.0
 40
1.0
 40
1.0
 10
883.1316332799868
 20
773.270151649248
 30
0.0
 10
883.3999776524809
 20
773.269562393597
 30
0.0
 10
883.6682164429233
 20
773.2689731379461
 30
0.0
 10
884.1640521897473
 20
773.267794626644
 30
0.0
 10
884.3914540559354
 20
773.267205370993
 30
0.0
 10
884.770950306903
 20
773.2660268596911
 30
0.0
 10
884.9228953761129
 20
773.26543760404
 30
0.0
 10
885.1282772671568
 20
773.2642590927384
 30
0.0
 10
885.1816332799867
 20
773.2636698370869
 30
0.0
 10
885.1816332799867
 20
773.263080581436
 30
0.0
  0
LINE
  5
6F
330
1F
100
AcDbEntity
  8
0
  6
SLD-Solid
 62
     7
370
    15
100
AcDbLine
 10
476.18163328
 20
773.2630805814
 30
0.0
 11
476.18163328
 21
710.3201516492
 31
0.0
  0
SPLINE
  5
70
330
1F
100
AcDbEntity
  8
0
  6
SLD-Solid
 62
   142
420
    32960
370
     0
100
AcDbSpline
210
0.0
220
0.0
230
1.0
 70
     8
 71
     3
 72
    14
 73
    10
 74
     0
 42
0.00000001
 43
0.00000001
 40
0.0
 40
0.0
 40
0.0
 40
0.0
 40
0.25
 40
0.25
 40
0.5
 40
0.5
 40
0.75
 40
0.75
 40
1.0
 40
1.0
 40
1.0
 40
1.0
 10
476.1816332799867
 20
773.2630805814351
 30
0.0
 10
476.1816332799868
 20
773.2636698370858
 30
0.0
 10
476.2349892928167
 20
773.2642590927372
 30
0.0
 10
476.4403711838606
 20
773.2654376040387
 30
0.0
 10
476.5923162530705
 20
773.26602685969
 30
0.0
 10
476.9718125040383
 20
773.2672053709919
 30
0.0
 10
477.1992143702265
 20
773.2677946266431
 30
0.0
 10
477.6950501170502
 20
773.2689731379447
 30
0.0
 10
477.9632889074927
 20
773.269562393596
 30
0.0
 10
478.2316332799868
 20
773.2701516492468
 30
0.0
  0
LINE
  5
71
330
1F
100
AcDbEntity
  8
0
  6
SLD-Solid
 62
   142
420
    32960
370
     0
100
AcDbLine
 10
478.23163328
 20
710.3201516492
 30
0.0
 11
476.18163328
 21
710.3201516492
 31
0.0
  0
LINE
  5
72
330
1F
100
AcDbEntity
  8
0
  6
SLD-Solid
 62
     7
370
    15
100
AcDbLine
 10
876.38163328
 20
745.3701516492
 30
0.0
 11
876.38163328
 21
739.0701516492
 31
0.0
  0
ARC
  5
73
330
1F
100
AcDbEntity
  8
0
  6
SLD-Solid
 62
   142
420
    32960
370
     0
100
AcDbCircle
 10
873.18163328
 20
739.0701516492
 30
0.0
 40
3.200000000000045
100
AcDbArc
 50
180.0
 51
0.0
  0
LINE
  5
74
330
1F
100
AcDbEntity
  8
0
  6
SLD-Solid
 62
   142
420
    32960
370
     0
100
AcDbLine
 10
869.98163328
 20
739.0701516492
 30
0.0
 11
869.98163328
 21
745.3701516492
 31
0.0
  0
ARC
  5
75
330
1F
100
AcDbEntity
  8
0
  6
SLD-Solid
 62
   142
420
    32960
370
     0
100
AcDbCircle
 10
873.18163328
 20
745.3701516492
 30
0.0
 40
3.200000000000045
100
AcDbArc
 50
0.0
 51
180.0
  0
ARC
  5
76
330
1F
100
AcDbEntity
  8
0
  6
SLD-Solid
 62
   142
420
    32960
370
     0
100
AcDbCircle
 10
488.18163328
 20
739.0701516492
 30
0.0
 40
3.199999999999989
100
AcDbArc
 50
180.0
 51
0.0
  0
LINE
  5
77
330
1F
100
AcDbEntity
  8
0
  6
SLD-Solid
 62
   142
420
    32960
370
     0
100
AcDbLine
 10
484.98163328
 20
739.0701516492
 30
0.0
 11
484.98163328
 21
745.3701516492
 31
0.0
  0
ARC
  5
78
330
1F
100
AcDbEntity
  8
0
  6
SLD-Solid
 62
   142
420
    32960
370
     0
100
AcDbCircle
 10
488.18163328
 20
745.3701516492
 30
0.0
 40
3.199999999999989
100
AcDbArc
 50
0.0
 51
180.0
  0
LINE
  5
79
330
1F
100
AcDbEntity
  8
0
  6
SLD-Solid
 62
   142
420
    32960
370
     0
100
AcDbLine
 10
491.38163328
 20
745.3701516492
 30
0.0
 11
491.38163328
 21
739.0701516492
 31
0.0
  0
LINE
  5
7A
330
1F
100
AcDbEntity
  8
0
  6
SLD-Solid
 62
   142
420
    32960
370
     0
100
AcDbLine
 10
883.13163328
 20
710.1960585553
 30
0.0
 11
883.13163328
 21
705.2694535646
 31
0.0
  0
LINE
  5
7B
330
1F
100
AcDbEntity
  8
0
  6
SLD-Solid
 62
   142
420
    32960
370
     0
100
AcDbLine
 10
478.23163328
 20
705.2694535646
 30
0.0
 11
478.23163328
 21
710.1960585553
 31
0.0
  0
LINE
  5
7C
330
1F
100
AcDbEntity
  8
0
  6
SLD-Solid
 62
   142
420
    32960
370
     0
100
AcDbLine
 10
883.13163328
 20
705.2694535646
 30
0.0
 11
478.23163328
 21
705.2694535646
 31
0.0
  0
LINE
  5
7D
330
1F
100
AcDbEntity
  8
0
  6
SLD-Solid
 62
     7
370
    15
100
AcDbLine
 10
478.23163328
 20
775.3201516492
 30
0.0
 11
883.13163328
 21
775.3201516492
 31
0.0
  0
LINE
  5
7E
330
1F
100
AcDbEntity
  8
0
  6
SLD-Solid
 62
   142
420
    32960
370
     0
100
AcDbLine
 10
476.98163328
 20
775.3201516492
 30
0.0
 11
478.23163328
 21
775.3201516492
 31
0.0
  0
LINE
  5
7F
330
1F
100
AcDbEntity
  8
0
  6
SLD-Solid
 62
   142
420
    32960
370
     0
100
AcDbLine
 10
476.98163328
 20
773.2701516492
 30
0.0
 11
476.98163328
 21
775.3201516492
 31
0.0
  0
LINE
  5
80
330
1F
100
AcDbEntity
  8
0
  6
SLD-Solid
 62
   142
420
    32960
370
     0
100
AcDbLine
 10
476.98163328
 20
773.2701516492
 30
0.0
 11
478.23163328
 21
773.2701516492
 31
0.0
  0
LINE
  5
81
330
1F
100
AcDbEntity
  8
0
  6
SLD-Solid
 62
   142
420
    32960
370
     0
100
AcDbLine
 10
884.38163328
 20
773.2701516492
 30
0.0
 11
883.13163328
 21
773.2701516492
 31
0.0
  0
LINE
  5
82
330
1F
100
AcDbEntity
  8
0
  6
SLD-Solid
 62
   142
420
    32960
370
     0
100
AcDbLine
 10
884.38163328
 20
775.3201516492
 30
0.0
 11
884.38163328
 21
773.2701516492
 31
0.0
  0
LINE
  5
83
330
1F
100
AcDbEntity
  8
0
  6
SLD-Solid
 62
   142
420
    32960
370
     0
100
AcDbLine
 10
884.38163328
 20
775.3201516492
 30
0.0
 11
883.13163328
 21
775.3201516492
 31
0.0
  0
SPLINE
  5
84
330
1F
100
AcDbEntity
  8
0
  6
SLD-Solid
 62
   142
420
    32960
370
     0
100
AcDbSpline
210
0.0
220
0.0
230
1.0
 70
     8
 71
     3
 72
    10
 73
     6
 74
     0
 42
0.00000001
 43
0.00000001
 40
0.0
 40
0.0
 40
0.0
 40
0.0
 40
0.434768811798738
 40
0.8695376235975163
 40
1.0
 40
1.0
 40
1.0
 40
1.0
 10
885.1816332799867
 20
773.270151649248
 30
0.0
 10
885.1483765696855
 20
773.5348383199901
 30
0.0
 10
885.0818631490829
 20
774.0642116614747
 30
0.0
 10
884.7464886667372
 20
774.6290376386867
 30
0.0
 10
884.4500540664085
 20
774.8110561052941
 30
0.0
 10
884.3816332799868
 20
774.8530682274106
 30
0.0
  0
SPLINE
  5
85
330
1F
100
AcDbEntity
  8
0
  6
SLD-Solid
 62
   142
420
    32960
370
     0
100
AcDbSpline
210
0.0
220
0.0
230
1.0
 70
     8
 71
     3
 72
    10
 73
     6
 74
     0
 42
0.00000001
 43
0.00000001
 40
0.0
 40
0.0
 40
0.0
 40
0.0
 40
0.1304623764024443
 40
0.565231188201236
 40
1.0
 40
1.0
 40
1.0
 40
1.0
 10
476.9816332799869
 20
774.8530682274093
 30
0.0
 10
476.9132124935651
 20
774.811056105293
 30
0.0
 10
476.6167778932362
 20
774.629037638686
 30
0.0
 10
476.281403410891
 20
774.0642116614733
 30
0.0
 10
476.2148899902882
 20
773.5348383199889
 30
0.0
 10
476.1816332799868
 20
773.2701516492468
 30
0.0
  0
LINE
  5
86
330
1F
100
AcDbEntity
  8
0
  6
SLD-Solid
 62
   142
420
    32960
370
     0
100
AcDbLine
 10
476.18163328
 20
773.2701516492
 30
0.0
 11
476.18163328
 21
773.2630805814
 31
0.0
  0
LINE
  5
87
330
1F
100
AcDbEntity
  8
0
  6
SLD-Solid
 62
   142
420
    32960
370
     0
100
AcDbLine
 10
885.18163328
 20
773.2630805814
 30
0.0
 11
885.18163328
 21
773.2701516492
 31
0.0
  0
LINE
  5
88
330
1F
100
AcDbEntity
  8
0
  6
SLD-Solid
 62
   142
420
    32960
370
     0
100
AcDbLine
 10
884.38163328
 20
773.2701516492
 30
0.0
 11
885.18163328
 21
773.2701516492
 31
0.0
  0
LINE
  5
89
330
1F
100
AcDbEntity
  8
0
  6
SLD-Solid
 62
   142
420
    32960
370
     0
100
AcDbLine
 10
337.9316332826
 20
-65.8466568492
 30
0.0
 11
337.9316332826
 21
-70.1497166174
 31
0.0
  0
ARC
  5
8A
330
1F
100
AcDbEntity
  8
0
  6
SLD-Solid
 62
   142
420
    32960
370
     0
100
AcDbCircle
 10
338.9027715858
 20
-70.1190292327
 30
0.0
 40
0.9716230336754811
100
AcDbArc
 50
181.809909826
 51
271.7021999702
  0
LINE
  5
8B
330
1F
100
AcDbEntity
  8
0
  6
SLD-Solid
 62
   142
420
    32960
370
     0
100
AcDbLine
 10
358.9316332826
 20
-71.0902235089
 30
0.0
 11
338.9316332826
 21
-71.0902235089
 31
0.0
  0
ARC
  5
8C
330
1F
100
AcDbEntity
  8
0
  6
SLD-Solid
 62
   142
420
    32960
370
     0
100
AcDbCircle
 10
358.9604949794
 20
-70.1190292327
 30
0.0
 40
0.971623033675326
100
AcDbArc
 50
268.2978000298
 51
358.190090174
  0
LINE
  5
8D
330
1F
100
AcDbEntity
  8
0
  6
SLD-Solid
 62
   142
420
    32960
370
     0
100
AcDbLine
 10
359.9316332826
 20
-70.1497166174
 30
0.0
 11
359.9316332826
 21
-65.8466568492
 31
0.0
  0
CIRCLE
  5
8E
330
1F
100
AcDbEntity
  8
0
  6
SLD-Solid
 62
     7
370
    15
100
AcDbCircle
 10
202.28163328
 20
468.7201516491
 30
0.0
 40
91.49999999999982
  0
CIRCLE
  5
8F
330
1F
100
AcDbEntity
  8
0
  6
SLD-Solid
 62
     7
370
    15
100
AcDbCircle
 10
202.28163328
 20
468.7201516491
 30
0.0
 40
93.4999999999999
  0
CIRCLE
  5
90
330
1F
100
AcDbEntity
  8
0
  6
SLD-Solid
 62
     7
370
    15
100
AcDbCircle
 10
202.28163328
 20
468.7201516491
 30
0.0
 40
27.50000000000001
  0
CIRCLE
  5
91
330
1F
100
AcDbEntity
  8
0
  6
SLD-Solid
 62
     7
370
    15
100
AcDbCircle
 10
202.2853480079
 20
468.7227718341
 30
0.0
 40
13.99999999999998
  0
LINE
  5
92
330
1F
100
AcDbEntity
  8
0
  6
SLD-Solid
 62
     7
370
    15
100
AcDbLine
 10
-2.81836672
 20
700.7201516492
 30
0.0
 11
-2.81836672
 21
698.1395726068
 31
0.0
  0
LINE
  5
93
330
1F
100
AcDbEntity
  8
0
  6
SLD-Solid
 62
     7
370
    15
100
AcDbLine
 10
897.18163328
 20
700.7201516492
 30
0.0
 11
897.18163328
 21
698.1395726068
 31
0.0
  0
LINE
  5
94
330
1F
100
AcDbEntity
  8
0
  6
SLD-Solid
 62
     7
370
    15
100
AcDbLine
 10
897.18163328
 20
700.7201516492
 30
0.0
 11
-2.81836672
 21
700.7201516492
 31
0.0
  0
LINE
  5
95
330
1F
100
AcDbEntity
  8
0
  6
SLD-Solid
 62
     7
370
    15
100
AcDbLine
 10
897.18163328
 20
698.1395726068
 30
0.0
 11
897.18163328
 21
664.8426202856
 31
0.0
  0
LINE
  5
96
330
1F
100
AcDbEntity
  8
0
  6
SLD-Solid
 62
     7
370
    15
100
AcDbLine
 10
-2.81836672
 20
698.1395726068
 30
0.0
 11
-2.81836672
 21
664.8426202856
 31
0.0
  0
ARC
  5
97
330
1F
100
AcDbEntity
  8
0
  6
SLD-Solid
 62
     7
370
    15
100
AcDbCircle
 10
481.6652009145
 20
669.8199807095
 30
0.0
 40
5.000669288031211
100
AcDbArc
 50
275.5341758579
 51
331.784876003
  0
ARC
  5
98
330
1F
100
AcDbEntity
  8
0
  6
SLD-Solid
 62
     7
370
    15
100
AcDbCircle
 10
491.6638591496
 20
688.4705146768
 30
0.0
 40
4.841279373382942
100
AcDbArc
 50
333.2478610927
 51
91.5842536627
  0
LINE
  5
99
330
1F
100
AcDbEntity
  8
0
  6
SLD-Solid
 62
     7
370
    15
100
AcDbLine
 10
491.530012689
 20
693.3099434753
 30
0.0
 11
412.7485081082
 21
693.3099434753
 31
0.0
  0
LINE
  5
9A
330
1F
100
AcDbEntity
  8
0
  6
SLD-Solid
 62
     7
370
    15
100
AcDbLine
 10
408.2915824572
 20
690.6693276958
 30
0.0
 11
398.3763282199
 21
671.8337740832
 31
0.0
  0
ARC
  5
9B
330
1F
100
AcDbEntity
  8
0
  6
SLD-Solid
 62
     7
370
    15
100
AcDbCircle
 10
402.6755055453
 20
669.6500216827
 30
0.0
 40
4.822001682067614
100
AcDbArc
 50
153.0718636158
 51
265.540211537
  0
LINE
  5
9C
330
1F
100
AcDbEntity
  8
0
  6
SLD-Solid
 62
     7
370
    15
100
AcDbLine
 10
386.0716841028
 20
667.4557473793
 30
0.0
 11
395.98693834
 21
686.2913009919
 31
0.0
  0
LINE
  5
9D
330
1F
100
AcDbEntity
  8
0
  6
SLD-Solid
 62
     7
370
    15
100
AcDbLine
 10
391.530012689
 20
693.3099434753
 30
0.0
 11
312.7485081082
 21
693.3099434753
 31
0.0
  0
LINE
  5
9E
330
1F
100
AcDbEntity
  8
0
  6
SLD-Solid
 62
     7
370
    15
100
AcDbLine
 10
308.2915824572
 20
690.6693276958
 30
0.0
 11
298.3763282199
 21
671.8337740832
 31
0.0
  0
ARC
  5
9F
330
1F
100
AcDbEntity
  8
0
  6
SLD-Solid
 62
     7
370
    15
100
AcDbCircle
 10
291.6638591496
 20
688.4705146768
 30
0.0
 40
4.841279373383263
100
AcDbArc
 50
333.2478610927
 51
91.5842536627
  0
LINE
  5
A0
330
1F
100
AcDbEntity
  8
0
  6
SLD-Solid
 62
     7
370
    15
100
AcDbLine
 10
291.530012689
 20
693.3099434753
 30
0.0
 11
212.7485081082
 21
693.3099434753
 31
0.0
  0
LINE
  5
A1
330
1F
100
AcDbEntity
  8
0
  6
SLD-Solid
 62
     7
370
    15
100
AcDbLine
 10
208.2915824572
 20
690.6693276958
 30
0.0
 11
198.3763282199
 21
671.8337740832
 31
0.0
  0
LINE
  5
A2
330
1F
100
AcDbEntity
  8
0
  6
SLD-Solid
 62
     7
370
    15
100
AcDbLine
 10
191.530012689
 20
693.3099434753
 30
0.0
 11
112.7485081082
 21
693.3099434753
 31
0.0
  0
ARC
  5
A3
330
1F
100
AcDbEntity
  8
0
  6
SLD-Solid
 62
     7
370
    15
100
AcDbCircle
 10
112.7125608574
 20
688.289029469
 30
0.0
 40
5.021042686941249
100
AcDbArc
 50
89.5897976815
 51
151.7015410578
  0
LINE
  5
A4
330
1F
100
AcDbEntity
  8
0
  6
SLD-Solid
 62
     7
370
    15
100
AcDbLine
 10
108.2915824572
 20
690.6693276958
 30
0.0
 11
98.3763282199
 21
671.8337740832
 31
0.0
  0
LINE
  5
A5
330
1F
100
AcDbEntity
  8
0
  6
SLD-Solid
 62
     7
370
    15
100
AcDbLine
 10
86.0716841028
 20
667.4557473793
 30
0.0
 11
95.98693834
 21
686.2913009919
 31
0.0
  0
LINE
  5
A6
330
1F
100
AcDbEntity
  8
0
  6
SLD-Solid
 62
     7
370
    15
100
AcDbLine
 10
91.530012689
 20
693.3099434753
 30
0.0
 11
22.18163328
 21
693.3099434753
 31
0.0
  0
LINE
  5
A7
330
1F
100
AcDbEntity
  8
0
  6
SLD-Solid
 62
     7
370
    15
100
AcDbLine
 10
17.18163328
 20
688.4803143439
 30
0.0
 11
17.18163328
 21
669.6447607312
 31
0.0
  0
LINE
  5
A8
330
1F
100
AcDbEntity
  8
0
  6
SLD-Solid
 62
     7
370
    15
100
AcDbLine
 10
877.18163328
 20
669.6447607312
 30
0.0
 11
877.18163328
 21
688.4803143439
 31
0.0
  0
LINE
  5
A9
330
1F
100
AcDbEntity
  8
0
  6
SLD-Solid
 62
     7
370
    15
100
AcDbLine
 10
872.18163328
 20
693.3099434753
 30
0.0
 11
812.7485081082
 21
693.3099434753
 31
0.0
  0
LINE
  5
AA
330
1F
100
AcDbEntity
  8
0
  6
SLD-Solid
 62
     7
370
    15
100
AcDbLine
 10
808.2915824572
 20
690.6693276958
 30
0.0
 11
798.3763282199
 21
671.8337740832
 31
0.0
  0
ARC
  5
AB
330
1F
100
AcDbEntity
  8
0
  6
SLD-Solid
 62
     7
370
    15
100
AcDbCircle
 10
802.6755055453
 20
669.6500216827
 30
0.0
 40
4.822001682067359
100
AcDbArc
 50
153.0718636158
 51
265.5402115369
  0
LINE
  5
AC
330
1F
100
AcDbEntity
  8
0
  6
SLD-Solid
 62
     7
370
    15
100
AcDbLine
 10
786.0716841028
 20
667.4557473793
 30
0.0
 11
795.98693834
 21
686.2913009919
 31
0.0
  0
LINE
  5
AD
330
1F
100
AcDbEntity
  8
0
  6
SLD-Solid
 62
     7
370
    15
100
AcDbLine
 10
791.530012689
 20
693.3099434753
 30
0.0
 11
712.7485081082
 21
693.3099434753
 31
0.0
  0
LINE
  5
AE
330
1F
100
AcDbEntity
  8
0
  6
SLD-Solid
 62
     7
370
    15
100
AcDbLine
 10
708.2915824572
 20
690.6693276958
 30
0.0
 11
698.3763282199
 21
671.8337740832
 31
0.0
  0
LINE
  5
AF
330
1F
100
AcDbEntity
  8
0
  6
SLD-Solid
 62
     7
370
    15
100
AcDbLine
 10
691.530012689
 20
693.3099434753
 30
0.0
 11
612.7485081082
 21
693.3099434753
 31
0.0
  0
ARC
  5
B0
330
1F
100
AcDbEntity
  8
0
  6
SLD-Solid
 62
     7
370
    15
100
AcDbCircle
 10
602.6755055453
 20
669.6500216827
 30
0.0
 40
4.822001682067967
100
AcDbArc
 50
153.0718636158
 51
265.540211537
  0
LINE
  5
B1
330
1F
100
AcDbEntity
  8
0
  6
SLD-Solid
 62
     7
370
    15
100
AcDbLine
 10
586.0716841028
 20
667.4557473793
 30
0.0
 11
595.98693834
 21
686.2913009919
 31
0.0
  0
ARC
  5
B2
330
1F
100
AcDbEntity
  8
0
  6
SLD-Solid
 62
     7
370
    15
100
AcDbCircle
 10
591.6638591496
 20
688.4705146768
 30
0.0
 40
4.841279373383161
100
AcDbArc
 50
333.2478610927
 51
91.5842536627
  0
LINE
  5
B3
330
1F
100
AcDbEntity
  8
0
  6
SLD-Solid
 62
     7
370
    15
100
AcDbLine
 10
591.530012689
 20
693.3099434753
 30
0.0
 11
512.7485081082
 21
693.3099434753
 31
0.0
  0
LINE
  5
B4
330
1F
100
AcDbEntity
  8
0
  6
SLD-Solid
 62
     7
370
    15
100
AcDbLine
 10
508.2915824572
 20
690.6693276958
 30
0.0
 11
498.3763282199
 21
671.8337740832
 31
0.0
  0
ARC
  5
B5
330
1F
100
AcDbEntity
  8
0
  6
SLD-Solid
 62
   142
420
    32960
370
     0
100
AcDbCircle
 10
502.6755055453
 20
669.6500216827
 30
0.0
 40
4.822001682067813
100
AcDbArc
 50
153.0718636158
 51
265.540211537
  0
ARC
  5
B6
330
1F
100
AcDbEntity
  8
0
  6
SLD-Solid
 62
   142
420
    32960
370
     0
100
AcDbCircle
 10
512.7125608574
 20
688.289029469
 30
0.0
 40
5.021042686941612
100
AcDbArc
 50
89.5897976815
 51
151.7015410578
  0
ARC
  5
B7
330
1F
100
AcDbEntity
  8
0
  6
SLD-Solid
 62
   142
420
    32960
370
     0
100
AcDbCircle
 10
581.6652009145
 20
669.8199807095
 30
0.0
 40
5.000669288030318
100
AcDbArc
 50
275.5341758578
 51
331.784876003
  0
LINE
  5
B8
330
1F
100
AcDbEntity
  8
0
  6
SLD-Solid
 62
   142
420
    32960
370
     0
100
AcDbLine
 10
608.2915824572
 20
690.6693276958
 30
0.0
 11
598.3763282199
 21
671.8337740832
 31
0.0
  0
ARC
  5
B9
330
1F
100
AcDbEntity
  8
0
  6
SLD-Solid
 62
   142
420
    32960
370
     0
100
AcDbCircle
 10
612.7125608574
 20
688.289029469
 30
0.0
 40
5.02104268694166
100
AcDbArc
 50
89.5897976815
 51
151.7015410578
  0
ARC
  5
BA
330
1F
100
AcDbEntity
  8
0
  6
SLD-Solid
 62
   142
420
    32960
370
     0
100
AcDbCircle
 10
691.6638591496
 20
688.4705146768
 30
0.0
 40
4.841279373383161
100
AcDbArc
 50
333.2478610927
 51
91.5842536627
  0
LINE
  5
BB
330
1F
100
AcDbEntity
  8
0
  6
SLD-Solid
 62
   142
420
    32960
370
     0
100
AcDbLine
 10
686.0716841028
 20
667.4557473793
 30
0.0
 11
695.98693834
 21
686.2913009919
 31
0.0
  0
ARC
  5
BC
330
1F
100
AcDbEntity
  8
0
  6
SLD-Solid
 62
   142
420
    32960
370
     0
100
AcDbCircle
 10
681.6652009145
 20
669.8199807095
 30
0.0
 40
5.000669288030792
100
AcDbArc
 50
275.5341758578
 51
331.784876003
  0
ARC
  5
BD
330
1F
100
AcDbEntity
  8
0
  6
SLD-Solid
 62
   142
420
    32960
370
     0
100
AcDbCircle
 10
702.6755055453
 20
669.6500216827
 30
0.0
 40
4.82200168206866
100
AcDbArc
 50
153.0718636158
 51
265.5402115372
  0
ARC
  5
BE
330
1F
100
AcDbEntity
  8
0
  6
SLD-Solid
 62
   142
420
    32960
370
     0
100
AcDbCircle
 10
712.7125608574
 20
688.289029469
 30
0.0
 40
5.021042686941761
100
AcDbArc
 50
89.5897976815
 51
151.7015410578
  0
ARC
  5
BF
330
1F
100
AcDbEntity
  8
0
  6
SLD-Solid
 62
   142
420
    32960
370
     0
100
AcDbCircle
 10
791.6638591496
 20
688.4705146768
 30
0.0
 40
4.841279373383061
100
AcDbArc
 50
333.2478610927
 51
91.5842536627
  0
ARC
  5
C0
330
1F
100
AcDbEntity
  8
0
  6
SLD-Solid
 62
   142
420
    32960
370
     0
100
AcDbCircle
 10
781.6652009145
 20
669.8199807095
 30
0.0
 40
5.000669288031546
100
AcDbArc
 50
275.5341758576
 51
331.784876003
  0
ARC
  5
C1
330
1F
100
AcDbEntity
  8
0
  6
SLD-Solid
 62
   142
420
    32960
370
     0
100
AcDbCircle
 10
812.7125608574
 20
688.289029469
 30
0.0
 40
5.021042686941591
100
AcDbArc
 50
89.5897976815
 51
151.7015410578
  0
ARC
  5
C2
330
1F
100
AcDbEntity
  8
0
  6
SLD-Solid
 62
   142
420
    32960
370
     0
100
AcDbCircle
 10
872.2653674026
 20
688.3936264012
 30
0.0
 40
4.91703009715649
100
AcDbArc
 50
1.0101851092
 51
90.9757604995
  0
ARC
  5
C3
330
1F
100
AcDbEntity
  8
0
  6
SLD-Solid
 62
   142
420
    32960
370
     0
100
AcDbCircle
 10
872.2869738791
 20
669.7191544327
 30
0.0
 40
4.895224721419671
100
AcDbArc
 50
275.0084220182
 51
359.1292311494
  0
ARC
  5
C4
330
1F
100
AcDbEntity
  8
0
  6
SLD-Solid
 62
   142
420
    32960
370
     0
100
AcDbCircle
 10
22.0762926808
 20
669.7191544327
 30
0.0
 40
4.895224721419478
100
AcDbArc
 50
180.8707688506
 51
264.9915779818
  0
ARC
  5
C5
330
1F
100
AcDbEntity
  8
0
  6
SLD-Solid
 62
   142
420
    32960
370
     0
100
AcDbCircle
 10
22.0978991573
 20
688.3936264012
 30
0.0
 40
4.917030097157032
100
AcDbArc
 50
89.0242395005
 51
178.9898148908
  0
ARC
  5
C6
330
1F
100
AcDbEntity
  8
0
  6
SLD-Solid
 62
   142
420
    32960
370
     0
100
AcDbCircle
 10
91.6638591496
 20
688.4705146768
 30
0.0
 40
4.841279373383072
100
AcDbArc
 50
333.2478610927
 51
91.5842536627
  0
ARC
  5
C7
330
1F
100
AcDbEntity
  8
0
  6
SLD-Solid
 62
   142
420
    32960
370
     0
100
AcDbCircle
 10
81.6652009145
 20
669.8199807095
 30
0.0
 40
5.00066928802974
100
AcDbArc
 50
275.534175858
 51
331.784876003
  0
ARC
  5
C8
330
1F
100
AcDbEntity
  8
0
  6
SLD-Solid
 62
   142
420
    32960
370
     0
100
AcDbCircle
 10
102.6755055453
 20
669.6500216827
 30
0.0
 40
4.822001682067343
100
AcDbArc
 50
153.0718636158
 51
265.5402115369
  0
ARC
  5
C9
330
1F
100
AcDbEntity
  8
0
  6
SLD-Solid
 62
   142
420
    32960
370
     0
100
AcDbCircle
 10
191.6638591496
 20
688.4705146768
 30
0.0
 40
4.841279373382828
100
AcDbArc
 50
333.2478610927
 51
91.5842536627
  0
LINE
  5
CA
330
1F
100
AcDbEntity
  8
0
  6
SLD-Solid
 62
   142
420
    32960
370
     0
100
AcDbLine
 10
186.0716841028
 20
667.4557473793
 30
0.0
 11
195.98693834
 21
686.2913009919
 31
0.0
  0
ARC
  5
CB
330
1F
100
AcDbEntity
  8
0
  6
SLD-Solid
 62
   142
420
    32960
370
     0
100
AcDbCircle
 10
181.6652009145
 20
669.8199807095
 30
0.0
 40
5.0006692880301
100
AcDbArc
 50
275.534175858
 51
331.784876003
  0
ARC
  5
CC
330
1F
100
AcDbEntity
  8
0
  6
SLD-Solid
 62
   142
420
    32960
370
     0
100
AcDbCircle
 10
202.6755055453
 20
669.6500216827
 30
0.0
 40
4.82200168206782
100
AcDbArc
 50
153.0718636158
 51
265.540211537
  0
ARC
  5
CD
330
1F
100
AcDbEntity
  8
0
  6
SLD-Solid
 62
   142
420
    32960
370
     0
100
AcDbCircle
 10
212.7125608574
 20
688.289029469
 30
0.0
 40
5.021042686941589
100
AcDbArc
 50
89.5897976815
 51
151.7015410578
  0
LINE
  5
CE
330
1F
100
AcDbEntity
  8
0
  6
SLD-Solid
 62
   142
420
    32960
370
     0
100
AcDbLine
 10
286.0716841028
 20
667.4557473793
 30
0.0
 11
295.98693834
 21
686.2913009919
 31
0.0
  0
ARC
  5
CF
330
1F
100
AcDbEntity
  8
0
  6
SLD-Solid
 62
   142
420
    32960
370
     0
100
AcDbCircle
 10
281.6652009145
 20
669.8199807095
 30
0.0
 40
5.000669288030926
100
AcDbArc
 50
275.5341758578
 51
331.784876003
  0
ARC
  5
D0
330
1F
100
AcDbEntity
  8
0
  6
SLD-Solid
 62
   142
420
    32960
370
     0
100
AcDbCircle
 10
302.6755055453
 20
669.6500216827
 30
0.0
 40
4.822001682067799
100
AcDbArc
 50
153.0718636158
 51
265.540211537
  0
ARC
  5
D1
330
1F
100
AcDbEntity
  8
0
  6
SLD-Solid
 62
   142
420
    32960
370
     0
100
AcDbCircle
 10
312.7125608574
 20
688.289029469
 30
0.0
 40
5.021042686941362
100
AcDbArc
 50
89.5897976815
 51
151.7015410578
  0
ARC
  5
D2
330
1F
100
AcDbEntity
  8
0
  6
SLD-Solid
 62
   142
420
    32960
370
     0
100
AcDbCircle
 10
391.6638591496
 20
688.4705146768
 30
0.0
 40
4.84127937338294
100
AcDbArc
 50
333.2478610927
 51
91.5842536627
  0
ARC
  5
D3
330
1F
100
AcDbEntity
  8
0
  6
SLD-Solid
 62
   142
420
    32960
370
     0
100
AcDbCircle
 10
381.6652009145
 20
669.8199807095
 30
0.0
 40
5.000669288030598
100
AcDbArc
 50
275.5341758579
 51
331.784876003
  0
ARC
  5
D4
330
1F
100
AcDbEntity
  8
0
  6
SLD-Solid
 62
   142
420
    32960
370
     0
100
AcDbCircle
 10
412.7125608574
 20
688.289029469
 30
0.0
 40
5.021042686941362
100
AcDbArc
 50
89.5897976815
 51
151.7015410578
  0
LINE
  5
D5
330
1F
100
AcDbEntity
  8
0
  6
SLD-Solid
 62
   142
420
    32960
370
     0
100
AcDbLine
 10
486.0716841028
 20
667.4557473793
 30
0.0
 11
495.98693834
 21
686.2913009919
 31
0.0
  0
LWPOLYLINE
  5
D6
330
1F
100
AcDbEntity
  8
0
  6
SLD-Solid
 62
     7
370
    15
100
AcDbPolyline
 90
        3
 70
   128
 43
0.0
 10
595.98693834
 20
686.498356228
 10
596.4146233492
 20
687.6557812835
 10
596.5288638087
 20
688.583841964
  0
LINE
  5
D7
330
1F
100
AcDbEntity
  8
0
  6
SLD-Solid
 62
     7
370
    15
100
AcDbLine
 10
586.0716841028
 20
667.6628026154
 30
0.0
 11
595.98693834
 21
686.498356228
 31
0.0
  0
ARC
  5
D8
330
1F
100
AcDbEntity
  8
0
  6
SLD-Solid
 62
     7
370
    15
100
AcDbCircle
 10
602.7304440189
 20
669.9301982409
 30
0.0
 40
4.899419486210623
100
AcDbArc
 50
182.1278163148
 51
264.966167527
  0
LINE
  5
D9
330
1F
100
AcDbEntity
  8
0
  6
SLD-Solid
 62
     7
370
    15
100
AcDbLine
 10
786.0716841028
 20
667.6628026154
 30
0.0
 11
795.98693834
 21
686.498356228
 31
0.0
  0
ARC
  5
DA
330
1F
100
AcDbEntity
  8
0
  6
SLD-Solid
 62
     7
370
    15
100
AcDbCircle
 10
802.7304440184
 20
669.9301982399
 30
0.0
 40
4.899419485167718
100
AcDbArc
 50
182.1278158835
 51
264.9661675313
  0
LINE
  5
DB
330
1F
100
AcDbEntity
  8
0
  6
SLD-Solid
 62
     7
370
    15
100
AcDbLine
 10
86.0716841028
 20
667.6628026154
 30
0.0
 11
95.98693834
 21
686.498356228
 31
0.0
  0
LWPOLYLINE
  5
DC
330
1F
100
AcDbEntity
  8
0
  6
SLD-Solid
 62
     7
370
    15
100
AcDbPolyline
 90
        3
 70
   128
 43
0.0
 10
295.98693834
 20
686.498356228
 10
296.4146233492
 20
687.6557812835
 10
296.5288638087
 20
688.5838419625
  0
LINE
  5
DD
330
1F
100
AcDbEntity
  8
0
  6
SLD-Solid
 62
     7
370
    15
100
AcDbLine
 10
386.0716841028
 20
667.6628026154
 30
0.0
 11
395.98693834
 21
686.498356228
 31
0.0
  0
ARC
  5
DE
330
1F
100
AcDbEntity
  8
0
  6
SLD-Solid
 62
     7
370
    15
100
AcDbCircle
 10
402.730444019
 20
669.9301982411
 30
0.0
 40
4.89941948647278
100
AcDbArc
 50
182.1278164228
 51
264.9661675258
  0
LWPOLYLINE
  5
DF
330
1F
100
AcDbEntity
  8
0
  6
SLD-Solid
 62
     7
370
    15
100
AcDbPolyline
 90
        3
 70
   128
 43
0.0
 10
495.98693834
 20
686.498356228
 10
496.4146233492
 20
687.6557812835
 10
496.5288638088
 20
688.5838419675
  0
ARC
  5
E0
330
1F
100
AcDbEntity
  8
0
  6
SLD-Solid
 62
     7
370
    15
100
AcDbCircle
 10
481.6652009145
 20
670.0270359456
 30
0.0
 40
5.000669288029319
100
AcDbArc
 50
275.5341758579
 51
331.784876003
  0
ARC
  5
E1
330
1F
100
AcDbEntity
  8
0
  6
SLD-Solid
 62
   142
420
    32960
370
     0
100
AcDbCircle
 10
502.730444019
 20
669.930198241
 30
0.0
 40
4.899419486311505
100
AcDbArc
 50
182.1278163564
 51
264.9661675266
  0
LINE
  5
E2
330
1F
100
AcDbEntity
  8
0
  6
SLD-Solid
 62
   142
420
    32960
370
     0
100
AcDbLine
 10
486.0716841028
 20
667.6628026154
 30
0.0
 11
495.98693834
 21
686.498356228
 31
0.0
  0
ARC
  5
E3
330
1F
100
AcDbEntity
  8
0
  6
SLD-Solid
 62
   142
420
    32960
370
     0
100
AcDbCircle
 10
381.6652009145
 20
670.0270359456
 30
0.0
 40
5.000669288030357
100
AcDbArc
 50
275.5341758579
 51
331.784876003
  0
LWPOLYLINE
  5
E4
330
1F
100
AcDbEntity
  8
0
  6
SLD-Solid
 62
   142
420
    32960
370
     0
100
AcDbPolyline
 90
        3
 70
   128
 43
0.0
 10
395.98693834
 20
686.498356228
 10
396.4146233492
 20
687.6557812835
 10
396.5288638087
 20
688.5838419618
  0
ARC
  5
E5
330
1F
100
AcDbEntity
  8
0
  6
SLD-Solid
 62
   142
420
    32960
370
     0
100
AcDbCircle
 10
302.730444019
 20
669.9301982411
 30
0.0
 40
4.899419486444213
100
AcDbArc
 50
182.1278164111
 51
264.966167526
  0
ARC
  5
E6
330
1F
100
AcDbEntity
  8
0
  6
SLD-Solid
 62
   142
420
    32960
370
     0
100
AcDbCircle
 10
281.6652009145
 20
670.0270359456
 30
0.0
 40
5.000669288030045
100
AcDbArc
 50
275.5341758578
 51
331.784876003
  0
LINE
  5
E7
330
1F
100
AcDbEntity
  8
0
  6
SLD-Solid
 62
   142
420
    32960
370
     0
100
AcDbLine
 10
286.0716841028
 20
667.6628026154
 30
0.0
 11
295.98693834
 21
686.498356228
 31
0.0
  0
ARC
  5
E8
330
1F
100
AcDbEntity
  8
0
  6
SLD-Solid
 62
   142
420
    32960
370
     0
100
AcDbCircle
 10
202.7304440189
 20
669.9301982409
 30
0.0
 40
4.899419486289584
100
AcDbArc
 50
182.1278163473
 51
264.9661675266
  0
ARC
  5
E9
330
1F
100
AcDbEntity
  8
0
  6
SLD-Solid
 62
   142
420
    32960
370
     0
100
AcDbCircle
 10
181.6652009145
 20
670.0270359456
 30
0.0
 40
5.000669288029486
100
AcDbArc
 50
275.534175858
 51
331.784876003
  0
LINE
  5
EA
330
1F
100
AcDbEntity
  8
0
  6
SLD-Solid
 62
   142
420
    32960
370
     0
100
AcDbLine
 10
186.0716841028
 20
667.6628026154
 30
0.0
 11
195.98693834
 21
686.498356228
 31
0.0
  0
LWPOLYLINE
  5
EB
330
1F
100
AcDbEntity
  8
0
  6
SLD-Solid
 62
   142
420
    32960
370
     0
100
AcDbPolyline
 90
        3
 70
   128
 43
0.0
 10
195.98693834
 20
686.498356228
 10
196.4146233492
 20
687.6557812835
 10
196.5288638086
 20
688.5838419575
  0
ARC
  5
EC
330
1F
100
AcDbEntity
  8
0
  6
SLD-Solid
 62
   142
420
    32960
370
     0
100
AcDbCircle
 10
102.7304440189
 20
669.9301982409
 30
0.0
 40
4.899419486263557
100
AcDbArc
 50
182.1278163367
 51
264.9661675266
  0
ARC
  5
ED
330
1F
100
AcDbEntity
  8
0
  6
SLD-Solid
 62
   142
420
    32960
370
     0
100
AcDbCircle
 10
81.6652009145
 20
670.0270359456
 30
0.0
 40
5.00066928802965
100
AcDbArc
 50
275.534175858
 51
331.784876003
  0
LWPOLYLINE
  5
EE
330
1F
100
AcDbEntity
  8
0
  6
SLD-Solid
 62
   142
420
    32960
370
     0
100
AcDbPolyline
 90
        3
 70
   128
 43
0.0
 10
95.98693834
 20
686.498356228
 10
96.4146233492
 20
687.6557812835
 10
96.5288638088
 20
688.5838419652
  0
ARC
  5
EF
330
1F
100
AcDbEntity
  8
0
  6
SLD-Solid
 62
   142
420
    32960
370
     0
100
AcDbCircle
 10
22.0762926808
 20
669.9262096688
 30
0.0
 40
4.895224721419421
100
AcDbArc
 50
180.8707688506
 51
264.9915779818
  0
ARC
  5
F0
330
1F
100
AcDbEntity
  8
0
  6
SLD-Solid
 62
   142
420
    32960
370
     0
100
AcDbCircle
 10
872.2869738791
 20
669.9262096688
 30
0.0
 40
4.895224721419239
100
AcDbArc
 50
275.0084220182
 51
359.1292311494
  0
ARC
  5
F1
330
1F
100
AcDbEntity
  8
0
  6
SLD-Solid
 62
   142
420
    32960
370
     0
100
AcDbCircle
 10
781.6652009145
 20
670.0270359456
 30
0.0
 40
5.000669288031061
100
AcDbArc
 50
275.5341758576
 51
331.784876003
  0
LWPOLYLINE
  5
F2
330
1F
100
AcDbEntity
  8
0
  6
SLD-Solid
 62
   142
420
    32960
370
     0
100
AcDbPolyline
 90
        3
 70
   128
 43
0.0
 10
795.98693834
 20
686.498356228
 10
796.4146233492
 20
687.6557812835
 10
796.5288638088
 20
688.5838419658
  0
ARC
  5
F3
330
1F
100
AcDbEntity
  8
0
  6
SLD-Solid
 62
   142
420
    32960
370
     0
100
AcDbCircle
 10
702.730444019
 20
669.9301982409
 30
0.0
 40
4.899419486290264
100
AcDbArc
 50
182.1278163469
 51
264.9661675269
  0
ARC
  5
F4
330
1F
100
AcDbEntity
  8
0
  6
SLD-Solid
 62
   142
420
    32960
370
     0
100
AcDbCircle
 10
681.6652009145
 20
670.0270359456
 30
0.0
 40
5.000669288029941
100
AcDbArc
 50
275.5341758578
 51
331.784876003
  0
LINE
  5
F5
330
1F
100
AcDbEntity
  8
0
  6
SLD-Solid
 62
   142
420
    32960
370
     0
100
AcDbLine
 10
686.0716841028
 20
667.6628026154
 30
0.0
 11
695.98693834
 21
686.498356228
 31
0.0
  0
LWPOLYLINE
  5
F6
330
1F
100
AcDbEntity
  8
0
  6
SLD-Solid
 62
   142
420
    32960
370
     0
100
AcDbPolyline
 90
        3
 70
   128
 43
0.0
 10
695.98693834
 20
686.498356228
 10
696.4146233492
 20
687.6557812835
 10
696.5288638088
 20
688.5838419664
  0
ARC
  5
F7
330
1F
100
AcDbEntity
  8
0
  6
SLD-Solid
 62
   142
420
    32960
370
     0
100
AcDbCircle
 10
581.6652009145
 20
670.0270359456
 30
0.0
 40
5.000669288029788
100
AcDbArc
 50
275.5341758578
 51
331.784876003
  0
LINE
  5
F8
330
1F
100
AcDbEntity
  8
0
  6
SLD-Solid
 62
   142
420
    32960
370
     0
100
AcDbLine
 10
295.98693834
 20
686.498356228
 30
0.0
 11
295.98693834
 21
686.2913009919
 31
0.0
  0
LINE
  5
F9
330
1F
100
AcDbEntity
  8
0
  6
SLD-Solid
 62
   142
420
    32960
370
     0
100
AcDbLine
 10
495.98693834
 20
686.498356228
 30
0.0
 11
495.98693834
 21
686.2913009919
 31
0.0
  0
LINE
  5
FA
330
1F
100
AcDbEntity
  8
0
  6
SLD-Solid
 62
   142
420
    32960
370
     0
100
AcDbLine
 10
795.98693834
 20
686.498356228
 30
0.0
 11
795.98693834
 21
686.2913009919
 31
0.0
  0
LINE
  5
FB
330
1F
100
AcDbEntity
  8
0
  6
SLD-Solid
 62
   142
420
    32960
370
     0
100
AcDbLine
 10
786.0716841028
 20
667.6628026154
 30
0.0
 11
786.0716841028
 21
667.4557473793
 31
0.0
  0
LINE
  5
FC
330
1F
100
AcDbEntity
  8
0
  6
SLD-Solid
 62
   142
420
    32960
370
     0
100
AcDbLine
 10
586.0716841028
 20
667.6628026154
 30
0.0
 11
586.0716841028
 21
667.4557473793
 31
0.0
  0
LINE
  5
FD
330
1F
100
AcDbEntity
  8
0
  6
SLD-Solid
 62
   142
420
    32960
370
     0
100
AcDbLine
 10
395.98693834
 20
686.498356228
 30
0.0
 11
395.98693834
 21
686.2913009919
 31
0.0
  0
LINE
  5
FE
330
1F
100
AcDbEntity
  8
0
  6
SLD-Solid
 62
   142
420
    32960
370
     0
100
AcDbLine
 10
386.0716841028
 20
667.6628026154
 30
0.0
 11
386.0716841028
 21
667.4557473793
 31
0.0
  0
LINE
  5
FF
330
1F
100
AcDbEntity
  8
0
  6
SLD-Solid
 62
   142
420
    32960
370
     0
100
AcDbLine
 10
95.98693834
 20
686.498356228
 30
0.0
 11
95.98693834
 21
686.2913009919
 31
0.0
  0
LINE
  5
100
330
1F
100
AcDbEntity
  8
0
  6
SLD-Solid
 62
   142
420
    32960
370
     0
100
AcDbLine
 10
86.0716841028
 20
667.6628026154
 30
0.0
 11
86.0716841028
 21
667.4557473793
 31
0.0
  0
SPLINE
  5
101
330
1F
100
AcDbEntity
  8
0
  6
SLD-Solid
 62
     7
370
    15
100
AcDbSpline
210
0.0
220
0.0
230
1.0
 70
     8
 71
     3
 72
     8
 73
     4
 74
     0
 42
0.00000001
 43
0.00000001
 40
0.0
 40
0.0
 40
0.0
 40
0.0
 40
1.0
 40
1.0
 40
1.0
 40
1.0
 10
602.8332538709573
 20
664.8151356620573
 30
0.0
 10
602.6551789779735
 20
664.8151356620573
 30
0.0
 10
602.477610857777
 20
664.8242944950498
 30
0.0
 10
602.3005495094457
 20
664.8426202855901
 30
0.0
  0
ARC
  5
102
330
1F
100
AcDbEntity
  8
0
  6
SLD-Solid
 62
   142
420
    32960
370
     0
100
AcDbCircle
 10
602.8332136352
 20
670.1968012075
 30
0.0
 40
5.174614371737672
100
AcDbArc
 50
264.0916247809
 51
270.0004455097
  0
SPLINE
  5
103
330
1F
100
AcDbEntity
  8
0
  6
SLD-Solid
 62
     7
370
    15
100
AcDbSpline
210
0.0
220
0.0
230
1.0
 70
     8
 71
     3
 72
     8
 73
     4
 74
     0
 42
0.00000001
 43
0.00000001
 40
0.0
 40
0.0
 40
0.0
 40
0.0
 40
1.0
 40
1.0
 40
1.0
 40
1.0
 10
402.8332538709574
 20
664.8151356620571
 30
0.0
 10
402.6551789779729
 20
664.8151356620571
 30
0.0
 10
402.4776108577759
 20
664.8242944950496
 30
0.0
 10
402.300549509444
 20
664.8426202855901
 30
0.0
  0
ARC
  5
104
330
1F
100
AcDbEntity
  8
0
  6
SLD-Solid
 62
   142
420
    32960
370
     0
100
AcDbCircle
 10
402.8332136352
 20
670.1968012075
 30
0.0
 40
5.174614371794855
100
AcDbArc
 50
264.0916247809
 51
270.0004455097
  0
SPLINE
  5
105
330
1F
100
AcDbEntity
  8
0
  6
SLD-Solid
 62
     7
370
    15
100
AcDbSpline
210
0.0
220
0.0
230
1.0
 70
     8
 71
     3
 72
     8
 73
     4
 74
     0
 42
0.00000001
 43
0.00000001
 40
0.0
 40
0.0
 40
0.0
 40
0.0
 40
1.0
 40
1.0
 40
1.0
 40
1.0
 10
802.8332538709575
 20
664.8151356620564
 30
0.0
 10
802.6551789779706
 20
664.8151356620564
 30
0.0
 10
802.4776108577712
 20
664.8242944950491
 30
0.0
 10
802.300549509437
 20
664.8426202855901
 30
0.0
  0
ARC
  5
106
330
1F
100
AcDbEntity
  8
0
  6
SLD-Solid
 62
   142
420
    32960
370
     0
100
AcDbCircle
 10
802.8332136352
 20
670.1968012075
 30
0.0
 40
5.174614371727784
100
AcDbArc
 50
264.0916247808
 51
270.0004455097
  0
SPLINE
  5
107
330
1F
100
AcDbEntity
  8
0
  6
SLD-Solid
 62
     7
370
    15
100
AcDbSpline
210
0.0
220
0.0
230
1.0
 70
     8
 71
     3
 72
     8
 73
     4
 74
     0
 42
0.00000001
 43
0.00000001
 40
0.0
 40
0.0
 40
0.0
 40
0.0
 40
1.0
 40
1.0
 40
1.0
 40
1.0
 10
482.1474628132344
 20
664.8426202855901
 30
0.0
 10
481.9704014649027
 20
664.8242944950496
 30
0.0
 10
481.7928333447058
 20
664.8151356620571
 30
0.0
 10
481.6147584517216
 20
664.8151356620571
 30
0.0
  0
LINE
  5
108
330
1F
100
AcDbEntity
  8
0
  6
SLD-Solid
 62
   142
420
    32960
370
     0
100
AcDbLine
 10
486.0716841028
 20
667.6628026154
 30
0.0
 11
486.0716841028
 21
667.4557473793
 31
0.0
  0
ARC
  5
109
330
1F
100
AcDbEntity
  8
0
  6
SLD-Solid
 62
   142
420
    32960
370
     0
100
AcDbCircle
 10
481.6147986875
 20
670.1968012076
 30
0.0
 40
5.174614371857157
100
AcDbArc
 50
269.9995544903
 51
275.9083752191
  0
LINE
  5
10A
330
1F
100
AcDbEntity
  8
0
  6
SLD-Solid
 62
     7
370
    15
100
AcDbLine
 10
681.6147584517
 20
664.8151356621
 30
0.0
 11
602.833253871
 21
664.8151356621
 31
0.0
  0
LINE
  5
10B
330
1F
100
AcDbEntity
  8
0
  6
SLD-Solid
 62
     7
370
    15
100
AcDbLine
 10
781.6147584517
 20
664.8151356621
 30
0.0
 11
702.833253871
 21
664.8151356621
 31
0.0
  0
LINE
  5
10C
330
1F
100
AcDbEntity
  8
0
  6
SLD-Solid
 62
     7
370
    15
100
AcDbLine
 10
872.18163328
 20
664.8151356621
 30
0.0
 11
802.833253871
 21
664.8151356621
 31
0.0
  0
LINE
  5
10D
330
1F
100
AcDbEntity
  8
0
  6
SLD-Solid
 62
     7
370
    15
100
AcDbLine
 10
897.18163328
 20
664.8426202856
 30
0.0
 11
897.18163328
 21
645.7201516492
 31
0.0
  0
LINE
  5
10E
330
1F
100
AcDbEntity
  8
0
  6
SLD-Solid
 62
     7
370
    15
100
AcDbLine
 10
897.18163328
 20
645.7201516492
 30
0.0
 11
-2.81836672
 21
645.7201516492
 31
0.0
  0
LINE
  5
10F
330
1F
100
AcDbEntity
  8
0
  6
SLD-Solid
 62
     7
370
    15
100
AcDbLine
 10
-2.81836672
 20
664.8426202856
 30
0.0
 11
-2.81836672
 21
645.7201516492
 31
0.0
  0
LINE
  5
110
330
1F
100
AcDbEntity
  8
0
  6
SLD-Solid
 62
     7
370
    15
100
AcDbLine
 10
81.6147584517
 20
664.8151356621
 30
0.0
 11
22.18163328
 21
664.8151356621
 31
0.0
  0
LINE
  5
111
330
1F
100
AcDbEntity
  8
0
  6
SLD-Solid
 62
     7
370
    15
100
AcDbLine
 10
181.6147584517
 20
664.8151356621
 30
0.0
 11
102.833253871
 21
664.8151356621
 31
0.0
  0
LINE
  5
112
330
1F
100
AcDbEntity
  8
0
  6
SLD-Solid
 62
     7
370
    15
100
AcDbLine
 10
281.6147584517
 20
664.8151356621
 30
0.0
 11
202.833253871
 21
664.8151356621
 31
0.0
  0
LINE
  5
113
330
1F
100
AcDbEntity
  8
0
  6
SLD-Solid
 62
     7
370
    15
100
AcDbLine
 10
381.6147584517
 20
664.8151356621
 30
0.0
 11
302.833253871
 21
664.8151356621
 31
0.0
  0
LINE
  5
114
330
1F
100
AcDbEntity
  8
0
  6
SLD-Solid
 62
     7
370
    15
100
AcDbLine
 10
481.6147584517
 20
664.8151356621
 30
0.0
 11
402.833253871
 21
664.8151356621
 31
0.0
  0
LINE
  5
115
330
1F
100
AcDbEntity
  8
0
  6
SLD-Solid
 62
     7
370
    15
100
AcDbLine
 10
581.6147584517
 20
664.8151356621
 30
0.0
 11
502.833253871
 21
664.8151356621
 31
0.0
  0
SPLINE
  5
116
330
1F
100
AcDbEntity
  8
0
  6
SLD-Solid
 62
   142
420
    32960
370
     0
100
AcDbSpline
210
0.0
220
0.0
230
1.0
 70
     8
 71
     3
 72
     8
 73
     4
 74
     0
 42
0.00000001
 43
0.00000001
 40
0.0
 40
0.0
 40
0.0
 40
0.0
 40
1.0
 40
1.0
 40
1.0
 40
1.0
 10
502.8332538709573
 20
664.8151356620573
 30
0.0
 10
502.6551789779735
 20
664.8151356620573
 30
0.0
 10
502.477610857777
 20
664.8242944950498
 30
0.0
 10
502.3005495094457
 20
664.8426202855901
 30
0.0
  0
SPLINE
  5
117
330
1F
100
AcDbEntity
  8
0
  6
SLD-Solid
 62
   142
420
    32960
370
     0
100
AcDbSpline
210
0.0
220
0.0
230
1.0
 70
     8
 71
     3
 72
     8
 73
     4
 74
     0
 42
0.00000001
 43
0.00000001
 40
0.0
 40
0.0
 40
0.0
 40
0.0
 40
1.0
 40
1.0
 40
1.0
 40
1.0
 10
382.1474628132355
 20
664.8426202855901
 30
0.0
 10
381.9704014649034
 20
664.8242944950496
 30
0.0
 10
381.7928333447062
 20
664.8151356620571
 30
0.0
 10
381.6147584517216
 20
664.8151356620571
 30
0.0
  0
SPLINE
  5
118
330
1F
100
AcDbEntity
  8
0
  6
SLD-Solid
 62
   142
420
    32960
370
     0
100
AcDbSpline
210
0.0
220
0.0
230
1.0
 70
     8
 71
     3
 72
     8
 73
     4
 74
     0
 42
0.00000001
 43
0.00000001
 40
0.0
 40
0.0
 40
0.0
 40
0.0
 40
1.0
 40
1.0
 40
1.0
 40
1.0
 10
302.8332538709574
 20
664.8151356620568
 30
0.0
 10
302.6551789779727
 20
664.8151356620568
 30
0.0
 10
302.4776108577752
 20
664.8242944950496
 30
0.0
 10
302.300549509443
 20
664.8426202855901
 30
0.0
  0
SPLINE
  5
119
330
1F
100
AcDbEntity
  8
0
  6
SLD-Solid
 62
   142
420
    32960
370
     0
100
AcDbSpline
210
0.0
220
0.0
230
1.0
 70
     8
 71
     3
 72
     8
 73
     4
 74
     0
 42
0.00000001
 43
0.00000001
 40
0.0
 40
0.0
 40
0.0
 40
0.0
 40
1.0
 40
1.0
 40
1.0
 40
1.0
 10
282.1474628132328
 20
664.8426202855901
 30
0.0
 10
281.9704014649016
 20
664.8242944950498
 30
0.0
 10
281.7928333447053
 20
664.8151356620573
 30
0.0
 10
281.6147584517216
 20
664.8151356620573
 30
0.0
  0
SPLINE
  5
11A
330
1F
100
AcDbEntity
  8
0
  6
SLD-Solid
 62
   142
420
    32960
370
     0
100
AcDbSpline
210
0.0
220
0.0
230
1.0
 70
     8
 71
     3
 72
     8
 73
     4
 74
     0
 42
0.00000001
 43
0.00000001
 40
0.0
 40
0.0
 40
0.0
 40
0.0
 40
1.0
 40
1.0
 40
1.0
 40
1.0
 10
202.8332538709575
 20
664.8151356620573
 30
0.0
 10
202.6551789779736
 20
664.8151356620573
 30
0.0
 10
202.4776108577771
 20
664.8242944950498
 30
0.0
 10
202.3005495094457
 20
664.8426202855901
 30
0.0
  0
SPLINE
  5
11B
330
1F
100
AcDbEntity
  8
0
  6
SLD-Solid
 62
   142
420
    32960
370
     0
100
AcDbSpline
210
0.0
220
0.0
230
1.0
 70
     8
 71
     3
 72
     8
 73
     4
 74
     0
 42
0.00000001
 43
0.00000001
 40
0.0
 40
0.0
 40
0.0
 40
0.0
 40
1.0
 40
1.0
 40
1.0
 40
1.0
 10
182.1474628132446
 20
664.8426202855901
 30
0.0
 10
181.9704014649095
 20
664.8242944950489
 30
0.0
 10
181.7928333447092
 20
664.8151356620559
 30
0.0
 10
181.6147584517215
 20
664.8151356620559
 30
0.0
  0
SPLINE
  5
11C
330
1F
100
AcDbEntity
  8
0
  6
SLD-Solid
 62
   142
420
    32960
370
     0
100
AcDbSpline
210
0.0
220
0.0
230
1.0
 70
     8
 71
     3
 72
     8
 73
     4
 74
     0
 42
0.00000001
 43
0.00000001
 40
0.0
 40
0.0
 40
0.0
 40
0.0
 40
1.0
 40
1.0
 40
1.0
 40
1.0
 10
102.8332538709574
 20
664.8151356620559
 30
0.0
 10
102.6551789779696
 20
664.8151356620559
 30
0.0
 10
102.477610857769
 20
664.8242944950489
 30
0.0
 10
102.3005495094337
 20
664.8426202855901
 30
0.0
  0
SPLINE
  5
11D
330
1F
100
AcDbEntity
  8
0
  6
SLD-Solid
 62
   142
420
    32960
370
     0
100
AcDbSpline
210
0.0
220
0.0
230
1.0
 70
     8
 71
     3
 72
     8
 73
     4
 74
     0
 42
0.00000001
 43
0.00000001
 40
0.0
 40
0.0
 40
0.0
 40
0.0
 40
1.0
 40
1.0
 40
1.0
 40
1.0
 10
82.14746281324354
 20
664.8426202855901
 30
0.0
 10
81.9704014649088
 20
664.8242944950491
 30
0.0
 10
81.79283334470888
 20
664.8151356620562
 30
0.0
 10
81.61475845172161
 20
664.8151356620562
 30
0.0
  0
SPLINE
  5
11E
330
1F
100
AcDbEntity
  8
0
  6
SLD-Solid
 62
   142
420
    32960
370
     0
100
AcDbSpline
210
0.0
220
0.0
230
1.0
 70
     8
 71
     3
 72
     8
 73
     4
 74
     0
 42
0.00000001
 43
0.00000001
 40
0.0
 40
0.0
 40
0.0
 40
0.0
 40
1.0
 40
1.0
 40
1.0
 40
1.0
 10
22.18163327998357
 20
664.8151356620562
 30
0.0
 10
22.00355838699614
 20
664.8151356620562
 30
0.0
 10
21.8259902667961
 20
664.8242944950489
 30
0.0
 10
21.64892891846121
 20
664.8426202855901
 30
0.0
  0
SPLINE
  5
11F
330
1F
100
AcDbEntity
  8
0
  6
SLD-Solid
 62
   142
420
    32960
370
     0
100
AcDbSpline
210
0.0
220
0.0
230
1.0
 70
     8
 71
     3
 72
     8
 73
     4
 74
     0
 42
0.00000001
 43
0.00000001
 40
0.0
 40
0.0
 40
0.0
 40
0.0
 40
1.0
 40
1.0
 40
1.0
 40
1.0
 10
872.7143376415041
 20
664.8426202855901
 30
0.0
 10
872.5372762931698
 20
664.8242944950491
 30
0.0
 10
872.3597081729704
 20
664.8151356620562
 30
0.0
 10
872.1816332799834
 20
664.8151356620562
 30
0.0
  0
SPLINE
  5
120
330
1F
100
AcDbEntity
  8
0
  6
SLD-Solid
 62
   142
420
    32960
370
     0
100
AcDbSpline
210
0.0
220
0.0
230
1.0
 70
     8
 71
     3
 72
     8
 73
     4
 74
     0
 42
0.00000001
 43
0.00000001
 40
0.0
 40
0.0
 40
0.0
 40
0.0
 40
1.0
 40
1.0
 40
1.0
 40
1.0
 10
782.1474628132119
 20
664.8426202855901
 30
0.0
 10
781.9704014648876
 20
664.824294495051
 30
0.0
 10
781.7928333446981
 20
664.8151356620596
 30
0.0
 10
781.6147584517216
 20
664.8151356620596
 30
0.0
  0
SPLINE
  5
121
330
1F
100
AcDbEntity
  8
0
  6
SLD-Solid
 62
   142
420
    32960
370
     0
100
AcDbSpline
210
0.0
220
0.0
230
1.0
 70
     8
 71
     3
 72
     8
 73
     4
 74
     0
 42
0.00000001
 43
0.00000001
 40
0.0
 40
0.0
 40
0.0
 40
0.0
 40
1.0
 40
1.0
 40
1.0
 40
1.0
 10
702.8332538709574
 20
664.8151356620593
 30
0.0
 10
702.6551789779805
 20
664.8151356620593
 30
0.0
 10
702.477610857791
 20
664.824294495051
 30
0.0
 10
702.3005495094666
 20
664.8426202855901
 30
0.0
  0
SPLINE
  5
122
330
1F
100
AcDbEntity
  8
0
  6
SLD-Solid
 62
   142
420
    32960
370
     0
100
AcDbSpline
210
0.0
220
0.0
230
1.0
 70
     8
 71
     3
 72
     8
 73
     4
 74
     0
 42
0.00000001
 43
0.00000001
 40
0.0
 40
0.0
 40
0.0
 40
0.0
 40
1.0
 40
1.0
 40
1.0
 40
1.0
 10
682.1474628132327
 20
664.8426202855901
 30
0.0
 10
681.9704014649016
 20
664.8242944950498
 30
0.0
 10
681.7928333447052
 20
664.8151356620573
 30
0.0
 10
681.6147584517216
 20
664.8151356620573
 30
0.0
  0
SPLINE
  5
123
330
1F
100
AcDbEntity
  8
0
  6
SLD-Solid
 62
   142
420
    32960
370
     0
100
AcDbSpline
210
0.0
220
0.0
230
1.0
 70
     8
 71
     3
 72
     8
 73
     4
 74
     0
 42
0.00000001
 43
0.00000001
 40
0.0
 40
0.0
 40
0.0
 40
0.0
 40
1.0
 40
1.0
 40
1.0
 40
1.0
 10
582.1474628132327
 20
664.8426202855901
 30
0.0
 10
581.9704014649016
 20
664.8242944950498
 30
0.0
 10
581.7928333447052
 20
664.8151356620573
 30
0.0
 10
581.6147584517215
 20
664.8151356620573
 30
0.0
  0
LINE
  5
124
330
1F
100
AcDbEntity
  8
0
  6
SLD-Solid
 62
   142
420
    32960
370
     0
100
AcDbLine
 10
781.6147584517
 20
665.0221868359
 30
0.0
 11
781.6147584517
 21
664.8151356621
 31
0.0
  0
LINE
  5
125
330
1F
100
AcDbEntity
  8
0
  6
SLD-Solid
 62
   142
420
    32960
370
     0
100
AcDbLine
 10
702.833253871
 20
665.0221868359
 30
0.0
 11
781.6147584517
 21
665.0221868359
 31
0.0
  0
LINE
  5
126
330
1F
100
AcDbEntity
  8
0
  6
SLD-Solid
 62
   142
420
    32960
370
     0
100
AcDbLine
 10
702.833253871
 20
665.0221868359
 30
0.0
 11
702.833253871
 21
664.8151356621
 31
0.0
  0
LINE
  5
127
330
1F
100
AcDbEntity
  8
0
  6
SLD-Solid
 62
   142
420
    32960
370
     0
100
AcDbLine
 10
581.6147584517
 20
665.0221868359
 30
0.0
 11
581.6147584517
 21
664.8151356621
 31
0.0
  0
LINE
  5
128
330
1F
100
AcDbEntity
  8
0
  6
SLD-Solid
 62
   142
420
    32960
370
     0
100
AcDbLine
 10
502.833253871
 20
665.0221868359
 30
0.0
 11
581.6147584517
 21
665.0221868359
 31
0.0
  0
LINE
  5
129
330
1F
100
AcDbEntity
  8
0
  6
SLD-Solid
 62
   142
420
    32960
370
     0
100
AcDbLine
 10
502.833253871
 20
665.0221868359
 30
0.0
 11
502.833253871
 21
664.8151356621
 31
0.0
  0
LINE
  5
12A
330
1F
100
AcDbEntity
  8
0
  6
SLD-Solid
 62
   142
420
    32960
370
     0
100
AcDbLine
 10
681.6147584517
 20
665.0221868359
 30
0.0
 11
681.6147584517
 21
664.8151356621
 31
0.0
  0
LINE
  5
12B
330
1F
100
AcDbEntity
  8
0
  6
SLD-Solid
 62
   142
420
    32960
370
     0
100
AcDbLine
 10
602.833253871
 20
665.0221868359
 30
0.0
 11
681.6147584517
 21
665.0221868359
 31
0.0
  0
LINE
  5
12C
330
1F
100
AcDbEntity
  8
0
  6
SLD-Solid
 62
   142
420
    32960
370
     0
100
AcDbLine
 10
281.6147584517
 20
665.0221868359
 30
0.0
 11
281.6147584517
 21
664.8151356621
 31
0.0
  0
LINE
  5
12D
330
1F
100
AcDbEntity
  8
0
  6
SLD-Solid
 62
   142
420
    32960
370
     0
100
AcDbLine
 10
202.833253871
 20
665.0221868359
 30
0.0
 11
281.6147584517
 21
665.0221868359
 31
0.0
  0
LINE
  5
12E
330
1F
100
AcDbEntity
  8
0
  6
SLD-Solid
 62
   142
420
    32960
370
     0
100
AcDbLine
 10
202.833253871
 20
665.0221868359
 30
0.0
 11
202.833253871
 21
664.8151356621
 31
0.0
  0
LINE
  5
12F
330
1F
100
AcDbEntity
  8
0
  6
SLD-Solid
 62
   142
420
    32960
370
     0
100
AcDbLine
 10
402.833253871
 20
665.0221868359
 30
0.0
 11
481.6147584517
 21
665.0221868359
 31
0.0
  0
LINE
  5
130
330
1F
100
AcDbEntity
  8
0
  6
SLD-Solid
 62
   142
420
    32960
370
     0
100
AcDbLine
 10
381.6147584517
 20
665.0221868359
 30
0.0
 11
381.6147584517
 21
664.8151356621
 31
0.0
  0
LINE
  5
131
330
1F
100
AcDbEntity
  8
0
  6
SLD-Solid
 62
   142
420
    32960
370
     0
100
AcDbLine
 10
302.833253871
 20
665.0221868359
 30
0.0
 11
381.6147584517
 21
665.0221868359
 31
0.0
  0
LINE
  5
132
330
1F
100
AcDbEntity
  8
0
  6
SLD-Solid
 62
   142
420
    32960
370
     0
100
AcDbLine
 10
302.833253871
 20
665.0221868359
 30
0.0
 11
302.833253871
 21
664.8151356621
 31
0.0
  0
LINE
  5
133
330
1F
100
AcDbEntity
  8
0
  6
SLD-Solid
 62
   142
420
    32960
370
     0
100
AcDbLine
 10
181.6147584517
 20
665.0221868359
 30
0.0
 11
181.6147584517
 21
664.8151356621
 31
0.0
  0
LINE
  5
134
330
1F
100
AcDbEntity
  8
0
  6
SLD-Solid
 62
   142
420
    32960
370
     0
100
AcDbLine
 10
102.833253871
 20
665.0221868359
 30
0.0
 11
181.6147584517
 21
665.0221868359
 31
0.0
  0
LINE
  5
135
330
1F
100
AcDbEntity
  8
0
  6
SLD-Solid
 62
   142
420
    32960
370
     0
100
AcDbLine
 10
102.833253871
 20
665.0221868359
 30
0.0
 11
102.833253871
 21
664.8151356621
 31
0.0
  0
LINE
  5
136
330
1F
100
AcDbEntity
  8
0
  6
SLD-Solid
 62
   142
420
    32960
370
     0
100
AcDbLine
 10
872.18163328
 20
665.0221868359
 30
0.0
 11
872.18163328
 21
664.8151356621
 31
0.0
  0
LINE
  5
137
330
1F
100
AcDbEntity
  8
0
  6
SLD-Solid
 62
   142
420
    32960
370
     0
100
AcDbLine
 10
802.833253871
 20
665.0221868359
 30
0.0
 11
872.18163328
 21
665.0221868359
 31
0.0
  0
LINE
  5
138
330
1F
100
AcDbEntity
  8
0
  6
SLD-Solid
 62
   142
420
    32960
370
     0
100
AcDbLine
 10
81.6147584517
 20
665.0221868359
 30
0.0
 11
81.6147584517
 21
664.8151356621
 31
0.0
  0
LINE
  5
139
330
1F
100
AcDbEntity
  8
0
  6
SLD-Solid
 62
   142
420
    32960
370
     0
100
AcDbLine
 10
22.18163328
 20
665.0221868359
 30
0.0
 11
81.6147584517
 21
665.0221868359
 31
0.0
  0
LINE
  5
13A
330
1F
100
AcDbEntity
  8
0
  6
SLD-Solid
 62
   142
420
    32960
370
     0
100
AcDbLine
 10
22.18163328
 20
665.0221868359
 30
0.0
 11
22.18163328
 21
664.8151356621
 31
0.0
  0
LINE
  5
13B
330
1F
100
AcDbEntity
  8
0
  6
SLD-Solid
 62
   142
420
    32960
370
     0
100
AcDbLine
 10
82.1474628132
 20
665.0496755217
 30
0.0
 11
21.6489289185
 21
665.0496755217
 31
0.0
  0
LINE
  5
13C
330
1F
100
AcDbEntity
  8
0
  6
SLD-Solid
 62
   142
420
    32960
370
     0
100
AcDbLine
 10
182.1474628132
 20
665.0496755217
 30
0.0
 11
102.3005495094
 21
665.0496755217
 31
0.0
  0
LINE
  5
13D
330
1F
100
AcDbEntity
  8
0
  6
SLD-Solid
 62
   142
420
    32960
370
     0
100
AcDbLine
 10
282.1474628132
 20
665.0496755217
 30
0.0
 11
202.3005495094
 21
665.0496755217
 31
0.0
  0
LINE
  5
13E
330
1F
100
AcDbEntity
  8
0
  6
SLD-Solid
 62
   142
420
    32960
370
     0
100
AcDbLine
 10
382.1474628132
 20
665.0496755217
 30
0.0
 11
302.3005495094
 21
665.0496755217
 31
0.0
  0
LINE
  5
13F
330
1F
100
AcDbEntity
  8
0
  6
SLD-Solid
 62
   142
420
    32960
370
     0
100
AcDbLine
 10
482.1474628132
 20
665.0496755217
 30
0.0
 11
402.3005495094
 21
665.0496755217
 31
0.0
  0
LINE
  5
140
330
1F
100
AcDbEntity
  8
0
  6
SLD-Solid
 62
   142
420
    32960
370
     0
100
AcDbLine
 10
582.1474628132
 20
665.0496755217
 30
0.0
 11
502.3005495094
 21
665.0496755217
 31
0.0
  0
LINE
  5
141
330
1F
100
AcDbEntity
  8
0
  6
SLD-Solid
 62
   142
420
    32960
370
     0
100
AcDbLine
 10
682.1474628132
 20
665.0496755217
 30
0.0
 11
602.3005495094
 21
665.0496755217
 31
0.0
  0
LINE
  5
142
330
1F
100
AcDbEntity
  8
0
  6
SLD-Solid
 62
   142
420
    32960
370
     0
100
AcDbLine
 10
782.1474628132
 20
665.0496755217
 30
0.0
 11
702.3005495095
 21
665.0496755217
 31
0.0
  0
LINE
  5
143
330
1F
100
AcDbEntity
  8
0
  6
SLD-Solid
 62
   142
420
    32960
370
     0
100
AcDbLine
 10
872.7143376415
 20
665.0496755217
 30
0.0
 11
802.3005495094
 21
665.0496755217
 31
0.0
  0
LINE
  5
144
330
1F
100
AcDbEntity
  8
0
  6
SLD-Solid
 62
     7
370
    15
100
AcDbLine
 10
897.18163328
 20
645.7201516492
 30
0.0
 11
897.18163328
 21
644.4701516492
 31
0.0
  0
LINE
  5
145
330
1F
100
AcDbEntity
  8
0
  6
SLD-Solid
 62
     7
370
    15
100
AcDbLine
 10
-2.81836672
 20
645.7201516492
 30
0.0
 11
-2.81836672
 21
644.4701516492
 31
0.0
  0
LINE
  5
146
330
1F
100
AcDbEntity
  8
0
  6
SLD-Solid
 62
     7
370
    15
100
AcDbLine
 10
-2.81836672
 20
644.4701516492
 30
0.0
 11
-2.81836672
 21
623.2701516492
 31
0.0
  0
LINE
  5
147
330
1F
100
AcDbEntity
  8
0
  6
SLD-Solid
 62
     7
370
    15
100
AcDbLine
 10
897.18163328
 20
644.4701516492
 30
0.0
 11
897.18163328
 21
623.2701516492
 31
0.0
  0
LINE
  5
148
330
1F
100
AcDbEntity
  8
0
  6
SLD-Solid
 62
     7
370
    15
100
AcDbLine
 10
897.18163328
 20
621.2201516492
 30
0.0
 11
-2.81836672
 21
621.2201516492
 31
0.0
  0
LINE
  5
149
330
1F
100
AcDbEntity
  8
0
  6
SLD-Solid
 62
   142
420
    32960
370
     0
100
AcDbLine
 10
-2.81836672
 20
623.2701516492
 30
0.0
 11
-2.81836672
 21
621.2201516492
 31
0.0
  0
LINE
  5
14A
330
1F
100
AcDbEntity
  8
0
  6
SLD-Solid
 62
   142
420
    32960
370
     0
100
AcDbLine
 10
897.18163328
 20
623.2701516492
 30
0.0
 11
897.18163328
 21
621.2201516492
 31
0.0
  0
LINE
  5
14B
330
1F
100
AcDbEntity
  8
0
  6
SLD-Solid
 62
     7
370
    15
100
AcDbLine
 10
-2.81836672
 20
621.2201516492
 30
0.0
 11
-2.81836672
 21
619.9701516492
 31
0.0
  0
LINE
  5
14C
330
1F
100
AcDbEntity
  8
0
  6
SLD-Solid
 62
     7
370
    15
100
AcDbLine
 10
897.18163328
 20
621.2201516492
 30
0.0
 11
897.18163328
 21
619.9701516492
 31
0.0
  0
LINE
  5
14D
330
1F
100
AcDbEntity
  8
0
  6
SLD-Solid
 62
     7
370
    15
100
AcDbLine
 10
-2.81836672
 20
619.9701516492
 30
0.0
 11
-2.81836672
 21
597.7701516492
 31
0.0
  0
LINE
  5
14E
330
1F
100
AcDbEntity
  8
0
  6
SLD-Solid
 62
     7
370
    15
100
AcDbLine
 10
897.18163328
 20
619.9701516492
 30
0.0
 11
897.18163328
 21
597.7701516492
 31
0.0
  0
LINE
  5
14F
330
1F
100
AcDbEntity
  8
0
  6
SLD-Solid
 62
     7
370
    15
100
AcDbLine
 10
897.18163328
 20
595.7201516492
 30
0.0
 11
892.38163328
 21
595.7201516492
 31
0.0
  0
LINE
  5
150
330
1F
100
AcDbEntity
  8
0
  6
SLD-Solid
 62
     7
370
    15
100
AcDbLine
 10
814.38163328
 20
595.7201516492
 30
0.0
 11
812.13163328
 21
595.7201516492
 31
0.0
  0
LINE
  5
151
330
1F
100
AcDbEntity
  8
0
  6
SLD-Solid
 62
     7
370
    15
100
AcDbLine
 10
572.23163328
 20
595.7201516492
 30
0.0
 11
567.13163328
 21
595.7201516492
 31
0.0
  0
LINE
  5
152
330
1F
100
AcDbEntity
  8
0
  6
SLD-Solid
 62
     7
370
    15
100
AcDbLine
 10
327.23163328
 20
595.7201516492
 30
0.0
 11
322.23163328
 21
595.7201516492
 31
0.0
  0
LINE
  5
153
330
1F
100
AcDbEntity
  8
0
  6
SLD-Solid
 62
     7
370
    15
100
AcDbLine
 10
82.33163328
 20
595.7201516492
 30
0.0
 11
76.9816332798
 21
595.7201516492
 31
0.0
  0
LINE
  5
154
330
1F
100
AcDbEntity
  8
0
  6
SLD-Solid
 62
     7
370
    15
100
AcDbLine
 10
-1.0183667202
 20
595.7201516492
 30
0.0
 11
-2.81836672
 21
595.7201516492
 31
0.0
  0
LINE
  5
155
330
1F
100
AcDbEntity
  8
0
  6
SLD-Solid
 62
   142
420
    32960
370
     0
100
AcDbLine
 10
-2.81836672
 20
597.7701516492
 30
0.0
 11
-2.81836672
 21
595.7201516492
 31
0.0
  0
LINE
  5
156
330
1F
100
AcDbEntity
  8
0
  6
SLD-Solid
 62
   142
420
    32960
370
     0
100
AcDbLine
 10
897.18163328
 20
597.7701516492
 30
0.0
 11
897.18163328
 21
595.7201516492
 31
0.0
  0
LWPOLYLINE
  5
157
330
1F
100
AcDbEntity
  8
0
  6
SLD-Solid
 62
   142
420
    32960
370
     0
100
AcDbPolyline
 90
        3
 70
   128
 43
0.0
 10
812.18163328
 20
600.7201516492
 10
813.6806364398
 20
600.8953599905
 10
814.38163328
 20
601.1037801759
  0
LWPOLYLINE
  5
158
330
1F
100
AcDbEntity
  8
0
  6
SLD-Solid
 62
   142
420
    32960
370
     0
100
AcDbPolyline
 90
        3
 70
   128
 43
0.0
 10
814.38163328
 20
613.3365231226
 10
812.9362372218
 20
613.6762009746
 10
812.13163328
 20
613.7199593387
  0
LINE
  5
159
330
1F
100
AcDbEntity
  8
0
  6
SLD-Solid
 62
   142
420
    32960
370
     0
100
AcDbLine
 10
82.18163328
 20
600.7201516492
 30
0.0
 11
82.33163328
 21
600.721882649
 31
0.0
  0
ARC
  5
15A
330
1F
100
AcDbEntity
  8
0
  6
SLD-Solid
 62
   142
420
    32960
370
     0
100
AcDbCircle
 10
82.18163328
 20
607.2201516492
 30
0.0
 40
6.499999999999909
100
AcDbArc
 50
88.6776723194
 51
143.1301023573
  0
ARC
  5
15B
330
1F
100
AcDbEntity
  8
0
  6
SLD-Solid
 62
   142
420
    32960
370
     0
100
AcDbCircle
 10
82.18163328
 20
607.2201516492
 30
0.0
 40
6.5
100
AcDbArc
 50
216.8698976428
 51
270.0
  0
ARC
  5
15C
330
1F
100
AcDbEntity
  8
0
  6
SLD-Solid
 62
   142
420
    32960
370
     0
100
AcDbCircle
 10
858.18163328
 20
605.2201516492
 30
0.0
 40
4.799999999999958
100
AcDbArc
 50
155.0283903266
 51
204.971609659
  0
ARC
  5
15D
330
1F
100
AcDbEntity
  8
0
  6
SLD-Solid
 62
   142
420
    32960
370
     0
100
AcDbCircle
 10
36.18163328
 20
605.2201516492
 30
0.0
 40
4.8
100
AcDbArc
 50
137.4013198355
 51
222.598682695
  0
ARC
  5
15E
330
1F
100
AcDbEntity
  8
0
  6
SLD-Solid
 62
   142
420
    32960
370
     0
100
AcDbCircle
 10
358.9893566762
 20
-70.0543643868
 30
0.0
 40
1.94324606735071
100
AcDbArc
 50
268.2978000298
 51
358.190090174
  0
LINE
  5
15F
330
1F
100
AcDbEntity
  8
0
  6
SLD-Solid
 62
   142
420
    32960
370
     0
100
AcDbLine
 10
358.9316332826
 20
-71.9967529391
 30
0.0
 11
338.9316332826
 21
-71.9967529391
 31
0.0
  0
ARC
  5
160
330
1F
100
AcDbEntity
  8
0
  6
SLD-Solid
 62
   142
420
    32960
370
     0
100
AcDbCircle
 10
338.8739098891
 20
-70.0543643868
 30
0.0
 40
1.943246067351005
100
AcDbArc
 50
181.809909826
 51
271.7021999702
  0
CIRCLE
  5
161
330
1F
100
AcDbEntity
  8
0
  6
SLD-Solid
 62
     7
370
    15
100
AcDbCircle
 10
202.28163328
 20
468.7201516491
 30
0.0
 40
98.09941204801835
  0
LINE
  5
162
330
1F
100
AcDbEntity
  8
0
  6
SLD-Solid
 62
   142
420
    32960
370
     0
100
AcDbLine
 10
895.13163328
 20
593.7201516493
 30
0.0
 11
892.38163328
 21
593.7201516493
 31
0.0
  0
LINE
  5
163
330
1F
100
AcDbEntity
  8
0
  6
SLD-Solid
 62
   142
420
    32960
370
     0
100
AcDbLine
 10
895.13163328
 20
593.7201516493
 30
0.0
 11
895.13163328
 21
78.7201516493
 31
0.0
  0
LINE
  5
164
330
1F
100
AcDbEntity
  8
0
  6
SLD-Solid
 62
   142
420
    32960
370
     0
100
AcDbLine
 10
892.38163328
 20
78.7201516493
 30
0.0
 11
895.13163328
 21
78.7201516493
 31
0.0
  0
LINE
  5
165
330
1F
100
AcDbEntity
  8
0
  6
SLD-Solid
 62
     7
370
    15
100
AcDbLine
 10
897.18163328
 20
588.7201516493
 30
0.0
 11
897.18163328
 21
83.7201516493
 31
0.0
  0
LINE
  5
166
330
1F
100
AcDbEntity
  8
0
  6
SLD-Solid
 62
     7
370
    15
100
AcDbLine
 10
897.18163328
 20
593.7201516493
 30
0.0
 11
897.18163328
 21
588.7201516493
 31
0.0
  0
LINE
  5
167
330
1F
100
AcDbEntity
  8
0
  6
SLD-Solid
 62
   142
420
    32960
370
     0
100
AcDbLine
 10
897.18163328
 20
83.7201516493
 30
0.0
 11
897.18163328
 21
78.7201516493
 31
0.0
  0
LINE
  5
168
330
1F
100
AcDbEntity
  8
0
  6
SLD-Solid
 62
   142
420
    32960
370
     0
100
AcDbLine
 10
896.38163328
 20
588.7201516493
 30
0.0
 11
896.38163328
 21
83.7201516493
 31
0.0
  0
LINE
  5
169
330
1F
100
AcDbEntity
  8
0
  6
SLD-Solid
 62
   142
420
    32960
370
     0
100
AcDbLine
 10
897.18163328
 20
83.7201516493
 30
0.0
 11
896.38163328
 21
83.7201516493
 31
0.0
  0
LINE
  5
16A
330
1F
100
AcDbEntity
  8
0
  6
SLD-Solid
 62
   142
420
    32960
370
     0
100
AcDbLine
 10
896.38163328
 20
593.7201516493
 30
0.0
 11
896.38163328
 21
588.7201516493
 31
0.0
  0
LINE
  5
16B
330
1F
100
AcDbEntity
  8
0
  6
SLD-Solid
 62
   142
420
    32960
370
     0
100
AcDbLine
 10
897.18163328
 20
593.7201516493
 30
0.0
 11
896.38163328
 21
593.7201516493
 31
0.0
  0
LINE
  5
16C
330
1F
100
AcDbEntity
  8
0
  6
SLD-Solid
 62
   142
420
    32960
370
     0
100
AcDbLine
 10
896.38163328
 20
593.7201516493
 30
0.0
 11
895.13163328
 21
593.7201516493
 31
0.0
  0
LINE
  5
16D
330
1F
100
AcDbEntity
  8
0
  6
SLD-Solid
 62
   142
420
    32960
370
     0
100
AcDbLine
 10
895.13163328
 20
78.7201516493
 30
0.0
 11
897.18163328
 21
78.7201516493
 31
0.0
  0
ARC
  5
16E
330
1F
100
AcDbEntity
  8
0
  6
SLD-Solid
 62
   142
420
    32960
370
     0
100
AcDbCircle
 10
446.657760404
 20
-75.5048507767
 30
0.0
 40
0.9764498166443628
100
AcDbArc
 50
88.5990561917
 51
178.5269450074
  0
ARC
  5
16F
330
1F
100
AcDbEntity
  8
0
  6
SLD-Solid
 62
   142
420
    32960
370
     0
100
AcDbCircle
 10
447.7055061554
 20
-75.5048507767
 30
0.0
 40
0.9764498166444543
100
AcDbArc
 50
1.4730549926
 51
91.4009438083
  0
LWPOLYLINE
  5
170
330
1F
100
AcDbEntity
  8
0
  6
SLD-Solid
 62
   142
420
    32960
370
     0
100
AcDbPolyline
 90
        9
 70
   128
 43
0.0
 10
446.6816332797
 20
-74.5286928334
 10
446.7196935135
 20
-74.5878206754
 10
446.8280798891
 20
-74.6379468395
 10
446.9902915635
 20
-74.6714400715
 10
447.1816332797
 20
-74.6832013306
 10
447.3729749959
 20
-74.6714400715
 10
447.5351866703
 20
-74.6379468395
 10
447.643573046
 20
-74.5878206754
 10
447.6816332797
 20
-74.5286928334
  0
LINE
  5
171
330
1F
100
AcDbEntity
  8
0
  6
SLD-Solid
 62
     7
370
    15
100
AcDbLine
 10
154.1816332797
 20
-65.8466568492
 30
0.0
 11
154.1816332797
 21
-75.9552776079
 31
0.0
  0
LINE
  5
172
330
1F
100
AcDbEntity
  8
0
  6
SLD-Solid
 62
   142
420
    32960
370
     0
100
AcDbLine
 10
166.3947836381
 20
-65.8466568492
 30
0.0
 11
166.3164365401
 21
-65.8913156535
 31
0.0
  0
LINE
  5
173
330
1F
100
AcDbEntity
  8
0
  6
SLD-Solid
 62
   142
420
    32960
370
     0
100
AcDbLine
 10
145.2615320232
 20
-65.8466568492
 30
0.0
 11
145.0468300193
 21
-65.8913156535
 31
0.0
  0
LINE
  5
174
330
1F
100
AcDbEntity
  8
0
  6
SLD-Solid
 62
   142
420
    32960
370
     0
100
AcDbLine
 10
157.1816332797
 20
-75.9552776079
 30
0.0
 11
157.1816332797
 21
-65.8466568492
 31
0.0
  0
LWPOLYLINE
  5
175
330
1F
100
AcDbEntity
  8
0
  6
SLD-Solid
 62
   142
420
    32960
370
     0
100
AcDbPolyline
 90
        9
 70
   128
 43
0.0
 10
154.1816332797
 20
-75.9552776079
 10
154.295813981
 20
-76.132661134
 10
154.6209731079
 20
-76.2830396262
 10
155.1076081312
 20
-76.3835193223
 10
155.6816332797
 20
-76.4188030994
 10
156.2556584283
 20
-76.3835193223
 10
156.7422934515
 20
-76.2830396262
 10
157.0674525785
 20
-76.132661134
 10
157.1816332797
 20
-75.9552776079
  0
ARC
  5
176
330
1F
100
AcDbEntity
  8
0
  6
SLD-Solid
 62
   142
420
    32960
370
     0
100
AcDbCircle
 10
156.2055061554
 20
-75.5048507767
 30
0.0
 40
0.9764498166443486
100
AcDbArc
 50
1.4730549926
 51
91.4009438083
  0
ARC
  5
177
330
1F
100
AcDbEntity
  8
0
  6
SLD-Solid
 62
   142
420
    32960
370
     0
100
AcDbCircle
 10
155.157760404
 20
-75.5048507767
 30
0.0
 40
0.9764498166444594
100
AcDbArc
 50
88.5990561917
 51
178.5269450074
  0
LWPOLYLINE
  5
178
330
1F
100
AcDbEntity
  8
0
  6
SLD-Solid
 62
   142
420
    32960
370
     0
100
AcDbPolyline
 90
        9
 70
   128
 43
0.0
 10
155.1816332797
 20
-74.5286928334
 10
155.2196935135
 20
-74.5878206755
 10
155.3280798891
 20
-74.6379468395
 10
155.4902915635
 20
-74.6714400716
 10
155.6816332797
 20
-74.6832013306
 10
155.8729749959
 20
-74.6714400716
 10
156.0351866703
 20
-74.6379468395
 10
156.143573046
 20
-74.5878206755
 10
156.1816332797
 20
-74.5286928334
  0
LINE
  5
179
330
1F
100
AcDbEntity
  8
0
  6
SLD-Solid
 62
     7
370
    15
100
AcDbLine
 10
165.3557973159
 20
-69.4544947773
 30
0.0
 11
165.3484477916
 21
-69.659690244
 31
0.0
  0
LINE
  5
17A
330
1F
100
AcDbEntity
  8
0
  6
SLD-Solid
 62
   142
420
    32960
370
     0
100
AcDbLine
 10
145.0468300193
 20
-65.8913156535
 30
0.0
 11
144.9684829214
 21
-65.8466568492
 31
0.0
  0
ARC
  5
17B
330
1F
100
AcDbEntity
  8
0
  6
SLD-Solid
 62
   142
420
    32960
370
     0
100
AcDbCircle
 10
166.3954494777
 20
-64.9527809645
 30
0.0
 40
0.9418547694740581
100
AcDbArc
 50
265.1877561957
 51
288.3667286009
  0
ARC
  5
17C
330
1F
100
AcDbEntity
  8
0
  6
SLD-Solid
 62
   142
420
    32960
370
     0
100
AcDbCircle
 10
166.229577122
 20
-74.4602143528
 30
0.0
 40
1.056025610321987
100
AcDbArc
 50
274.7179789945
 51
357.771185392
  0
ARC
  5
17D
330
1F
100
AcDbEntity
  8
0
  6
SLD-Solid
 62
   142
420
    32960
370
     0
100
AcDbCircle
 10
145.1336894374
 20
-74.4602143528
 30
0.0
 40
1.056025610322173
100
AcDbArc
 50
182.228814608
 51
265.2820210055
  0
ARC
  5
17E
330
1F
100
AcDbEntity
  8
0
  6
SLD-Solid
 62
   142
420
    32960
370
     0
100
AcDbCircle
 10
166.4562437924
 20
-75.2155511951
 30
0.0
 40
0.3283607035752319
100
AcDbArc
 50
244.800373242
 51
329.0453990307
  0
ARC
  5
17F
330
1F
100
AcDbEntity
  8
0
  6
SLD-Solid
 62
   142
420
    32960
370
     0
100
AcDbCircle
 10
144.9070227662
 20
-75.2155510771
 30
0.0
 40
0.3283608107149649
100
AcDbArc
 50
210.9544942779
 51
295.1996181101
  0
ARC
  5
180
330
1F
100
AcDbEntity
  8
0
  6
SLD-Solid
 62
   142
420
    32960
370
     0
100
AcDbCircle
 10
166.8189567199
 20
-74.6461835025
 30
0.0
 40
0.4878622020729744
100
AcDbArc
 50
307.8246718054
 51
17.278104811
  0
ARC
  5
181
330
1F
100
AcDbEntity
  8
0
  6
SLD-Solid
 62
   142
420
    32960
370
     0
100
AcDbCircle
 10
144.5443098395
 20
-74.6461835025
 30
0.0
 40
0.487862202068117
100
AcDbArc
 50
162.7218951888
 51
232.1753281909
  0
ARC
  5
182
330
1F
100
AcDbEntity
  8
0
  6
SLD-Solid
 62
   142
420
    32960
370
     0
100
AcDbCircle
 10
400.6784569408
 20
-67.1617151285
 30
0.0
 40
1.498704915935539
100
AcDbArc
 50
182.8711035151
 51
298.8471995542
  0
LINE
  5
183
330
1F
100
AcDbEntity
  8
0
  6
SLD-Solid
 62
   142
420
    32960
370
     0
100
AcDbLine
 10
406.0696977606
 20
-66.0725905465
 30
0.0
 11
401.4015451963
 21
-68.4744450321
 31
0.0
  0
ARC
  5
184
330
1F
100
AcDbEntity
  8
0
  6
SLD-Solid
 62
   142
420
    32960
370
     0
100
AcDbCircle
 10
399.6862362576
 20
-64.5491456644
 30
0.0
 40
6.56273304878792
100
AcDbArc
 50
191.4030176521
 51
346.5771557259
  0
ARC
  5
185
330
1F
100
AcDbEntity
  8
0
  6
SLD-Solid
 62
   142
420
    32960
370
     0
100
AcDbCircle
 10
399.9008754876
 20
-64.6888283222
 30
0.0
 40
7.311212573991912
100
AcDbArc
 50
268.2816069903
 51
350.8880847788
  0
ARC
  5
186
330
1F
100
AcDbEntity
  8
0
  6
SLD-Solid
 62
   142
420
    32960
370
     0
100
AcDbCircle
 10
399.5201510044
 20
-64.618970947
 30
0.0
 40
7.379549010442196
100
AcDbArc
 50
189.5764387338
 51
271.2538694971
  0
LINE
  5
187
330
1F
100
AcDbEntity
  8
0
  6
SLD-Solid
 62
     7
370
    15
100
AcDbLine
 10
399.18163328
 20
-67.270761581
 30
0.0
 11
399.18163328
 21
-65.8466568492
 31
0.0
  0
ARC
  5
188
330
1F
100
AcDbEntity
  8
0
  6
SLD-Solid
 62
   142
420
    32960
370
     0
100
AcDbCircle
 10
399.6869462784
 20
-64.5843547102
 30
0.0
 40
6.561756609812603
100
AcDbArc
 50
191.0912785465
 51
346.5861767032
  0
LINE
  5
189
330
1F
100
AcDbEntity
  8
0
  6
SLD-Solid
 62
   142
420
    32960
370
     0
100
AcDbLine
 10
406.0696977606
 20
-66.1065680078
 30
0.0
 11
401.4015451963
 21
-68.5084224933
 31
0.0
  0
ARC
  5
18A
330
1F
100
AcDbEntity
  8
0
  6
SLD-Solid
 62
   142
420
    32960
370
     0
100
AcDbCircle
 10
400.6784569408
 20
-67.1956925897
 30
0.0
 40
1.498704915935529
100
AcDbArc
 50
182.8711035151
 51
298.8471995542
  0
CIRCLE
  5
18B
330
1F
100
AcDbEntity
  8
0
  6
SLD-Solid
 62
     7
370
    15
100
AcDbCircle
 10
850.38163328
 20
605.2201516492
 30
0.0
 40
4.0
  0
CIRCLE
  5
18C
330
1F
100
AcDbEntity
  8
0
  6
SLD-Solid
 62
     7
370
    15
100
AcDbCircle
 10
850.38163328
 20
605.2201516492
 30
0.0
 40
7.499999999999886
  0
LINE
  5
18D
330
1F
100
AcDbEntity
  8
0
  6
SLD-Solid
 62
     7
370
    15
100
AcDbLine
 10
892.38163328
 20
55.2201516492
 30
0.0
 11
892.38163328
 21
617.2201516492
 31
0.0
  0
LINE
  5
18E
330
1F
100
AcDbEntity
  8
0
  6
SLD-Solid
 62
     7
370
    15
100
AcDbLine
 10
814.38163328
 20
617.2201516492
 30
0.0
 11
814.38163328
 21
55.2201516492
 31
0.0
  0
CIRCLE
  5
18F
330
1F
100
AcDbEntity
  8
0
  6
SLD-Solid
 62
     7
370
    15
100
AcDbCircle
 10
850.38163328
 20
67.2201516492
 30
0.0
 40
7.5
  0
LINE
  5
190
330
1F
100
AcDbEntity
  8
0
  6
SLD-Solid
 62
     7
370
    15
100
AcDbLine
 10
892.38163328
 20
617.2201516492
 30
0.0
 11
814.38163328
 21
617.2201516492
 31
0.0
  0
LINE
  5
191
330
1F
100
AcDbEntity
  8
0
  6
SLD-Solid
 62
     7
370
    15
100
AcDbLine
 10
814.38163328
 20
55.2201516492
 30
0.0
 11
892.38163328
 21
55.2201516492
 31
0.0
  0
CIRCLE
  5
192
330
1F
100
AcDbEntity
  8
0
  6
SLD-Solid
 62
     7
370
    15
100
AcDbCircle
 10
850.38163328
 20
67.2201516492
 30
0.0
 40
4.0
  0
LINE
  5
193
330
1F
100
AcDbEntity
  8
0
  6
SLD-Solid
 62
     7
370
    15
100
AcDbLine
 10
798.18163328
 20
-70.1497166174
 30
0.0
 11
798.18163328
 21
-65.8466568492
 31
0.0
  0
LINE
  5
194
330
1F
100
AcDbEntity
  8
0
  6
SLD-Solid
 62
   142
420
    32960
370
     0
100
AcDbLine
 10
215.1816332807
 20
-70.1497166174
 30
0.0
 11
215.1816332807
 21
-65.8466568492
 31
0.0
  0
ARC
  5
195
330
1F
100
AcDbEntity
  8
0
  6
SLD-Solid
 62
   142
420
    32960
370
     0
100
AcDbCircle
 10
213.2393566742
 20
-70.0883418481
 30
0.0
 40
1.943246067350888
100
AcDbArc
 50
268.2978000298
 51
358.190090174
  0
LINE
  5
196
330
1F
100
AcDbEntity
  8
0
  6
SLD-Solid
 62
   142
420
    32960
370
     0
100
AcDbLine
 10
213.1816332807
 20
-72.0307304004
 30
0.0
 11
193.1816332807
 21
-72.0307304004
 31
0.0
  0
ARC
  5
197
330
1F
100
AcDbEntity
  8
0
  6
SLD-Solid
 62
   142
420
    32960
370
     0
100
AcDbCircle
 10
193.1239098871
 20
-70.0883418481
 30
0.0
 40
1.943246067350889
100
AcDbArc
 50
181.809909826
 51
271.7021999702
  0
LINE
  5
198
330
1F
100
AcDbEntity
  8
0
  6
SLD-Solid
 62
   142
420
    32960
370
     0
100
AcDbLine
 10
191.1816332807
 20
-65.8466568492
 30
0.0
 11
191.1816332807
 21
-70.1497166174
 31
0.0
  0
LINE
  5
199
330
1F
100
AcDbEntity
  8
0
  6
SLD-Solid
 62
   142
420
    32960
370
     0
100
AcDbLine
 10
360.9316332826
 20
-70.1497166174
 30
0.0
 11
360.9316332826
 21
-65.8466568492
 31
0.0
  0
ARC
  5
19A
330
1F
100
AcDbEntity
  8
0
  6
SLD-Solid
 62
   142
420
    32960
370
     0
100
AcDbCircle
 10
358.9893566762
 20
-70.0883418481
 30
0.0
 40
1.943246067350598
100
AcDbArc
 50
268.2978000298
 51
358.190090174
  0
LINE
  5
19B
330
1F
100
AcDbEntity
  8
0
  6
SLD-Solid
 62
   142
420
    32960
370
     0
100
AcDbLine
 10
358.9316332826
 20
-72.0307304004
 30
0.0
 11
338.9316332826
 21
-72.0307304004
 31
0.0
  0
ARC
  5
19C
330
1F
100
AcDbEntity
  8
0
  6
SLD-Solid
 62
   142
420
    32960
370
     0
100
AcDbCircle
 10
338.8739098891
 20
-70.0883418481
 30
0.0
 40
1.943246067350947
100
AcDbArc
 50
181.809909826
 51
271.7021999702
  0
LINE
  5
19D
330
1F
100
AcDbEntity
  8
0
  6
SLD-Solid
 62
   142
420
    32960
370
     0
100
AcDbLine
 10
336.9316332826
 20
-65.8466568492
 30
0.0
 11
336.9316332826
 21
-70.1497166174
 31
0.0
  0
ARC
  5
19E
330
1F
100
AcDbEntity
  8
0
  6
SLD-Solid
 62
   142
420
    32960
370
     0
100
AcDbCircle
 10
399.9016730703
 20
-64.7246883819
 30
0.0
 40
7.309354789165481
100
AcDbArc
 50
268.2749152733
 51
351.1703272368
  0
ARC
  5
19F
330
1F
100
AcDbEntity
  8
0
  6
SLD-Solid
 62
   142
420
    32960
370
     0
100
AcDbCircle
 10
399.5195254605
 20
-64.6549650156
 30
0.0
 40
7.377546604731197
100
AcDbArc
 50
189.2956883234
 51
271.2590691665
  0
ARC
  5
1A0
330
1F
100
AcDbEntity
  8
0
  6
SLD-Solid
 62
   142
420
    32960
370
     0
100
AcDbCircle
 10
796.2393566735
 20
-70.0883418481
 30
0.0
 40
1.943246067351007
100
AcDbArc
 50
268.2978000298
 51
358.190090174
  0
LINE
  5
1A1
330
1F
100
AcDbEntity
  8
0
  6
SLD-Solid
 62
   142
420
    32960
370
     0
100
AcDbLine
 10
796.18163328
 20
-72.0307304004
 30
0.0
 11
776.18163328
 21
-72.0307304004
 31
0.0
  0
ARC
  5
1A2
330
1F
100
AcDbEntity
  8
0
  6
SLD-Solid
 62
   142
420
    32960
370
     0
100
AcDbCircle
 10
776.1239098864
 20
-70.0883418481
 30
0.0
 40
1.943246067350888
100
AcDbArc
 50
181.809909826
 51
271.7021999702
  0
LINE
  5
1A3
330
1F
100
AcDbEntity
  8
0
  6
SLD-Solid
 62
   142
420
    32960
370
     0
100
AcDbLine
 10
774.18163328
 20
-65.8466568492
 30
0.0
 11
774.18163328
 21
-70.1497166174
 31
0.0
  0
LINE
  5
1A4
330
1F
100
AcDbEntity
  8
0
  6
SLD-Solid
 62
   142
420
    32960
370
     0
100
AcDbLine
 10
506.68163328
 20
-70.1497166174
 30
0.0
 11
506.68163328
 21
-65.8466568492
 31
0.0
  0
ARC
  5
1A5
330
1F
100
AcDbEntity
  8
0
  6
SLD-Solid
 62
   142
420
    32960
370
     0
100
AcDbCircle
 10
504.7393566735
 20
-70.0883418481
 30
0.0
 40
1.943246067350711
100
AcDbArc
 50
268.2978000298
 51
358.190090174
  0
LINE
  5
1A6
330
1F
100
AcDbEntity
  8
0
  6
SLD-Solid
 62
   142
420
    32960
370
     0
100
AcDbLine
 10
504.68163328
 20
-72.0307304004
 30
0.0
 11
484.68163328
 21
-72.0307304004
 31
0.0
  0
ARC
  5
1A7
330
1F
100
AcDbEntity
  8
0
  6
SLD-Solid
 62
   142
420
    32960
370
     0
100
AcDbCircle
 10
484.6239098864
 20
-70.0883418481
 30
0.0
 40
1.943246067351006
100
AcDbArc
 50
181.809909826
 51
271.7021999702
  0
LINE
  5
1A8
330
1F
100
AcDbEntity
  8
0
  6
SLD-Solid
 62
   142
420
    32960
370
     0
100
AcDbLine
 10
482.68163328
 20
-65.8466568492
 30
0.0
 11
482.68163328
 21
-70.1497166174
 31
0.0
  0
LINE
  5
1A9
330
1F
100
AcDbEntity
  8
0
  6
SLD-Solid
 62
   142
420
    32960
370
     0
100
AcDbLine
 10
-2.81836672
 20
-76.3570621011
 30
0.0
 11
-2.81836672
 21
-64.5466568492
 31
0.0
  0
LINE
  5
1AA
330
1F
100
AcDbEntity
  8
0
  6
SLD-Solid
 62
   142
420
    32960
370
     0
100
AcDbLine
 10
897.18163328
 20
-76.3570621011
 30
0.0
 11
897.18163328
 21
-64.5466568492
 31
0.0
  0
ARC
  5
1AB
330
1F
100
AcDbEntity
  8
0
  6
SLD-Solid
 62
   142
420
    32960
370
     0
100
AcDbCircle
 10
776.1239098864
 20
-70.0543643868
 30
0.0
 40
1.94324606735089
100
AcDbArc
 50
181.809909826
 51
271.7021999702
  0
LINE
  5
1AC
330
1F
100
AcDbEntity
  8
0
  6
SLD-Solid
 62
   142
420
    32960
370
     0
100
AcDbLine
 10
796.18163328
 20
-71.9967529391
 30
0.0
 11
776.18163328
 21
-71.9967529391
 31
0.0
  0
ARC
  5
1AD
330
1F
100
AcDbEntity
  8
0
  6
SLD-Solid
 62
   142
420
    32960
370
     0
100
AcDbCircle
 10
796.2393566735
 20
-70.0543643868
 30
0.0
 40
1.943246067351026
100
AcDbArc
 50
268.2978000298
 51
358.190090174
  0
LINE
  5
1AE
330
1F
100
AcDbEntity
  8
0
  6
SLD-Solid
 62
     7
370
    15
100
AcDbLine
 10
-2.81836672
 20
-83.4874962892
 30
0.0
 11
-2.81836672
 21
-76.3570621011
 31
0.0
  0
LINE
  5
1AF
330
1F
100
AcDbEntity
  8
0
  6
SLD-Solid
 62
     7
370
    15
100
AcDbLine
 10
897.18163328
 20
-83.4874962892
 30
0.0
 11
897.18163328
 21
-76.3570621011
 31
0.0
  0
LINE
  5
1B0
330
1F
100
AcDbEntity
  8
0
  6
SLD-Solid
 62
     7
370
    15
100
AcDbLine
 10
322.23163328
 20
617.1701516492
 30
0.0
 11
82.33163328
 21
617.1701516492
 31
0.0
  0
LINE
  5
1B1
330
1F
100
AcDbEntity
  8
0
  6
SLD-Solid
 62
     7
370
    15
100
AcDbLine
 10
322.23163328
 20
55.2701516492
 30
0.0
 11
322.23163328
 21
617.1701516492
 31
0.0
  0
LINE
  5
1B2
330
1F
100
AcDbEntity
  8
0
  6
SLD-Solid
 62
     7
370
    15
100
AcDbLine
 10
82.33163328
 20
55.2701516492
 30
0.0
 11
322.23163328
 21
55.2701516492
 31
0.0
  0
LINE
  5
1B3
330
1F
100
AcDbEntity
  8
0
  6
SLD-Solid
 62
     7
370
    15
100
AcDbLine
 10
82.33163328
 20
617.1701516492
 30
0.0
 11
82.33163328
 21
55.2701516492
 31
0.0
  0
LINE
  5
1B4
330
1F
100
AcDbEntity
  8
0
  6
SLD-Solid
 62
     7
370
    15
100
AcDbLine
 10
894.73163328
 20
51.2201516492
 30
0.0
 11
-0.36836672
 21
51.2201516492
 31
0.0
  0
LINE
  5
1B5
330
1F
100
AcDbEntity
  8
0
  6
SLD-Solid
 62
   142
420
    32960
370
     0
100
AcDbLine
 10
894.73163328
 20
51.2201516492
 30
0.0
 11
894.73163328
 21
48.7701516492
 31
0.0
  0
LINE
  5
1B6
330
1F
100
AcDbEntity
  8
0
  6
SLD-Solid
 62
   142
420
    32960
370
     0
100
AcDbLine
 10
-0.36836672
 20
48.7701516492
 30
0.0
 11
-0.36836672
 21
51.2201516492
 31
0.0
  0
LINE
  5
1B7
330
1F
100
AcDbEntity
  8
0
  6
SLD-Solid
 62
     7
370
    15
100
AcDbLine
 10
897.18163328
 20
-42.5466568492
 30
0.0
 11
897.18163328
 21
48.7701516492
 31
0.0
  0
LINE
  5
1B8
330
1F
100
AcDbEntity
  8
0
  6
SLD-Solid
 62
   142
420
    32960
370
     0
100
AcDbLine
 10
897.18163328
 20
-42.5466568492
 30
0.0
 11
894.73163328
 21
-42.5466568492
 31
0.0
  0
LINE
  5
1B9
330
1F
100
AcDbEntity
  8
0
  6
SLD-Solid
 62
   142
420
    32960
370
     0
100
AcDbLine
 10
894.73163328
 20
48.7701516492
 30
0.0
 11
897.18163328
 21
48.7701516492
 31
0.0
  0
LINE
  5
1BA
330
1F
100
AcDbEntity
  8
0
  6
SLD-Solid
 62
     7
370
    15
100
AcDbLine
 10
-2.81836672
 20
48.7701516492
 30
0.0
 11
-2.81836672
 21
-42.5466568492
 31
0.0
  0
LINE
  5
1BB
330
1F
100
AcDbEntity
  8
0
  6
SLD-Solid
 62
   142
420
    32960
370
     0
100
AcDbLine
 10
-2.81836672
 20
48.7701516492
 30
0.0
 11
-0.36836672
 21
48.7701516492
 31
0.0
  0
LINE
  5
1BC
330
1F
100
AcDbEntity
  8
0
  6
SLD-Solid
 62
   142
420
    32960
370
     0
100
AcDbLine
 10
-0.36836672
 20
-42.5466568492
 30
0.0
 11
-2.81836672
 21
-42.5466568492
 31
0.0
  0
LINE
  5
1BD
330
1F
100
AcDbEntity
  8
0
  6
SLD-Solid
 62
     7
370
    15
100
AcDbLine
 10
895.98163328
 20
-65.8466568492
 30
0.0
 11
895.98163328
 21
-43.0466568492
 31
0.0
  0
LINE
  5
1BE
330
1F
100
AcDbEntity
  8
0
  6
SLD-Solid
 62
     7
370
    15
100
AcDbLine
 10
-1.61836672
 20
-65.8466568492
 30
0.0
 11
-1.61836672
 21
-43.0466568492
 31
0.0
  0
LINE
  5
1BF
330
1F
100
AcDbEntity
  8
0
  6
SLD-Solid
 62
   142
420
    32960
370
     0
100
AcDbLine
 10
894.73163328
 20
-43.0466568492
 30
0.0
 11
895.98163328
 21
-43.0466568492
 31
0.0
  0
LINE
  5
1C0
330
1F
100
AcDbEntity
  8
0
  6
SLD-Solid
 62
   142
420
    32960
370
     0
100
AcDbLine
 10
894.73163328
 20
-42.5466568492
 30
0.0
 11
894.73163328
 21
-43.0466568492
 31
0.0
  0
LINE
  5
1C1
330
1F
100
AcDbEntity
  8
0
  6
SLD-Solid
 62
   142
420
    32960
370
     0
100
AcDbLine
 10
-0.36836672
 20
-43.0466568492
 30
0.0
 11
-0.36836672
 21
-42.5466568492
 31
0.0
  0
LINE
  5
1C2
330
1F
100
AcDbEntity
  8
0
  6
SLD-Solid
 62
   142
420
    32960
370
     0
100
AcDbLine
 10
-1.61836672
 20
-43.0466568492
 30
0.0
 11
-0.36836672
 21
-43.0466568492
 31
0.0
  0
LINE
  5
1C3
330
1F
100
AcDbEntity
  8
0
  6
SLD-Solid
 62
     7
370
    15
100
AcDbLine
 10
897.18163328
 20
-64.5466568492
 30
0.0
 11
897.18163328
 21
-43.0466568492
 31
0.0
  0
LINE
  5
1C4
330
1F
100
AcDbEntity
  8
0
  6
SLD-Solid
 62
   142
420
    32960
370
     0
100
AcDbLine
 10
897.18163328
 20
-43.0466568492
 30
0.0
 11
895.98163328
 21
-43.0466568492
 31
0.0
  0
LINE
  5
1C5
330
1F
100
AcDbEntity
  8
0
  6
SLD-Solid
 62
     7
370
    15
100
AcDbLine
 10
-2.81836672
 20
52.4701516492
 30
0.0
 11
-2.81836672
 21
74.2701516492
 31
0.0
  0
LINE
  5
1C6
330
1F
100
AcDbEntity
  8
0
  6
SLD-Solid
 62
     7
370
    15
100
AcDbLine
 10
-2.81836672
 20
-64.5466568492
 30
0.0
 11
-2.81836672
 21
-43.0466568492
 31
0.0
  0
LINE
  5
1C7
330
1F
100
AcDbEntity
  8
0
  6
SLD-Solid
 62
   142
420
    32960
370
     0
100
AcDbLine
 10
-2.81836672
 20
-43.0466568492
 30
0.0
 11
-2.81836672
 21
-42.5466568492
 31
0.0
  0
LINE
  5
1C8
330
1F
100
AcDbEntity
  8
0
  6
SLD-Solid
 62
   142
420
    32960
370
     0
100
AcDbLine
 10
-2.81836672
 20
48.7701516492
 30
0.0
 11
-2.81836672
 21
50.0101516492
 31
0.0
  0
LINE
  5
1C9
330
1F
100
AcDbEntity
  8
0
  6
SLD-Solid
 62
   142
420
    32960
370
     0
100
AcDbLine
 10
-2.81836672
 20
50.0101516492
 30
0.0
 11
-2.81836672
 21
52.4701516492
 31
0.0
  0
LINE
  5
1CA
330
1F
100
AcDbEntity
  8
0
  6
SLD-Solid
 62
   142
420
    32960
370
     0
100
AcDbLine
 10
-2.81836672
 20
74.2701516492
 30
0.0
 11
-2.81836672
 21
75.5101516492
 31
0.0
  0
LINE
  5
1CB
330
1F
100
AcDbEntity
  8
0
  6
SLD-Solid
 62
   142
420
    32960
370
     0
100
AcDbLine
 10
-2.81836672
 20
-43.0466568492
 30
0.0
 11
-1.61836672
 21
-43.0466568492
 31
0.0
  0
LINE
  5
1CC
330
1F
100
AcDbEntity
  8
0
  6
SLD-Solid
 62
     7
370
    15
100
AcDbLine
 10
897.18163328
 20
52.4701516492
 30
0.0
 11
897.18163328
 21
74.2701516492
 31
0.0
  0
LINE
  5
1CD
330
1F
100
AcDbEntity
  8
0
  6
SLD-Solid
 62
   142
420
    32960
370
     0
100
AcDbLine
 10
897.18163328
 20
74.2701516492
 30
0.0
 11
897.18163328
 21
75.5101516492
 31
0.0
  0
LINE
  5
1CE
330
1F
100
AcDbEntity
  8
0
  6
SLD-Solid
 62
   142
420
    32960
370
     0
100
AcDbLine
 10
897.18163328
 20
50.0101516492
 30
0.0
 11
897.18163328
 21
52.4701516492
 31
0.0
  0
LINE
  5
1CF
330
1F
100
AcDbEntity
  8
0
  6
SLD-Solid
 62
   142
420
    32960
370
     0
100
AcDbLine
 10
897.18163328
 20
48.7701516492
 30
0.0
 11
897.18163328
 21
50.0101516492
 31
0.0
  0
LINE
  5
1D0
330
1F
100
AcDbEntity
  8
0
  6
SLD-Solid
 62
   142
420
    32960
370
     0
100
AcDbLine
 10
897.18163328
 20
-43.0466568492
 30
0.0
 11
897.18163328
 21
-42.5466568492
 31
0.0
  0
LINE
  5
1D1
330
1F
100
AcDbEntity
  8
0
  6
SLD-Solid
 62
   142
420
    32960
370
     0
100
AcDbLine
 10
-0.36836672
 20
51.2201516492
 30
0.0
 11
-1.61836672
 21
51.2201516492
 31
0.0
  0
LINE
  5
1D2
330
1F
100
AcDbEntity
  8
0
  6
SLD-Solid
 62
   142
420
    32960
370
     0
100
AcDbLine
 10
895.98163328
 20
51.2201516492
 30
0.0
 11
894.73163328
 21
51.2201516492
 31
0.0
  0
LINE
  5
1D3
330
1F
100
AcDbEntity
  8
0
  6
SLD-Solid
 62
   142
420
    32960
370
     0
100
AcDbLine
 10
-1.61836672
 20
51.2201516492
 30
0.0
 11
-1.61836672
 21
52.4701516492
 31
0.0
  0
LINE
  5
1D4
330
1F
100
AcDbEntity
  8
0
  6
SLD-Solid
 62
   142
420
    32960
370
     0
100
AcDbLine
 10
895.98163328
 20
51.2201516492
 30
0.0
 11
895.98163328
 21
52.4701516492
 31
0.0
  0
LINE
  5
1D5
330
1F
100
AcDbEntity
  8
0
  6
SLD-Solid
 62
     7
370
    15
100
AcDbLine
 10
895.98163328
 20
52.4701516492
 30
0.0
 11
895.98163328
 21
74.2701516492
 31
0.0
  0
LINE
  5
1D6
330
1F
100
AcDbEntity
  8
0
  6
SLD-Solid
 62
     7
370
    15
100
AcDbLine
 10
-1.61836672
 20
52.4701516492
 30
0.0
 11
-1.61836672
 21
74.2701516492
 31
0.0
  0
LWPOLYLINE
  5
1D7
330
1F
100
AcDbEntity
  8
0
  6
SLD-Solid
 62
   142
420
    32960
370
     0
100
AcDbPolyline
 90
        3
 70
   128
 43
0.0
 10
812.18163328
 20
58.7201516492
 10
813.6806364398
 20
58.8953599905
 10
814.38163328
 20
59.1037801759
  0
LWPOLYLINE
  5
1D8
330
1F
100
AcDbEntity
  8
0
  6
SLD-Solid
 62
   142
420
    32960
370
     0
100
AcDbPolyline
 90
        3
 70
   128
 43
0.0
 10
814.38163328
 20
71.3365231226
 10
812.9362372218
 20
71.6762009746
 10
812.13163328
 20
71.7199593387
  0
LINE
  5
1D9
330
1F
100
AcDbEntity
  8
0
  6
SLD-Solid
 62
   142
420
    32960
370
     0
100
AcDbLine
 10
82.18163328
 20
58.7201516492
 30
0.0
 11
82.33163328
 21
58.721882649
 31
0.0
  0
ARC
  5
1DA
330
1F
100
AcDbEntity
  8
0
  6
SLD-Solid
 62
   142
420
    32960
370
     0
100
AcDbCircle
 10
82.18163328
 20
65.2201516492
 30
0.0
 40
6.499999999999915
100
AcDbArc
 50
88.6776723195
 51
143.1301023549
  0
ARC
  5
1DB
330
1F
100
AcDbEntity
  8
0
  6
SLD-Solid
 62
   142
420
    32960
370
     0
100
AcDbCircle
 10
82.18163328
 20
65.2201516492
 30
0.0
 40
6.499999999999914
100
AcDbArc
 50
216.8698976451
 51
270.0
  0
ARC
  5
1DC
330
1F
100
AcDbEntity
  8
0
  6
SLD-Solid
 62
   142
420
    32960
370
     0
100
AcDbCircle
 10
858.18163328
 20
67.2201516492
 30
0.0
 40
4.800000000000087
100
AcDbArc
 50
155.0283915412
 51
204.971608459
  0
ARC
  5
1DD
330
1F
100
AcDbEntity
  8
0
  6
SLD-Solid
 62
   142
420
    32960
370
     0
100
AcDbCircle
 10
36.18163328
 20
67.2201516492
 30
0.0
 40
4.799999999999945
100
AcDbArc
 50
137.401186507
 51
222.5988134499
  0
LINE
  5
1DE
330
1F
100
AcDbEntity
  8
0
  6
SLD-Solid
 62
   142
420
    32960
370
     0
100
AcDbLine
 10
895.98163328
 20
74.2701516492
 30
0.0
 11
892.38163328
 21
74.2701516492
 31
0.0
  0
LINE
  5
1DF
330
1F
100
AcDbEntity
  8
0
  6
SLD-Solid
 62
   142
420
    32960
370
     0
100
AcDbLine
 10
814.38163328
 20
74.2701516492
 30
0.0
 11
812.13163328
 21
74.2701516492
 31
0.0
  0
LINE
  5
1E0
330
1F
100
AcDbEntity
  8
0
  6
SLD-Solid
 62
   142
420
    32960
370
     0
100
AcDbLine
 10
572.23163328
 20
74.2701516492
 30
0.0
 11
567.13163328
 21
74.2701516492
 31
0.0
  0
LINE
  5
1E1
330
1F
100
AcDbEntity
  8
0
  6
SLD-Solid
 62
   142
420
    32960
370
     0
100
AcDbLine
 10
327.23163328
 20
74.2701516492
 30
0.0
 11
322.23163328
 21
74.2701516492
 31
0.0
  0
LINE
  5
1E2
330
1F
100
AcDbEntity
  8
0
  6
SLD-Solid
 62
   142
420
    32960
370
     0
100
AcDbLine
 10
82.33163328
 20
74.2701516492
 30
0.0
 11
76.9816332799
 21
74.2701516492
 31
0.0
  0
LINE
  5
1E3
330
1F
100
AcDbEntity
  8
0
  6
SLD-Solid
 62
   142
420
    32960
370
     0
100
AcDbLine
 10
-1.0183667201
 20
74.2701516492
 30
0.0
 11
-1.61836672
 21
74.2701516492
 31
0.0
  0
LINE
  5
1E4
330
1F
100
AcDbEntity
  8
0
  6
SLD-Solid
 62
   142
420
    32960
370
     0
100
AcDbLine
 10
897.18163328
 20
52.4701516492
 30
0.0
 11
895.98163328
 21
52.4701516492
 31
0.0
  0
LINE
  5
1E5
330
1F
100
AcDbEntity
  8
0
  6
SLD-Solid
 62
   142
420
    32960
370
     0
100
AcDbLine
 10
897.18163328
 20
74.2701516492
 30
0.0
 11
895.98163328
 21
74.2701516492
 31
0.0
  0
LINE
  5
1E6
330
1F
100
AcDbEntity
  8
0
  6
SLD-Solid
 62
   142
420
    32960
370
     0
100
AcDbLine
 10
-2.81836672
 20
74.2701516492
 30
0.0
 11
-1.61836672
 21
74.2701516492
 31
0.0
  0
LINE
  5
1E7
330
1F
100
AcDbEntity
  8
0
  6
SLD-Solid
 62
   142
420
    32960
370
     0
100
AcDbLine
 10
-2.81836672
 20
52.4701516492
 30
0.0
 11
-1.61836672
 21
52.4701516492
 31
0.0
  0
LINE
  5
1E8
330
1F
100
AcDbEntity
  8
0
  6
SLD-Solid
 62
   142
420
    32960
370
     0
100
AcDbLine
 10
-1.0183667201
 20
75.5101516492
 30
0.0
 11
-2.81836672
 21
75.5101516492
 31
0.0
  0
LINE
  5
1E9
330
1F
100
AcDbEntity
  8
0
  6
SLD-Solid
 62
   142
420
    32960
370
     0
100
AcDbLine
 10
894.73163328
 20
75.5101516492
 30
0.0
 11
894.73163328
 21
74.2701516492
 31
0.0
  0
LINE
  5
1EA
330
1F
100
AcDbEntity
  8
0
  6
SLD-Solid
 62
   142
420
    32960
370
     0
100
AcDbLine
 10
897.18163328
 20
75.5101516492
 30
0.0
 11
894.73163328
 21
75.5101516492
 31
0.0
  0
LINE
  5
1EB
330
1F
100
AcDbEntity
  8
0
  6
SLD-Solid
 62
   142
420
    32960
370
     0
100
AcDbLine
 10
895.98163328
 20
-42.5466568492
 30
0.0
 11
895.98163328
 21
-43.0466568492
 31
0.0
  0
LINE
  5
1EC
330
1F
100
AcDbEntity
  8
0
  6
SLD-Solid
 62
   142
420
    32960
370
     0
100
AcDbLine
 10
-1.61836672
 20
-42.5466568492
 30
0.0
 11
-1.61836672
 21
-43.0466568492
 31
0.0
  0
LINE
  5
1ED
330
1F
100
AcDbEntity
  8
0
  6
SLD-Solid
 62
   142
420
    32960
370
     0
100
AcDbLine
 10
445.6816332797
 20
-65.8466568492
 30
0.0
 11
445.6816332797
 21
-75.9552776078
 31
0.0
  0
LINE
  5
1EE
330
1F
100
AcDbEntity
  8
0
  6
SLD-Solid
 62
   142
420
    32960
370
     0
100
AcDbLine
 10
436.7615320231
 20
-65.8466568492
 30
0.0
 11
436.5468300193
 21
-65.8913156535
 31
0.0
  0
LINE
  5
1EF
330
1F
100
AcDbEntity
  8
0
  6
SLD-Solid
 62
   142
420
    32960
370
     0
100
AcDbLine
 10
457.8164365401
 20
-65.8913156535
 30
0.0
 11
457.6017345363
 21
-65.8466568492
 31
0.0
  0
LINE
  5
1F0
330
1F
100
AcDbEntity
  8
0
  6
SLD-Solid
 62
   142
420
    32960
370
     0
100
AcDbLine
 10
448.6816332797
 20
-75.9552776078
 30
0.0
 11
448.6816332797
 21
-65.8466568492
 31
0.0
  0
LWPOLYLINE
  5
1F1
330
1F
100
AcDbEntity
  8
0
  6
SLD-Solid
 62
   142
420
    32960
370
     0
100
AcDbPolyline
 90
        9
 70
   128
 43
0.0
 10
445.6816332797
 20
-75.9552776078
 10
445.7958139809
 20
-76.1326611339
 10
446.1209731079
 20
-76.2830396262
 10
446.6076081312
 20
-76.3835193223
 10
447.1816332797
 20
-76.4188030994
 10
447.7556584283
 20
-76.3835193223
 10
448.2422934515
 20
-76.2830396262
 10
448.5674525785
 20
-76.1326611339
 10
448.6816332797
 20
-75.9552776078
  0
LINE
  5
1F2
330
1F
100
AcDbEntity
  8
0
  6
SLD-Solid
 62
     7
370
    15
100
AcDbLine
 10
456.8557973159
 20
-69.4544947773
 30
0.0
 11
456.8484477916
 21
-69.659690244
 31
0.0
  0
ARC
  5
1F3
330
1F
100
AcDbEntity
  8
0
  6
SLD-Solid
 62
   142
420
    32960
370
     0
100
AcDbCircle
 10
457.8954494777
 20
-64.9527809645
 30
0.0
 40
0.9418547694777532
100
AcDbArc
 50
265.1877561957
 51
288.3667285956
  0
ARC
  5
1F4
330
1F
100
AcDbEntity
  8
0
  6
SLD-Solid
 62
   142
420
    32960
370
     0
100
AcDbCircle
 10
457.729577122
 20
-74.4602143527
 30
0.0
 40
1.056025610322163
100
AcDbArc
 50
274.7179789945
 51
357.771185392
  0
ARC
  5
1F5
330
1F
100
AcDbEntity
  8
0
  6
SLD-Solid
 62
   142
420
    32960
370
     0
100
AcDbCircle
 10
436.4678170818
 20
-64.9527809645
 30
0.0
 40
0.9418547694859525
100
AcDbArc
 50
251.6332714045
 51
274.8122438042
  0
ARC
  5
1F6
330
1F
100
AcDbEntity
  8
0
  6
SLD-Solid
 62
   142
420
    32960
370
     0
100
AcDbCircle
 10
436.6336894374
 20
-74.4602143527
 30
0.0
 40
1.056025610322161
100
AcDbArc
 50
182.228814608
 51
265.2820210055
  0
ARC
  5
1F7
330
1F
100
AcDbEntity
  8
0
  6
SLD-Solid
 62
   142
420
    32960
370
     0
100
AcDbCircle
 10
457.9562437925
 20
-75.2155511809
 30
0.0
 40
0.3283607164250603
100
AcDbArc
 50
244.8003742792
 51
329.0454118266
  0
ARC
  5
1F8
330
1F
100
AcDbEntity
  8
0
  6
SLD-Solid
 62
   142
420
    32960
370
     0
100
AcDbCircle
 10
436.4070227669
 20
-75.2155511801
 30
0.0
 40
0.3283607171904055
100
AcDbArc
 50
210.9545874112
 51
295.1996256591
  0
ARC
  5
1F9
330
1F
100
AcDbEntity
  8
0
  6
SLD-Solid
 62
   142
420
    32960
370
     0
100
AcDbCircle
 10
436.0443098395
 20
-74.6461835025
 30
0.0
 40
0.4878622020717132
100
AcDbArc
 50
162.721895189
 51
232.1753281943
  0
ARC
  5
1FA
330
1F
100
AcDbEntity
  8
0
  6
SLD-Solid
 62
   142
420
    32960
370
     0
100
AcDbCircle
 10
458.3189567199
 20
-74.6461835025
 30
0.0
 40
0.4878622020720612
100
AcDbArc
 50
307.824671806
 51
17.278104811
  0
ARC
  5
1FB
330
1F
100
AcDbEntity
  8
0
  6
SLD-Solid
 62
   142
420
    32960
370
     0
100
AcDbCircle
 10
495.7393566735
 20
-67.2328437124
 30
0.0
 40
1.943246067350771
100
AcDbArc
 50
268.2978000298
 51
358.190090174
  0
LINE
  5
1FC
330
1F
100
AcDbEntity
  8
0
  6
SLD-Solid
 62
   142
420
    32960
370
     0
100
AcDbLine
 10
493.68163328
 20
-69.1752322647
 30
0.0
 11
495.68163328
 21
-69.1752322647
 31
0.0
  0
ARC
  5
1FD
330
1F
100
AcDbEntity
  8
0
  6
SLD-Solid
 62
   142
420
    32960
370
     0
100
AcDbCircle
 10
493.6239098864
 20
-67.2328437124
 30
0.0
 40
1.943246067350947
100
AcDbArc
 50
181.809909826
 51
271.7021999702
  0
CIRCLE
  5
1FE
330
1F
100
AcDbEntity
  8
0
  6
SLD-Solid
 62
     7
370
    15
100
AcDbCircle
 10
202.28163328
 20
203.7201516492
 30
0.0
 40
91.49999999999986
  0
CIRCLE
  5
1FF
330
1F
100
AcDbEntity
  8
0
  6
SLD-Solid
 62
     7
370
    15
100
AcDbCircle
 10
202.28163328
 20
203.7201516492
 30
0.0
 40
27.49999999999998
  0
CIRCLE
  5
200
330
1F
100
AcDbEntity
  8
0
  6
SLD-Solid
 62
     7
370
    15
100
AcDbCircle
 10
202.28163328
 20
203.7201516492
 30
0.0
 40
93.49999999999997
  0
CIRCLE
  5
201
330
1F
100
AcDbEntity
  8
0
  6
SLD-Solid
 62
     7
370
    15
100
AcDbCircle
 10
202.2842196721
 20
203.7164133141
 30
0.0
 40
13.99999999999998
  0
ARC
  5
202
330
1F
100
AcDbEntity
  8
0
  6
SLD-Solid
 62
   142
420
    32960
370
     0
100
AcDbCircle
 10
791.1239098864
 20
-67.2328437124
 30
0.0
 40
1.943246067350916
100
AcDbArc
 50
181.809909826
 51
271.7021999702
  0
LINE
  5
203
330
1F
100
AcDbEntity
  8
0
  6
SLD-Solid
 62
   142
420
    32960
370
     0
100
AcDbLine
 10
791.18163328
 20
-69.1752322647
 30
0.0
 11
793.18163328
 21
-69.1752322647
 31
0.0
  0
ARC
  5
204
330
1F
100
AcDbEntity
  8
0
  6
SLD-Solid
 62
   142
420
    32960
370
     0
100
AcDbCircle
 10
793.2393566735
 20
-67.2328437124
 30
0.0
 40
1.943246067350681
100
AcDbArc
 50
268.2978000298
 51
358.190090174
  0
CIRCLE
  5
205
330
1F
100
AcDbEntity
  8
0
  6
SLD-Solid
 62
   142
420
    32960
370
     0
100
AcDbCircle
 10
202.28163328
 20
203.7201516492
 30
0.0
 40
98.09941204801846
  0
ARC
  5
206
330
1F
100
AcDbEntity
  8
0
  6
SLD-Solid
 62
   142
420
    32960
370
     0
100
AcDbCircle
 10
400.6805745003
 20
-67.2457385839
 30
0.0
 40
0.4995683053119262
100
AcDbArc
 50
182.8711035151
 51
298.8471995542
  0
LINE
  5
207
330
1F
100
AcDbEntity
  8
0
  6
SLD-Solid
 62
   142
420
    32960
370
     0
100
AcDbLine
 10
400.18163328
 20
-67.270761581
 30
0.0
 11
400.18163328
 21
-65.8466568492
 31
0.0
  0
LINE
  5
208
330
1F
100
AcDbEntity
  8
0
  6
SLD-Solid
 62
   142
420
    32960
370
     0
100
AcDbLine
 10
404.4912629167
 20
-65.8466568492
 30
0.0
 11
400.9216039188
 21
-67.6833152185
 31
0.0
  0
LINE
  5
209
330
1F
100
AcDbEntity
  8
0
  6
SLD-Solid
 62
   142
420
    32960
370
     0
100
AcDbLine
 10
483.68163328
 20
-65.8466568492
 30
0.0
 11
483.68163328
 21
-70.1497166174
 31
0.0
  0
ARC
  5
20A
330
1F
100
AcDbEntity
  8
0
  6
SLD-Solid
 62
   142
420
    32960
370
     0
100
AcDbCircle
 10
484.6527715832
 20
-70.1190292327
 30
0.0
 40
0.9716230336755045
100
AcDbArc
 50
181.809909826
 51
271.7021999702
  0
LINE
  5
20B
330
1F
100
AcDbEntity
  8
0
  6
SLD-Solid
 62
   142
420
    32960
370
     0
100
AcDbLine
 10
504.68163328
 20
-71.0902235089
 30
0.0
 11
484.68163328
 21
-71.0902235089
 31
0.0
  0
ARC
  5
20C
330
1F
100
AcDbEntity
  8
0
  6
SLD-Solid
 62
   142
420
    32960
370
     0
100
AcDbCircle
 10
504.7104949768
 20
-70.1190292327
 30
0.0
 40
0.9716230336752691
100
AcDbArc
 50
268.2978000298
 51
358.190090174
  0
LINE
  5
20D
330
1F
100
AcDbEntity
  8
0
  6
SLD-Solid
 62
   142
420
    32960
370
     0
100
AcDbLine
 10
505.68163328
 20
-70.1497166174
 30
0.0
 11
505.68163328
 21
-65.8466568492
 31
0.0
  0
LINE
  5
20E
330
1F
100
AcDbEntity
  8
0
  6
SLD-Solid
 62
   142
420
    32960
370
     0
100
AcDbLine
 10
497.68163328
 20
-65.8466568492
 30
0.0
 11
497.68163328
 21
-67.328195943
 31
0.0
  0
ARC
  5
20F
330
1F
100
AcDbEntity
  8
0
  6
SLD-Solid
 62
   142
420
    32960
370
     0
100
AcDbCircle
 10
495.7393566735
 20
-67.2668211736
 30
0.0
 40
1.943246067350714
100
AcDbArc
 50
268.2978000298
 51
358.190090174
  0
LINE
  5
210
330
1F
100
AcDbEntity
  8
0
  6
SLD-Solid
 62
   142
420
    32960
370
     0
100
AcDbLine
 10
493.68163328
 20
-69.2092097259
 30
0.0
 11
495.68163328
 21
-69.2092097259
 31
0.0
  0
ARC
  5
211
330
1F
100
AcDbEntity
  8
0
  6
SLD-Solid
 62
   142
420
    32960
370
     0
100
AcDbCircle
 10
493.6239098864
 20
-67.2668211736
 30
0.0
 40
1.943246067350905
100
AcDbArc
 50
181.809909826
 51
271.7021999702
  0
LINE
  5
212
330
1F
100
AcDbEntity
  8
0
  6
SLD-Solid
 62
   142
420
    32960
370
     0
100
AcDbLine
 10
491.68163328
 20
-65.8466568492
 30
0.0
 11
491.68163328
 21
-67.328195943
 31
0.0
  0
LINE
  5
213
330
1F
100
AcDbEntity
  8
0
  6
SLD-Solid
 62
     7
370
    15
100
AcDbLine
 10
632.18163328
 20
691.2201516492
 30
0.0
 11
608.6309440078
 21
691.2201516492
 31
0.0
  0
LINE
  5
214
330
1F
100
AcDbEntity
  8
0
  6
SLD-Solid
 62
     7
370
    15
100
AcDbLine
 10
595.6475767895
 20
691.2201516492
 30
0.0
 11
547.18163328
 21
691.2201516492
 31
0.0
  0
LINE
  5
215
330
1F
100
AcDbEntity
  8
0
  6
SLD-Solid
 62
     7
370
    15
100
AcDbLine
 10
547.18163328
 20
691.2201516492
 30
0.0
 11
547.18163328
 21
665.0496755217
 31
0.0
  0
LINE
  5
216
330
1F
100
AcDbEntity
  8
0
  6
SLD-Solid
 62
     7
370
    15
100
AcDbLine
 10
494.6937825613
 20
692.2201516492
 30
0.0
 11
409.5847382359
 21
692.2201516492
 31
0.0
  0
LINE
  5
217
330
1F
100
AcDbEntity
  8
0
  6
SLD-Solid
 62
     7
370
    15
100
AcDbLine
 10
347.18163328
 20
691.2201516492
 30
0.0
 11
308.6309440078
 21
691.2201516492
 31
0.0
  0
LINE
  5
218
330
1F
100
AcDbEntity
  8
0
  6
SLD-Solid
 62
     7
370
    15
100
AcDbLine
 10
295.6475767895
 20
691.2201516492
 30
0.0
 11
262.18163328
 21
691.2201516492
 31
0.0
  0
LINE
  5
219
330
1F
100
AcDbEntity
  8
0
  6
SLD-Solid
 62
     7
370
    15
100
AcDbLine
 10
347.18163328
 20
665.0496755217
 30
0.0
 11
347.18163328
 21
691.2201516492
 31
0.0
  0
LINE
  5
21A
330
1F
100
AcDbEntity
  8
0
  6
SLD-Solid
 62
   142
420
    32960
370
     0
100
AcDbLine
 10
262.18163328
 20
691.2201516492
 30
0.0
 11
262.18163328
 21
665.0496755217
 31
0.0
  0
LINE
  5
21B
330
1F
100
AcDbEntity
  8
0
  6
SLD-Solid
 62
   142
420
    32960
370
     0
100
AcDbLine
 10
632.18163328
 20
665.0496755217
 30
0.0
 11
632.18163328
 21
691.2201516492
 31
0.0
  0
ARC
  5
21C
330
1F
100
AcDbEntity
  8
0
  6
SLD-Solid
 62
   142
420
    32960
370
     0
100
AcDbCircle
 10
864.18163328
 20
675.2201516492
 30
0.0
 40
12.70000000000013
100
AcDbArc
 50
90.0
 51
233.2089460867
  0
ARC
  5
21D
330
1F
100
AcDbEntity
  8
0
  6
SLD-Solid
 62
   142
420
    32960
370
     0
100
AcDbCircle
 10
864.18163328
 20
675.2201516492
 30
0.0
 40
12.7
100
AcDbArc
 50
306.7910539133
 51
90.0
  0
LINE
  5
21E
330
1F
100
AcDbEntity
  8
0
  6
SLD-Solid
 62
   142
420
    32960
370
     0
100
AcDbLine
 10
492.68163328
 20
-65.8466568492
 30
0.0
 11
492.68163328
 21
-67.328195943
 31
0.0
  0
ARC
  5
21F
330
1F
100
AcDbEntity
  8
0
  6
SLD-Solid
 62
   142
420
    32960
370
     0
100
AcDbCircle
 10
493.6527715832
 20
-67.2975085583
 30
0.0
 40
0.9716230336755345
100
AcDbArc
 50
181.809909826
 51
271.7021999702
  0
LINE
  5
220
330
1F
100
AcDbEntity
  8
0
  6
SLD-Solid
 62
   142
420
    32960
370
     0
100
AcDbLine
 10
493.68163328
 20
-68.2687028345
 30
0.0
 11
495.68163328
 21
-68.2687028345
 31
0.0
  0
ARC
  5
221
330
1F
100
AcDbEntity
  8
0
  6
SLD-Solid
 62
   142
420
    32960
370
     0
100
AcDbCircle
 10
495.7104949768
 20
-67.2975085583
 30
0.0
 40
0.9716230336753855
100
AcDbArc
 50
268.2978000298
 51
358.190090174
  0
LINE
  5
222
330
1F
100
AcDbEntity
  8
0
  6
SLD-Solid
 62
   142
420
    32960
370
     0
100
AcDbLine
 10
496.68163328
 20
-65.8466568492
 30
0.0
 11
496.68163328
 21
-67.328195943
 31
0.0
  0
LINE
  5
223
330
1F
100
AcDbEntity
  8
0
  6
SLD-Solid
 62
     7
370
    15
100
AcDbLine
 10
740.1816332797
 20
-75.9552776078
 30
0.0
 11
740.1816332797
 21
-65.8466568492
 31
0.0
  0
LINE
  5
224
330
1F
100
AcDbEntity
  8
0
  6
SLD-Solid
 62
   142
420
    32960
370
     0
100
AcDbLine
 10
728.0468300193
 20
-65.8913156535
 30
0.0
 11
727.9684829215
 21
-65.8466568492
 31
0.0
  0
LINE
  5
225
330
1F
100
AcDbEntity
  8
0
  6
SLD-Solid
 62
   142
420
    32960
370
     0
100
AcDbLine
 10
737.1816332797
 20
-65.8466568492
 30
0.0
 11
737.1816332797
 21
-75.9552776078
 31
0.0
  0
LINE
  5
226
330
1F
100
AcDbEntity
  8
0
  6
SLD-Solid
 62
   142
420
    32960
370
     0
100
AcDbLine
 10
749.3164365401
 20
-65.8913156535
 30
0.0
 11
749.1017345365
 21
-65.8466568492
 31
0.0
  0
LWPOLYLINE
  5
227
330
1F
100
AcDbEntity
  8
0
  6
SLD-Solid
 62
   142
420
    32960
370
     0
100
AcDbPolyline
 90
        9
 70
   128
 43
0.0
 10
737.1816332797
 20
-75.9552776078
 10
737.2958139809
 20
-76.1326611339
 10
737.6209731079
 20
-76.2830396261
 10
738.1076081312
 20
-76.3835193222
 10
738.6816332797
 20
-76.4188030994
 10
739.2556584283
 20
-76.3835193222
 10
739.7422934515
 20
-76.2830396261
 10
740.0674525785
 20
-76.1326611339
 10
740.1816332797
 20
-75.9552776078
  0
ARC
  5
228
330
1F
100
AcDbEntity
  8
0
  6
SLD-Solid
 62
   142
420
    32960
370
     0
100
AcDbCircle
 10
738.157760404
 20
-75.5048507766
 30
0.0
 40
0.9764498166443979
100
AcDbArc
 50
88.5990561917
 51
178.5269450074
  0
ARC
  5
229
330
1F
100
AcDbEntity
  8
0
  6
SLD-Solid
 62
   142
420
    32960
370
     0
100
AcDbCircle
 10
739.2055061554
 20
-75.5048507766
 30
0.0
 40
0.9764498166444324
100
AcDbArc
 50
1.4730549926
 51
91.4009438083
  0
LWPOLYLINE
  5
22A
330
1F
100
AcDbEntity
  8
0
  6
SLD-Solid
 62
   142
420
    32960
370
     0
100
AcDbPolyline
 90
        9
 70
   128
 43
0.0
 10
738.1816332797
 20
-74.5286928334
 10
738.2196935135
 20
-74.5878206754
 10
738.3280798891
 20
-74.6379468395
 10
738.4902915635
 20
-74.6714400715
 10
738.6816332797
 20
-74.6832013305
 10
738.8729749959
 20
-74.6714400715
 10
739.0351866703
 20
-74.6379468395
 10
739.143573046
 20
-74.5878206754
 10
739.1816332797
 20
-74.5286928334
  0
LINE
  5
22B
330
1F
100
AcDbEntity
  8
0
  6
SLD-Solid
 62
     7
370
    15
100
AcDbLine
 10
748.3557973159
 20
-69.4544947773
 30
0.0
 11
748.3484477916
 21
-69.659690244
 31
0.0
  0
LINE
  5
22C
330
1F
100
AcDbEntity
  8
0
  6
SLD-Solid
 62
   142
420
    32960
370
     0
100
AcDbLine
 10
749.394783638
 20
-65.8466568492
 30
0.0
 11
749.3164365401
 21
-65.8913156535
 31
0.0
  0
ARC
  5
22D
330
1F
100
AcDbEntity
  8
0
  6
SLD-Solid
 62
   142
420
    32960
370
     0
100
AcDbCircle
 10
749.229577122
 20
-74.4602143527
 30
0.0
 40
1.05602561032194
100
AcDbArc
 50
274.7179789945
 51
357.771185392
  0
ARC
  5
22E
330
1F
100
AcDbEntity
  8
0
  6
SLD-Solid
 62
   142
420
    32960
370
     0
100
AcDbCircle
 10
727.9678170818
 20
-64.9527809644
 30
0.0
 40
0.9418547694918055
100
AcDbArc
 50
251.6332714123
 51
274.8122438042
  0
ARC
  5
22F
330
1F
100
AcDbEntity
  8
0
  6
SLD-Solid
 62
   142
420
    32960
370
     0
100
AcDbCircle
 10
728.1336894374
 20
-74.4602143527
 30
0.0
 40
1.056025610322567
100
AcDbArc
 50
182.228814608
 51
265.2820210055
  0
ARC
  5
230
330
1F
100
AcDbEntity
  8
0
  6
SLD-Solid
 62
   142
420
    32960
370
     0
100
AcDbCircle
 10
749.4562437977
 20
-75.2155503902
 30
0.0
 40
0.3283614340263705
100
AcDbArc
 50
244.8004322012
 51
329.0461264185
  0
ARC
  5
231
330
1F
100
AcDbEntity
  8
0
  6
SLD-Solid
 62
   142
420
    32960
370
     0
100
AcDbCircle
 10
727.9070227616
 20
-75.2155503619
 30
0.0
 40
0.3283614597776582
100
AcDbArc
 50
210.9538479388
 51
295.1995657203
  0
ARC
  5
232
330
1F
100
AcDbEntity
  8
0
  6
SLD-Solid
 62
   142
420
    32960
370
     0
100
AcDbCircle
 10
727.5443098395
 20
-74.6461835024
 30
0.0
 40
0.4878622020593882
100
AcDbArc
 50
162.7218951884
 51
232.1753281844
  0
ARC
  5
233
330
1F
100
AcDbEntity
  8
0
  6
SLD-Solid
 62
   142
420
    32960
370
     0
100
AcDbCircle
 10
749.8189567199
 20
-74.6461835024
 30
0.0
 40
0.487862202088163
100
AcDbArc
 50
307.8246717933
 51
17.2781048103
  0
LINE
  5
234
330
1F
100
AcDbEntity
  8
0
  6
SLD-Solid
 62
   142
420
    32960
370
     0
100
AcDbLine
 10
794.18163328
 20
-65.8466568492
 30
0.0
 11
794.18163328
 21
-67.328195943
 31
0.0
  0
ARC
  5
235
330
1F
100
AcDbEntity
  8
0
  6
SLD-Solid
 62
   142
420
    32960
370
     0
100
AcDbCircle
 10
793.2104949768
 20
-67.2975085583
 30
0.0
 40
0.971623033675593
100
AcDbArc
 50
268.2978000298
 51
358.190090174
  0
LINE
  5
236
330
1F
100
AcDbEntity
  8
0
  6
SLD-Solid
 62
   142
420
    32960
370
     0
100
AcDbLine
 10
791.18163328
 20
-68.2687028345
 30
0.0
 11
793.18163328
 21
-68.2687028345
 31
0.0
  0
ARC
  5
237
330
1F
100
AcDbEntity
  8
0
  6
SLD-Solid
 62
   142
420
    32960
370
     0
100
AcDbCircle
 10
791.1527715832
 20
-67.2975085583
 30
0.0
 40
0.9716230336754409
100
AcDbArc
 50
181.809909826
 51
271.7021999702
  0
LINE
  5
238
330
1F
100
AcDbEntity
  8
0
  6
SLD-Solid
 62
   142
420
    32960
370
     0
100
AcDbLine
 10
790.18163328
 20
-65.8466568492
 30
0.0
 11
790.18163328
 21
-67.328195943
 31
0.0
  0
ARC
  5
239
330
1F
100
AcDbEntity
  8
0
  6
SLD-Solid
 62
   142
420
    32960
370
     0
100
AcDbCircle
 10
196.3281326319
 20
-67.8198410327
 30
0.0
 40
2.334476879370047
100
AcDbArc
 50
266.4020574685
 51
57.6972431818
  0
ARC
  5
23A
330
1F
100
AcDbEntity
  8
0
  6
SLD-Solid
 62
   142
420
    32960
370
     0
100
AcDbCircle
 10
196.0556133537
 20
-67.8132064791
 30
0.0
 40
2.339906119610942
100
AcDbArc
 50
122.8134365798
 51
273.0872627699
  0
LINE
  5
23B
330
1F
100
AcDbEntity
  8
0
  6
SLD-Solid
 62
   142
420
    32960
370
     0
100
AcDbLine
 10
192.1816332807
 20
-65.8466568492
 30
0.0
 11
192.1816332807
 21
-70.1497166174
 31
0.0
  0
ARC
  5
23C
330
1F
100
AcDbEntity
  8
0
  6
SLD-Solid
 62
   142
420
    32960
370
     0
100
AcDbCircle
 10
193.1527715839
 20
-70.1190292327
 30
0.0
 40
0.9716230336754235
100
AcDbArc
 50
181.809909826
 51
271.7021999702
  0
LINE
  5
23D
330
1F
100
AcDbEntity
  8
0
  6
SLD-Solid
 62
   142
420
    32960
370
     0
100
AcDbLine
 10
213.1816332807
 20
-71.0902235089
 30
0.0
 11
193.1816332807
 21
-71.0902235089
 31
0.0
  0
ARC
  5
23E
330
1F
100
AcDbEntity
  8
0
  6
SLD-Solid
 62
   142
420
    32960
370
     0
100
AcDbCircle
 10
213.2104949774
 20
-70.1190292327
 30
0.0
 40
0.9716230336753873
100
AcDbArc
 50
268.2978000298
 51
358.190090174
  0
LINE
  5
23F
330
1F
100
AcDbEntity
  8
0
  6
SLD-Solid
 62
   142
420
    32960
370
     0
100
AcDbLine
 10
214.1816332807
 20
-70.1497166174
 30
0.0
 11
214.1816332807
 21
-65.8466568492
 31
0.0
  0
LINE
  5
240
330
1F
100
AcDbEntity
  8
0
  6
SLD-Solid
 62
     7
370
    15
100
AcDbLine
 10
812.13163328
 20
55.2701516492
 30
0.0
 11
812.13163328
 21
617.1701516492
 31
0.0
  0
LINE
  5
241
330
1F
100
AcDbEntity
  8
0
  6
SLD-Solid
 62
     7
370
    15
100
AcDbLine
 10
572.23163328
 20
617.1701516492
 30
0.0
 11
572.23163328
 21
55.2701516492
 31
0.0
  0
LINE
  5
242
330
1F
100
AcDbEntity
  8
0
  6
SLD-Solid
 62
     7
370
    15
100
AcDbLine
 10
572.23163328
 20
55.2701516492
 30
0.0
 11
812.13163328
 21
55.2701516492
 31
0.0
  0
LINE
  5
243
330
1F
100
AcDbEntity
  8
0
  6
SLD-Solid
 62
     7
370
    15
100
AcDbLine
 10
812.13163328
 20
617.1701516492
 30
0.0
 11
572.23163328
 21
617.1701516492
 31
0.0
  0
LINE
  5
244
330
1F
100
AcDbEntity
  8
0
  6
SLD-Solid
 62
   142
420
    32960
370
     0
100
AcDbLine
 10
789.18163328
 20
-65.8466568492
 30
0.0
 11
789.18163328
 21
-67.328195943
 31
0.0
  0
ARC
  5
245
330
1F
100
AcDbEntity
  8
0
  6
SLD-Solid
 62
   142
420
    32960
370
     0
100
AcDbCircle
 10
791.1239098864
 20
-67.2668211736
 30
0.0
 40
1.943246067350888
100
AcDbArc
 50
181.809909826
 51
271.7021999702
  0
LINE
  5
246
330
1F
100
AcDbEntity
  8
0
  6
SLD-Solid
 62
   142
420
    32960
370
     0
100
AcDbLine
 10
791.18163328
 20
-69.2092097259
 30
0.0
 11
793.18163328
 21
-69.2092097259
 31
0.0
  0
ARC
  5
247
330
1F
100
AcDbEntity
  8
0
  6
SLD-Solid
 62
   142
420
    32960
370
     0
100
AcDbCircle
 10
793.2393566735
 20
-67.2668211736
 30
0.0
 40
1.943246067350777
100
AcDbArc
 50
268.2978000298
 51
358.190090174
  0
LINE
  5
248
330
1F
100
AcDbEntity
  8
0
  6
SLD-Solid
 62
   142
420
    32960
370
     0
100
AcDbLine
 10
795.18163328
 20
-65.8466568492
 30
0.0
 11
795.18163328
 21
-67.328195943
 31
0.0
  0
LINE
  5
249
330
1F
100
AcDbEntity
  8
0
  6
SLD-Solid
 62
   142
420
    32960
370
     0
100
AcDbLine
 10
797.18163328
 20
-70.1497166174
 30
0.0
 11
797.18163328
 21
-65.8466568492
 31
0.0
  0
ARC
  5
24A
330
1F
100
AcDbEntity
  8
0
  6
SLD-Solid
 62
   142
420
    32960
370
     0
100
AcDbCircle
 10
796.2104949768
 20
-70.1190292327
 30
0.0
 40
0.9716230336756798
100
AcDbArc
 50
268.2978000298
 51
358.190090174
  0
LINE
  5
24B
330
1F
100
AcDbEntity
  8
0
  6
SLD-Solid
 62
   142
420
    32960
370
     0
100
AcDbLine
 10
796.18163328
 20
-71.0902235089
 30
0.0
 11
776.18163328
 21
-71.0902235089
 31
0.0
  0
ARC
  5
24C
330
1F
100
AcDbEntity
  8
0
  6
SLD-Solid
 62
   142
420
    32960
370
     0
100
AcDbCircle
 10
776.1527715832
 20
-70.1190292327
 30
0.0
 40
0.9716230336752697
100
AcDbArc
 50
181.809909826
 51
271.7021999702
  0
LINE
  5
24D
330
1F
100
AcDbEntity
  8
0
  6
SLD-Solid
 62
   142
420
    32960
370
     0
100
AcDbLine
 10
775.18163328
 20
-65.8466568492
 30
0.0
 11
775.18163328
 21
-70.1497166174
 31
0.0
  0
ARC
  5
24E
330
1F
100
AcDbEntity
  8
0
  6
SLD-Solid
 62
   142
420
    32960
370
     0
100
AcDbCircle
 10
193.1239098871
 20
-70.0543643868
 30
0.0
 40
1.943246067350889
100
AcDbArc
 50
181.809909826
 51
271.7021999702
  0
LINE
  5
24F
330
1F
100
AcDbEntity
  8
0
  6
SLD-Solid
 62
   142
420
    32960
370
     0
100
AcDbLine
 10
213.1816332807
 20
-71.9967529391
 30
0.0
 11
193.1816332807
 21
-71.9967529391
 31
0.0
  0
ARC
  5
250
330
1F
100
AcDbEntity
  8
0
  6
SLD-Solid
 62
   142
420
    32960
370
     0
100
AcDbCircle
 10
213.2393566742
 20
-70.0543643868
 30
0.0
 40
1.943246067350749
100
AcDbArc
 50
268.2978000298
 51
358.190090174
  0
LINE
  5
251
330
1F
100
AcDbEntity
  8
0
  6
SLD-Solid
 62
     7
370
    15
100
AcDbLine
 10
-2.81836672
 20
75.5101516492
 30
0.0
 11
-2.81836672
 21
78.7201516493
 31
0.0
  0
LINE
  5
252
330
1F
100
AcDbEntity
  8
0
  6
SLD-Solid
 62
     7
370
    15
100
AcDbLine
 10
-2.81836672
 20
593.7201516493
 30
0.0
 11
-2.81836672
 21
595.7201516492
 31
0.0
  0
LINE
  5
253
330
1F
100
AcDbEntity
  8
0
  6
SLD-Solid
 62
     7
370
    15
100
AcDbLine
 10
870.1316327805
 20
667.5201527984
 30
0.0
 11
858.4316327805
 21
667.5201527984
 31
0.0
  0
LINE
  5
254
330
1F
100
AcDbEntity
  8
0
  6
SLD-Solid
 62
     7
370
    15
100
AcDbLine
 10
858.2316327805
 20
682.6201527984
 30
0.0
 11
853.8602969812
 21
682.6201527984
 31
0.0
  0
ARC
  5
255
330
1F
100
AcDbEntity
  8
0
  6
SLD-Solid
 62
     7
370
    15
100
AcDbCircle
 10
858.2316327805
 20
677.8201527984
 30
0.0
 40
4.800000000000182
100
AcDbArc
 50
270.0
 51
90.0
  0
LINE
  5
256
330
1F
100
AcDbEntity
  8
0
  6
SLD-Solid
 62
     7
370
    15
100
AcDbLine
 10
875.0316327805
 20
669.6201527984
 30
0.0
 11
875.0316327805
 21
681.8207206276
 31
0.0
  0
LINE
  5
257
330
1F
100
AcDbEntity
  8
0
  6
SLD-Solid
 62
     7
370
    15
100
AcDbLine
 10
865.7722215492
 20
687.8201527984
 30
0.0
 11
862.5910450108
 21
687.8201527984
 31
0.0
  0
LINE
  5
258
330
1F
100
AcDbEntity
  8
0
  6
SLD-Solid
 62
     7
370
    15
100
AcDbLine
 10
858.4316327805
 20
665.7201527984
 30
0.0
 11
870.1316327805
 21
665.7201527984
 31
0.0
  0
LWPOLYLINE
  5
259
330
1F
100
AcDbEntity
  8
0
  6
SLD-Solid
 62
     7
370
    15
100
AcDbPolyline
 90
        3
 70
   128
 43
0.0
 10
851.5884362584
 20
673.5765612342
 10
852.4793165077
 20
673.214586525
 10
853.8316327805
 20
673.0201527984
  0
LINE
  5
25A
330
1F
100
AcDbEntity
  8
0
  6
SLD-Solid
 62
     7
370
    15
100
AcDbLine
 10
853.8316327805
 20
673.0201527984
 30
0.0
 11
858.2316327805
 21
673.0201527984
 31
0.0
  0
LINE
  5
25B
330
1F
100
AcDbEntity
  8
0
  6
SLD-Solid
 62
     7
370
    15
100
AcDbLine
 10
872.9956803048
 20
666.0767072747
 30
0.0
 11
872.5316327805
 21
666.1201527984
 31
0.0
  0
ARC
  5
25C
330
1F
100
AcDbEntity
  8
0
  6
SLD-Solid
 62
   142
420
    32960
370
     0
100
AcDbCircle
 10
858.4316327805
 20
666.6201527984
 30
0.0
 40
0.900000000000091
100
AcDbArc
 50
90.0
 51
270.0
  0
ARC
  5
25D
330
1F
100
AcDbEntity
  8
0
  6
SLD-Solid
 62
   142
420
    32960
370
     0
100
AcDbCircle
 10
870.1316327805
 20
666.6201527984
 30
0.0
 40
0.900000000000091
100
AcDbArc
 50
270.0
 51
90.0
  0
LINE
  5
25E
330
1F
100
AcDbEntity
  8
0
  6
SLD-Solid
 62
   142
420
    32960
370
     0
100
AcDbLine
 10
872.5316327805
 20
666.1201527984
 30
0.0
 11
872.5316327805
 21
667.1201527984
 31
0.0
  0
ARC
  5
25F
330
1F
100
AcDbEntity
  8
0
  6
SLD-Solid
 62
   142
420
    32960
370
     0
100
AcDbCircle
 10
872.5316327805
 20
669.6201527984
 30
0.0
 40
2.500000000000114
100
AcDbArc
 50
270.0
 51
0.0
  0
ARC
  5
260
330
1F
100
AcDbEntity
  8
0
  6
SLD-Solid
 62
   142
420
    32960
370
     0
100
AcDbCircle
 10
873.18163328
 20
741.4201516493
 30
0.0
 40
4.000000000000068
100
AcDbArc
 50
36.8698976458
 51
143.1301023542
  0
ARC
  5
261
330
1F
100
AcDbEntity
  8
0
  6
SLD-Solid
 62
   142
420
    32960
370
     0
100
AcDbCircle
 10
873.18163328
 20
741.4201516493
 30
0.0
 40
4.000000000000002
100
AcDbArc
 50
216.8794481036
 51
323.1205512152
  0
LINE
  5
262
330
1F
100
AcDbEntity
  8
0
  6
SLD-Solid
 62
     7
370
    15
100
AcDbLine
 10
327.23163328
 20
55.2701516492
 30
0.0
 11
567.13163328
 21
55.2701516492
 31
0.0
  0
LINE
  5
263
330
1F
100
AcDbEntity
  8
0
  6
SLD-Solid
 62
     7
370
    15
100
AcDbLine
 10
567.13163328
 20
55.2701516492
 30
0.0
 11
567.13163328
 21
617.1701516492
 31
0.0
  0
LINE
  5
264
330
1F
100
AcDbEntity
  8
0
  6
SLD-Solid
 62
     7
370
    15
100
AcDbLine
 10
567.13163328
 20
617.1701516492
 30
0.0
 11
327.23163328
 21
617.1701516492
 31
0.0
  0
LINE
  5
265
330
1F
100
AcDbEntity
  8
0
  6
SLD-Solid
 62
     7
370
    15
100
AcDbLine
 10
327.23163328
 20
617.1701516492
 30
0.0
 11
327.23163328
 21
55.2701516492
 31
0.0
  0
LINE
  5
266
330
1F
100
AcDbEntity
  8
0
  6
SLD-Solid
 62
     7
370
    15
100
AcDbLine
 10
-2.81836672
 20
83.7201516493
 30
0.0
 11
-2.81836672
 21
588.7201516493
 31
0.0
  0
LINE
  5
267
330
1F
100
AcDbEntity
  8
0
  6
SLD-Solid
 62
   142
420
    32960
370
     0
100
AcDbLine
 10
-2.01836672
 20
83.7201516493
 30
0.0
 11
-2.01836672
 21
588.7201516493
 31
0.0
  0
LINE
  5
268
330
1F
100
AcDbEntity
  8
0
  6
SLD-Solid
 62
   142
420
    32960
370
     0
100
AcDbLine
 10
-2.81836672
 20
83.7201516493
 30
0.0
 11
-2.01836672
 21
83.7201516493
 31
0.0
  0
LINE
  5
269
330
1F
100
AcDbEntity
  8
0
  6
SLD-Solid
 62
     7
370
    15
100
AcDbLine
 10
-2.81836672
 20
588.7201516493
 30
0.0
 11
-2.81836672
 21
593.7201516493
 31
0.0
  0
LINE
  5
26A
330
1F
100
AcDbEntity
  8
0
  6
SLD-Solid
 62
   142
420
    32960
370
     0
100
AcDbLine
 10
-2.81836672
 20
78.7201516493
 30
0.0
 11
-2.81836672
 21
83.7201516493
 31
0.0
  0
LINE
  5
26B
330
1F
100
AcDbEntity
  8
0
  6
SLD-Solid
 62
   142
420
    32960
370
     0
100
AcDbLine
 10
-2.01836672
 20
588.7201516493
 30
0.0
 11
-2.01836672
 21
593.7201516493
 31
0.0
  0
LINE
  5
26C
330
1F
100
AcDbEntity
  8
0
  6
SLD-Solid
 62
   142
420
    32960
370
     0
100
AcDbLine
 10
-2.81836672
 20
593.7201516493
 30
0.0
 11
-2.01836672
 21
593.7201516493
 31
0.0
  0
LINE
  5
26D
330
1F
100
AcDbEntity
  8
0
  6
SLD-Solid
 62
   142
420
    32960
370
     0
100
AcDbLine
 10
-2.81836672
 20
78.7201516493
 30
0.0
 11
-1.0183667201
 21
78.7201516493
 31
0.0
  0
LINE
  5
26E
330
1F
100
AcDbEntity
  8
0
  6
SLD-Solid
 62
   142
420
    32960
370
     0
100
AcDbLine
 10
-1.0183667202
 20
593.7201516493
 30
0.0
 11
-2.01836672
 21
593.7201516493
 31
0.0
  0
ARC
  5
26F
330
1F
100
AcDbEntity
  8
0
  6
SLD-Solid
 62
   142
420
    32960
370
     0
100
AcDbCircle
 10
484.6239098864
 20
-70.0543643868
 30
0.0
 40
1.943246067350792
100
AcDbArc
 50
181.809909826
 51
271.7021999702
  0
LINE
  5
270
330
1F
100
AcDbEntity
  8
0
  6
SLD-Solid
 62
   142
420
    32960
370
     0
100
AcDbLine
 10
504.68163328
 20
-71.9967529391
 30
0.0
 11
484.68163328
 21
-71.9967529391
 31
0.0
  0
ARC
  5
271
330
1F
100
AcDbEntity
  8
0
  6
SLD-Solid
 62
   142
420
    32960
370
     0
100
AcDbCircle
 10
504.7393566735
 20
-70.0543643868
 30
0.0
 40
1.94324606735071
100
AcDbArc
 50
268.2978000298
 51
358.190090174
  0
LINE
  5
272
330
1F
100
AcDbEntity
  8
0
  6
SLD-Solid
 62
     7
370
    15
100
AcDbLine
 10
76.98163328
 20
55.2201516491
 30
0.0
 11
76.9816332798
 21
617.2201516491
 31
0.0
  0
CIRCLE
  5
273
330
1F
100
AcDbEntity
  8
0
  6
SLD-Solid
 62
     7
370
    15
100
AcDbCircle
 10
34.9816332798
 20
605.2201516491
 30
0.0
 40
7.500000000000007
  0
CIRCLE
  5
274
330
1F
100
AcDbEntity
  8
0
  6
SLD-Solid
 62
     7
370
    15
100
AcDbCircle
 10
34.9816332799
 20
67.2201516491
 30
0.0
 40
7.5
  0
LINE
  5
275
330
1F
100
AcDbEntity
  8
0
  6
SLD-Solid
 62
     7
370
    15
100
AcDbLine
 10
-1.0183667202
 20
617.2201516491
 30
0.0
 11
-1.01836672
 21
55.2201516491
 31
0.0
  0
LINE
  5
276
330
1F
100
AcDbEntity
  8
0
  6
SLD-Solid
 62
     7
370
    15
100
AcDbLine
 10
76.9816332798
 20
617.2201516491
 30
0.0
 11
-1.0183667202
 21
617.2201516491
 31
0.0
  0
LINE
  5
277
330
1F
100
AcDbEntity
  8
0
  6
SLD-Solid
 62
     7
370
    15
100
AcDbLine
 10
-1.01836672
 20
55.2201516491
 30
0.0
 11
76.98163328
 21
55.2201516491
 31
0.0
  0
CIRCLE
  5
278
330
1F
100
AcDbEntity
  8
0
  6
SLD-Solid
 62
     7
370
    15
100
AcDbCircle
 10
34.9816332799
 20
67.2201516491
 30
0.0
 40
4.0
  0
CIRCLE
  5
279
330
1F
100
AcDbEntity
  8
0
  6
SLD-Solid
 62
     7
370
    15
100
AcDbCircle
 10
34.9816332798
 20
605.2201516491
 30
0.0
 40
4.0
  0
LWPOLYLINE
  5
27A
330
1F
100
AcDbEntity
  8
0
  6
SLD-Solid
 62
   142
420
    32960
370
     0
100
AcDbPolyline
 90
       17
 70
   128
 43
0.0
 10
196.1816332807
 20
-69.2092097259
 10
196.7556584292
 20
-69.1018219896
 10
197.2422934524
 20
-68.7960075898
 10
197.5674525794
 20
-68.3383239968
 10
197.6816332807
 20
-67.7984493887
 10
197.5674525794
 20
-67.2585747807
 10
197.2422934524
 20
-66.8008911877
 10
196.7556584292
 20
-66.4950767879
 10
196.1816332807
 20
-66.3876890515
 10
195.6076081321
 20
-66.4950767879
 10
195.1209731089
 20
-66.8008911877
 10
194.7958139819
 20
-67.2585747807
 10
194.6816332807
 20
-67.7984493887
 10
194.7958139819
 20
-68.3383239968
 10
195.1209731089
 20
-68.7960075898
 10
195.6076081321
 20
-69.1018219896
 10
196.1816332807
 20
-69.2092097259
  0
LINE
  5
27B
330
1F
100
AcDbEntity
  8
0
  6
SLD-Solid
 62
     7
370
    15
100
AcDbLine
 10
299.93163328
 20
-65.8466568492
 30
0.0
 11
299.93163328
 21
-75.9552776069
 31
0.0
  0
LINE
  5
27C
330
1F
100
AcDbEntity
  8
0
  6
SLD-Solid
 62
   142
420
    32960
370
     0
100
AcDbLine
 10
312.1447836369
 20
-65.8466568492
 30
0.0
 11
312.0664365404
 21
-65.8913156526
 31
0.0
  0
LINE
  5
27D
330
1F
100
AcDbEntity
  8
0
  6
SLD-Solid
 62
   142
420
    32960
370
     0
100
AcDbLine
 10
291.0115320187
 20
-65.8466568492
 30
0.0
 11
290.7968300196
 21
-65.8913156526
 31
0.0
  0
LINE
  5
27E
330
1F
100
AcDbEntity
  8
0
  6
SLD-Solid
 62
   142
420
    32960
370
     0
100
AcDbLine
 10
302.93163328
 20
-75.9552776069
 30
0.0
 11
302.93163328
 21
-65.8466568492
 31
0.0
  0
LWPOLYLINE
  5
27F
330
1F
100
AcDbEntity
  8
0
  6
SLD-Solid
 62
   142
420
    32960
370
     0
100
AcDbPolyline
 90
        9
 70
   128
 43
0.0
 10
299.93163328
 20
-75.9552776069
 10
300.0458139812
 20
-76.132661133
 10
300.3709731082
 20
-76.2830396252
 10
300.8576081314
 20
-76.3835193213
 10
301.43163328
 20
-76.4188030984
 10
302.0056584285
 20
-76.3835193213
 10
302.4922934518
 20
-76.2830396252
 10
302.8174525788
 20
-76.132661133
 10
302.93163328
 20
-75.9552776069
  0
ARC
  5
280
330
1F
100
AcDbEntity
  8
0
  6
SLD-Solid
 62
   142
420
    32960
370
     0
100
AcDbCircle
 10
301.9555061557
 20
-75.5048507757
 30
0.0
 40
0.9764498166444543
100
AcDbArc
 50
1.4730549926
 51
91.4009438083
  0
ARC
  5
281
330
1F
100
AcDbEntity
  8
0
  6
SLD-Solid
 62
   142
420
    32960
370
     0
100
AcDbCircle
 10
300.9077604043
 20
-75.5048507757
 30
0.0
 40
0.9764498166443392
100
AcDbArc
 50
88.5990561917
 51
178.5269450074
  0
LWPOLYLINE
  5
282
330
1F
100
AcDbEntity
  8
0
  6
SLD-Solid
 62
   142
420
    32960
370
     0
100
AcDbPolyline
 90
        9
 70
   128
 43
0.0
 10
300.93163328
 20
-74.5286928324
 10
300.9696935137
 20
-74.5878206745
 10
301.0780798894
 20
-74.6379468385
 10
301.2402915638
 20
-74.6714400706
 10
301.43163328
 20
-74.6832013296
 10
301.6229749962
 20
-74.6714400706
 10
301.7851866706
 20
-74.6379468385
 10
301.8935730463
 20
-74.5878206745
 10
301.93163328
 20
-74.5286928324
  0
LINE
  5
283
330
1F
100
AcDbEntity
  8
0
  6
SLD-Solid
 62
     7
370
    15
100
AcDbLine
 10
311.1057973162
 20
-69.4544947763
 30
0.0
 11
311.0984477918
 21
-69.6596902431
 31
0.0
  0
ARC
  5
284
330
1F
100
AcDbEntity
  8
0
  6
SLD-Solid
 62
   142
420
    32960
370
     0
100
AcDbCircle
 10
290.7178170821
 20
-64.9527809633
 30
0.0
 40
0.9418547697234175
100
AcDbArc
 50
251.6332715923
 51
274.812243802
  0
ARC
  5
285
330
1F
100
AcDbEntity
  8
0
  6
SLD-Solid
 62
   142
420
    32960
370
     0
100
AcDbCircle
 10
290.8836894377
 20
-74.4602143518
 30
0.0
 40
1.056025610322176
100
AcDbArc
 50
182.228814608
 51
265.2820210055
  0
ARC
  5
286
330
1F
100
AcDbEntity
  8
0
  6
SLD-Solid
 62
   142
420
    32960
370
     0
100
AcDbCircle
 10
312.1454494779
 20
-64.9527809633
 30
0.0
 40
0.9418547697318994
100
AcDbArc
 50
265.1877561981
 51
288.3667284076
  0
ARC
  5
287
330
1F
100
AcDbEntity
  8
0
  6
SLD-Solid
 62
   142
420
    32960
370
     0
100
AcDbCircle
 10
311.9795771223
 20
-74.4602143518
 30
0.0
 40
1.056025610322104
100
AcDbArc
 50
274.7179789945
 51
357.771185392
  0
ARC
  5
288
330
1F
100
AcDbEntity
  8
0
  6
SLD-Solid
 62
   142
420
    32960
370
     0
100
AcDbCircle
 10
312.2062437928
 20
-75.2155511801
 30
0.0
 40
0.3283607163069672
100
AcDbArc
 50
244.8003742696
 51
329.0454117091
  0
ARC
  5
289
330
1F
100
AcDbEntity
  8
0
  6
SLD-Solid
 62
   142
420
    32960
370
     0
100
AcDbCircle
 10
290.6570227672
 20
-75.2155511806
 30
0.0
 40
0.3283607158561389
100
AcDbArc
 50
210.9545887398
 51
295.1996257668
  0
ARC
  5
28A
330
1F
100
AcDbEntity
  8
0
  6
SLD-Solid
 62
   142
420
    32960
370
     0
100
AcDbCircle
 10
312.5689567202
 20
-74.6461835015
 30
0.0
 40
0.4878622020723995
100
AcDbArc
 50
307.8246718057
 51
17.278104811
  0
ARC
  5
28B
330
1F
100
AcDbEntity
  8
0
  6
SLD-Solid
 62
   142
420
    32960
370
     0
100
AcDbCircle
 10
290.2943098398
 20
-74.6461835015
 30
0.0
 40
0.4878622020718447
100
AcDbArc
 50
162.721895189
 51
232.1753281941
  0
ENDSEC
  0
SECTION
  2
OBJECTS
  0
DICTIONARY
  5
C
330
0
100
AcDbDictionary
281
     1
  3
ACAD_GROUP
350
D
  3
ACAD_LAYOUT
350
1A
  3
ACAD_MATERIAL
350
3B
  3
ACAD_MLEADERSTYLE
350
28D
  3
ACAD_MLINESTYLE
350
17
  3
ACAD_PLOTSETTINGS
350
19
  3
ACAD_PLOTSTYLENAME
350
E
  3
ACAD_TABLESTYLE
350
28C
  3
ACAD_VISUALSTYLE
350
2A
  0
DICTIONARY
  5
D
102
{ACAD_REACTORS
330
C
102
}
330
C
100
AcDbDictionary
281
     1
  0
DICTIONARY
  5
1A
102
{ACAD_REACTORS
330
C
102
}
330
C
100
AcDbDictionary
281
     1
  3
Layout1
350
1E
  3
Layout2
350
26
  3
Model
350
22
  0
DICTIONARY
  5
3B
102
{ACAD_REACTORS
330
C
102
}
330
C
100
AcDbDictionary
281
     1
  3
ByBlock
350
3D
  3
ByLayer
350
3C
  3
Global
350
3E
  0
DICTIONARY
  5
28D
102
{ACAD_REACTORS
330
C
102
}
330
C
100
AcDbDictionary
281
     1
  0
DICTIONARY
  5
17
102
{ACAD_REACTORS
330
C
102
}
330
C
100
AcDbDictionary
281
     1
  3
Standard
350
18
  0
DICTIONARY
  5
19
102
{ACAD_REACTORS
330
C
102
}
330
C
100
AcDbDictionary
281
     1
  0
ACDBDICTIONARYWDFLT
  5
E
102
{ACAD_REACTORS
330
C
102
}
330
C
100
AcDbDictionary
281
     1
  3
Normal
350
F
100
AcDbDictionaryWithDefault
340
F
  0
DICTIONARY
  5
28C
102
{ACAD_REACTORS
330
C
102
}
330
C
100
AcDbDictionary
281
     1
  0
DICTIONARY
  5
2A
102
{ACAD_REACTORS
330
C
102
}
330
C
100
AcDbDictionary
281
     1
  3
2dWireframe
350
2F
  3
3D Hidden
350
31
  3
3dWireframe
350
30
  3
Basic
350
32
  3
Brighten
350
36
  3
ColorChange
350
3A
  3
Conceptual
350
34
  3
Dim
350
35
  3
Facepattern
350
39
  3
Flat
350
2B
  3
FlatWithEdges
350
2C
  3
Gouraud
350
2D
  3
GouraudWithEdges
350
2E
  3
Linepattern
350
38
  3
Realistic
350
33
  3
Thicken
350
37
  0
LAYOUT
  5
1E
102
{ACAD_REACTORS
330
1A
102
}
330
1A
100
AcDbPlotSettings
  1

  2
none_device
  4

  6

 40
0.0
 41
0.0
 42
0.0
 43
0.0
 44
0.0
 45
0.0
 46
0.0
 47
0.0
 48
0.0
 49
0.0
140
0.0
141
0.0
142
1.0
143
1.0
 70
   688
 72
     0
 73
     0
 74
     5
  7

 75
    16
 76
     0
 77
     2
 78
   300
147
1.0
148
0.0
149
0.0
100
AcDbLayout
  1
Layout1
 70
     1
 71
     1
 10
0.0
 20
0.0
 11
420.0
 21
297.0
 12
0.0
 22
0.0
 32
0.0
 14
1.0000000000E+20
 24
1.0000000000E+20
 34
1.0000000000E+20
 15
-1.0000000000E+20
 25
-1.0000000000E+20
 35
-1.0000000000E+20
146
0.0
 13
0.0
 23
0.0
 33
0.0
 16
1.0
 26
0.0
 36
0.0
 17
0.0
 27
1.0
 37
0.0
 76
     0
330
1B
  0
LAYOUT
  5
26
102
{ACAD_REACTORS
330
1A
102
}
330
1A
100
AcDbPlotSettings
  1

  2
none_device
  4

  6

 40
0.0
 41
0.0
 42
0.0
 43
0.0
 44
0.0
 45
0.0
 46
0.0
 47
0.0
 48
0.0
 49
0.0
140
0.0
141
0.0
142
1.0
143
1.0
 70
   688
 72
     0
 73
     0
 74
     5
  7

 75
    16
 76
     0
 77
     2
 78
   300
147
1.0
148
0.0
149
0.0
100
AcDbLayout
  1
Layout2
 70
     1
 71
     2
 10
0.0
 20
0.0
 11
0.0
 21
0.0
 12
0.0
 22
0.0
 32
0.0
 14
0.0
 24
0.0
 34
0.0
 15
0.0
 25
0.0
 35
0.0
146
0.0
 13
0.0
 23
0.0
 33
0.0
 16
1.0
 26
0.0
 36
0.0
 17
0.0
 27
1.0
 37
0.0
 76
     0
330
23
  0
LAYOUT
  5
22
102
{ACAD_REACTORS
330
1A
102
}
330
1A
100
AcDbPlotSettings
  1

  2
none_device
  4

  6

 40
0.0
 41
0.0
 42
0.0
 43
0.0
 44
0.0
 45
0.0
 46
0.0
 47
0.0
 48
0.0
 49
0.0
140
0.0
141
0.0
142
1.0
143
1.0
 70
  1712
 72
     0
 73
     0
 74
     0
  7

 75
     0
 76
     0
 77
     2
 78
   300
147
1.0
148
0.0
149
0.0
100
AcDbLayout
  1
Model
 70
     1
 71
     0
 10
0.0
 20
0.0
 11
841.0
 21
594.0
 12
0.0
 22
0.0
 32
0.0
 14
0.0
 24
0.0
 34
0.0
 15
841.0
 25
594.0
 35
0.0
146
0.0
 13
0.0
 23
0.0
 33
0.0
 16
1.0
 26
0.0
 36
0.0
 17
0.0
 27
1.0
 37
0.0
 76
     0
330
1F
331
29
  0
MATERIAL
  5
3D
102
{ACAD_REACTORS
330
3B
102
}
330
3B
100
AcDbMaterial
  1
ByBlock
 72
     1
 94
      127
  0
MATERIAL
  5
3C
102
{ACAD_REACTORS
330
3B
102
}
330
3B
100
AcDbMaterial
  1
ByLayer
 72
     1
 94
      127
  0
MATERIAL
  5
3E
102
{ACAD_REACTORS
330
3B
102
}
330
3B
100
AcDbMaterial
  1
Global
 72
     1
 94
      127
  0
MLINESTYLE
  5
18
102
{ACAD_REACTORS
330
17
102
}
330
17
100
AcDbMlineStyle
  2
Standard
 70
     0
  3

 62
   256
 51
90.0
 52
90.0
 71
     2
 49
0.5
 62
   256
  6
BYLAYER
 49
-0.5
 62
   256
  6
BYLAYER
  0
ACDBPLACEHOLDER
  5
F
102
{ACAD_REACTORS
330
E
102
}
330
E
  0
VISUALSTYLE
  5
2F
102
{ACAD_REACTORS
330
2A
102
}
330
2A
100
AcDbVisualStyle
  2
2dWireframe
 70
     4
 71
     0
 72
     2
 73
     0
 90
        0
 40
-0.6
 41
-30.0
 62
     5
 63
     7
421
 16777215
 74
     1
 91
        4
 64
     7
 65
   257
 75
     1
175
     1
 42
1.0
 92
        0
 66
   257
 43
1.0
 76
     1
 77
     6
 78
     2
 67
     7
 79
     5
170
     0
171
     0
290
     0
174
     0
 93
        1
 44
0.0
173
     0
291
     0
 45
0.0
  0
VISUALSTYLE
  5
31
102
{ACAD_REACTORS
330
2A
102
}
330
2A
100
AcDbVisualStyle
  2
3D Hidden
 70
     6
 71
     1
 72
     2
 73
     2
 90
        0
 40
-0.6
 41
-30.0
 62
     5
 63
     7
421
 16777215
 74
     2
 91
        2
 64
     7
 65
   257
 75
     2
175
     1
 42
40.0
 92
        0
 66
   257
 43
1.0
 76
     1
 77
     6
 78
     2
 67
     7
 79
     3
170
     0
171
     0
290
     0
174
     0
 93
        1
 44
0.0
173
     0
291
     0
 45
0.0
  0
VISUALSTYLE
  5
30
102
{ACAD_REACTORS
330
2A
102
}
330
2A
100
AcDbVisualStyle
  2
3dWireframe
 70
     5
 71
     0
 72
     2
 73
     0
 90
        0
 40
-0.6
 41
-30.0
 62
     5
 63
     7
421
 16777215
 74
     1
 91
        4
 64
     7
 65
   257
 75
     1
175
     1
 42
1.0
 92
        0
 66
   257
 43
1.0
 76
     1
 77
     6
 78
     2
 67
     7
 79
     5
170
     0
171
     0
290
     0
174
     0
 93
        1
 44
0.0
173
     0
291
     0
 45
0.0
  0
VISUALSTYLE
  5
32
102
{ACAD_REACTORS
330
2A
102
}
330
2A
100
AcDbVisualStyle
  2
Basic
 70
     7
 71
     1
 72
     0
 73
     1
 90
        0
 40
-0.6
 41
-30.0
 62
     5
 63
     7
421
 16777215
 74
     0
 91
        4
 64
     7
 65
   257
 75
     1
175
     1
 42
1.0
 92
        8
 66
     7
 43
1.0
 76
     1
 77
     6
 78
     2
 67
     7
 79
     5
170
     0
171
     0
290
     0
174
     0
 93
        1
 44
0.0
173
     0
291
     1
 45
0.0
  0
VISUALSTYLE
  5
36
102
{ACAD_REACTORS
330
2A
102
}
330
2A
100
AcDbVisualStyle
  2
Brighten
 70
    12
 71
     2
 72
     2
 73
     0
 90
        0
 40
-0.6
 41
-30.0
 62
     5
 63
     7
421
 16777215
 74
     1
 91
        4
 64
     7
 65
   257
 75
     1
175
     1
 42
1.0
 92
        8
 66
     7
 43
1.0
 76
     1
 77
     6
 78
     2
 67
     7
 79
     5
170
     0
171
     0
290
     0
174
     0
 93
        1
 44
50.0
173
     0
291
     1
 45
0.0
  0
VISUALSTYLE
  5
3A
102
{ACAD_REACTORS
330
2A
102
}
330
2A
100
AcDbVisualStyle
  2
ColorChange
 70
    16
 71
     2
 72
     2
 73
     3
 90
        0
 40
-0.6
 41
-30.0
 62
     5
 63
     8
421
  8421504
 74
     1
 91
        4
 64
     7
 65
   257
 75
     1
175
     1
 42
1.0
 92
        8
 66
     8
424
  8421504
 43
1.0
 76
     1
 77
     6
 78
     2
 67
     7
 79
     5
170
     0
171
     0
290
     0
174
     0
 93
        1
 44
0.0
173
     0
291
     1
 45
0.0
  0
VISUALSTYLE
  5
34
102
{ACAD_REACTORS
330
2A
102
}
330
2A
100
AcDbVisualStyle
  2
Conceptual
 70
     9
 71
     3
 72
     2
 73
     0
 90
        0
 40
-0.6
 41
-30.0
 62
     5
 63
     7
421
 16777215
 74
     2
 91
        2
 64
     7
 65
   257
 75
     1
175
     1
 42
40.0
 92
        8
 66
     7
 43
1.0
 76
     1
 77
     6
 78
     2
 67
     7
 79
     3
170
     0
171
     0
290
     0
174
     0
 93
        1
 44
0.0
173
     0
291
     0
 45
0.0
  0
VISUALSTYLE
  5
35
102
{ACAD_REACTORS
330
2A
102
}
330
2A
100
AcDbVisualStyle
  2
Dim
 70
    11
 71
     2
 72
     2
 73
     0
 90
        0
 40
-0.6
 41
-30.0
 62
     5
 63
     7
421
 16777215
 74
     1
 91
        4
 64
     7
 65
   257
 75
     1
175
     1
 42
1.0
 92
        8
 66
     7
 43
1.0
 76
     1
 77
     6
 78
     2
 67
     7
 79
     5
170
     0
171
     0
290
     0
174
     0
 93
        1
 44
-50.0
173
     0
291
     1
 45
0.0
  0
VISUALSTYLE
  5
39
102
{ACAD_REACTORS
330
2A
102
}
330
2A
100
AcDbVisualStyle
  2
Facepattern
 70
    15
 71
     2
 72
     2
 73
     0
 90
        0
 40
-0.6
 41
-30.0
 62
     5
 63
     7
421
 16777215
 74
     1
 91
        4
 64
     7
 65
   257
 75
     1
175
     1
 42
1.0
 92
        8
 66
     7
 43
1.0
 76
     1
 77
     6
 78
     2
 67
     7
 79
     5
170
     0
171
     0
290
     0
174
     0
 93
        1
 44
0.0
173
     0
291
     1
 45
0.0
  0
VISUALSTYLE
  5
2B
102
{ACAD_REACTORS
330
2A
102
}
330
2A
100
AcDbVisualStyle
  2
Flat
 70
     0
 71
     2
 72
     1
 73
     1
 90
        2
 40
-0.6
 41
30.0
 62
     5
 63
     7
421
 16777215
 74
     0
 91
        4
 64
     7
 65
   257
 75
     1
175
     1
 42
1.0
 92
        8
 66
     7
 43
1.0
 76
     1
 77
     6
 78
     2
 67
     7
 79
     5
170
     0
171
     0
290
     0
174
     0
 93
       13
 44
0.0
173
     0
291
     1
 45
0.0
  0
VISUALSTYLE
  5
2C
102
{ACAD_REACTORS
330
2A
102
}
330
2A
100
AcDbVisualStyle
  2
FlatWithEdges
 70
     1
 71
     2
 72
     1
 73
     1
 90
        2
 40
-0.6
 41
30.0
 62
     5
 63
     7
421
 16777215
 74
     1
 91
        4
 64
     7
 65
   257
 75
     1
175
     1
 42
1.0
 92
        0
 66
   257
 43
1.0
 76
     1
 77
     6
 78
     2
 67
     7
 79
     5
170
     0
171
     0
290
     0
174
     0
 93
       13
 44
0.0
173
     0
291
     1
 45
0.0
  0
VISUALSTYLE
  5
2D
102
{ACAD_REACTORS
330
2A
102
}
330
2A
100
AcDbVisualStyle
  2
Gouraud
 70
     2
 71
     2
 72
     2
 73
     1
 90
        2
 40
-0.6
 41
30.0
 62
     5
 63
     7
421
 16777215
 74
     0
 91
        4
 64
     7
 65
   257
 75
     1
175
     1
 42
1.0
 92
        0
 66
     7
 43
1.0
 76
     1
 77
     6
 78
     2
 67
     7
 79
     5
170
     0
171
     0
290
     0
174
     0
 93
       13
 44
0.0
173
     0
291
     1
 45
0.0
  0
VISUALSTYLE
  5
2E
102
{ACAD_REACTORS
330
2A
102
}
330
2A
100
AcDbVisualStyle
  2
GouraudWithEdges
 70
     3
 71
     2
 72
     2
 73
     1
 90
        2
 40
-0.6
 41
30.0
 62
     5
 63
     7
421
 16777215
 74
     1
 91
        4
 64
     7
 65
   257
 75
     1
175
     1
 42
1.0
 92
        0
 66
   257
 43
1.0
 76
     1
 77
     6
 78
     2
 67
     7
 79
     5
170
     0
171
     0
290
     0
174
     0
 93
       13
 44
0.0
173
     0
291
     1
 45
0.0
  0
VISUALSTYLE
  5
38
102
{ACAD_REACTORS
330
2A
102
}
330
2A
100
AcDbVisualStyle
  2
Linepattern
 70
    14
 71
     2
 72
     2
 73
     0
 90
        0
 40
-0.6
 41
-30.0
 62
     5
 63
     7
421
 16777215
 74
     1
 91
        4
 64
     7
 65
   257
 75
     7
175
     7
 42
1.0
 92
        8
 66
     7
 43
1.0
 76
     1
 77
     6
 78
     2
 67
     7
 79
     5
170
     0
171
     0
290
     0
174
     0
 93
        1
 44
0.0
173
     0
291
     1
 45
0.0
  0
VISUALSTYLE
  5
33
102
{ACAD_REACTORS
330
2A
102
}
330
2A
100
AcDbVisualStyle
  2
Realistic
 70
     8
 71
     2
 72
     2
 73
     0
 90
        0
 40
-0.6
 41
-30.0
 62
     5
 63
     7
421
 16777215
 74
     1
 91
        0
 64
     7
 65
   257
 75
     1
175
     1
 42
1.0
 92
        8
 66
     8
424
  7895160
 43
1.0
 76
     1
 77
     6
 78
     2
 67
     7
 79
     5
170
     0
171
     0
290
     0
174
     0
 93
       13
 44
0.0
173
     0
291
     0
 45
0.0
  0
VISUALSTYLE
  5
37
102
{ACAD_REACTORS
330
2A
102
}
330
2A
100
AcDbVisualStyle
  2
Thicken
 70
    13
 71
     2
 72
     2
 73
     0
 90
        0
 40
-0.6
 41
-30.0
 62
     5
 63
     7
421
 16777215
 74
     1
 91
        4
 64
     7
 65
   257
 75
     1
175
     1
 42
1.0
 92
       12
 66
     7
 43
1.0
 76
     1
 77
     6
 78
     2
 67
     7
 79
     5
170
     0
171
     0
290
     0
174
     0
 93
        1
 44
0.0
173
     0
291
     1
 45
0.0
  0
ENDSEC
  0
EOF
