  0
SECTION
  2
HEADER
  9
$ACADVER
  1
AC1015
  9
$ACADMAINTVER
 70
     6
  9
$DWGCODEPAGE
  3
ANSI_1252
  9
$INSBASE
 10
0.0
 20
0.0
 30
0.0
  9
$EXTMIN
 10
0.0
 20
0.0
 30
0.0
  9
$EXTMAX
 10
2159.0
 20
1397.0
 30
0.0
  9
$LIMMIN
 10
0.0
 20
0.0
  9
$LIMMAX
 10
2159.0
 20
1397.0
  9
$ORTHOMODE
 70
     0
  9
$REGENMODE
 70
     1
  9
$FILLMODE
 70
     1
  9
$QTEXTMODE
 70
     0
  9
$MIRRTEXT
 70
     1
  9
$LTSCALE
 40
5.0
  9
$ATTMODE
 70
     1
  9
$TEXTSIZE
 40
17.5
  9
$TRACEWID
 40
1.0
  9
$TEXTSTYLE
  7
Standard
  9
$CLAYER
  8
0
  9
$CELTYPE
  6
ByLayer
  9
$CECOLOR
 62
   256
  9
$CELTSCALE
 40
1.0
  9
$DISPSILH
 70
     0
  9
$DIMSCALE
 40
1.0
  9
$DIMASZ
 40
16.51
  9
$DIMEXO
 40
5.0
  9
$DIMDLI
 40
3.75
  9
$DIMRND
 40
0.0
  9
$DIMDLE
 40
0.0
  9
$DIMEXE
 40
5.0
  9
$DIMTP
 40
0.0
  9
$DIMTM
 40
0.0
  9
$DIMTXT
 40
17.5
  9
$DIMCEN
 40
2.5
  9
$DIMTSZ
 40
0.0
  9
$DIMTOL
 70
     0
  9
$DIMLIM
 70
     0
  9
$DIMTIH
 70
     1
  9
$DIMTOH
 70
     1
  9
$DIMSE1
 70
     0
  9
$DIMSE2
 70
     0
  9
$DIMTAD
 70
     1
  9
$DIMZIN
 70
     0
  9
$DIMBLK
  1

  9
$DIMASO
 70
     1
  9
$DIMSHO
 70
     1
  9
$DIMPOST
  1

  9
$DIMAPOST
  1

  9
$DIMALT
 70
     0
  9
$DIMALTD
 70
     3
  9
$DIMALTF
 40
0.0393700787
  9
$DIMLFAC
 40
1.0
  9
$DIMTOFL
 70
     1
  9
$DIMTVP
 40
0.0
  9
$DIMTIX
 70
     0
  9
$DIMSOXD
 70
     0
  9
$DIMSAH
 70
     0
  9
$DIMBLK1
  1

  9
$DIMBLK2
  1

  9
$DIMSTYLE
  2
ISO-25
  9
$DIMCLRD
 70
     0
  9
$DIMCLRE
 70
     0
  9
$DIMCLRT
 70
     0
  9
$DIMTFAC
 40
1.0
  9
$DIMGAP
 40
7.62
  9
$DIMJUST
 70
     0
  9
$DIMSD1
 70
     0
  9
$DIMSD2
 70
     0
  9
$DIMTOLJ
 70
     0
  9
$DIMTZIN
 70
     0
  9
$DIMALTZ
 70
     0
  9
$DIMALTTZ
 70
     0
  9
$DIMUPT
 70
     0
  9
$DIMDEC
 70
     3
  9
$DIMTDEC
 70
     3
  9
$DIMALTU
 70
     2
  9
$DIMALTTD
 70
     3
  9
$DIMTXSTY
  7
Standard
  9
$DIMAUNIT
 70
     0
  9
$DIMADEC
 70
     2
  9
$DIMALTRND
 40
0.0
  9
$DIMAZIN
 70
     0
  9
$DIMDSEP
 70
    44
  9
$DIMATFIT
 70
     3
  9
$DIMFRAC
 70
     0
  9
$DIMLDRBLK
  1

  9
$DIMLUNIT
 70
     2
  9
$DIMLWD
 70
    -2
  9
$DIMLWE
 70
    -2
  9
$DIMTMOVE
 70
     0
  9
$LUNITS
 70
     2
  9
$LUPREC
 70
     8
  9
$SKETCHINC
 40
1.0
  9
$FILLETRAD
 40
10.0
  9
$AUNITS
 70
     0
  9
$AUPREC
 70
     8
  9
$MENU
  1
.
  9
$ELEVATION
 40
0.0
  9
$PELEVATION
 40
0.0
  9
$THICKNESS
 40
0.0
  9
$LIMCHECK
 70
     0
  9
$CHAMFERA
 40
10.0
  9
$CHAMFERB
 40
10.0
  9
$CHAMFERC
 40
20.0
  9
$CHAMFERD
 40
0.0
  9
$SKPOLY
 70
     0
  9
$TDCREATE
 40
2456198.382027106
  9
$TDUCREATE
 40
2456198.34036044
  9
$TDUPDATE
 40
2456198.382028183
  9
$TDUUPDATE
 40
2456198.340361516
  9
$TDINDWG
 40
0.0000000116
  9
$TDUSRTIMER
 40
0.0000000116
  9
$USRTIMER
 70
     1
  9
$ANGBASE
 50
0.0
  9
$ANGDIR
 70
     0
  9
$PDMODE
 70
     0
  9
$PDSIZE
 40
-1.0
  9
$PLINEWID
 40
0.0
  9
$SPLFRAME
 70
     0
  9
$SPLINETYPE
 70
     6
  9
$SPLINESEGS
 70
     8
  9
$HANDSEED
  5
237
  9
$SURFTAB1
 70
     6
  9
$SURFTAB2
 70
     6
  9
$SURFTYPE
 70
     6
  9
$SURFU
 70
     6
  9
$SURFV
 70
     6
  9
$UCSBASE
  2

  9
$UCSNAME
  2

  9
$UCSORG
 10
0.0
 20
0.0
 30
0.0
  9
$UCSXDIR
 10
1.0
 20
0.0
 30
0.0
  9
$UCSYDIR
 10
0.0
 20
1.0
 30
0.0
  9
$UCSORTHOREF
  2

  9
$UCSORTHOVIEW
 70
     0
  9
$UCSORGTOP
 10
0.0
 20
0.0
 30
0.0
  9
$UCSORGBOTTOM
 10
0.0
 20
0.0
 30
0.0
  9
$UCSORGLEFT
 10
0.0
 20
0.0
 30
0.0
  9
$UCSORGRIGHT
 10
0.0
 20
0.0
 30
0.0
  9
$UCSORGFRONT
 10
0.0
 20
0.0
 30
0.0
  9
$UCSORGBACK
 10
0.0
 20
0.0
 30
0.0
  9
$PUCSBASE
  2

  9
$PUCSNAME
  2

  9
$PUCSORG
 10
0.0
 20
0.0
 30
0.0
  9
$PUCSXDIR
 10
1.0
 20
0.0
 30
0.0
  9
$PUCSYDIR
 10
0.0
 20
1.0
 30
0.0
  9
$PUCSORTHOREF
  2

  9
$PUCSORTHOVIEW
 70
     0
  9
$PUCSORGTOP
 10
0.0
 20
0.0
 30
0.0
  9
$PUCSORGBOTTOM
 10
0.0
 20
0.0
 30
0.0
  9
$PUCSORGLEFT
 10
0.0
 20
0.0
 30
0.0
  9
$PUCSORGRIGHT
 10
0.0
 20
0.0
 30
0.0
  9
$PUCSORGFRONT
 10
0.0
 20
0.0
 30
0.0
  9
$PUCSORGBACK
 10
0.0
 20
0.0
 30
0.0
  9
$USERI1
 70
     0
  9
$USERI2
 70
     0
  9
$USERI3
 70
     0
  9
$USERI4
 70
     0
  9
$USERI5
 70
     0
  9
$USERR1
 40
0.0
  9
$USERR2
 40
0.0
  9
$USERR3
 40
0.0
  9
$USERR4
 40
0.0
  9
$USERR5
 40
0.0
  9
$WORLDVIEW
 70
     1
  9
$SHADEDGE
 70
     3
  9
$SHADEDIF
 70
    70
  9
$TILEMODE
 70
     1
  9
$MAXACTVP
 70
    64
  9
$PINSBASE
 10
0.0
 20
0.0
 30
0.0
  9
$PLIMCHECK
 70
     0
  9
$PEXTMIN
 10
1.0000000000E+20
 20
1.0000000000E+20
 30
1.0000000000E+20
  9
$PEXTMAX
 10
-1.0000000000E+20
 20
-1.0000000000E+20
 30
-1.0000000000E+20
  9
$PLIMMIN
 10
0.0
 20
0.0
  9
$PLIMMAX
 10
420.0
 20
297.0
  9
$UNITMODE
 70
     0
  9
$VISRETAIN
 70
     1
  9
$PLINEGEN
 70
     0
  9
$PSLTSCALE
 70
     1
  9
$TREEDEPTH
 70
  3020
  9
$CMLSTYLE
  2
Standard
  9
$CMLJUST
 70
     0
  9
$CMLSCALE
 40
20.0
  9
$PROXYGRAPHICS
 70
     1
  9
$MEASUREMENT
 70
     1
  9
$CELWEIGHT
370
    -1
  9
$ENDCAPS
280
     0
  9
$JOINSTYLE
280
     0
  9
$LWDISPLAY
290
     1
  9
$INSUNITS
 70
     4
  9
$HYPERLINKBASE
  1

  9
$STYLESHEET
  1

  9
$XEDIT
290
     1
  9
$CEPSNTYPE
380
     0
  9
$PSTYLEMODE
290
     1
  9
$FINGERPRINTGUID
  2
{9CD615E5-B152-43B5-8F76-9630B2A6423B}
  9
$VERSIONGUID
  2
{FAEB1C32-E019-11D5-929B-00C0DF256EC4}
  9
$EXTNAMES
290
     1
  9
$PSVPSCALE
 40
0.0
  9
$OLESTARTUP
290
     0
  0
ENDSEC
  0
SECTION
  2
CLASSES
  0
CLASS
  1
ACDBDICTIONARYWDFLT
  2
AcDbDictionaryWithDefault
  3
ObjectDBX Classes
 90
        0
280
     0
281
     0
  0
CLASS
  1
VISUALSTYLE
  2
AcDbVisualStyle
  3
ObjectDBX Classes
 90
     4095
280
     0
281
     0
  0
CLASS
  1
MATERIAL
  2
AcDbMaterial
  3
ObjectDBX Classes
 90
     1153
280
     0
281
     0
  0
CLASS
  1
ACDBPLACEHOLDER
  2
AcDbPlaceHolder
  3
ObjectDBX Classes
 90
        0
280
     0
281
     0
  0
CLASS
  1
LAYOUT
  2
AcDbLayout
  3
ObjectDBX Classes
 90
        0
280
     0
281
     0
  0
ENDSEC
  0
SECTION
  2
TABLES
  0
TABLE
  2
VPORT
  5
8
330
0
100
AcDbSymbolTable
 70
     1
  0
VPORT
  5
29
330
8
100
AcDbSymbolTableRecord
100
AcDbViewportTableRecord
  2
*Active
 70
     0
 10
0.0
 20
0.0
 11
1.0
 21
1.0
 12
1079.5
 22
698.5
 13
0.0
 23
0.0
 14
10.0
 24
10.0
 15
10.0
 25
10.0
 16
0.0
 26
0.0
 36
1.0
 17
0.0
 27
0.0
 37
0.0
 40
1397.0
 41
1.5454545455
 42
50.0
 43
0.0
 44
0.0
 50
0.0
 51
0.0
 71
     0
 72
  2000
 73
     1
 74
     3
 75
     0
 76
     0
 77
     0
 78
     0
281
     0
 65
     1
110
0.0
120
0.0
130
0.0
111
1.0
121
0.0
131
0.0
112
0.0
122
1.0
132
0.0
 79
     0
146
0.0
  0
ENDTAB
  0
TABLE
  2
LTYPE
  5
5
330
0
100
AcDbSymbolTable
 70
     6
  0
LTYPE
  5
14
330
5
100
AcDbSymbolTableRecord
100
AcDbLinetypeTableRecord
  2
ByBlock
 70
     0
  3

 72
    65
 73
     0
 40
0.0
  0
LTYPE
  5
15
330
5
100
AcDbSymbolTableRecord
100
AcDbLinetypeTableRecord
  2
ByLayer
 70
     0
  3

 72
    65
 73
     0
 40
0.0
  0
LTYPE
  5
16
330
5
100
AcDbSymbolTableRecord
100
AcDbLinetypeTableRecord
  2
Continuous
 70
     0
  3
Solid line
 72
    65
 73
     0
 40
0.0
  0
LTYPE
  5
3F
330
5
100
AcDbSymbolTableRecord
100
AcDbLinetypeTableRecord
  2
HIDDEN
 70
     0
  3
Hidden __ __ __ __ __ __ __ __ __ __ __ __ __ __
 72
    65
 73
     2
 40
1.905
 49
1.27
 74
     0
 49
-0.635
 74
     0
  0
LTYPE
  5
40
330
5
100
AcDbSymbolTableRecord
100
AcDbLinetypeTableRecord
  2
PHANTOM
 70
     0
  3
Phantom ______  __  __  ______  __  __  ______
 72
    65
 73
     6
 40
12.7
 49
6.35
 74
     0
 49
-1.27
 74
     0
 49
1.27
 74
     0
 49
-1.27
 74
     0
 49
1.27
 74
     0
 49
-1.27
 74
     0
  0
LTYPE
  5
41
330
5
100
AcDbSymbolTableRecord
100
AcDbLinetypeTableRecord
  2
CENTER
 70
     0
  3
Center ____ _ ____ _ ____ _ ____ _ ____ _ ____
 72
    65
 73
     4
 40
10.16
 49
6.35
 74
     0
 49
-1.27
 74
     0
 49
1.27
 74
     0
 49
-1.27
 74
     0
  0
LTYPE
  5
42
330
5
100
AcDbSymbolTableRecord
100
AcDbLinetypeTableRecord
  2
CENTERX2
 70
     0
  3
Center (2x) ________  __  ________  __  _____
 72
    65
 73
     4
 40
20.32
 49
12.7
 74
     0
 49
-2.54
 74
     0
 49
2.54
 74
     0
 49
-2.54
 74
     0
  0
LTYPE
  5
43
330
5
100
AcDbSymbolTableRecord
100
AcDbLinetypeTableRecord
  2
DOT2
 70
     0
  3
Dot (.5x) ........................................
 72
    65
 73
     2
 40
0.635
 49
0.0
 74
     0
 49
-0.635
 74
     0
  0
ENDTAB
  0
TABLE
  2
LAYER
  5
2
330
0
100
AcDbSymbolTable
 70
     1
  0
LAYER
  5
10
330
2
100
AcDbSymbolTableRecord
100
AcDbLayerTableRecord
  2
0
 70
     0
 62
     7
  6
Continuous
370
    -3
390
F
  0
ENDTAB
  0
TABLE
  2
STYLE
  5
3
330
0
100
AcDbSymbolTable
 70
     1
  0
STYLE
  5
11
330
3
100
AcDbSymbolTableRecord
100
AcDbTextStyleTableRecord
  2
Standard
 70
     0
 40
0.0
 41
1.0
 50
0.0
 71
     0
 42
17.5
  3
txt
  4

  0
ENDTAB
  0
TABLE
  2
VIEW
  5
6
330
0
100
AcDbSymbolTable
 70
     0
  0
ENDTAB
  0
TABLE
  2
UCS
  5
7
330
0
100
AcDbSymbolTable
 70
     0
  0
ENDTAB
  0
TABLE
  2
APPID
  5
9
330
0
100
AcDbSymbolTable
 70
     1
  0
APPID
  5
12
330
9
100
AcDbSymbolTableRecord
100
AcDbRegAppTableRecord
  2
ACAD
 70
     0
  0
ENDTAB
  0
TABLE
  2
DIMSTYLE
  5
A
330
0
100
AcDbSymbolTable
 70
     1
100
AcDbDimStyleTable
  0
DIMSTYLE
105
27
330
A
100
AcDbSymbolTableRecord
100
AcDbDimStyleTableRecord
  2
ISO-25
 70
     0
 41
2.5
 42
0.625
 43
3.75
 44
1.25
 73
     0
 74
     0
 77
     1
 78
     8
140
2.5
141
2.5
143
0.0393700787
147
0.625
171
     3
172
     1
178
     0
271
     2
272
     2
274
     3
278
    44
283
     0
284
     8
340
11
  0
ENDTAB
  0
TABLE
  2
BLOCK_RECORD
  5
1
330
0
100
AcDbSymbolTable
 70
     1
  0
BLOCK_RECORD
  5
1F
330
1
100
AcDbSymbolTableRecord
100
AcDbBlockTableRecord
  2
*Model_Space
340
22
  0
BLOCK_RECORD
  5
1B
330
1
100
AcDbSymbolTableRecord
100
AcDbBlockTableRecord
  2
*Paper_Space
340
1E
  0
BLOCK_RECORD
  5
23
330
1
100
AcDbSymbolTableRecord
100
AcDbBlockTableRecord
  2
*Paper_Space0
340
26
  0
ENDTAB
  0
ENDSEC
  0
SECTION
  2
BLOCKS
  0
BLOCK
  5
20
330
1F
100
AcDbEntity
  8
0
100
AcDbBlockBegin
  2
*Model_Space
 70
     0
 10
0.0
 20
0.0
 30
0.0
  3
*Model_Space
  1

  0
ENDBLK
  5
21
330
1F
100
AcDbEntity
  8
0
100
AcDbBlockEnd
  0
BLOCK
  5
1C
330
1B
100
AcDbEntity
 67
     1
  8
0
100
AcDbBlockBegin
  2
*Paper_Space
 70
     0
 10
0.0
 20
0.0
 30
0.0
  3
*Paper_Space
  1

  0
ENDBLK
  5
1D
330
1B
100
AcDbEntity
 67
     1
  8
0
100
AcDbBlockEnd
  0
BLOCK
  5
24
330
23
100
AcDbEntity
  8
0
100
AcDbBlockBegin
  2
*Paper_Space0
 70
     0
 10
0.0
 20
0.0
 30
0.0
  3
*Paper_Space0
  1

  0
ENDBLK
  5
25
330
23
100
AcDbEntity
  8
0
100
AcDbBlockEnd
  0
ENDSEC
  0
SECTION
  2
ENTITIES
  0
LINE
  5
44
330
1F
100
AcDbEntity
  8
0
  6
Continuous
 62
     7
370
    15
100
AcDbLine
 10
1147.9537917366
 20
382.3021911832
 30
0.0
 11
1152.1328670969
 21
368.5016297551
 31
0.0
  0
LINE
  5
45
330
1F
100
AcDbEntity
  8
0
  6
Continuous
 62
     7
370
    15
100
AcDbLine
 10
1175.6355373254
 20
368.5016297551
 30
0.0
 11
1179.8146052351
 21
382.3021911832
 31
0.0
  0
SPLINE
  5
46
330
1F
100
AcDbEntity
  8
0
  6
Continuous
 62
     7
370
    15
100
AcDbSpline
210
0.0
220
0.0
230
1.0
 70
     8
 71
     3
 72
    13
 73
     9
 74
     0
 42
0.00000001
 43
0.00000001
 12
1.0
 22
0.0
 32
0.0
 13
1.0
 23
0.0
 33
0.0
 40
0.0
 40
0.0
 40
0.0
 40
0.0
 40
0.0298624445051429
 40
0.2471641331062984
 40
0.4557040663523209
 40
0.6640000863809676
 40
0.8783782087465826
 40
1.0
 40
1.0
 40
1.0
 40
1.0
 10
1152.453622042158
 20
367.9054342957191
 30
0.0
 10
1152.468216751563
 20
367.8784949044706
 30
0.0
 10
1152.589013583764
 20
367.655524166653
 30
0.0
 10
1152.999367785397
 20
367.3152221520424
 30
0.0
 10
1153.651452262458
 20
366.8639618498796
 30
0.0
 10
1154.474179297397
 20
366.465780216062
 30
0.0
 10
1155.282754508462
 20
366.1492983826768
 30
0.0
 10
1155.872327731263
 20
365.9854726220357
 30
0.0
 10
1156.085735379675
 20
365.9261726589851
 30
0.0
  0
LINE
  5
47
330
1F
100
AcDbEntity
  8
0
  6
Continuous
 62
     7
370
    15
100
AcDbLine
 10
1147.8841958632
 20
387.3177730294
 30
0.0
 11
1147.8841958632
 21
382.7628456803
 31
0.0
  0
LINE
  5
48
330
1F
100
AcDbEntity
  8
0
  6
Continuous
 62
     7
370
    15
100
AcDbLine
 10
1179.8842011084
 20
382.7628456803
 30
0.0
 11
1179.8842011084
 21
387.3177730294
 31
0.0
  0
SPLINE
  5
49
330
1F
100
AcDbEntity
  8
0
  6
Continuous
 62
     7
370
    15
100
AcDbSpline
210
0.0
220
0.0
230
1.0
 70
     8
 71
     3
 72
    15
 73
    11
 74
     0
 42
0.00000001
 43
0.00000001
 12
1.0
 22
0.0
 32
0.0
 13
1.0
 23
0.0
 33
0.0
 40
0.0
 40
0.0
 40
0.0
 40
0.0
 40
0.2094648272296927
 40
0.2921353588044434
 40
0.4269061455022147
 40
0.5619279578101195
 40
0.7013775291567056
 40
0.8402604115119917
 40
0.9761612406138066
 40
1.0
 40
1.0
 40
1.0
 40
1.0
 10
1163.88419848583
 20
370.9145151825599
 30
0.0
 10
1164.411617889397
 20
370.9053655709167
 30
0.0
 10
1165.147196548302
 20
370.8926048362595
 30
0.0
 10
1166.186009052776
 20
370.8100022547583
 30
0.0
 10
1167.016530184329
 20
370.716274886647
 30
0.0
 10
1167.920059177605
 20
370.5687887589852
 30
0.0
 10
1168.75648779556
 20
370.3849737770394
 30
0.0
 10
1169.481101825469
 20
370.1700082597142
 30
0.0
 10
1169.951947697019
 20
369.9993724115719
 30
0.0
 10
1170.132595327777
 20
369.9054480693935
 30
0.0
 10
1170.159554301717
 20
369.8914312573128
 30
0.0
  0
SPLINE
  5
4A
330
1F
100
AcDbEntity
  8
0
  6
Continuous
 62
     7
370
    15
100
AcDbSpline
210
0.0
220
0.0
230
1.0
 70
     8
 71
     3
 72
    15
 73
    11
 74
     0
 42
0.00000001
 43
0.00000001
 12
1.0
 22
0.0
 32
0.0
 13
1.0
 23
0.0
 33
0.0
 40
0.0
 40
0.0
 40
0.0
 40
0.0
 40
0.0300024082061668
 40
0.1785298701586616
 40
0.3293379005966667
 40
0.5069360066364873
 40
0.6440241494149527
 40
0.7621223886063557
 40
0.9049278589616914
 40
1.0
 40
1.0
 40
1.0
 40
1.0
 10
1157.749621390321
 20
369.9530028553658
 30
0.0
 10
1157.784863595505
 20
369.9700157129125
 30
0.0
 10
1157.994572971911
 20
370.0712510280245
 30
0.0
 10
1158.526753424793
 20
370.2471584776331
 30
0.0
 10
1159.375773153013
 20
370.4748314802593
 30
0.0
 10
1160.33411412536
 20
370.6558688249355
 30
0.0
 10
1161.296354602646
 20
370.7822449638669
 30
0.0
 10
1162.22285707487
 20
370.8643471677481
 30
0.0
 10
1163.07716314321
 20
370.9078908626194
 30
0.0
 10
1163.653753569274
 20
370.9126236410433
 30
0.0
 10
1163.88419848583
 20
370.9145151825599
 30
0.0
  0
LWPOLYLINE
  5
4B
330
1F
100
AcDbEntity
  8
0
  6
Continuous
 62
     7
370
    15
100
AcDbPolyline
 90
        3
 70
   128
 43
0.0
 10
1173.6841259589
 20
348.3568691464
 10
1171.4445335855
 20
360.5020605775
 10
1170.5817861547
 20
365.1806675645
  0
LWPOLYLINE
  5
4C
330
1F
100
AcDbEntity
  8
0
  6
Continuous
 62
     7
370
    15
100
AcDbPolyline
 90
        3
 70
   128
 43
0.0
 10
1158.6320458045
 20
364.6779917927
 10
1158.2245959034
 20
359.8662578316
 10
1157.1810303321
 20
347.5423716756
  0
SPLINE
  5
4D
330
1F
100
AcDbEntity
  8
0
  6
Continuous
 62
     7
370
    15
100
AcDbSpline
210
0.0
220
0.0
230
1.0
 70
     8
 71
     3
 72
    19
 73
    15
 74
     0
 42
0.00000001
 43
0.00000001
 12
1.0
 22
0.0
 32
0.0
 13
1.0
 23
0.0
 33
0.0
 40
0.0
 40
0.0
 40
0.0
 40
0.0
 40
0.0901028841702975
 40
0.1736979393273173
 40
0.2486465393572642
 40
0.315130225108407
 40
0.4155614370030311
 40
0.492108738745165
 40
0.5809463075907567
 40
0.6811493080825601
 40
0.7389681957993787
 40
0.8107085595089171
 40
0.8985471899991475
 40
0.9999999999999999
 40
0.9999999999999999
 40
0.9999999999999999
 40
0.9999999999999999
 10
1157.182073413351
 20
347.5546502323798
 30
0.0
 10
1157.18832884464
 20
346.7141098549884
 30
0.0
 10
1157.200387898404
 20
345.0937385115101
 30
0.0
 10
1158.109112703559
 20
342.937744567738
 30
0.0
 10
1159.387344259979
 20
341.2820745991234
 30
0.0
 10
1161.155165484676
 20
339.8893743267842
 30
0.0
 10
1163.286129416574
 20
339.0135058877582
 30
0.0
 10
1165.758015511539
 20
338.7647786239947
 30
0.0
 10
1168.220032290074
 20
339.1673291814516
 30
0.0
 10
1170.298078023235
 20
340.2241478480996
 30
0.0
 10
1171.885234624233
 20
341.6577454698178
 30
0.0
 10
1173.046211777706
 20
343.316492079141
 30
0.0
 10
1173.896591918527
 20
345.6305343868662
 30
0.0
 10
1173.760980631109
 20
347.3908489944862
 30
0.0
 10
1173.688298284032
 20
348.3343087883644
 30
0.0
  0
LINE
  5
4E
330
1F
100
AcDbEntity
  8
0
  6
Continuous
 62
     7
370
    15
100
AcDbLine
 10
1161.9348658314
 20
370.8338999005
 30
0.0
 11
1162.1739922156
 21
370.7777225228
 31
0.0
  0
SPLINE
  5
4F
330
1F
100
AcDbEntity
  8
0
  6
Continuous
 62
     7
370
    15
100
AcDbSpline
210
0.0
220
0.0
230
1.0
 70
     8
 71
     3
 72
    19
 73
    15
 74
     0
 42
0.00000001
 43
0.00000001
 12
1.0
 22
0.0
 32
0.0
 13
1.0
 23
0.0
 33
0.0
 40
0.0
 40
0.0
 40
0.0
 40
0.0
 40
0.1294896570045263
 40
0.1807001825278754
 40
0.2644965371345074
 40
0.3489348343348112
 40
0.4371171675589246
 40
0.5264769705370799
 40
0.6163102098080852
 40
0.7064376372559097
 40
0.79725480516078
 40
0.8857937987240891
 40
0.9703784928748317
 40
0.9999999999999999
 40
0.9999999999999999
 40
0.9999999999999999
 40
0.9999999999999999
 10
1163.88419848583
 20
364.0381061287575
 30
0.0
 10
1164.432081143778
 20
364.047831907846
 30
0.0
 10
1165.196640249
 20
364.0614040347418
 30
0.0
 10
1166.281351519986
 20
364.1498214055119
 30
0.0
 10
1167.155201413806
 20
364.2511111150799
 30
0.0
 10
1168.1197254034
 20
364.412982718824
 30
0.0
 10
1169.031049834993
 20
364.6208107352053
 30
0.0
 10
1169.869222252489
 20
364.8760402190762
 30
0.0
 10
1170.611181105783
 20
365.1770322337057
 30
0.0
 10
1171.248211943759
 20
365.5295033014118
 30
0.0
 10
1171.78047618941
 20
365.947760813011
 30
0.0
 10
1172.169208108505
 20
366.4605581751386
 30
0.0
 10
1172.389586971953
 20
366.9575060116431
 30
0.0
 10
1172.360261229981
 20
367.2524175614755
 30
0.0
 10
1172.352655052164
 20
367.3289083691292
 30
0.0
  0
SPLINE
  5
50
330
1F
100
AcDbEntity
  8
0
  6
Continuous
 62
     7
370
    15
100
AcDbSpline
210
0.0
220
0.0
230
1.0
 70
     8
 71
     3
 72
    18
 73
    14
 74
     0
 42
0.00000001
 43
0.00000001
 12
1.0
 22
0.0
 32
0.0
 13
1.0
 23
0.0
 33
0.0
 40
0.0
 40
0.0
 40
0.0
 40
0.0
 40
0.0548840032570733
 40
0.1486459672408475
 40
0.2519454756041157
 40
0.3474199327898116
 40
0.4702462854832454
 40
0.5994724630979944
 40
0.7057520698157246
 40
0.7876253901408511
 40
0.8583518121174422
 40
0.9438735455958496
 40
0.9999999999999999
 40
0.9999999999999999
 40
0.9999999999999999
 40
0.9999999999999999
 10
1155.418126105287
 20
367.3389219494514
 30
0.0
 10
1155.417041107811
 20
367.1954748622661
 30
0.0
 10
1155.414102537559
 20
366.806967651473
 30
0.0
 10
1155.737674109671
 20
366.2321582544897
 30
0.0
 10
1156.237861909
 20
365.7241479518356
 30
0.0
 10
1156.942945525109
 20
365.2745352629551
 30
0.0
 10
1157.869620105713
 20
364.873313110375
 30
0.0
 10
1159.021032826252
 20
364.5410084841491
 30
0.0
 10
1160.177104130308
 20
364.3158365750435
 30
0.0
 10
1161.189442412901
 20
364.1794534271172
 30
0.0
 10
1162.159039399219
 20
364.0913600782811
 30
0.0
 10
1163.048451927362
 20
364.0451021976716
 30
0.0
 10
1163.647022017882
 20
364.0400915427537
 30
0.0
 10
1163.88419848583
 20
364.0381061287575
 30
0.0
  0
LINE
  5
51
330
1F
100
AcDbEntity
  8
0
  6
Continuous
 62
     7
370
    15
100
AcDbLine
 10
1155.3841961612
 20
367.5459288808
 30
0.0
 11
1155.3841961612
 21
367.3557304593
 31
0.0
  0
LINE
  5
52
330
1F
100
AcDbEntity
  8
0
  6
Continuous
 62
     7
370
    15
100
AcDbLine
 10
1172.3842008104
 20
367.3557304593
 30
0.0
 11
1172.3842008104
 21
367.5459288808
 31
0.0
  0
SPLINE
  5
53
330
1F
100
AcDbEntity
  8
0
  6
Continuous
 62
     7
370
    15
100
AcDbSpline
210
0.0
220
0.0
230
1.0
 70
     8
 71
     3
 72
     9
 73
     5
 74
     0
 42
0.00000001
 43
0.00000001
 12
1.0
 22
0.0
 32
0.0
 13
1.0
 23
0.0
 33
0.0
 40
0.0
 40
0.0
 40
0.0
 40
0.0
 40
0.0196207953595965
 40
0.9999999999999999
 40
0.9999999999999999
 40
0.9999999999999999
 40
0.9999999999999999
 10
1164.608953713396
 20
370.8528541775398
 30
0.0
 10
1164.604265326944
 20
370.853084248179
 30
0.0
 10
1164.365315459452
 20
370.8648101051068
 30
0.0
 10
1164.122373616549
 20
370.8641754317943
 30
0.0
 10
1163.88419848583
 20
370.863553211277
 30
0.0
  0
SPLINE
  5
54
330
1F
100
AcDbEntity
  8
0
  6
Continuous
 62
     7
370
    15
100
AcDbSpline
210
0.0
220
0.0
230
1.0
 70
     8
 71
     3
 72
     9
 73
     5
 74
     0
 42
0.00000001
 43
0.00000001
 12
1.0
 22
0.0
 32
0.0
 13
1.0
 23
0.0
 33
0.0
 40
0.0
 40
0.0
 40
0.0
 40
0.0
 40
0.3576651568411561
 40
1.0
 40
1.0
 40
1.0
 40
1.0
 10
1166.238909780004
 20
370.7476221771888
 30
0.0
 10
1166.048825525258
 20
370.7664302213053
 30
0.0
 10
1165.51736683796
 20
370.8190158415614
 30
0.0
 10
1164.964243868946
 20
370.8396196399398
 30
0.0
 10
1164.608953713396
 20
370.8528541775397
 30
0.0
  0
SPLINE
  5
55
330
1F
100
AcDbEntity
  8
0
  6
Continuous
 62
     7
370
    15
100
AcDbSpline
210
0.0
220
0.0
230
1.0
 70
     8
 71
     3
 72
    16
 73
    12
 74
     0
 42
0.00000001
 43
0.00000001
 12
1.0
 22
0.0
 32
0.0
 13
1.0
 23
0.0
 33
0.0
 40
0.0
 40
0.0
 40
0.0
 40
0.0
 40
0.0746097085808943
 40
0.1893077831908188
 40
0.315673040636461
 40
0.4324695573236243
 40
0.5827226005506783
 40
0.7408036936917823
 40
0.8708144757071118
 40
0.9709686273104913
 40
1.0
 40
1.0
 40
1.0
 40
1.0
 10
1172.352848767259
 20
367.5155901165657
 30
0.0
 10
1172.354678266199
 20
367.6751624033608
 30
0.0
 10
1172.359320267826
 20
368.0800463849024
 30
0.0
 10
1172.031713903158
 20
368.6697488660751
 30
0.0
 10
1171.530262827746
 20
369.1774604260507
 30
0.0
 10
1170.825588444751
 20
369.6271268132176
 30
0.0
 10
1169.898558777857
 20
370.0281468027472
 30
0.0
 10
1168.74806708945
 20
370.3614066952519
 30
0.0
 10
1167.589404495767
 20
370.5837671030163
 30
0.0
 10
1166.76648207785
 20
370.70153282904
 30
0.0
 10
1166.335714535321
 20
370.7391651977599
 30
0.0
 10
1166.238909780004
 20
370.7476221771888
 30
0.0
  0
SPLINE
  5
56
330
1F
100
AcDbEntity
  8
0
  6
Continuous
 62
     7
370
    15
100
AcDbSpline
210
0.0
220
0.0
230
1.0
 70
     8
 71
     3
 72
    16
 73
    12
 74
     0
 42
0.00000001
 43
0.00000001
 12
1.0
 22
0.0
 32
0.0
 13
1.0
 23
0.0
 33
0.0
 40
0.0
 40
0.0
 40
0.0
 40
0.0
 40
0.0768159441370927
 40
0.2013642333755168
 40
0.3275755750433112
 40
0.4544564783144711
 40
0.5817556245924083
 40
0.7100253412405644
 40
0.835071980666815
 40
0.9545391433641348
 40
1.0
 40
1.0
 40
1.0
 40
1.0
 10
1160.286670743444
 20
370.5870174618416
 30
0.0
 10
1160.080189944516
 20
370.5542541740178
 30
0.0
 10
1159.538924088188
 20
370.4683689530574
 30
0.0
 10
1158.739038044288
 20
370.2796994414556
 30
0.0
 10
1157.898712122455
 20
370.0259430352239
 30
0.0
 10
1157.157338599038
 20
369.7244862186204
 30
0.0
 10
1156.520128638778
 20
369.3722017370607
 30
0.0
 10
1155.988108479816
 20
368.9538874718983
 30
0.0
 10
1155.59861285996
 20
368.4411423364865
 30
0.0
 10
1155.377527702347
 20
367.9377190002312
 30
0.0
 10
1155.408337322399
 20
367.6361005237869
 30
0.0
 10
1155.416829704263
 20
367.5529622288398
 30
0.0
  0
SPLINE
  5
57
330
1F
100
AcDbEntity
  8
0
  6
Continuous
 62
     7
370
    15
100
AcDbSpline
210
0.0
220
0.0
230
1.0
 70
     8
 71
     3
 72
    11
 73
     7
 74
     0
 42
0.00000001
 43
0.00000001
 12
1.0
 22
0.0
 32
0.0
 13
1.0
 23
0.0
 33
0.0
 40
0.0
 40
0.0
 40
0.0
 40
0.0
 40
0.4396198774306616
 40
0.6134833217238604
 40
0.8979748440151025
 40
1.0
 40
1.0
 40
1.0
 40
1.0
 10
1163.88419848583
 20
370.863553211277
 30
0.0
 10
1163.335965421638
 20
370.8540650053176
 30
0.0
 10
1162.570913933828
 20
370.8408243480865
 30
0.0
 10
1161.488499901572
 20
370.7508599831269
 30
0.0
 10
1160.822720855769
 20
370.6804004018402
 30
0.0
 10
1160.398617341443
 20
370.6065191878997
 30
0.0
 10
1160.286670743444
 20
370.5870174618415
 30
0.0
  0
LWPOLYLINE
  5
58
330
1F
100
AcDbEntity
  8
0
  6
Continuous
 62
     7
370
    15
100
AcDbPolyline
 90
       22
 70
   128
 43
0.0
 10
1195.1705498686
 20
1085.7692026349
 10
1195.0264407387
 20
1085.6485628339
 10
1194.5953128924
 20
1085.2877461167
 10
1193.8807649603
 20
1084.6897029133
 10
1192.8887797584
 20
1083.8594698163
 10
1191.6276199808
 20
1082.8039311619
 10
1190.1078356495
 20
1081.5319382401
 10
1188.3421225538
 20
1080.0541304799
 10
1186.3452104916
 20
1078.3828162404
 10
1184.1337962141
 20
1076.5319728108
 10
1181.7263348093
 20
1074.5170377942
 10
1179.1429502954
 20
1072.354879305
 10
1176.4052046528
 20
1070.063512847
 10
1173.5359711637
 20
1067.6621013137
 10
1170.5592108955
 20
1065.1707016679
 10
1167.4997864356
 20
1062.6101159306
 10
1164.3832532754
 20
1060.0017421694
 10
1161.2356437435
 20
1057.3673360797
 10
1158.0832434883
 20
1054.7289364787
 10
1154.9523828616
 20
1052.1085523816
 10
1151.8692059507
 20
1049.5280884953
 10
1148.8594694128
 20
1047.009091899
  0
LWPOLYLINE
  5
59
330
1F
100
AcDbEntity
  8
0
  6
Continuous
 62
     7
370
    15
100
AcDbPolyline
 90
       22
 70
   128
 43
0.0
 10
1158.486774384
 20
1035.5062597247
 10
1161.4965109219
 20
1038.025256321
 10
1164.5796803822
 20
1040.6057202073
 10
1167.7105484595
 20
1043.2261043044
 10
1170.8629487147
 20
1045.8645188065
 10
1174.0105582466
 20
1048.4989099951
 10
1177.1270914068
 20
1051.1072986575
 10
1180.1865158667
 20
1053.6678843947
 10
1183.1632686844
 20
1056.1592840405
 10
1186.032509624
 20
1058.5606806727
 10
1188.7702478161
 20
1060.8520471306
 10
1191.3536397805
 20
1063.014220521
 10
1193.7610937347
 20
1065.0291406365
 10
1195.9725080123
 20
1066.8799840661
 10
1197.969427525
 20
1068.5512983056
 10
1199.7351406207
 20
1070.029120967
 10
1201.254924952
 20
1071.3011138888
 10
1202.5160847297
 20
1072.356637642
 10
1203.5080699315
 20
1073.186870739
 10
1204.2226104131
 20
1073.7849139424
 10
1204.6537457099
 20
1074.1457604619
 10
1204.7978548398
 20
1074.2663704606
  0
LINE
  5
5A
330
1F
100
AcDbEntity
  8
0
  6
Continuous
 62
     7
370
    15
100
AcDbLine
 10
1120.654845803
 20
1003.8427823039
 30
0.0
 11
1158.486774384
 21
1035.5062597247
 31
0.0
  0
LINE
  5
5B
330
1F
100
AcDbEntity
  8
0
  6
Continuous
 62
     7
370
    15
100
AcDbLine
 10
1148.8594694128
 20
1047.009091899
 30
0.0
 11
1111.0275408318
 21
1015.3456144782
 31
0.0
  0
LINE
  5
5C
330
1F
100
AcDbEntity
  8
0
  6
Continuous
 62
     7
370
    15
100
AcDbLine
 10
1200.4341987958
 20
1157.8177773209
 30
0.0
 11
1200.4341987958
 21
1162.8177725526
 31
0.0
  0
LINE
  5
5D
330
1F
100
AcDbEntity
  8
0
  6
Continuous
 62
     7
370
    15
100
AcDbLine
 10
1182.4341995706
 20
1162.8177725526
 30
0.0
 11
1182.4341995706
 21
1157.8177773209
 31
0.0
  0
LINE
  5
5E
330
1F
100
AcDbEntity
  8
0
  6
Continuous
 62
     7
370
    15
100
AcDbLine
 10
977.4842022052
 20
382.2339438649
 30
0.0
 11
977.4842022052
 21
382.2305165978
 31
0.0
  0
LINE
  5
5F
330
1F
100
AcDbEntity
  8
0
  6
Continuous
 62
     7
370
    15
100
AcDbLine
 10
983.4841994633
 20
382.2305165978
 30
0.0
 11
983.4841994633
 21
382.2339438649
 31
0.0
  0
LINE
  5
60
330
1F
100
AcDbEntity
  8
0
  6
Continuous
 62
     7
370
    15
100
AcDbLine
 10
978.4841967811
 20
382.2339438649
 30
0.0
 11
978.4841967811
 21
382.2305165978
 31
0.0
  0
LINE
  5
61
330
1F
100
AcDbEntity
  8
0
  6
Continuous
 62
     7
370
    15
100
AcDbLine
 10
830.9841958871
 20
369.1579066964
 30
0.0
 11
1151.9341377606
 21
369.1579066964
 31
0.0
  0
LINE
  5
62
330
1F
100
AcDbEntity
  8
0
  6
Continuous
 62
     7
370
    15
100
AcDbLine
 10
1175.834259211
 20
369.1579066964
 30
0.0
 11
1230.9842018475
 21
369.1579066964
 31
0.0
  0
ARC
  5
63
330
1F
100
AcDbEntity
  8
0
  6
Continuous
 62
     7
370
    15
100
AcDbCircle
 10
945.3725720132
 20
383.0314388704
 30
0.0
 40
0.9999999999999635
100
AcDbArc
 50
186.9918891808
 51
219.5804499178
  0
ARC
  5
64
330
1F
100
AcDbEntity
  8
0
  6
Continuous
 62
     7
370
    15
100
AcDbCircle
 10
966.6421549879
 20
383.0216589186
 30
0.0
 40
1.000000000000105
100
AcDbArc
 50
320.0718786169
 51
352.9375727866
  0
SPLINE
  5
65
330
1F
100
AcDbEntity
  8
0
  6
Continuous
 62
     7
370
    15
100
AcDbSpline
210
0.0
220
0.0
230
1.0
 70
     8
 71
     3
 72
    12
 73
     8
 74
     0
 42
0.00000001
 43
0.00000001
 12
1.0
 22
0.0
 32
0.0
 13
1.0
 23
0.0
 33
0.0
 40
0.0
 40
0.0
 40
0.0
 40
0.0
 40
0.1466033213768124
 40
0.425001738212934
 40
0.7069748243770633
 40
0.9979426453385507
 40
1.0
 40
1.0
 40
1.0
 40
1.0
 10
944.6018396010186
 20
382.394280359333
 30
0.0
 10
944.769653682819
 20
382.1810212618627
 30
0.0
 10
945.2561452287947
 20
381.5627850154845
 30
0.0
 10
945.8386648566338
 20
380.5482721749627
 30
0.0
 10
946.220464711714
 20
379.3558786151178
 30
0.0
 10
946.3738426826294
 20
378.5705503902493
 30
0.0
 10
946.3169307045904
 20
378.1672978157663
 30
0.0
 10
946.3165311207558
 20
378.1644665451698
 30
0.0
  0
SPLINE
  5
66
330
1F
100
AcDbEntity
  8
0
  6
Continuous
 62
     7
370
    15
100
AcDbSpline
210
0.0
220
0.0
230
1.0
 70
     8
 71
     3
 72
    11
 73
     7
 74
     0
 42
0.00000001
 43
0.00000001
 12
1.0
 22
0.0
 32
0.0
 13
1.0
 23
0.0
 33
0.0
 40
0.0
 40
0.0
 40
0.0
 40
0.0
 40
0.2759622735228823
 40
0.6002749974819142
 40
0.912258851265375
 40
1.0
 40
1.0
 40
1.0
 40
1.0
 10
965.6773937930849
 20
378.4490191193275
 30
0.0
 10
965.7091098326354
 20
378.7999209225443
 30
0.0
 10
965.7780987756468
 20
379.5632048901437
 30
0.0
 10
966.2662397901114
 20
380.7536390925484
 30
0.0
 10
966.8729065859764
 20
381.7220792221569
 30
0.0
 10
967.3125107958853
 20
382.26143549311
 30
0.0
 10
967.4090055813576
 20
382.379826232975
 30
0.0
  0
ARC
  5
67
330
1F
100
AcDbEntity
  8
0
  6
Continuous
 62
     7
370
    15
100
AcDbCircle
 10
945.3262434997
 20
373.4101034216
 30
0.0
 40
0.9999999999999983
100
AcDbArc
 50
189.4611101257
 51
258.0428440945
  0
ARC
  5
68
330
1F
100
AcDbEntity
  8
0
  6
Continuous
 62
     7
370
    15
100
AcDbCircle
 10
966.5958264744
 20
373.4003234699
 30
0.0
 40
0.9999999999999968
100
AcDbArc
 50
281.8831734099
 51
350.6301883002
  0
LINE
  5
69
330
1F
100
AcDbEntity
  8
0
  6
Continuous
 62
     7
370
    15
100
AcDbLine
 10
944.2232905021
 20
373.7711273881
 30
0.0
 11
944.3083463301
 21
373.2592128964
 31
0.0
  0
SPLINE
  5
6A
330
1F
100
AcDbEntity
  8
0
  6
Continuous
 62
     7
370
    15
100
AcDbSpline
210
0.0
220
0.0
230
1.0
 70
     8
 71
     3
 72
    10
 73
     6
 74
     0
 42
0.00000001
 43
0.00000001
 12
1.0
 22
0.0
 32
0.0
 13
1.0
 23
0.0
 33
0.0
 40
0.0
 40
0.0
 40
0.0
 40
0.0
 40
0.1147956253131972
 40
0.7476149408345356
 40
1.0
 40
1.0
 40
1.0
 40
1.0
 10
941.8026713719155
 20
386.3333725186042
 30
0.0
 10
941.9112899885035
 20
385.847639963844
 30
0.0
 10
942.6186767063541
 20
382.6842710271128
 30
0.0
 10
943.4593521975519
 20
378.470641212527
 30
0.0
 10
944.0538035074965
 20
374.8137593248082
 30
0.0
 10
944.2232905020501
 20
373.7711273880653
 30
0.0
  0
SPLINE
  5
6B
330
1F
100
AcDbEntity
  8
0
  6
Continuous
 62
     7
370
    15
100
AcDbSpline
210
0.0
220
0.0
230
1.0
 70
     8
 71
     3
 72
     9
 73
     5
 74
     0
 42
0.00000001
 43
0.00000001
 12
1.0
 22
0.0
 32
0.0
 13
1.0
 23
0.0
 33
0.0
 40
0.0
 40
0.0
 40
0.0
 40
0.0
 40
0.5206244506741866
 40
1.0
 40
1.0
 40
1.0
 40
1.0
 10
967.5836397399689
 20
373.2379042359046
 30
0.0
 10
967.9688248266807
 20
375.4897385726538
 30
0.0
 10
968.7086769143285
 20
379.8149951637209
 30
0.0
 10
969.6529836918305
 20
384.2153413007649
 30
0.0
 10
970.1056612720276
 20
386.3247596474342
 30
0.0
  0
SPLINE
  5
6C
330
1F
100
AcDbEntity
  8
0
  6
Continuous
 62
     7
370
    15
100
AcDbSpline
210
0.0
220
0.0
230
1.0
 70
     8
 71
     3
 72
    11
 73
     7
 74
     0
 42
0.00000001
 43
0.00000001
 12
1.0
 22
0.0
 32
0.0
 13
1.0
 23
0.0
 33
0.0
 40
0.0
 40
0.0
 40
0.0
 40
0.0
 40
0.0925523018587684
 40
0.4249876984515969
 40
0.7579174714184987
 40
1.0
 40
1.0
 40
1.0
 40
1.0
 10
959.9498493661667
 20
371.5282046051674
 30
0.0
 10
960.177086270276
 20
371.5400867674504
 30
0.0
 10
961.220527513132
 20
371.5946480554992
 30
0.0
 10
963.0117202315599
 20
371.7904606362571
 30
0.0
 10
965.0786103375203
 20
372.0795217502216
 30
0.0
 10
966.2912287170091
 20
372.3203696762857
 30
0.0
 10
966.8017460098054
 20
372.4217676373176
 30
0.0
  0
SPLINE
  5
6D
330
1F
100
AcDbEntity
  8
0
  6
Continuous
 62
     7
370
    15
100
AcDbSpline
210
0.0
220
0.0
230
1.0
 70
     8
 71
     3
 72
    12
 73
     8
 74
     0
 42
0.00000001
 43
0.00000001
 12
1.0
 22
0.0
 32
0.0
 13
1.0
 23
0.0
 33
0.0
 40
0.0
 40
0.0
 40
0.0
 40
0.0
 40
0.1036806422842328
 40
0.3447565920139667
 40
0.5855733332919651
 40
0.826304050048701
 40
1.0
 40
1.0
 40
1.0
 40
1.0
 10
949.8032091250207
 20
371.7191480847053
 30
0.0
 10
950.1377894428267
 20
371.6808429329108
 30
0.0
 10
951.2503285589091
 20
371.5534714844101
 30
0.0
 10
953.2379597417287
 20
371.4372710726747
 30
0.0
 10
955.7107166545076
 20
371.3751141494964
 30
0.0
 10
957.9697381671042
 20
371.4022786018707
 30
0.0
 10
959.3650439429643
 20
371.4910136586767
 30
0.0
 10
959.9498493661667
 20
371.5282046051674
 30
0.0
  0
SPLINE
  5
6E
330
1F
100
AcDbEntity
  8
0
  6
Continuous
 62
     7
370
    15
100
AcDbSpline
210
0.0
220
0.0
230
1.0
 70
     8
 71
     3
 72
    10
 73
     6
 74
     0
 42
0.00000001
 43
0.00000001
 12
1.0
 22
0.0
 32
0.0
 13
1.0
 23
0.0
 33
0.0
 40
0.0
 40
0.0
 40
0.0
 40
0.0
 40
0.2502272840648241
 40
0.7279634968697273
 40
1.0
 40
1.0
 40
1.0
 40
1.0
 10
945.119058906057
 20
372.4318110199623
 30
0.0
 10
945.4860114744434
 20
372.3578396192346
 30
0.0
 10
946.5535532329941
 20
372.1426413456195
 30
0.0
 10
948.1112766179612
 20
371.8914462190063
 30
0.0
 10
949.3527655449814
 20
371.7650190565819
 30
0.0
 10
949.8032091250207
 20
371.7191480847053
 30
0.0
  0
SPLINE
  5
6F
330
1F
100
AcDbEntity
  8
0
  6
Continuous
 62
     7
370
    15
100
AcDbSpline
210
0.0
220
0.0
230
1.0
 70
     8
 71
     3
 72
     9
 73
     5
 74
     0
 42
0.00000001
 43
0.00000001
 12
1.0
 22
0.0
 32
0.0
 13
1.0
 23
0.0
 33
0.0
 40
0.0
 40
0.0
 40
0.0
 40
0.0
 40
0.3935237860302694
 40
0.9999999999999999
 40
0.9999999999999999
 40
0.9999999999999999
 40
0.9999999999999999
 10
941.3739500632073
 20
387.3177730293922
 30
0.0
 10
941.4617711436676
 20
387.1798668735545
 30
0.0
 10
941.6849370197289
 20
386.8294276860561
 30
0.0
 10
941.7559054292807
 20
386.5224981897303
 30
0.0
 10
941.798946081617
 20
386.336352750843
 30
0.0
  0
SPLINE
  5
70
330
1F
100
AcDbEntity
  8
0
  6
Continuous
 62
     7
370
    15
100
AcDbSpline
210
0.0
220
0.0
230
1.0
 70
     8
 71
     3
 72
    10
 73
     6
 74
     0
 42
0.00000001
 43
0.00000001
 12
1.0
 22
0.0
 32
0.0
 13
1.0
 23
0.0
 33
0.0
 40
0.0
 40
0.0
 40
0.0
 40
0.0
 40
0.1195936146323291
 40
0.8644311464266451
 40
1.0
 40
1.0
 40
1.0
 40
1.0
 10
970.0966982235695
 20
386.3242530079536
 30
0.0
 10
970.1030347317396
 20
386.3590368148207
 30
0.0
 10
970.1488354631462
 20
386.6104566430424
 30
0.0
 10
970.2709787821303
 20
386.9617325303727
 30
0.0
 10
970.492345750315
 20
387.2702639952861
 30
0.0
 10
970.5264328112389
 20
387.3177730293921
 30
0.0
  0
LINE
  5
71
330
1F
100
AcDbEntity
  8
0
  6
Continuous
 62
     7
370
    15
100
AcDbLine
 10
832.2049139132
 20
387.3177730294
 30
0.0
 11
1229.7634838214
 21
387.3177730294
 31
0.0
  0
LINE
  5
72
330
1F
100
AcDbEntity
  8
0
  6
Continuous
 62
     7
370
    15
100
AcDbLine
 10
1229.7634838214
 20
388.6177801343
 30
0.0
 11
1230.9634892335
 21
388.6177801343
 31
0.0
  0
LINE
  5
73
330
1F
100
AcDbEntity
  8
0
  6
Continuous
 62
     7
370
    15
100
AcDbLine
 10
831.0049085011
 20
388.6177801343
 30
0.0
 11
832.2049139132
 21
388.6177801343
 31
0.0
  0
LINE
  5
74
330
1F
100
AcDbEntity
  8
0
  6
Continuous
 62
     7
370
    15
100
AcDbLine
 10
926.269194304
 20
1098.2177817078
 30
0.0
 11
926.3768700948
 21
1096.9870352002
 31
0.0
  0
LINE
  5
75
330
1F
100
AcDbEntity
  8
0
  6
Continuous
 62
     7
370
    15
100
AcDbLine
 10
935.5915246596
 20
1096.9870352002
 30
0.0
 11
935.6992004504
 21
1098.2177817078
 31
0.0
  0
ARC
  5
76
330
1F
100
AcDbEntity
  8
0
  6
Continuous
 62
     7
370
    15
100
AcDbCircle
 10
934.0972364922
 20
1097.1177758452
 30
0.0
 40
1.499999999999987
100
AcDbArc
 50
348.4630409672
 51
355.0
  0
ARC
  5
77
330
1F
100
AcDbEntity
  8
0
  6
Continuous
 62
     7
370
    15
100
AcDbCircle
 10
927.8711619954
 20
1097.1177758452
 30
0.0
 40
1.499999999999874
100
AcDbArc
 50
185.0
 51
191.5369590328
  0
LINE
  5
78
330
1F
100
AcDbEntity
  8
0
  6
Continuous
 62
     7
370
    15
100
AcDbLine
 10
1126.2691935589
 20
1098.2177817078
 30
0.0
 11
1126.3768693497
 21
1096.9870352002
 31
0.0
  0
LINE
  5
79
330
1F
100
AcDbEntity
  8
0
  6
Continuous
 62
     7
370
    15
100
AcDbLine
 10
1135.5915276398
 20
1096.9870352002
 30
0.0
 11
1135.6992034306
 21
1098.2177817078
 31
0.0
  0
ARC
  5
7A
330
1F
100
AcDbEntity
  8
0
  6
Continuous
 62
     7
370
    15
100
AcDbCircle
 10
1134.0972364922
 20
1097.1177758452
 30
0.0
 40
1.50000000000009
100
AcDbArc
 50
348.4630409672
 51
355.0
  0
ARC
  5
7B
330
1F
100
AcDbEntity
  8
0
  6
Continuous
 62
     7
370
    15
100
AcDbCircle
 10
1127.8711619954
 20
1097.1177758452
 30
0.0
 40
1.499999999999867
100
AcDbArc
 50
185.0
 51
191.5369590328
  0
LINE
  5
7C
330
1F
100
AcDbEntity
  8
0
  6
Continuous
 62
     7
370
    15
100
AcDbLine
 10
894.5591954579
 20
1177.7177714558
 30
0.0
 11
894.5591954579
 21
1178.8615249844
 31
0.0
  0
LINE
  5
7D
330
1F
100
AcDbEntity
  8
0
  6
Continuous
 62
     7
370
    15
100
AcDbLine
 10
860.8091978421
 20
1178.8615249844
 30
0.0
 11
860.8091978421
 21
1177.7177714558
 31
0.0
  0
LINE
  5
7E
330
1F
100
AcDbEntity
  8
0
  6
Continuous
 62
     7
370
    15
100
AcDbLine
 10
894.5591954579
 20
1165.7177769395
 30
0.0
 11
894.5591954579
 21
1172.3177694531
 31
0.0
  0
LINE
  5
7F
330
1F
100
AcDbEntity
  8
0
  6
Continuous
 62
     7
370
    15
100
AcDbLine
 10
860.8091978421
 20
1172.3177694531
 30
0.0
 11
860.8091978421
 21
1165.7177769395
 31
0.0
  0
ARC
  5
80
330
1F
100
AcDbEntity
  8
0
  6
Continuous
 62
     7
370
    15
100
AcDbCircle
 10
868.8091992438
 20
1178.8615283472
 30
0.0
 40
8.000000000000128
100
AcDbArc
 50
102.635625093
 51
180.0
  0
ARC
  5
81
330
1F
100
AcDbEntity
  8
0
  6
Continuous
 62
     7
370
    15
100
AcDbCircle
 10
886.5591992438
 20
1178.8615283472
 30
0.0
 40
8.000000000000128
100
AcDbArc
 50
0.0
 51
77.364374907
  0
LINE
  5
82
330
1F
100
AcDbEntity
  8
0
  6
Continuous
 62
     7
370
    15
100
AcDbLine
 10
893.534204184
 20
1160.3677832337
 30
0.0
 11
893.534204184
 21
1165.7177769395
 31
0.0
  0
LINE
  5
83
330
1F
100
AcDbEntity
  8
0
  6
Continuous
 62
     7
370
    15
100
AcDbLine
 10
861.8342040171
 20
1165.7177769395
 30
0.0
 11
861.8342040171
 21
1160.3677832337
 31
0.0
  0
LINE
  5
84
330
1F
100
AcDbEntity
  8
0
  6
Continuous
 62
     7
370
    15
100
AcDbLine
 10
892.6091997018
 20
1157.4177705498
 30
0.0
 11
892.6091997018
 21
1160.3677832337
 31
0.0
  0
LINE
  5
85
330
1F
100
AcDbEntity
  8
0
  6
Continuous
 62
     7
370
    15
100
AcDbLine
 10
862.7591935982
 20
1160.3677832337
 30
0.0
 11
862.7591935982
 21
1157.4177705498
 31
0.0
  0
ARC
  5
86
330
1F
100
AcDbEntity
  8
0
  6
Continuous
 62
     7
370
    15
100
AcDbCircle
 10
894.4518452396
 20
1170.2677758452
 30
0.0
 40
0.2499999999998863
100
AcDbArc
 50
0.0
 51
64.5694952046
  0
LINE
  5
87
330
1F
100
AcDbEntity
  8
0
  6
Continuous
 62
     7
370
    15
100
AcDbLine
 10
894.701844274
 20
1165.1677750798
 30
0.0
 11
894.701844274
 21
1170.2677869054
 31
0.0
  0
ARC
  5
88
330
1F
100
AcDbEntity
  8
0
  6
Continuous
 62
     7
370
    15
100
AcDbCircle
 10
894.4841992438
 20
1164.6677758452
 30
0.0
 40
0.2500000000000924
100
AcDbArc
 50
0.0
 51
52.7089330724
  0
ARC
  5
89
330
1F
100
AcDbEntity
  8
0
  6
Continuous
 62
     7
370
    15
100
AcDbCircle
 10
894.4841992438
 20
1163.9677758452
 30
0.0
 40
0.25
100
AcDbArc
 50
270.0
 51
0.0
  0
LINE
  5
8A
330
1F
100
AcDbEntity
  8
0
  6
Continuous
 62
     7
370
    15
100
AcDbLine
 10
894.734194695
 20
1163.9677845689
 30
0.0
 11
894.734194695
 21
1164.6677815171
 31
0.0
  0
ARC
  5
8B
330
1F
100
AcDbEntity
  8
0
  6
Continuous
 62
     7
370
    15
100
AcDbCircle
 10
894.4841992438
 20
1165.8677758452
 30
0.0
 40
0.25
100
AcDbArc
 50
0.0
 51
29.4734267881
  0
LINE
  5
8C
330
1F
100
AcDbEntity
  8
0
  6
Continuous
 62
     7
370
    15
100
AcDbLine
 10
894.734194695
 20
1165.1677750798
 30
0.0
 11
894.734194695
 21
1165.867772028
 31
0.0
  0
ARC
  5
8D
330
1F
100
AcDbEntity
  8
0
  6
Continuous
 62
     7
370
    15
100
AcDbCircle
 10
894.9403193927
 20
1159.5677758452
 30
0.0
 40
0.25
100
AcDbArc
 50
270.0
 51
0.0000000001
  0
LINE
  5
8E
330
1F
100
AcDbEntity
  8
0
  6
Continuous
 62
     7
370
    15
100
AcDbLine
 10
895.1903192391
 20
1159.5677696915
 30
0.0
 11
895.1903192391
 21
1164.6677815171
 31
0.0
  0
LINE
  5
8F
330
1F
100
AcDbEntity
  8
0
  6
Continuous
 62
     7
370
    15
100
AcDbLine
 10
838.4842036357
 20
1153.2177888604
 30
0.0
 11
838.4842036357
 21
1154.0177726002
 31
0.0
  0
LINE
  5
90
330
1F
100
AcDbEntity
  8
0
  6
Continuous
 62
     7
370
    15
100
AcDbLine
 10
838.4842036357
 20
1153.2177888604
 30
0.0
 11
836.0563127389
 21
1153.2177888604
 31
0.0
  0
LINE
  5
91
330
1F
100
AcDbEntity
  8
0
  6
Continuous
 62
     7
370
    15
100
AcDbLine
 10
833.4841935029
 20
1153.2177888604
 30
0.0
 11
833.4841935029
 21
1154.0177726002
 31
0.0
  0
LINE
  5
92
330
1F
100
AcDbEntity
  8
0
  6
Continuous
 62
     7
370
    15
100
AcDbLine
 10
838.4842036357
 20
1154.0177726002
 30
0.0
 11
833.4841935029
 21
1154.0177726002
 31
0.0
  0
LINE
  5
93
330
1F
100
AcDbEntity
  8
0
  6
Continuous
 62
     7
370
    15
100
AcDbLine
 10
1223.4841940989
 20
1153.2177888604
 30
0.0
 11
1223.4841940989
 21
1154.0177726002
 31
0.0
  0
LINE
  5
94
330
1F
100
AcDbEntity
  8
0
  6
Continuous
 62
     7
370
    15
100
AcDbLine
 10
1223.4841940989
 20
1153.2177888604
 30
0.0
 11
838.4842036357
 21
1153.2177888604
 31
0.0
  0
LINE
  5
95
330
1F
100
AcDbEntity
  8
0
  6
Continuous
 62
     7
370
    15
100
AcDbLine
 10
1223.4841940989
 20
1154.0177726002
 30
0.0
 11
838.4842036357
 21
1154.0177726002
 31
0.0
  0
LINE
  5
96
330
1F
100
AcDbEntity
  8
0
  6
Continuous
 62
     7
370
    15
100
AcDbLine
 10
1228.4842042317
 20
1153.2177888604
 30
0.0
 11
1228.4842042317
 21
1154.0177726002
 31
0.0
  0
LINE
  5
97
330
1F
100
AcDbEntity
  8
0
  6
Continuous
 62
     7
370
    15
100
AcDbLine
 10
1228.4842042317
 20
1154.0177726002
 30
0.0
 11
1223.4841940989
 21
1154.0177726002
 31
0.0
  0
LINE
  5
98
330
1F
100
AcDbEntity
  8
0
  6
Continuous
 62
     7
370
    15
100
AcDbLine
 10
1225.9120849957
 20
1153.2177888604
 30
0.0
 11
1223.4841940989
 21
1153.2177888604
 31
0.0
  0
LINE
  5
99
330
1F
100
AcDbEntity
  8
0
  6
Continuous
 62
     7
370
    15
100
AcDbLine
 10
1230.1842032065
 20
1153.2177888604
 30
0.0
 11
1225.9120849957
 21
1153.2177888604
 31
0.0
  0
LINE
  5
9A
330
1F
100
AcDbEntity
  8
0
  6
Continuous
 62
     7
370
    15
100
AcDbLine
 10
836.0563127389
 20
1153.2177888604
 30
0.0
 11
831.7841945281
 21
1153.2177888604
 31
0.0
  0
LINE
  5
9B
330
1F
100
AcDbEntity
  8
0
  6
Continuous
 62
     7
370
    15
100
AcDbLine
 10
1230.1842032065
 20
1153.2177888604
 30
0.0
 11
1230.1842032065
 21
1150.6372057648
 31
0.0
  0
LINE
  5
9C
330
1F
100
AcDbEntity
  8
0
  6
Continuous
 62
     7
370
    15
100
AcDbLine
 10
1230.1842032065
 20
1150.6372057648
 30
0.0
 11
831.7841945281
 21
1150.6372057648
 31
0.0
  0
LINE
  5
9D
330
1F
100
AcDbEntity
  8
0
  6
Continuous
 62
     7
370
    15
100
AcDbLine
 10
831.7841945281
 20
1153.2177888604
 30
0.0
 11
831.7841945281
 21
1150.6372057648
 31
0.0
  0
LINE
  5
9E
330
1F
100
AcDbEntity
  8
0
  6
Continuous
 62
     7
370
    15
100
AcDbLine
 10
1230.1842032065
 20
1150.6372057648
 30
0.0
 11
1230.1842032065
 21
1117.3402332516
 31
0.0
  0
LINE
  5
9F
330
1F
100
AcDbEntity
  8
0
  6
Continuous
 62
     7
370
    15
100
AcDbLine
 10
1230.1842032065
 20
1117.3402332516
 30
0.0
 11
831.7841945281
 21
1117.3402332516
 31
0.0
  0
LINE
  5
A0
330
1F
100
AcDbEntity
  8
0
  6
Continuous
 62
     7
370
    15
100
AcDbLine
 10
831.7841945281
 20
1150.6372057648
 30
0.0
 11
831.7841945281
 21
1117.3402332516
 31
0.0
  0
LINE
  5
A1
330
1F
100
AcDbEntity
  8
0
  6
Continuous
 62
     7
370
    15
100
AcDbLine
 10
1230.9842018475
 20
1152.3177885266
 30
0.0
 11
1230.1842032065
 21
1152.3177885266
 31
0.0
  0
LINE
  5
A2
330
1F
100
AcDbEntity
  8
0
  6
Continuous
 62
     7
370
    15
100
AcDbLine
 10
1230.9842018475
 20
1152.3177885266
 30
0.0
 11
1230.9842018475
 21
1150.8701407166
 31
0.0
  0
LINE
  5
A3
330
1F
100
AcDbEntity
  8
0
  6
Continuous
 62
     7
370
    15
100
AcDbLine
 10
1230.9842018475
 20
1150.8701407166
 30
0.0
 11
1230.1842032065
 21
1150.8701407166
 31
0.0
  0
LINE
  5
A4
330
1F
100
AcDbEntity
  8
0
  6
Continuous
 62
     7
370
    15
100
AcDbLine
 10
830.9841958871
 20
1150.8701407166
 30
0.0
 11
831.7841945281
 21
1150.8701407166
 31
0.0
  0
LINE
  5
A5
330
1F
100
AcDbEntity
  8
0
  6
Continuous
 62
     7
370
    15
100
AcDbLine
 10
830.9841958871
 20
1150.8701407166
 30
0.0
 11
830.9841958871
 21
1152.3177885266
 31
0.0
  0
LINE
  5
A6
330
1F
100
AcDbEntity
  8
0
  6
Continuous
 62
     7
370
    15
100
AcDbLine
 10
830.9841958871
 20
1152.3177885266
 30
0.0
 11
831.7841945281
 21
1152.3177885266
 31
0.0
  0
LINE
  5
A7
330
1F
100
AcDbEntity
  8
0
  6
Continuous
 62
     7
370
    15
100
AcDbLine
 10
830.9841958871
 20
1117.5731682034
 30
0.0
 11
831.7841945281
 21
1117.5731682034
 31
0.0
  0
LINE
  5
A8
330
1F
100
AcDbEntity
  8
0
  6
Continuous
 62
     7
370
    15
100
AcDbLine
 10
830.9841958871
 20
1117.5731682034
 30
0.0
 11
830.9841958871
 21
1150.8701407166
 31
0.0
  0
LINE
  5
A9
330
1F
100
AcDbEntity
  8
0
  6
Continuous
 62
     7
370
    15
100
AcDbLine
 10
1230.9842018475
 20
1117.5731682034
 30
0.0
 11
1230.1842032065
 21
1117.5731682034
 31
0.0
  0
LINE
  5
AA
330
1F
100
AcDbEntity
  8
0
  6
Continuous
 62
     7
370
    15
100
AcDbLine
 10
1230.9842018475
 20
1150.8701407166
 30
0.0
 11
1230.9842018475
 21
1117.5731682034
 31
0.0
  0
LINE
  5
AB
330
1F
100
AcDbEntity
  8
0
  6
Continuous
 62
     7
370
    15
100
AcDbLine
 10
1230.1842032065
 20
1117.3402332516
 30
0.0
 11
1230.1842032065
 21
1098.2177817078
 31
0.0
  0
LINE
  5
AC
330
1F
100
AcDbEntity
  8
0
  6
Continuous
 62
     7
370
    15
100
AcDbLine
 10
1230.1842032065
 20
1098.2177817078
 30
0.0
 11
831.7841945281
 21
1098.2177817078
 31
0.0
  0
LINE
  5
AD
330
1F
100
AcDbEntity
  8
0
  6
Continuous
 62
     7
370
    15
100
AcDbLine
 10
831.7841945281
 20
1117.3402332516
 30
0.0
 11
831.7841945281
 21
1098.2177817078
 31
0.0
  0
LINE
  5
AE
330
1F
100
AcDbEntity
  8
0
  6
Continuous
 62
     7
370
    15
100
AcDbLine
 10
830.9841958871
 20
1099.1179012509
 30
0.0
 11
831.7841945281
 21
1099.1179012509
 31
0.0
  0
LINE
  5
AF
330
1F
100
AcDbEntity
  8
0
  6
Continuous
 62
     7
370
    15
100
AcDbLine
 10
830.9841958871
 20
1099.1179012509
 30
0.0
 11
830.9841958871
 21
1117.5731682034
 31
0.0
  0
LINE
  5
B0
330
1F
100
AcDbEntity
  8
0
  6
Continuous
 62
     7
370
    15
100
AcDbLine
 10
1230.9842018475
 20
1099.1179012509
 30
0.0
 11
1230.1842032065
 21
1099.1179012509
 31
0.0
  0
LINE
  5
B1
330
1F
100
AcDbEntity
  8
0
  6
Continuous
 62
     7
370
    15
100
AcDbLine
 10
1230.9842018475
 20
1117.5731682034
 30
0.0
 11
1230.9842018475
 21
1099.1179012509
 31
0.0
  0
LINE
  5
B2
330
1F
100
AcDbEntity
  8
0
  6
Continuous
 62
     7
370
    15
100
AcDbLine
 10
831.7841945281
 20
1152.398254797
 30
0.0
 11
830.9841958871
 21
1152.398254797
 31
0.0
  0
LINE
  5
B3
330
1F
100
AcDbEntity
  8
0
  6
Continuous
 62
     7
370
    15
100
AcDbLine
 10
830.9841958871
 20
1152.3177885266
 30
0.0
 11
830.9841958871
 21
1152.398254797
 31
0.0
  0
LINE
  5
B4
330
1F
100
AcDbEntity
  8
0
  6
Continuous
 62
     7
370
    15
100
AcDbLine
 10
1230.1842032065
 20
1152.398254797
 30
0.0
 11
1230.9842018475
 21
1152.398254797
 31
0.0
  0
LINE
  5
B5
330
1F
100
AcDbEntity
  8
0
  6
Continuous
 62
     7
370
    15
100
AcDbLine
 10
1230.9842018475
 20
1152.398254797
 30
0.0
 11
1230.9842018475
 21
1152.3177885266
 31
0.0
  0
LWPOLYLINE
  5
B6
330
1F
100
AcDbEntity
  8
0
  6
Continuous
 62
     7
370
    15
100
AcDbPolyline
 90
        3
 70
   128
 43
0.0
 10
1230.5738387694
 20
1152.398254797
 10
1230.3837744584
 20
1152.6173316689
 10
1230.1842032065
 20
1152.7925693246
  0
LWPOLYLINE
  5
B7
330
1F
100
AcDbEntity
  8
0
  6
Continuous
 62
     7
370
    15
100
AcDbPolyline
 90
        3
 70
   128
 43
0.0
 10
831.7841945281
 20
1152.7925693246
 10
831.5846232762
 20
1152.6173316689
 10
831.3945589652
 20
1152.398254797
  0
SPLINE
  5
B8
330
1F
100
AcDbEntity
  8
0
  6
Continuous
 62
     7
370
    15
100
AcDbSpline
210
0.0
220
0.0
230
1.0
 70
     8
 71
     3
 72
     9
 73
     5
 74
     0
 42
0.00000001
 43
0.00000001
 12
1.0
 22
0.0
 32
0.0
 13
1.0
 23
0.0
 33
0.0
 40
0.0
 40
0.0
 40
0.0
 40
0.0
 40
0.399727118719272
 40
1.0
 40
1.0
 40
1.0
 40
1.0
 10
1230.184203206518
 20
1098.684873506611
 30
0.0
 10
1230.255139173777
 20
1098.724906241351
 30
0.0
 10
1230.432600156375
 20
1098.82505640096
 30
0.0
 10
1230.527219085375
 20
1099.008053221921
 30
0.0
 10
1230.58401626251
 20
1099.117901250904
 30
0.0
  0
SPLINE
  5
B9
330
1F
100
AcDbEntity
  8
0
  6
Continuous
 62
     7
370
    15
100
AcDbSpline
210
0.0
220
0.0
230
1.0
 70
     8
 71
     3
 72
     9
 73
     5
 74
     0
 42
0.00000001
 43
0.00000001
 12
1.0
 22
0.0
 32
0.0
 13
1.0
 23
0.0
 33
0.0
 40
0.0
 40
0.0
 40
0.0
 40
0.0
 40
0.6002728812807281
 40
1.0
 40
1.0
 40
1.0
 40
1.0
 10
831.3843814720894
 20
1099.117901250904
 30
0.0
 10
831.4411786492242
 20
1099.008053221921
 30
0.0
 10
831.5357975782244
 20
1098.82505640096
 30
0.0
 10
831.7132585608225
 20
1098.724906241351
 30
0.0
 10
831.7841945280816
 20
1098.684873506611
 30
0.0
  0
CIRCLE
  5
BA
330
1F
100
AcDbEntity
  8
0
  6
Continuous
 62
     7
370
    15
100
AcDbCircle
 10
1030.9841992438
 20
766.0177758452
 30
0.0
 40
18.07451804785478
  0
CIRCLE
  5
BB
330
1F
100
AcDbEntity
  8
0
  6
Continuous
 62
     7
370
    15
100
AcDbCircle
 10
1030.9841992438
 20
766.0177758452
 30
0.0
 40
19.0
  0
SPLINE
  5
BC
330
1F
100
AcDbEntity
  8
0
  6
Continuous
 62
     7
370
    15
100
AcDbSpline
210
0.0
220
0.0
230
1.0
 70
     8
 71
     3
 72
    12
 73
     8
 74
     0
 42
0.00000001
 43
0.00000001
 12
1.0
 22
0.0
 32
0.0
 13
1.0
 23
0.0
 33
0.0
 40
0.0
 40
0.0
 40
0.0
 40
0.0
 40
0.1360161550633239
 40
0.2689214667853825
 40
0.5242889869427146
 40
0.7678664977215413
 40
1.0
 40
1.0
 40
1.0
 40
1.0
 10
1153.484201251486
 20
1089.717771932667
 30
0.0
 10
1153.571009690114
 20
1089.859033028581
 30
0.0
 10
1153.742641160175
 20
1090.138324419336
 30
0.0
 10
1154.069378441998
 20
1090.656527793884
 30
0.0
 10
1154.412251147151
 20
1091.204482743657
 30
0.0
 10
1154.668839772127
 20
1091.653650997268
 30
0.0
 10
1154.673003310202
 20
1091.73832640573
 30
0.0
 10
1154.675034998872
 20
1091.779645607059
 30
0.0
  0
LINE
  5
BD
330
1F
100
AcDbEntity
  8
0
  6
Continuous
 62
     7
370
    15
100
AcDbLine
 10
1211.2460641255
 20
1035.2086090298
 30
0.0
 11
1187.0458556404
 21
1059.4088100644
 31
0.0
  0
LINE
  5
BE
330
1F
100
AcDbEntity
  8
0
  6
Continuous
 62
     7
370
    15
100
AcDbLine
 10
1176.3975529065
 20
1070.0571202489
 30
0.0
 11
1154.6750349989
 21
1091.7796456071
 31
0.0
  0
SPLINE
  5
BF
330
1F
100
AcDbEntity
  8
0
  6
Continuous
 62
     7
370
    15
100
AcDbSpline
210
0.0
220
0.0
230
1.0
 70
     8
 71
     3
 72
    12
 73
     8
 74
     0
 42
0.00000001
 43
0.00000001
 12
1.0
 22
0.0
 32
0.0
 13
1.0
 23
0.0
 33
0.0
 40
0.0
 40
0.0
 40
0.0
 40
0.0
 40
0.2052892962679323
 40
0.411698121218213
 40
0.6232650258776637
 40
0.8395554117317842
 40
0.9999999999999999
 40
0.9999999999999999
 40
0.9999999999999999
 40
0.9999999999999999
 10
1211.246064125517
 20
1035.208609029835
 30
0.0
 10
1211.219736250314
 20
1035.200900749495
 30
0.0
 10
1211.166936922956
 20
1035.185442152327
 30
0.0
 10
1210.825119708812
 20
1034.994908706114
 30
0.0
 10
1210.326618948188
 20
1034.697567610975
 30
0.0
 10
1209.750933416942
 20
1034.348352766196
 30
0.0
 10
1209.353475476021
 20
1034.11651726535
 30
0.0
 10
1209.184205352285
 20
1034.017782733028
 30
0.0
  0
SPLINE
  5
C0
330
1F
100
AcDbEntity
  8
0
  6
Continuous
 62
     7
370
    15
100
AcDbSpline
210
0.0
220
0.0
230
1.0
 70
     8
 71
     3
 72
    12
 73
     8
 74
     0
 42
0.00000001
 43
0.00000001
 12
1.0
 22
0.0
 32
0.0
 13
1.0
 23
0.0
 33
0.0
 40
0.0
 40
0.0
 40
0.0
 40
0.0
 40
0.1678688990101029
 40
0.3633358986992207
 40
0.5691262252350423
 40
0.7854572450620364
 40
1.0
 40
1.0
 40
1.0
 40
1.0
 10
1210.680371343115
 20
1034.642916247433
 30
0.0
 10
1210.665423543753
 20
1034.642314490099
 30
0.0
 10
1210.633070486418
 20
1034.641012044899
 30
0.0
 10
1210.426510414762
 20
1034.563212613055
 30
0.0
 10
1210.097389162475
 20
1034.420134023183
 30
0.0
 10
1209.668107520558
 20
1034.224861581313
 30
0.0
 10
1209.345059156803
 20
1034.086617763673
 30
0.0
 10
1209.184205352285
 20
1034.017782733029
 30
0.0
  0
LINE
  5
C1
330
1F
100
AcDbEntity
  8
0
  6
Continuous
 62
     7
370
    15
100
AcDbLine
 10
1211.2460641255
 20
1035.2086090298
 30
0.0
 11
1210.6803713431
 21
1034.6429162474
 31
0.0
  0
SPLINE
  5
C2
330
1F
100
AcDbEntity
  8
0
  6
Continuous
 62
     7
370
    15
100
AcDbSpline
210
0.0
220
0.0
230
1.0
 70
     8
 71
     3
 72
    11
 73
     7
 74
     0
 42
0.00000001
 43
0.00000001
 12
1.0
 22
0.0
 32
0.0
 13
1.0
 23
0.0
 33
0.0
 40
0.0
 40
0.0
 40
0.0
 40
0.0
 40
0.268438674821892
 40
0.5368758625390508
 40
0.8053103663134908
 40
1.0
 40
1.0
 40
1.0
 40
1.0
 10
852.7841923823145
 20
1089.717771932667
 30
0.0
 10
852.6600258528943
 20
1089.914504546686
 30
0.0
 10
852.4116934819152
 20
1090.30796868486
 30
0.0
 10
852.0391986752373
 20
1090.801111467603
 30
0.0
 10
851.700797237615
 20
1091.125494752989
 30
0.0
 10
851.4865975225187
 20
1091.168374605511
 30
0.0
 10
851.3965515484598
 20
1091.18640057761
 30
0.0
  0
LINE
  5
C3
330
1F
100
AcDbEntity
  8
0
  6
Continuous
 62
     7
370
    15
100
AcDbLine
 10
851.2941954722
 20
1092.0177661629
 30
0.0
 11
851.2941954722
 21
1091.5793740006
 31
0.0
  0
SPLINE
  5
C4
330
1F
100
AcDbEntity
  8
0
  6
Continuous
 62
     7
370
    15
100
AcDbSpline
210
0.0
220
0.0
230
1.0
 70
     8
 71
     3
 72
    11
 73
     7
 74
     0
 42
0.00000001
 43
0.00000001
 12
1.0
 22
0.0
 32
0.0
 13
1.0
 23
0.0
 33
0.0
 40
0.0
 40
0.0
 40
0.0
 40
0.0
 40
0.2500035533421997
 40
0.4999945029374633
 40
0.7499992100930244
 40
1.0
 40
1.0
 40
1.0
 40
1.0
 10
852.7841923823145
 20
1089.717771932667
 30
0.0
 10
852.6600281728022
 20
1090.019159304314
 30
0.0
 10
852.4117060134263
 20
1090.621918853383
 30
0.0
 10
852.0391794791743
 20
1091.382191035151
 30
0.0
 10
851.6667000082844
 20
1091.914071216804
 30
0.0
 10
851.4183630023828
 20
1091.983201361424
 30
0.0
 10
851.2941954722191
 20
1092.017766162937
 30
0.0
  0
SPLINE
  5
C5
330
1F
100
AcDbEntity
  8
0
  6
Continuous
 62
     7
370
    15
100
AcDbSpline
210
0.0
220
0.0
230
1.0
 70
     8
 71
     3
 72
    11
 73
     7
 74
     0
 42
0.00000001
 43
0.00000001
 12
1.0
 22
0.0
 32
0.0
 13
1.0
 23
0.0
 33
0.0
 40
0.0
 40
0.0
 40
0.0
 40
0.0
 40
0.2714023756635343
 40
0.547712825393613
 40
0.8240457615073252
 40
1.0
 40
1.0
 40
1.0
 40
1.0
 10
851.2841967930582
 20
1091.617789194172
 30
0.0
 10
851.3108893406618
 20
1091.445823730465
 30
0.0
 10
851.3647571471952
 20
1091.098782958375
 30
0.0
 10
851.7784357933017
 20
1090.576764091334
 30
0.0
 10
852.2916256083748
 20
1090.11450709683
 30
0.0
 10
852.6462371157428
 20
1089.828887233629
 30
0.0
 10
852.7841923823145
 20
1089.717771932667
 30
0.0
  0
SPLINE
  5
C6
330
1F
100
AcDbEntity
  8
0
  6
Continuous
 62
     7
370
    15
100
AcDbSpline
210
0.0
220
0.0
230
1.0
 70
     8
 71
     3
 72
    12
 73
     8
 74
     0
 42
0.00000001
 43
0.00000001
 12
1.0
 22
0.0
 32
0.0
 13
1.0
 23
0.0
 33
0.0
 40
0.0
 40
0.0
 40
0.0
 40
0.0
 40
0.2024624549480521
 40
0.4451285021759553
 40
0.6878617199985553
 40
0.9305991693878884
 40
1.0
 40
1.0
 40
1.0
 40
1.0
 10
850.4841981520441
 20
1091.617789194172
 30
0.0
 10
850.5069524809284
 20
1091.489717995218
 30
0.0
 10
850.5569795357565
 20
1091.208144105497
 30
0.0
 10
850.9844490728825
 20
1090.77192733969
 30
0.0
 10
851.6734645507102
 20
1090.310882408166
 30
0.0
 10
852.3267350677157
 20
1089.958377962735
 30
0.0
 10
852.7009822559615
 20
1089.76153745466
 30
0.0
 10
852.7841923823145
 20
1089.717771932667
 30
0.0
  0
LINE
  5
C7
330
1F
100
AcDbEntity
  8
0
  6
Continuous
 62
     7
370
    15
100
AcDbLine
 10
850.484198152
 20
1091.6177891942
 30
0.0
 11
851.2841967931
 21
1091.6177891942
 31
0.0
  0
LINE
  5
C8
330
1F
100
AcDbEntity
  8
0
  6
Continuous
 62
     7
370
    15
100
AcDbLine
 10
1153.4842012515
 20
1089.7177719327
 30
0.0
 11
852.7841923823
 21
1089.7177719327
 31
0.0
  0
LINE
  5
C9
330
1F
100
AcDbEntity
  8
0
  6
Continuous
 62
     7
370
    15
100
AcDbLine
 10
1154.1001109471
 20
1092.0177661629
 30
0.0
 11
851.2941954722
 21
1092.0177661629
 31
0.0
  0
SPLINE
  5
CA
330
1F
100
AcDbEntity
  8
0
  6
Continuous
 62
     7
370
    15
100
AcDbSpline
210
0.0
220
0.0
230
1.0
 70
     8
 71
     3
 72
    12
 73
     8
 74
     0
 42
0.00000001
 43
0.00000001
 12
1.0
 22
0.0
 32
0.0
 13
1.0
 23
0.0
 33
0.0
 40
0.0
 40
0.0
 40
0.0
 40
0.0
 40
0.2052879975637351
 40
0.4116971943624456
 40
0.6232605118154845
 40
0.8395494594704273
 40
1.0
 40
1.0
 40
1.0
 40
1.0
 10
1154.100110947111
 20
1092.017766162937
 30
0.0
 10
1154.086946091664
 20
1091.993705878425
 30
0.0
 10
1154.060544479703
 20
1091.945453901949
 30
0.0
 10
1153.953567229333
 20
1091.569010039093
 30
0.0
 10
1153.811323492696
 20
1091.006284128651
 30
0.0
 10
1153.651195057305
 20
1090.352271502586
 30
0.0
 10
1153.534079776731
 20
1089.907287362063
 30
0.0
 10
1153.484201251486
 20
1089.717771932667
 30
0.0
  0
LINE
  5
CB
330
1F
100
AcDbEntity
  8
0
  6
Continuous
 62
     7
370
    15
100
AcDbLine
 10
1209.1842053523
 20
442.3177801819
 30
0.0
 11
1209.1842053523
 21
1034.017782733
 31
0.0
  0
LINE
  5
CC
330
1F
100
AcDbEntity
  8
0
  6
Continuous
 62
     7
370
    15
100
AcDbLine
 10
852.7841923823
 20
442.3177801819
 30
0.0
 11
1209.1842053523
 21
442.3177801819
 31
0.0
  0
LINE
  5
CD
330
1F
100
AcDbEntity
  8
0
  6
Continuous
 62
     7
370
    15
100
AcDbLine
 10
852.7841923823
 20
1089.7177719327
 30
0.0
 11
852.7841923823
 21
442.3177801819
 31
0.0
  0
SPLINE
  5
CE
330
1F
100
AcDbEntity
  8
0
  6
Continuous
 62
     7
370
    15
100
AcDbSpline
210
0.0
220
0.0
230
1.0
 70
     8
 71
     3
 72
    12
 73
     8
 74
     0
 42
0.00000001
 43
0.00000001
 12
1.0
 22
0.0
 32
0.0
 13
1.0
 23
0.0
 33
0.0
 40
0.0
 40
0.0
 40
0.0
 40
0.0
 40
0.2004064230328711
 40
0.4430665018031395
 40
0.6857968088230963
 40
0.9285278093642475
 40
1.0
 40
1.0
 40
1.0
 40
1.0
 10
852.7841923823145
 20
442.3177801819496
 30
0.0
 10
852.5431772551328
 20
442.1910219500141
 30
0.0
 10
852.0103314128394
 20
441.9107798023403
 30
0.0
 10
851.2728000651435
 20
441.4758597362363
 30
0.0
 10
850.7106391934747
 20
441.0147542766697
 30
0.0
 10
850.5001998639602
 20
440.661002986621
 30
0.0
 10
850.4871635407063
 20
440.4628394308982
 30
0.0
 10
850.4841981520441
 20
440.4177629204445
 30
0.0
  0
LINE
  5
CF
330
1F
100
AcDbEntity
  8
0
  6
Continuous
 62
     7
370
    15
100
AcDbLine
 10
850.484198152
 20
1091.6177891942
 30
0.0
 11
850.484198152
 21
440.4177629204
 31
0.0
  0
SPLINE
  5
D0
330
1F
100
AcDbEntity
  8
0
  6
Continuous
 62
     7
370
    15
100
AcDbSpline
210
0.0
220
0.0
230
1.0
 70
     8
 71
     3
 72
    11
 73
     7
 74
     0
 42
0.00000001
 43
0.00000001
 12
1.0
 22
0.0
 32
0.0
 13
1.0
 23
0.0
 33
0.0
 40
0.0
 40
0.0
 40
0.0
 40
0.0
 40
0.193204089124664
 40
0.4621337702046181
 40
0.7310661401783219
 40
0.9999999999999999
 40
0.9999999999999999
 40
0.9999999999999999
 40
0.9999999999999999
 10
851.399114548185
 20
440.8499263973883
 30
0.0
 10
851.4883056022214
 20
440.8678342395757
 30
0.0
 10
851.7016457973338
 20
440.9106688331074
 30
0.0
 10
852.0391996356265
 20
441.2345026842078
 30
0.0
 10
852.4116932418154
 20
441.727567920293
 30
0.0
 10
852.6600257728608
 20
442.1210423980994
 30
0.0
 10
852.7841923823145
 20
442.3177801819496
 30
0.0
  0
SPLINE
  5
D1
330
1F
100
AcDbEntity
  8
0
  6
Continuous
 62
     7
370
    15
100
AcDbSpline
210
0.0
220
0.0
230
1.0
 70
     8
 71
     3
 72
    11
 73
     7
 74
     0
 42
0.00000001
 43
0.00000001
 12
1.0
 22
0.0
 32
0.0
 13
1.0
 23
0.0
 33
0.0
 40
0.0
 40
0.0
 40
0.0
 40
0.0
 40
0.2500007899069756
 40
0.5000054970625366
 40
0.7499964466578003
 40
0.9999999999999999
 40
0.9999999999999999
 40
0.9999999999999999
 40
0.9999999999999999
 10
851.2941954722191
 20
440.0177859516792
 30
0.0
 10
851.4183630023829
 20
440.0523507531923
 30
0.0
 10
851.6667000082844
 20
440.1214808978123
 30
0.0
 10
852.0391794791743
 20
440.653361079465
 30
0.0
 10
852.4117060134262
 20
441.413633261233
 30
0.0
 10
852.6600281728022
 20
442.0163928103025
 30
0.0
 10
852.7841923823145
 20
442.3177801819496
 30
0.0
  0
LINE
  5
D2
330
1F
100
AcDbEntity
  8
0
  6
Continuous
 62
     7
370
    15
100
AcDbLine
 10
851.2941954722
 20
440.0177859517
 30
0.0
 11
851.2941954722
 21
440.5177795144
 31
0.0
  0
SPLINE
  5
D3
330
1F
100
AcDbEntity
  8
0
  6
Continuous
 62
     7
370
    15
100
AcDbSpline
210
0.0
220
0.0
230
1.0
 70
     8
 71
     3
 72
    11
 73
     7
 74
     0
 42
0.00000001
 43
0.00000001
 12
1.0
 22
0.0
 32
0.0
 13
1.0
 23
0.0
 33
0.0
 40
0.0
 40
0.0
 40
0.0
 40
0.0
 40
0.2712004575743913
 40
0.5277523262556233
 40
0.7703864124839137
 40
1.0
 40
1.0
 40
1.0
 40
1.0
 10
1153.484201251486
 20
1089.717771932667
 30
0.0
 10
1153.578550299866
 20
1089.917694206393
 30
0.0
 10
1153.762152238477
 20
1090.3067401762
 30
0.0
 10
1153.991699842929
 20
1090.782420868822
 30
0.0
 10
1154.125959899358
 20
1091.110351823025
 30
0.0
 10
1154.11478369688
 20
1091.180049778561
 30
0.0
 10
1154.109349667051
 20
1091.213937923496
 30
0.0
  0
LINE
  5
D4
330
1F
100
AcDbEntity
  8
0
  6
Continuous
 62
     7
370
    15
100
AcDbLine
 10
1154.6750349989
 20
1091.7796456071
 30
0.0
 11
1154.1093496671
 21
1091.2139379235
 31
0.0
  0
SPLINE
  5
D5
330
1F
100
AcDbEntity
  8
0
  6
Continuous
 62
     7
370
    15
100
AcDbSpline
210
0.0
220
0.0
230
1.0
 70
     8
 71
     3
 72
    11
 73
     7
 74
     0
 42
0.00000001
 43
0.00000001
 12
1.0
 22
0.0
 32
0.0
 13
1.0
 23
0.0
 33
0.0
 40
0.0
 40
0.0
 40
0.0
 40
0.0
 40
0.2742004896603274
 40
0.5505246492297255
 40
0.82686888502592
 40
1.0
 40
1.0
 40
1.0
 40
1.0
 10
852.7841923823145
 20
442.3177801819496
 30
0.0
 10
852.5685734905934
 20
442.1440358638076
 30
0.0
 10
852.135665748966
 20
441.7952015859431
 30
0.0
 10
851.6084952805529
 20
441.2713865535479
 30
0.0
 10
851.3236846487355
 20
440.8109276362056
 30
0.0
 10
851.295177367237
 20
440.5270920863836
 30
0.0
 10
851.2841967930581
 20
440.4177629204444
 30
0.0
  0
LINE
  5
D6
330
1F
100
AcDbEntity
  8
0
  6
Continuous
 62
     7
370
    15
100
AcDbLine
 10
850.484198152
 20
440.4177629204
 30
0.0
 11
851.2841967931
 21
440.4177629204
 31
0.0
  0
SPLINE
  5
D7
330
1F
100
AcDbEntity
  8
0
  6
Continuous
 62
     7
370
    15
100
AcDbSpline
210
0.0
220
0.0
230
1.0
 70
     8
 71
     3
 72
    12
 73
     8
 74
     0
 42
0.00000001
 43
0.00000001
 12
1.0
 22
0.0
 32
0.0
 13
1.0
 23
0.0
 33
0.0
 40
0.0
 40
0.0
 40
0.0
 40
0.0
 40
0.2097407309380905
 40
0.442044488500211
 40
0.6743690468557408
 40
0.906681156002037
 40
1.0
 40
1.0
 40
1.0
 40
1.0
 10
1209.184205352285
 20
442.3177801819496
 30
0.0
 10
1209.288312908343
 20
442.0653752615504
 30
0.0
 10
1209.507727473938
 20
441.5334127598765
 30
0.0
 10
1209.843002678976
 20
440.8121222592503
 30
0.0
 10
1210.1891021124
 20
440.268901244259
 30
0.0
 10
1210.466976687713
 20
440.0401796044241
 30
0.0
 10
1210.628043865344
 20
440.0227740189877
 30
0.0
 10
1210.67420226238
 20
440.0177859516791
 30
0.0
  0
LINE
  5
D8
330
1F
100
AcDbEntity
  8
0
  6
Continuous
 62
     7
370
    15
100
AcDbLine
 10
851.2941954722
 20
440.0177859517
 30
0.0
 11
1210.6742022624
 21
440.0177859517
 31
0.0
  0
SPLINE
  5
D9
330
1F
100
AcDbEntity
  8
0
  6
Continuous
 62
     7
370
    15
100
AcDbSpline
210
0.0
220
0.0
230
1.0
 70
     8
 71
     3
 72
    12
 73
     8
 74
     0
 42
0.00000001
 43
0.00000001
 12
1.0
 22
0.0
 32
0.0
 13
1.0
 23
0.0
 33
0.0
 40
0.0
 40
0.0
 40
0.0
 40
0.0
 40
0.1678681178345388
 40
0.3633346702948381
 40
0.5691217265155663
 40
0.7854483833235381
 40
0.9999999999999999
 40
0.9999999999999999
 40
0.9999999999999999
 40
0.9999999999999999
 10
1154.100110947111
 20
1091.217782423084
 30
0.0
 10
1154.08996550337
 20
1091.206785597705
 30
0.0
 10
1154.068006649574
 20
1091.182984008845
 30
0.0
 10
1153.976975565791
 20
1090.981898891911
 30
0.0
 10
1153.845400740216
 20
1090.648021719737
 30
0.0
 10
1153.679936629637
 20
1090.206389367651
 30
0.0
 10
1153.549266942528
 20
1089.880196484443
 30
0.0
 10
1153.484201251486
 20
1089.717771932667
 30
0.0
  0
LINE
  5
DA
330
1F
100
AcDbEntity
  8
0
  6
Continuous
 62
     7
370
    15
100
AcDbLine
 10
1154.1001109471
 20
1092.0177661629
 30
0.0
 11
1154.1001109471
 21
1091.2177824231
 31
0.0
  0
LINE
  5
DB
330
1F
100
AcDbEntity
  8
0
  6
Continuous
 62
     7
370
    15
100
AcDbLine
 10
1211.4841995826
 20
440.4177629204
 30
0.0
 11
1211.4841995826
 21
1034.6336775275
 31
0.0
  0
SPLINE
  5
DC
330
1F
100
AcDbEntity
  8
0
  6
Continuous
 62
     7
370
    15
100
AcDbSpline
210
0.0
220
0.0
230
1.0
 70
     8
 71
     3
 72
    11
 73
     7
 74
     0
 42
0.00000001
 43
0.00000001
 12
1.0
 22
0.0
 32
0.0
 13
1.0
 23
0.0
 33
0.0
 40
0.0
 40
0.0
 40
0.0
 40
0.0
 40
0.2500034855233383
 40
0.5000046914709577
 40
0.7499977967825581
 40
1.0
 40
1.0
 40
1.0
 40
1.0
 10
1211.484199582555
 20
440.4177629204445
 30
0.0
 10
1211.449628014227
 20
440.5761052254886
 30
0.0
 10
1211.380485192801
 20
440.8927883917836
 30
0.0
 10
1210.848627190155
 20
441.3677610981301
 30
0.0
 10
1210.088334611531
 20
441.8427649292363
 30
0.0
 10
1209.485585427905
 20
442.1594398436413
 30
0.0
 10
1209.184205352285
 20
442.3177801819496
 30
0.0
  0
SPLINE
  5
DD
330
1F
100
AcDbEntity
  8
0
  6
Continuous
 62
     7
370
    15
100
AcDbSpline
210
0.0
220
0.0
230
1.0
 70
     8
 71
     3
 72
    13
 73
     9
 74
     0
 42
0.00000001
 43
0.00000001
 12
1.0
 22
0.0
 32
0.0
 13
1.0
 23
0.0
 33
0.0
 40
0.0
 40
0.0
 40
0.0
 40
0.0
 40
0.147687926814789
 40
0.2887923893768145
 40
0.4233778154203776
 40
0.551530206124597
 40
0.7878465222477353
 40
1.0
 40
1.0
 40
1.0
 40
1.0
 10
1209.184205352285
 20
1034.017782733028
 30
0.0
 10
1209.358823180719
 20
1034.06382960178
 30
0.0
 10
1209.700274922841
 20
1034.153870714396
 30
0.0
 10
1210.178448989497
 20
1034.272553864564
 30
0.0
 10
1210.592591342142
 20
1034.375341950285
 30
0.0
 10
1211.028228716635
 20
1034.48583033808
 30
0.0
 10
1211.404017304204
 20
1034.590593264641
 30
0.0
 10
1211.458449733985
 20
1034.619841387301
 30
0.0
 10
1211.484199582555
 20
1034.633677527493
 30
0.0
  0
SPLINE
  5
DE
330
1F
100
AcDbEntity
  8
0
  6
Continuous
 62
     7
370
    15
100
AcDbSpline
210
0.0
220
0.0
230
1.0
 70
     8
 71
     3
 72
    11
 73
     7
 74
     0
 42
0.00000001
 43
0.00000001
 12
1.0
 22
0.0
 32
0.0
 13
1.0
 23
0.0
 33
0.0
 40
0.0
 40
0.0
 40
0.0
 40
0.0
 40
0.2500106450401893
 40
0.5000028599325522
 40
0.7499961335512613
 40
1.0
 40
1.0
 40
1.0
 40
1.0
 10
1210.684200941541
 20
440.4177629204445
 30
0.0
 10
1210.661653108524
 20
440.5761020881291
 30
0.0
 10
1210.616559104657
 20
440.8927687511382
 30
0.0
 10
1210.269677862498
 20
441.3677738600273
 30
0.0
 10
1209.773857432351
 20
441.8427648457949
 30
0.0
 10
1209.380758821674
 20
442.1594395002314
 30
0.0
 10
1209.184205352285
 20
442.3177801819496
 30
0.0
  0
LINE
  5
DF
330
1F
100
AcDbEntity
  8
0
  6
Continuous
 62
     7
370
    15
100
AcDbLine
 10
1211.4841995826
 20
440.4177629204
 30
0.0
 11
1210.6842009415
 21
440.4177629204
 31
0.0
  0
SPLINE
  5
E0
330
1F
100
AcDbEntity
  8
0
  6
Continuous
 62
     7
370
    15
100
AcDbSpline
210
0.0
220
0.0
230
1.0
 70
     8
 71
     3
 72
    13
 73
     9
 74
     0
 42
0.00000001
 43
0.00000001
 12
1.0
 22
0.0
 32
0.0
 13
1.0
 23
0.0
 33
0.0
 40
0.0
 40
0.0
 40
0.0
 40
0.0
 40
0.1505991844784279
 40
0.2935892691895516
 40
0.42911605736689
 40
0.5573390689360196
 40
0.7916621707183625
 40
1.0
 40
1.0
 40
1.0
 40
1.0
 10
1209.184205352285
 20
1034.017782733028
 30
0.0
 10
1209.297936300372
 20
1034.06377341429
 30
0.0
 10
1209.51965188302
 20
1034.153431074443
 30
0.0
 10
1209.831708467182
 20
1034.272213923799
 30
0.0
 10
1210.101946556758
 20
1034.375041765671
 30
0.0
 10
1210.385416605175
 20
1034.485275707708
 30
0.0
 10
1210.63125013679
 20
1034.590228086935
 30
0.0
 10
1210.667255201561
 20
1034.619772490063
 30
0.0
 10
1210.684200941541
 20
1034.633677527493
 30
0.0
  0
LINE
  5
E1
330
1F
100
AcDbEntity
  8
0
  6
Continuous
 62
     7
370
    15
100
AcDbLine
 10
1211.4841995826
 20
1034.6336775275
 30
0.0
 11
1210.6842009415
 21
1034.6336775275
 31
0.0
  0
SPLINE
  5
E2
330
1F
100
AcDbEntity
  8
0
  6
Continuous
 62
     7
370
    15
100
AcDbSpline
210
0.0
220
0.0
230
1.0
 70
     8
 71
     3
 72
    11
 73
     7
 74
     0
 42
0.00000001
 43
0.00000001
 12
1.0
 22
0.0
 32
0.0
 13
1.0
 23
0.0
 33
0.0
 40
0.0
 40
0.0
 40
0.0
 40
0.0
 40
0.2710377555290804
 40
0.5423158807965157
 40
0.8135884168897504
 40
1.0
 40
1.0
 40
1.0
 40
1.0
 10
1209.184205352285
 20
442.3177801819496
 30
0.0
 10
1209.310464655045
 20
442.1177440683923
 30
0.0
 10
1209.563095233582
 20
441.7174944393207
 30
0.0
 10
1209.94206270026
 20
441.2185798678337
 30
0.0
 10
1210.281762027432
 20
440.9016390099872
 30
0.0
 10
1210.494805505906
 20
440.8611868688721
 30
0.0
 10
1210.581576644399
 20
440.8447109909706
 30
0.0
  0
LINE
  5
E3
330
1F
100
AcDbEntity
  8
0
  6
Continuous
 62
     7
370
    15
100
AcDbLine
 10
1210.6742022624
 20
440.5177795144
 30
0.0
 11
1210.6742022624
 21
440.0177859517
 31
0.0
  0
LWPOLYLINE
  5
E4
330
1F
100
AcDbEntity
  8
0
  6
Continuous
 62
     7
370
    15
100
AcDbPolyline
 90
        3
 70
   128
 43
0.0
 10
1152.3780582537
 20
368.0290245267
 10
1152.3239297857
 20
368.10606353
 10
1152.1328670969
 20
368.5016297551
  0
LWPOLYLINE
  5
E5
330
1F
100
AcDbEntity
  8
0
  6
Continuous
 62
     7
370
    15
100
AcDbPolyline
 90
        5
 70
   128
 43
0.0
 10
1175.563631772
 20
369.3671189995
 10
1175.6820811023
 20
368.9453267308
 10
1175.5612252345
 20
368.3106862755
 10
1175.0855727186
 20
367.6921390744
 10
1174.4574440708
 20
367.2206663342
  0
LWPOLYLINE
  5
E6
330
1F
100
AcDbEntity
  8
0
  6
Continuous
 62
     7
370
    15
100
AcDbPolyline
 90
       11
 70
   128
 43
0.0
 10
1179.8146052351
 20
382.3021911832
 10
1179.8670424213
 20
382.533934042
 10
1179.7989292135
 20
383.2726144047
 10
1179.3752966513
 20
383.9999102803
 10
1178.6056293239
 20
384.6995496007
 10
1177.5071008196
 20
385.3559457513
 10
1176.1042608013
 20
385.9544061871
 10
1174.4284464111
 20
386.4815794678
 10
1172.5170893659
 20
386.9256638737
 10
1170.4128963938
 20
387.2767650338
 10
1170.1075194468
 20
387.3177730294
  0
LWPOLYLINE
  5
E7
330
1F
100
AcDbEntity
  8
0
  6
Continuous
 62
     7
370
    15
100
AcDbPolyline
 90
       10
 70
   128
 43
0.0
 10
1157.6608775248
 20
387.3177730294
 10
1156.5342454304
 20
387.1545457097
 10
1154.4981656661
 20
386.7669963093
 10
1152.6717526903
 20
386.2899803372
 10
1151.0958058824
 20
385.7341670247
 10
1149.8055366864
 20
385.1120137425
 10
1148.8297564974
 20
384.4373487683
 10
1148.1902657141
 20
383.7252818795
 10
1147.9013545503
 20
382.9917275162
 10
1147.9537917366
 20
382.3021911832
  0
SPLINE
  5
E8
330
1F
100
AcDbEntity
  8
0
  6
Continuous
 62
     7
370
    15
100
AcDbSpline
210
0.0
220
0.0
230
1.0
 70
     8
 71
     3
 72
    11
 73
     7
 74
     0
 42
0.00000001
 43
0.00000001
 12
1.0
 22
0.0
 32
0.0
 13
1.0
 23
0.0
 33
0.0
 40
0.0
 40
0.0
 40
0.0
 40
0.0
 40
0.2500335462485591
 40
0.5000558738769845
 40
0.7500183130340992
 40
1.0
 40
1.0
 40
1.0
 40
1.0
 10
1164.708784042814
 20
370.7346879692726
 30
0.0
 10
1164.712591962256
 20
370.7230601179211
 30
0.0
 10
1164.720207630284
 20
370.6998049369419
 30
0.0
 10
1164.745831855476
 20
370.6743113163456
 30
0.0
 10
1164.77808001401
 20
370.6593619050059
 30
0.0
 10
1164.801376449663
 20
370.6610213426105
 30
0.0
 10
1164.813025115945
 20
370.6618510933571
 30
0.0
  0
LWPOLYLINE
  5
E9
330
1F
100
AcDbEntity
  8
0
  6
Continuous
 62
     7
370
    15
100
AcDbPolyline
 90
        3
 70
   128
 43
0.0
 10
1164.689434885
 20
364.0698157998
 10
1164.2789302459
 20
364.0598022195
 10
1163.5104401102
 20
364.0594743939
  0
LWPOLYLINE
  5
EA
330
1F
100
AcDbEntity
  8
0
  6
Continuous
 62
     7
370
    15
100
AcDbPolyline
 90
       20
 70
   128
 43
0.0
 10
1164.0723405471
 20
366.9787012788
 10
1165.1419980516
 20
366.9041358681
 10
1166.0753546347
 20
366.7262756081
 10
1166.7712612142
 20
366.4644026013
 10
1167.1543104639
 20
366.1469184609
 10
1167.1829951992
 20
365.8081852647
 10
1166.8542010774
 20
365.4849194737
 10
1166.2035642257
 20
365.2121686192
 10
1165.301589488
 20
365.019496605
 10
1164.2460135808
 20
364.9277352544
 10
1163.1512327184
 20
364.9468683453
 10
1162.1358750453
 20
365.0748395177
 10
1161.3099856367
 20
365.2977310868
 10
1160.7630459657
 20
365.5914031716
 10
1160.5543328514
 20
365.9240566941
 10
1160.706458806
 20
366.2596308442
 10
1161.2029431453
 20
366.5617667885
 10
1161.9899852266
 20
366.7977117749
 10
1162.982298254
 20
366.9418954106
 10
1164.0723405471
 20
366.9787012788
  0
LINE
  5
EB
330
1F
100
AcDbEntity
  8
0
  6
Continuous
 62
     7
370
    15
100
AcDbLine
 10
1167.0898629417
 20
370.6963323804
 30
0.0
 11
1167.0903770318
 21
370.6454896184
 31
0.0
  0
LINE
  5
EC
330
1F
100
AcDbEntity
  8
0
  6
Continuous
 62
     7
370
    15
100
AcDbLine
 10
1167.0790148964
 20
370.6470393391
 30
0.0
 11
1167.0779047599
 21
370.6982695313
 31
0.0
  0
LWPOLYLINE
  5
ED
330
1F
100
AcDbEntity
  8
0
  6
Continuous
 62
     7
370
    15
100
AcDbPolyline
 90
       19
 70
   128
 43
0.0
 10
1163.7147499313
 20
365.3092049809
 10
1162.7005470981
 20
365.3829359265
 10
1161.8291122904
 20
365.5593954774
 10
1161.2055508485
 20
365.8173345776
 10
1160.905068933
 20
366.1256098004
 10
1160.9639136185
 20
366.4470576497
 10
1161.3749919524
 20
366.742905304
 10
1162.0887203207
 20
366.9774793835
 10
1163.0190072646
 20
367.1224378796
 10
1164.0536470403
 20
367.1603464337
 10
1165.0678498735
 20
367.0866154881
 10
1165.9392846813
 20
366.9101559373
 10
1166.5628535738
 20
366.652216837
 10
1166.8633280387
 20
366.3439416142
 10
1166.8044833531
 20
366.0224937649
 10
1166.3934050193
 20
365.7266461106
 10
1165.679676651
 20
365.4921018334
 10
1164.7493971576
 20
365.347113535
 10
1163.7147499313
 20
365.3092049809
  0
LINE
  5
EE
330
1F
100
AcDbEntity
  8
0
  6
Continuous
 62
     7
370
    15
100
AcDbLine
 10
1158.1032631984
 20
370.0754605981
 30
0.0
 11
1158.1050438871
 21
370.0907491894
 31
0.0
  0
SPLINE
  5
EF
330
1F
100
AcDbEntity
  8
0
  6
Continuous
 62
     7
370
    15
100
AcDbSpline
210
0.0
220
0.0
230
1.0
 70
     8
 71
     3
 72
    11
 73
     7
 74
     0
 42
0.00000001
 43
0.00000001
 12
1.0
 22
0.0
 32
0.0
 13
1.0
 23
0.0
 33
0.0
 40
0.0
 40
0.0
 40
0.0
 40
0.0
 40
0.3913943272131718
 40
0.6468544656817824
 40
0.8521841102281859
 40
1.0
 40
1.0
 40
1.0
 40
1.0
 10
1166.498443304517
 20
370.5376052113227
 30
0.0
 10
1166.499123089688
 20
370.5932831027946
 30
0.0
 10
1166.500246565535
 20
370.6853015359557
 30
0.0
 10
1166.504066726355
 20
370.8029130098946
 30
0.0
 10
1166.507885964264
 20
370.8786598837183
 30
0.0
 10
1166.510657159398
 20
370.9052381002541
 30
0.0
 10
1166.511817096689
 20
370.916362926548
 30
0.0
  0
ARC
  5
F0
330
1F
100
AcDbEntity
  8
0
  6
Continuous
 62
     7
370
    15
100
AcDbCircle
 10
1199.9841992438
 20
1080.0177758452
 30
0.0
 40
10.00000000000005
100
AcDbArc
 50
268.5180592626
 51
171.3373034811
  0
ARC
  5
F1
330
1F
100
AcDbEntity
  8
0
  6
Continuous
 62
     7
370
    15
100
AcDbCircle
 10
1199.9841992438
 20
1080.0177758452
 30
0.0
 40
7.500000000000129
100
AcDbArc
 50
309.9276813719
 51
129.9276813719
  0
ELLIPSE
  5
F2
330
1F
100
AcDbEntity
  8
0
  6
Continuous
 62
     7
370
    15
100
AcDbEllipse
 10
1115.84119414
 20
1009.5942028515
 30
0.0
 11
7.371660332131796
 21
6.169718550512698
 31
0.0
210
0.0
220
0.0
230
1.0
 40
0.7802060087
 41
1.57079632679489
 42
3.141592653589834
  0
ELLIPSE
  5
F3
330
1F
100
AcDbEntity
  8
0
  6
Continuous
 62
     7
370
    15
100
AcDbEllipse
 10
1115.84119414
 20
1009.5942028515
 30
0.0
 11
7.371660332131796
 21
6.169718550512698
 31
0.0
210
0.0
220
0.0
230
1.0
 40
0.7802060087
 41
3.141592653589822
 42
4.712388980384705
  0
SPLINE
  5
F4
330
1F
100
AcDbEntity
  8
0
  6
Continuous
 62
     7
370
    15
100
AcDbSpline
210
0.0
220
0.0
230
1.0
 70
     8
 71
     3
 72
    10
 73
     6
 74
     0
 42
0.00000001
 43
0.00000001
 12
1.0
 22
0.0
 32
0.0
 13
1.0
 23
0.0
 33
0.0
 40
0.0
 40
0.0
 40
0.0
 40
0.0
 40
0.0701208455606288
 40
0.530801921151433
 40
0.9999999999999999
 40
0.9999999999999999
 40
0.9999999999999999
 40
0.9999999999999999
 10
1196.274196921804
 20
1177.817788049763
 30
0.0
 10
1196.409440538282
 20
1177.816610599908
 30
0.0
 10
1197.433209873579
 20
1177.80769752078
 30
0.0
 10
1199.363321086452
 20
1177.593126924761
 30
0.0
 10
1201.10063209527
 20
1177.089443355942
 30
0.0
 10
1201.977243839719
 20
1176.835294887608
 30
0.0
  0
LINE
  5
F5
330
1F
100
AcDbEntity
  8
0
  6
Continuous
 62
     7
370
    15
100
AcDbLine
 10
1201.9772438397
 20
1163.8002657147
 30
0.0
 11
1201.9772438397
 21
1176.8352948876
 31
0.0
  0
SPLINE
  5
F6
330
1F
100
AcDbEntity
  8
0
  6
Continuous
 62
     7
370
    15
100
AcDbSpline
210
0.0
220
0.0
230
1.0
 70
     8
 71
     3
 72
     9
 73
     5
 74
     0
 42
0.00000001
 43
0.00000001
 12
1.0
 22
0.0
 32
0.0
 13
1.0
 23
0.0
 33
0.0
 40
0.0
 40
0.0
 40
0.0
 40
0.0
 40
0.4954595962424012
 40
1.0
 40
1.0
 40
1.0
 40
1.0
 10
1201.97724383972
 20
1163.80026571471
 30
0.0
 10
1201.051043976115
 20
1163.525653883923
 30
0.0
 10
1199.181668812874
 20
1162.971397123392
 30
0.0
 10
1197.249203666835
 20
1162.869289815105
 30
0.0
 10
1196.274196921804
 20
1162.817772552555
 30
0.0
  0
SPLINE
  5
F7
330
1F
100
AcDbEntity
  8
0
  6
Continuous
 62
     7
370
    15
100
AcDbSpline
210
0.0
220
0.0
230
1.0
 70
     8
 71
     3
 72
    10
 73
     6
 74
     0
 42
0.00000001
 43
0.00000001
 12
1.0
 22
0.0
 32
0.0
 13
1.0
 23
0.0
 33
0.0
 40
0.0
 40
0.0
 40
0.0
 40
0.0
 40
0.0701268461721934
 40
0.5308018829683672
 40
1.0
 40
1.0
 40
1.0
 40
1.0
 10
1196.274196921804
 20
1162.817772552555
 30
0.0
 10
1196.138948949068
 20
1162.818949867615
 30
0.0
 10
1195.115234316019
 20
1162.827861163141
 30
0.0
 10
1193.185028478766
 20
1163.04243818779
 30
0.0
 10
1191.447740802311
 20
1163.546117655157
 30
0.0
 10
1190.571135102728
 20
1163.80026571471
 30
0.0
  0
LINE
  5
F8
330
1F
100
AcDbEntity
  8
0
  6
Continuous
 62
     7
370
    15
100
AcDbLine
 10
1190.5711425533
 20
1163.8002657147
 30
0.0
 11
1190.5711425533
 21
1176.8352948876
 31
0.0
  0
SPLINE
  5
F9
330
1F
100
AcDbEntity
  8
0
  6
Continuous
 62
     7
370
    15
100
AcDbSpline
210
0.0
220
0.0
230
1.0
 70
     8
 71
     3
 72
     9
 73
     5
 74
     0
 42
0.00000001
 43
0.00000001
 12
1.0
 22
0.0
 32
0.0
 13
1.0
 23
0.0
 33
0.0
 40
0.0
 40
0.0
 40
0.0
 40
0.0
 40
0.4954588828988343
 40
0.9999999999999999
 40
0.9999999999999999
 40
0.9999999999999999
 40
0.9999999999999999
 10
1190.571135102728
 20
1176.835294887608
 30
0.0
 10
1191.497338141499
 20
1177.109891915774
 30
0.0
 10
1193.366722404735
 20
1177.664119597717
 30
0.0
 10
1195.299188379923
 20
1177.766256023434
 30
0.0
 10
1196.274196921804
 20
1177.817788049763
 30
0.0
  0
SPLINE
  5
FA
330
1F
100
AcDbEntity
  8
0
  6
Continuous
 62
     7
370
    15
100
AcDbSpline
210
0.0
220
0.0
230
1.0
 70
     8
 71
     3
 72
    10
 73
     6
 74
     0
 42
0.00000001
 43
0.00000001
 12
1.0
 22
0.0
 32
0.0
 13
1.0
 23
0.0
 33
0.0
 40
0.0
 40
0.0
 40
0.0
 40
0.0
 40
0.0701208455606288
 40
0.530801921151433
 40
0.9999999999999999
 40
0.9999999999999999
 40
0.9999999999999999
 40
0.9999999999999999
 10
1196.274196921804
 20
1157.817777320927
 30
0.0
 10
1196.409440538282
 20
1157.816599871072
 30
0.0
 10
1197.433209873579
 20
1157.807686791945
 30
0.0
 10
1199.363321086452
 20
1157.593116195925
 30
0.0
 10
1201.10063209527
 20
1157.089432627106
 30
0.0
 10
1201.977243839719
 20
1156.835284158771
 30
0.0
  0
LINE
  5
FB
330
1F
100
AcDbEntity
  8
0
  6
Continuous
 62
     7
370
    15
100
AcDbLine
 10
1201.9772438397
 20
1154.0177726002
 30
0.0
 11
1201.9772438397
 21
1156.8352841588
 31
0.0
  0
LINE
  5
FC
330
1F
100
AcDbEntity
  8
0
  6
Continuous
 62
     7
370
    15
100
AcDbLine
 10
1190.5711425533
 20
1154.0177726002
 30
0.0
 11
1190.5711425533
 21
1156.8352841588
 31
0.0
  0
SPLINE
  5
FD
330
1F
100
AcDbEntity
  8
0
  6
Continuous
 62
     7
370
    15
100
AcDbSpline
210
0.0
220
0.0
230
1.0
 70
     8
 71
     3
 72
     9
 73
     5
 74
     0
 42
0.00000001
 43
0.00000001
 12
1.0
 22
0.0
 32
0.0
 13
1.0
 23
0.0
 33
0.0
 40
0.0
 40
0.0
 40
0.0
 40
0.0
 40
0.4954595942128704
 40
1.0
 40
1.0
 40
1.0
 40
1.0
 10
1190.571135102728
 20
1156.835284158771
 30
0.0
 10
1191.497337462869
 20
1157.109895989585
 30
0.0
 10
1193.366717672596
 20
1157.664152752438
 30
0.0
 10
1195.299187706651
 20
1157.766260059027
 30
0.0
 10
1196.274196921804
 20
1157.817777320927
 30
0.0
  0
SPLINE
  5
FE
330
1F
100
AcDbEntity
  8
0
  6
Continuous
 62
     7
370
    15
100
AcDbSpline
210
0.0
220
0.0
230
1.0
 70
     8
 71
     3
 72
     9
 73
     5
 74
     0
 42
0.00000001
 43
0.00000001
 12
1.0
 22
0.0
 32
0.0
 13
1.0
 23
0.0
 33
0.0
 40
0.0
 40
0.0
 40
0.0
 40
0.0
 40
0.7313901713806902
 40
1.0
 40
1.0
 40
1.0
 40
1.0
 10
1190.571142553308
 20
1163.80026571471
 30
0.0
 10
1189.300500503028
 20
1163.414324882472
 30
0.0
 10
1187.563203366697
 20
1162.8866436976
 30
0.0
 10
1185.778899829687
 20
1162.832355023895
 30
0.0
 10
1185.299618362405
 20
1162.817772552555
 30
0.0
  0
LINE
  5
FF
330
1F
100
AcDbEntity
  8
0
  6
Continuous
 62
     7
370
    15
100
AcDbLine
 10
1185.2996183624
 20
1162.8177725526
 30
0.0
 11
1196.2741969218
 21
1162.8177725526
 31
0.0
  0
SPLINE
  5
100
330
1F
100
AcDbEntity
  8
0
  6
Continuous
 62
     7
370
    15
100
AcDbSpline
210
0.0
220
0.0
230
1.0
 70
     8
 71
     3
 72
     9
 73
     5
 74
     0
 42
0.00000001
 43
0.00000001
 12
1.0
 22
0.0
 32
0.0
 13
1.0
 23
0.0
 33
0.0
 40
0.0
 40
0.0
 40
0.0
 40
0.0
 40
0.2686098286193099
 40
1.0
 40
1.0
 40
1.0
 40
1.0
 10
1185.299618362405
 20
1177.817788049763
 30
0.0
 10
1185.778899829687
 20
1177.803205578423
 30
0.0
 10
1187.563203366697
 20
1177.748916904718
 30
0.0
 10
1189.300500503028
 20
1177.221235719846
 30
0.0
 10
1190.571142553308
 20
1176.835294887608
 30
0.0
  0
LINE
  5
101
330
1F
100
AcDbEntity
  8
0
  6
Continuous
 62
     7
370
    15
100
AcDbLine
 10
1185.2996183624
 20
1177.8177880498
 30
0.0
 11
1196.2741969218
 21
1177.8177880498
 31
0.0
  0
SPLINE
  5
102
330
1F
100
AcDbEntity
  8
0
  6
Continuous
 62
     7
370
    15
100
AcDbSpline
210
0.0
220
0.0
230
1.0
 70
     8
 71
     3
 72
     9
 73
     5
 74
     0
 42
0.00000001
 43
0.00000001
 12
1.0
 22
0.0
 32
0.0
 13
1.0
 23
0.0
 33
0.0
 40
0.0
 40
0.0
 40
0.0
 40
0.0
 40
0.2686098286193099
 40
1.0
 40
1.0
 40
1.0
 40
1.0
 10
1185.299618362405
 20
1157.817777320927
 30
0.0
 10
1185.778899829687
 20
1157.803194849587
 30
0.0
 10
1187.563203366697
 20
1157.748906175882
 30
0.0
 10
1189.300500503028
 20
1157.22122499101
 30
0.0
 10
1190.571142553308
 20
1156.835284158771
 30
0.0
  0
LINE
  5
103
330
1F
100
AcDbEntity
  8
0
  6
Continuous
 62
     7
370
    15
100
AcDbLine
 10
1185.2996183624
 20
1157.8177773209
 30
0.0
 11
1196.2741969218
 21
1157.8177773209
 31
0.0
  0
LINE
  5
104
330
1F
100
AcDbEntity
  8
0
  6
Continuous
 62
     7
370
    15
100
AcDbLine
 10
1180.0280941715
 20
1154.0177726002
 30
0.0
 11
1180.0280941715
 21
1156.8352841588
 31
0.0
  0
SPLINE
  5
105
330
1F
100
AcDbEntity
  8
0
  6
Continuous
 62
     7
370
    15
100
AcDbSpline
210
0.0
220
0.0
230
1.0
 70
     8
 71
     3
 72
     9
 73
     5
 74
     0
 42
0.00000001
 43
0.00000001
 12
1.0
 22
0.0
 32
0.0
 13
1.0
 23
0.0
 33
0.0
 40
0.0
 40
0.0
 40
0.0
 40
0.0
 40
0.2575158525886022
 40
1.0
 40
1.0
 40
1.0
 40
1.0
 10
1180.028094171503
 20
1156.835284158771
 30
0.0
 10
1180.470590901087
 20
1156.983586582105
 30
0.0
 10
1182.188919016179
 20
1157.559482869043
 30
0.0
 10
1183.974128569361
 20
1157.707716327733
 30
0.0
 10
1185.299618362405
 20
1157.817777320927
 30
0.0
  0
SPLINE
  5
106
330
1F
100
AcDbEntity
  8
0
  6
Continuous
 62
     7
370
    15
100
AcDbSpline
210
0.0
220
0.0
230
1.0
 70
     8
 71
     3
 72
     9
 73
     5
 74
     0
 42
0.00000001
 43
0.00000001
 12
1.0
 22
0.0
 32
0.0
 13
1.0
 23
0.0
 33
0.0
 40
0.0
 40
0.0
 40
0.0
 40
0.0
 40
0.7424841474113978
 40
1.0
 40
1.0
 40
1.0
 40
1.0
 10
1185.299618362405
 20
1162.817772552555
 30
0.0
 10
1183.974128569361
 20
1162.927833545748
 30
0.0
 10
1182.188919016179
 20
1163.076067004438
 30
0.0
 10
1180.470590901087
 20
1163.651963291377
 30
0.0
 10
1180.028094171503
 20
1163.80026571471
 30
0.0
  0
LINE
  5
107
330
1F
100
AcDbEntity
  8
0
  6
Continuous
 62
     7
370
    15
100
AcDbLine
 10
1180.0280941715
 20
1163.8002657147
 30
0.0
 11
1180.0280941715
 21
1176.8352948876
 31
0.0
  0
SPLINE
  5
108
330
1F
100
AcDbEntity
  8
0
  6
Continuous
 62
     7
370
    15
100
AcDbSpline
210
0.0
220
0.0
230
1.0
 70
     8
 71
     3
 72
     9
 73
     5
 74
     0
 42
0.00000001
 43
0.00000001
 12
1.0
 22
0.0
 32
0.0
 13
1.0
 23
0.0
 33
0.0
 40
0.0
 40
0.0
 40
0.0
 40
0.0
 40
0.2575148477988193
 40
1.0
 40
1.0
 40
1.0
 40
1.0
 10
1180.028094171503
 20
1176.835294887608
 30
0.0
 10
1180.470591215035
 20
1176.983585661505
 30
0.0
 10
1182.188927253965
 20
1177.559438957596
 30
0.0
 10
1183.974131050113
 20
1177.707703688484
 30
0.0
 10
1185.299618362405
 20
1177.817788049763
 30
0.0
  0
SPLINE
  5
109
330
1F
100
AcDbEntity
  8
0
  6
Continuous
 62
     7
370
    15
100
AcDbSpline
210
0.0
220
0.0
230
1.0
 70
     8
 71
     3
 72
     9
 73
     5
 74
     0
 42
0.00000001
 43
0.00000001
 12
1.0
 22
0.0
 32
0.0
 13
1.0
 23
0.0
 33
0.0
 40
0.0
 40
0.0
 40
0.0
 40
0.0
 40
0.495459845468969
 40
1.0
 40
1.0
 40
1.0
 40
1.0
 10
1201.977243839719
 20
1156.835284158771
 30
0.0
 10
1202.047324924025
 20
1157.109895986369
 30
0.0
 10
1202.188771470998
 20
1157.66415246166
 30
0.0
 10
1202.335002195537
 20
1157.766259978567
 30
0.0
 10
1202.408781467893
 20
1157.817777320927
 30
0.0
  0
LINE
  5
10A
330
1F
100
AcDbEntity
  8
0
  6
Continuous
 62
     7
370
    15
100
AcDbLine
 10
1196.2741969218
 20
1157.8177773209
 30
0.0
 11
1202.4087814679
 21
1157.8177773209
 31
0.0
  0
SPLINE
  5
10B
330
1F
100
AcDbEntity
  8
0
  6
Continuous
 62
     7
370
    15
100
AcDbSpline
210
0.0
220
0.0
230
1.0
 70
     8
 71
     3
 72
     9
 73
     5
 74
     0
 42
0.00000001
 43
0.00000001
 12
1.0
 22
0.0
 32
0.0
 13
1.0
 23
0.0
 33
0.0
 40
0.0
 40
0.0
 40
0.0
 40
0.0
 40
0.49545913414759
 40
1.0
 40
1.0
 40
1.0
 40
1.0
 10
1201.977243839719
 20
1176.835294887608
 30
0.0
 10
1202.047324975378
 20
1177.109891912554
 30
0.0
 10
1202.188771829071
 20
1177.664119306947
 30
0.0
 10
1202.33500224648
 20
1177.766255942982
 30
0.0
 10
1202.408781467893
 20
1177.817788049763
 30
0.0
  0
LINE
  5
10C
330
1F
100
AcDbEntity
  8
0
  6
Continuous
 62
     7
370
    15
100
AcDbLine
 10
1196.2741969218
 20
1177.8177880498
 30
0.0
 11
1202.4087814679
 21
1177.8177880498
 31
0.0
  0
SPLINE
  5
10D
330
1F
100
AcDbEntity
  8
0
  6
Continuous
 62
     7
370
    15
100
AcDbSpline
210
0.0
220
0.0
230
1.0
 70
     8
 71
     3
 72
    10
 73
     6
 74
     0
 42
0.00000001
 43
0.00000001
 12
1.0
 22
0.0
 32
0.0
 13
1.0
 23
0.0
 33
0.0
 40
0.0
 40
0.0
 40
0.0
 40
0.0
 40
0.0701232590160905
 40
0.530802206534053
 40
1.0
 40
1.0
 40
1.0
 40
1.0
 10
1202.408781467893
 20
1162.817772552555
 30
0.0
 10
1202.398544408746
 20
1162.818949950014
 30
0.0
 10
1202.321054376761
 20
1162.827862330559
 30
0.0
 10
1202.175055236458
 20
1163.042435061697
 30
0.0
 10
1202.04358245756
 20
1163.54611737489
 30
0.0
 10
1201.977243839719
 20
1163.80026571471
 30
0.0
  0
LINE
  5
10E
330
1F
100
AcDbEntity
  8
0
  6
Continuous
 62
     7
370
    15
100
AcDbLine
 10
1196.2741969218
 20
1162.8177725526
 30
0.0
 11
1202.4087814679
 21
1162.8177725526
 31
0.0
  0
SPLINE
  5
10F
330
1F
100
AcDbEntity
  8
0
  6
Continuous
 62
     7
370
    15
100
AcDbSpline
210
0.0
220
0.0
230
1.0
 70
     8
 71
     3
 72
     9
 73
     5
 74
     0
 42
0.00000001
 43
0.00000001
 12
1.0
 22
0.0
 32
0.0
 13
1.0
 23
0.0
 33
0.0
 40
0.0
 40
0.0
 40
0.0
 40
0.0
 40
0.4954553268810081
 40
1.0
 40
1.0
 40
1.0
 40
1.0
 10
1180.028094171503
 20
1163.80026571471
 30
0.0
 10
1180.098176186174
 20
1163.525653829291
 30
0.0
 10
1180.239625900951
 20
1162.971392182438
 30
0.0
 10
1180.385848510406
 20
1162.869288447914
 30
0.0
 10
1180.459624349096
 20
1162.817772552555
 30
0.0
  0
LINE
  5
110
330
1F
100
AcDbEntity
  8
0
  6
Continuous
 62
     7
370
    15
100
AcDbLine
 10
1185.2996183624
 20
1162.8177725526
 30
0.0
 11
1180.4559512129
 21
1162.8177725526
 31
0.0
  0
SPLINE
  5
111
330
1F
100
AcDbEntity
  8
0
  6
Continuous
 62
     7
370
    15
100
AcDbSpline
210
0.0
220
0.0
230
1.0
 70
     8
 71
     3
 72
    10
 73
     6
 74
     0
 42
0.00000001
 43
0.00000001
 12
1.0
 22
0.0
 32
0.0
 13
1.0
 23
0.0
 33
0.0
 40
0.0
 40
0.0
 40
0.0
 40
0.0
 40
0.0701225554268062
 40
0.5307975532226621
 40
1.0
 40
1.0
 40
1.0
 40
1.0
 10
1180.459624349096
 20
1157.817777320927
 30
0.0
 10
1180.449390042942
 20
1157.816599935807
 30
0.0
 10
1180.371920751746
 20
1157.807687637373
 30
0.0
 10
1180.225872141426
 20
1157.593108682634
 30
0.0
 10
1180.094421983074
 20
1157.089431990516
 30
0.0
 10
1180.028094171503
 20
1156.835284158772
 30
0.0
  0
LINE
  5
112
330
1F
100
AcDbEntity
  8
0
  6
Continuous
 62
     7
370
    15
100
AcDbLine
 10
1185.2996183624
 20
1157.8177773209
 30
0.0
 11
1180.4559512129
 21
1157.8177773209
 31
0.0
  0
SPLINE
  5
113
330
1F
100
AcDbEntity
  8
0
  6
Continuous
 62
     7
370
    15
100
AcDbSpline
210
0.0
220
0.0
230
1.0
 70
     8
 71
     3
 72
    10
 73
     6
 74
     0
 42
0.00000001
 43
0.00000001
 12
1.0
 22
0.0
 32
0.0
 13
1.0
 23
0.0
 33
0.0
 40
0.0
 40
0.0
 40
0.0
 40
0.0
 40
0.0701225554268062
 40
0.5307975532226621
 40
1.0
 40
1.0
 40
1.0
 40
1.0
 10
1180.459624349096
 20
1177.817788049763
 30
0.0
 10
1180.449390042942
 20
1177.816610664643
 30
0.0
 10
1180.371920751746
 20
1177.807698366209
 30
0.0
 10
1180.225872141426
 20
1177.593119411469
 30
0.0
 10
1180.094421983074
 20
1177.089442719352
 30
0.0
 10
1180.028094171503
 20
1176.835294887608
 30
0.0
  0
LINE
  5
114
330
1F
100
AcDbEntity
  8
0
  6
Continuous
 62
     7
370
    15
100
AcDbLine
 10
1185.2996183624
 20
1177.8177880498
 30
0.0
 11
1180.4559512129
 21
1177.8177880498
 31
0.0
  0
SPLINE
  5
115
330
1F
100
AcDbEntity
  8
0
  6
Continuous
 62
     7
370
    15
100
AcDbSpline
210
0.0
220
0.0
230
1.0
 70
     8
 71
     3
 72
    10
 73
     6
 74
     0
 42
0.00000001
 43
0.00000001
 12
1.0
 22
0.0
 32
0.0
 13
1.0
 23
0.0
 33
0.0
 40
0.0
 40
0.0
 40
0.0
 40
0.0
 40
0.0701231126733703
 40
0.5308022874100005
 40
1.0
 40
1.0
 40
1.0
 40
1.0
 10
1202.408781467894
 20
1177.817788049763
 30
0.0
 10
1202.419013111028
 20
1177.816610648533
 30
0.0
 10
1202.496462319609
 20
1177.807698219491
 30
0.0
 10
1202.642529920269
 20
1177.593125764892
 30
0.0
 10
1202.77397804098
 20
1177.089443246939
 30
0.0
 10
1202.840304194906
 20
1176.835294887608
 30
0.0
  0
LINE
  5
116
330
1F
100
AcDbEntity
  8
0
  6
Continuous
 62
     7
370
    15
100
AcDbLine
 10
1202.8403041949
 20
1163.8002657147
 30
0.0
 11
1202.8403041949
 21
1176.8352948876
 31
0.0
  0
SPLINE
  5
117
330
1F
100
AcDbEntity
  8
0
  6
Continuous
 62
     7
370
    15
100
AcDbSpline
210
0.0
220
0.0
230
1.0
 70
     8
 71
     3
 72
     9
 73
     5
 74
     0
 42
0.00000001
 43
0.00000001
 12
1.0
 22
0.0
 32
0.0
 13
1.0
 23
0.0
 33
0.0
 40
0.0
 40
0.0
 40
0.0
 40
0.0
 40
0.4954599230666936
 40
0.9999999999999999
 40
0.9999999999999999
 40
0.9999999999999999
 40
0.9999999999999999
 10
1202.840304194906
 20
1163.80026571471
 30
0.0
 10
1202.77022190786
 20
1163.525653888106
 30
0.0
 10
1202.628772955516
 20
1162.971397501626
 30
0.0
 10
1202.482554525714
 20
1162.869289919764
 30
0.0
 10
1202.408781467893
 20
1162.817772552555
 30
0.0
  0
SPLINE
  5
118
330
1F
100
AcDbEntity
  8
0
  6
Continuous
 62
     7
370
    15
100
AcDbSpline
210
0.0
220
0.0
230
1.0
 70
     8
 71
     3
 72
    10
 73
     6
 74
     0
 42
0.00000001
 43
0.00000001
 12
1.0
 22
0.0
 32
0.0
 13
1.0
 23
0.0
 33
0.0
 40
0.0
 40
0.0
 40
0.0
 40
0.0
 40
0.0701231126733703
 40
0.5308022874100005
 40
1.0
 40
1.0
 40
1.0
 40
1.0
 10
1202.408781467894
 20
1157.817777320927
 30
0.0
 10
1202.419013111028
 20
1157.816599919697
 30
0.0
 10
1202.496462319609
 20
1157.807687490655
 30
0.0
 10
1202.642529920269
 20
1157.593115036055
 30
0.0
 10
1202.77397804098
 20
1157.089432518103
 30
0.0
 10
1202.840304194906
 20
1156.835284158772
 30
0.0
  0
LINE
  5
119
330
1F
100
AcDbEntity
  8
0
  6
Continuous
 62
     7
370
    15
100
AcDbLine
 10
1202.8403041949
 20
1154.0177726002
 30
0.0
 11
1202.8403041949
 21
1156.8352841588
 31
0.0
  0
LWPOLYLINE
  5
11A
330
1F
100
AcDbEntity
  8
0
  6
Continuous
 62
     7
370
    15
100
AcDbPolyline
 90
        3
 70
   128
 43
0.0
 10
1225.0778732886
 20
438.8177656384
 10
1224.9842045893
 20
438.8204478474
 10
1224.8905209889
 20
438.8177656384
  0
LWPOLYLINE
  5
11B
330
1F
100
AcDbEntity
  8
0
  6
Continuous
 62
     7
370
    15
100
AcDbPolyline
 90
        3
 70
   128
 43
0.0
 10
837.0778767457
 20
438.8177656384
 10
836.9841931453
 20
438.8204478474
 10
836.890524446
 20
438.8177656384
  0
LINE
  5
11C
330
1F
100
AcDbEntity
  8
0
  6
Continuous
 62
     7
370
    15
100
AcDbLine
 10
830.9841958871
 20
426.1289500447
 30
0.0
 11
830.9841958871
 21
428.0786179753
 31
0.0
  0
LINE
  5
11D
330
1F
100
AcDbEntity
  8
0
  6
Continuous
 62
     7
370
    15
100
AcDbLine
 10
1215.9842012515
 20
438.8177656384
 30
0.0
 11
1215.9842012515
 21
439.017769024
 31
0.0
  0
LINE
  5
11E
330
1F
100
AcDbEntity
  8
0
  6
Continuous
 62
     7
370
    15
100
AcDbLine
 10
1230.9842018475
 20
439.017769024
 30
0.0
 11
1230.9842018475
 21
428.0786179753
 31
0.0
  0
LINE
  5
11F
330
1F
100
AcDbEntity
  8
0
  6
Continuous
 62
     7
370
    15
100
AcDbLine
 10
1223.8500623097
 20
438.8177656384
 30
0.0
 11
1224.217822968
 21
439.017769024
 31
0.0
  0
LINE
  5
120
330
1F
100
AcDbEntity
  8
0
  6
Continuous
 62
     7
370
    15
100
AcDbLine
 10
1225.7505862107
 20
439.017769024
 30
0.0
 11
1226.118346869
 21
438.8177656384
 31
0.0
  0
LINE
  5
121
330
1F
100
AcDbEntity
  8
0
  6
Continuous
 62
     7
370
    15
100
AcDbLine
 10
838.1183354249
 20
438.8177656384
 30
0.0
 11
837.7505747666
 21
439.017769024
 31
0.0
  0
LINE
  5
122
330
1F
100
AcDbEntity
  8
0
  6
Continuous
 62
     7
370
    15
100
AcDbLine
 10
836.2178264251
 20
439.017769024
 30
0.0
 11
835.8500657668
 21
438.8177656384
 31
0.0
  0
LINE
  5
123
330
1F
100
AcDbEntity
  8
0
  6
Continuous
 62
     7
370
    15
100
AcDbLine
 10
830.9841958871
 20
439.017769024
 30
0.0
 11
830.9841958871
 21
428.0786179753
 31
0.0
  0
LINE
  5
124
330
1F
100
AcDbEntity
  8
0
  6
Continuous
 62
     7
370
    15
100
AcDbLine
 10
845.9841964831
 20
438.8177656384
 30
0.0
 11
845.9841964831
 21
439.017769024
 31
0.0
  0
LINE
  5
125
330
1F
100
AcDbEntity
  8
0
  6
Continuous
 62
     7
370
    15
100
AcDbLine
 10
1230.9842018475
 20
428.0786179753
 30
0.0
 11
1230.9842018475
 21
426.1289500447
 31
0.0
  0
LINE
  5
126
330
1F
100
AcDbEntity
  8
0
  6
Continuous
 62
     7
370
    15
100
AcDbLine
 10
830.9841958871
 20
401.8048309537
 30
0.0
 11
830.9841958871
 21
426.1289500447
 31
0.0
  0
LINE
  5
127
330
1F
100
AcDbEntity
  8
0
  6
Continuous
 62
     7
370
    15
100
AcDbLine
 10
1230.9842018475
 20
401.8048309537
 30
0.0
 11
1230.9842018475
 21
426.1289500447
 31
0.0
  0
LINE
  5
128
330
1F
100
AcDbEntity
  8
0
  6
Continuous
 62
     7
370
    15
100
AcDbLine
 10
1230.9842018475
 20
395.7144581528
 30
0.0
 11
1230.9842018475
 21
401.8048309537
 31
0.0
  0
LINE
  5
129
330
1F
100
AcDbEntity
  8
0
  6
Continuous
 62
     7
370
    15
100
AcDbLine
 10
830.9841958871
 20
395.7144581528
 30
0.0
 11
830.9841958871
 21
401.8048309537
 31
0.0
  0
LWPOLYLINE
  5
12A
330
1F
100
AcDbEntity
  8
0
  6
Continuous
 62
     7
370
    15
100
AcDbPolyline
 90
       17
 70
   128
 43
0.0
 10
982.4842123379
 20
385.2020763608
 10
983.4463058104
 20
384.5680617543
 10
984.1308651557
 20
383.6705946179
 10
984.4607247104
 20
382.6107644292
 10
984.3987209787
 20
381.5080785008
 10
983.9518277039
 20
380.4868423196
 10
983.1704257121
 20
379.6621524544
 10
982.1425883164
 20
379.126962349
 10
980.9841794958
 20
378.9415919038
 10
979.8257781257
 20
379.126962349
 10
978.7979481807
 20
379.6621524544
 10
978.0165536394
 20
380.4868721219
 10
977.5696678152
 20
381.5081083031
 10
977.507671534
 20
382.6107942315
 10
977.8375534405
 20
383.6706244202
 10
978.5221202364
 20
384.5680915566
 10
979.4842137089
 20
385.2020763608
  0
LINE
  5
12B
330
1F
100
AcDbEntity
  8
0
  6
Continuous
 62
     7
370
    15
100
AcDbLine
 10
982.4842123379
 20
385.2020763608
 30
0.0
 11
982.4842272391
 21
387.3177730294
 31
0.0
  0
LINE
  5
12C
330
1F
100
AcDbEntity
  8
0
  6
Continuous
 62
     7
370
    15
100
AcDbLine
 10
979.4842137089
 20
385.2020763608
 30
0.0
 11
979.48422861
 21
387.3177730294
 31
0.0
  0
LINE
  5
12D
330
1F
100
AcDbEntity
  8
0
  6
Continuous
 62
     7
370
    15
100
AcDbLine
 10
830.9841958871
 20
376.2640618535
 30
0.0
 11
830.9841958871
 21
395.7144581528
 31
0.0
  0
LINE
  5
12E
330
1F
100
AcDbEntity
  8
0
  6
Continuous
 62
     7
370
    15
100
AcDbLine
 10
1230.9842018475
 20
376.2640618535
 30
0.0
 11
1230.9842018475
 21
395.7144581528
 31
0.0
  0
LINE
  5
12F
330
1F
100
AcDbEntity
  8
0
  6
Continuous
 62
     7
370
    15
100
AcDbLine
 10
982.4842123379
 20
385.2055036278
 30
0.0
 11
982.4842272391
 21
387.3177730294
 31
0.0
  0
ARC
  5
130
330
1F
100
AcDbEntity
  8
0
  6
Continuous
 62
     7
370
    15
100
AcDbCircle
 10
980.9842018475
 20
382.3835588592
 30
0.0
 40
3.503195989823972
100
AcDbArc
 50
182.4477408204
 51
357.5522591796
  0
LINE
  5
131
330
1F
100
AcDbEntity
  8
0
  6
Continuous
 62
     7
370
    15
100
AcDbLine
 10
980.4842082848
 20
384.5356964322
 30
0.0
 11
980.4842306366
 21
387.3177730294
 31
0.0
  0
ARC
  5
132
330
1F
100
AcDbEntity
  8
0
  6
Continuous
 62
     7
370
    15
100
AcDbCircle
 10
981.1037737776
 20
382.1853657486
 30
0.0
 40
2.380921308762226
100
AcDbArc
 50
1.1690912156
 51
80.8055579982
  0
ARC
  5
133
330
1F
100
AcDbEntity
  8
0
  6
Continuous
 62
     7
370
    15
100
AcDbCircle
 10
980.8645947761
 20
382.1853861151
 30
0.0
 40
2.380893208321839
100
AcDbArc
 50
99.1933315242
 51
178.8313852026
  0
LINE
  5
134
330
1F
100
AcDbEntity
  8
0
  6
Continuous
 62
     7
370
    15
100
AcDbLine
 10
981.4842103114
 20
384.5322691651
 30
0.0
 11
981.4842252126
 21
387.3177730294
 31
0.0
  0
LWPOLYLINE
  5
135
330
1F
100
AcDbEntity
  8
0
  6
Continuous
 62
     7
370
    15
100
AcDbPolyline
 90
       16
 70
   128
 43
0.0
 10
981.4842103114
 20
384.5322691651
 10
982.3821468344
 20
384.1781281682
 10
983.0679653277
 20
383.5284971448
 10
983.4376184335
 20
382.6819025727
 10
983.4350107302
 20
381.7667924615
 10
983.0605445494
 20
380.9220754357
 10
982.3710305681
 20
380.2758716794
 10
981.4710972895
 20
379.9262606354
 10
980.4972766032
 20
379.9262606354
 10
979.5973433246
 20
380.2759014817
 10
978.9078367939
 20
380.922105238
 10
978.5333780637
 20
381.7668222638
 10
978.5307852616
 20
382.6819025727
 10
978.9004458179
 20
383.5284971448
 10
979.5862717619
 20
384.1781579705
 10
980.4842082848
 20
384.5322691651
  0
LINE
  5
136
330
1F
100
AcDbEntity
  8
0
  6
Continuous
 62
     7
370
    15
100
AcDbLine
 10
980.4842082848
 20
384.5322691651
 30
0.0
 11
980.4842306366
 21
387.3177730294
 31
0.0
  0
LINE
  5
137
330
1F
100
AcDbEntity
  8
0
  6
Continuous
 62
     7
370
    15
100
AcDbLine
 10
982.4842123379
 20
385.2055036278
 30
0.0
 11
982.4842123379
 21
385.2020763608
 31
0.0
  0
LINE
  5
138
330
1F
100
AcDbEntity
  8
0
  6
Continuous
 62
     7
370
    15
100
AcDbLine
 10
980.4842082848
 20
384.5356964322
 30
0.0
 11
980.4842082848
 21
384.5322691651
 31
0.0
  0
LINE
  5
139
330
1F
100
AcDbEntity
  8
0
  6
Continuous
 62
     7
370
    15
100
AcDbLine
 10
1230.9842018475
 20
369.1579066964
 30
0.0
 11
1230.9842018475
 21
376.2640618535
 31
0.0
  0
LINE
  5
13A
330
1F
100
AcDbEntity
  8
0
  6
Continuous
 62
     7
370
    15
100
AcDbLine
 10
830.9841958871
 20
369.1579066964
 30
0.0
 11
830.9841958871
 21
376.2640618535
 31
0.0
  0
ARC
  5
13B
330
1F
100
AcDbEntity
  8
0
  6
Continuous
 62
     7
370
    15
100
AcDbCircle
 10
956.5543404683
 20
330.3552254284
 30
0.0
 40
53.56848538739472
100
AcDbArc
 50
78.583498855
 51
88.9740212276
  0
LINE
  5
13C
330
1F
100
AcDbEntity
  8
0
  6
Continuous
 62
     7
370
    15
100
AcDbLine
 10
957.5135244121
 20
383.9151226731
 30
0.0
 11
957.5144259324
 21
385.3849732133
 31
0.0
  0
LINE
  5
13D
330
1F
100
AcDbEntity
  8
0
  6
Continuous
 62
     7
370
    15
100
AcDbLine
 10
957.3898596754
 20
387.3177730294
 30
0.0
 11
957.5144259324
 21
385.3849732133
 31
0.0
  0
LINE
  5
13E
330
1F
100
AcDbEntity
  8
0
  6
Continuous
 62
     7
370
    15
100
AcDbLine
 10
954.6413032403
 20
387.3177730294
 30
0.0
 11
954.5144347539
 21
385.3863441201
 31
0.0
  0
LINE
  5
13F
330
1F
100
AcDbEntity
  8
0
  6
Continuous
 62
     7
370
    15
100
AcDbLine
 10
954.5144347539
 20
385.3863441201
 30
0.0
 11
954.513525783
 21
383.9164935799
 31
0.0
  0
ARC
  5
140
330
1F
100
AcDbEntity
  8
0
  6
Continuous
 62
     7
370
    15
100
AcDbCircle
 10
955.4294389309
 20
330.2073615198
 30
0.0
 40
53.71694112240842
100
AcDbArc
 50
90.976982304
 51
101.3484175856
  0
SPLINE
  5
141
330
1F
100
AcDbEntity
  8
0
  6
Continuous
 62
     7
370
    15
100
AcDbSpline
210
0.0
220
0.0
230
1.0
 70
     8
 71
     3
 72
    14
 73
    10
 74
     0
 42
0.00000001
 43
0.00000001
 12
1.0
 22
0.0
 32
0.0
 13
1.0
 23
0.0
 33
0.0
 40
0.0
 40
0.0
 40
0.0
 40
0.0
 40
0.0450002891450178
 40
0.1924492783099736
 40
0.4101000471147646
 40
0.6281005988936462
 40
0.8446385125153364
 40
0.9597541680864747
 40
0.9999999999999999
 40
0.9999999999999999
 40
0.9999999999999999
 40
0.9999999999999999
 10
955.4796127667214
 20
385.0550317021065
 30
0.0
 10
955.4596796811082
 20
385.0676729941054
 30
0.0
 10
955.3744333857254
 20
385.1217350361126
 30
0.0
 10
955.1585478827436
 20
385.152712228868
 30
0.0
 10
954.8886154296576
 20
385.1956819918987
 30
0.0
 10
954.6533993037528
 20
385.2305915072875
 30
0.0
 10
954.541297417488
 20
385.2755243545468
 30
0.0
 10
954.5150506461092
 20
385.3405217585639
 30
0.0
 10
954.5140407203892
 20
385.3884911565368
 30
0.0
 10
954.5137791027811
 20
385.400917455738
 30
0.0
  0
SPLINE
  5
142
330
1F
100
AcDbEntity
  8
0
  6
Continuous
 62
     7
370
    15
100
AcDbSpline
210
0.0
220
0.0
230
1.0
 70
     8
 71
     3
 72
    10
 73
     6
 74
     0
 42
0.00000001
 43
0.00000001
 12
1.0
 22
0.0
 32
0.0
 13
1.0
 23
0.0
 33
0.0
 40
0.0
 40
0.0
 40
0.0
 40
0.0
 40
0.3114071653913447
 40
0.7326863859286858
 40
0.9999999999999999
 40
0.9999999999999999
 40
0.9999999999999999
 40
0.9999999999999999
 10
957.5138894905831
 20
385.4279183598213
 30
0.0
 10
957.5138765001238
 20
385.4278092037147
 30
0.0
 10
957.5138459358541
 20
385.427552378561
 30
0.0
 10
957.5138172043704
 20
385.4150399602002
 30
0.0
 10
957.5137834030559
 20
385.4038577219386
 30
0.0
 10
957.5137702812935
 20
385.3995167465858
 30
0.0
  0
SPLINE
  5
143
330
1F
100
AcDbEntity
  8
0
  6
Continuous
 62
     7
370
    15
100
AcDbSpline
210
0.0
220
0.0
230
1.0
 70
     8
 71
     3
 72
    15
 73
    11
 74
     0
 42
0.00000001
 43
0.00000001
 12
1.0
 22
0.0
 32
0.0
 13
1.0
 23
0.0
 33
0.0
 40
0.0
 40
0.0
 40
0.0
 40
0.0
 40
0.080290436629676
 40
0.2296424475806708
 40
0.4389270764320348
 40
0.6497256031603205
 40
0.8665137661232256
 40
0.9462846743783704
 40
0.9895163943633146
 40
1.0
 40
1.0
 40
1.0
 40
1.0
 10
957.5137702812935
 20
385.3995167465858
 30
0.0
 10
957.5125110853526
 20
385.3764086854106
 30
0.0
 10
957.5089095999202
 20
385.3103162346796
 30
0.0
 10
957.4557796576944
 20
385.2581434635327
 30
0.0
 10
957.3082492743661
 20
385.2176512967081
 30
0.0
 10
957.0558199053927
 20
385.182335776264
 30
0.0
 10
956.8056345345535
 20
385.1481259797673
 30
0.0
 10
956.635967158239
 20
385.1036340520187
 30
0.0
 10
956.5701701254269
 20
385.0765212977218
 30
0.0
 10
956.5489428454406
 20
385.0581170204625
 30
0.0
 10
956.5447999229218
 20
385.0545250626258
 30
0.0
  0
SPLINE
  5
144
330
1F
100
AcDbEntity
  8
0
  6
Continuous
 62
     7
370
    15
100
AcDbSpline
210
0.0
220
0.0
230
1.0
 70
     8
 71
     3
 72
     9
 73
     5
 74
     0
 42
0.00000001
 43
0.00000001
 12
1.0
 22
0.0
 32
0.0
 13
1.0
 23
0.0
 33
0.0
 40
0.0
 40
0.0
 40
0.0
 40
0.0
 40
0.1371092533230129
 40
1.0
 40
1.0
 40
1.0
 40
1.0
 10
956.5121887316491
 20
385.0223385544471
 30
0.0
 10
956.5136788226703
 20
385.0238087407959
 30
0.0
 10
956.5245467326401
 20
385.0345314769571
 30
0.0
 10
956.5354186478708
 20
385.0452640363969
 30
0.0
 10
956.5447999229218
 20
385.0545250626258
 30
0.0
  0
LINE
  5
145
330
1F
100
AcDbEntity
  8
0
  6
Continuous
 62
     7
370
    15
100
AcDbLine
 10
955.5121867051
 20
385.0228153916
 30
0.0
 11
956.5121887316
 21
385.0223385544
 31
0.0
  0
SPLINE
  5
146
330
1F
100
AcDbEntity
  8
0
  6
Continuous
 62
     7
370
    15
100
AcDbSpline
210
0.0
220
0.0
230
1.0
 70
     8
 71
     3
 72
     9
 73
     5
 74
     0
 42
0.00000001
 43
0.00000001
 12
1.0
 22
0.0
 32
0.0
 13
1.0
 23
0.0
 33
0.0
 40
0.0
 40
0.0
 40
0.0
 40
0.0
 40
0.8629136495622399
 40
1.0
 40
1.0
 40
1.0
 40
1.0
 10
955.4796127667214
 20
385.0550317021065
 30
0.0
 10
955.4889754830858
 20
385.0457572285272
 30
0.0
 10
955.499825602758
 20
385.0350093702867
 30
0.0
 10
955.5106964590728
 20
385.0242854893108
 30
0.0
 10
955.5121867050912
 20
385.0228153916054
 30
0.0
  0
LINE
  5
147
330
1F
100
AcDbEntity
  8
0
  6
Continuous
 62
     7
370
    15
100
AcDbLine
 10
944.4038329711
 20
382.9383515568
 30
0.0
 11
943.779191195
 21
387.3177730294
 31
0.0
  0
LWPOLYLINE
  5
148
330
1F
100
AcDbEntity
  8
0
  6
Continuous
 62
     7
370
    15
100
AcDbPolyline
 90
        3
 70
   128
 43
0.0
 10
944.3800060143
 20
382.909711525
 10
944.3819580664
 20
382.9185628148
 10
944.4038329711
 20
382.9383515568
  0
LINE
  5
149
330
1F
100
AcDbEntity
  8
0
  6
Continuous
 62
     7
370
    15
100
AcDbLine
 10
968.2415409078
 20
387.3177730294
 30
0.0
 11
967.6101489057
 21
382.9276823254
 31
0.0
  0
LWPOLYLINE
  5
14A
330
1F
100
AcDbEntity
  8
0
  6
Continuous
 62
     7
370
    15
100
AcDbPolyline
 90
        3
 70
   128
 43
0.0
 10
967.6101489057
 20
382.9276823254
 10
967.6324484935
 20
382.907863781
 10
967.6345644583
 20
382.8987144681
  0
LWPOLYLINE
  5
14B
330
1F
100
AcDbEntity
  8
0
  6
Continuous
 62
     7
370
    15
100
AcDbPolyline
 90
        3
 70
   128
 43
0.0
 10
946.3176189055
 20
378.1329654904
 10
946.3183863153
 20
378.2037162038
 10
946.3174624433
 20
378.3398532124
  0
LINE
  5
14C
330
1F
100
AcDbEntity
  8
0
  6
Continuous
 62
     7
370
    15
100
AcDbLine
 10
941.8563602557
 20
386.641707346
 30
0.0
 11
944.358250319
 21
373.47086899
 31
0.0
  0
LINE
  5
14D
330
1F
100
AcDbEntity
  8
0
  6
Continuous
 62
     7
370
    15
100
AcDbLine
 10
967.5645662536
 20
373.4601997586
 30
0.0
 11
970.0460938802
 21
386.6287433358
 31
0.0
  0
LINE
  5
14E
330
1F
100
AcDbEntity
  8
0
  6
Continuous
 62
     7
370
    15
100
AcDbLine
 10
965.6582756033
 20
378.4794174882
 30
0.0
 11
965.6509367814
 21
378.2743775101
 31
0.0
  0
LINE
  5
14F
330
1F
100
AcDbEntity
  8
0
  6
Continuous
 62
     7
370
    15
100
AcDbLine
 10
957.4589042058
 20
372.4863790723
 30
0.0
 11
957.4589042058
 21
372.0108532162
 31
0.0
  0
LINE
  5
150
330
1F
100
AcDbEntity
  8
0
  6
Continuous
 62
     7
370
    15
100
AcDbLine
 10
957.5108571043
 20
383.2766377183
 30
0.0
 11
957.4589042058
 21
372.4863790723
 31
0.0
  0
LWPOLYLINE
  5
151
330
1F
100
AcDbEntity
  8
0
  6
Continuous
 62
     7
370
    15
100
AcDbPolyline
 90
        9
 70
   128
 43
0.0
 10
957.5137702813
 20
385.3995167466
 10
957.5136287203
 20
385.0582503529
 10
957.5134052028
 20
384.720470831
 10
957.5131071796
 20
384.3960427495
 10
957.5127421012
 20
384.0944134446
 10
957.5123174181
 20
383.8244044038
 10
957.5118554821
 20
383.5938238354
 10
957.5113637438
 20
383.4094666691
 10
957.5108571043
 20
383.2766377183
  0
SPLINE
  5
152
330
1F
100
AcDbEntity
  8
0
  6
Continuous
 62
     7
370
    15
100
AcDbSpline
210
0.0
220
0.0
230
1.0
 70
     8
 71
     3
 72
    11
 73
     7
 74
     0
 42
0.00000001
 43
0.00000001
 12
1.0
 22
0.0
 32
0.0
 13
1.0
 23
0.0
 33
0.0
 40
0.0
 40
0.0
 40
0.0
 40
0.0
 40
0.2947206785920565
 40
0.58947361120248
 40
0.8837571604896713
 40
1.0
 40
1.0
 40
1.0
 40
1.0
 10
957.5121609558847
 20
383.0716871472054
 30
0.0
 10
957.5123306840757
 20
383.1171845679396
 30
0.0
 10
957.5126701590325
 20
383.2081843886132
 30
0.0
 10
957.5131191605853
 20
383.4658153506854
 30
0.0
 10
957.5133834275448
 20
383.7159732704813
 30
0.0
 10
957.5134933008842
 20
383.8711761196504
 30
0.0
 10
957.5135244121338
 20
383.9151226730995
 30
0.0
  0
LINE
  5
153
330
1F
100
AcDbEntity
  8
0
  6
Continuous
 62
     7
370
    15
100
AcDbLine
 10
957.4589042058
 20
372.0108532162
 30
0.0
 11
957.5121609559
 21
383.0716871472
 31
0.0
  0
ARC
  5
154
330
1F
100
AcDbEntity
  8
0
  6
Continuous
 62
     7
370
    15
100
AcDbCircle
 10
685.6012810326
 20
385.0764256604
 30
0.0
 40
269.9109109965359
100
AcDbArc
 50
359.8200289509
 51
359.9886197925
  0
ARC
  5
155
330
1F
100
AcDbEntity
  8
0
  6
Continuous
 62
     7
370
    15
100
AcDbCircle
 10
955.4864866366
 20
383.2529759091
 30
0.0
 40
0.9759418058182739
100
AcDbArc
 50
88.5689056352
 51
178.5302132913
  0
ARC
  5
156
330
1F
100
AcDbEntity
  8
0
  6
Continuous
 62
     7
370
    15
100
AcDbCircle
 10
956.5342324514
 20
383.2514670629
 30
0.0
 40
0.9769489621046861
100
AcDbArc
 50
1.4763636367
 51
91.3707222658
  0
ARC
  5
157
330
1F
100
AcDbEntity
  8
0
  6
Continuous
 62
     7
370
    15
100
AcDbCircle
 10
682.3447700696
 20
385.0830565883
 30
0.0
 40
274.16742538544
100
AcDbArc
 50
359.8213376582
 51
359.9873110852
  0
ARC
  5
158
330
1F
100
AcDbEntity
  8
0
  6
Continuous
 62
     7
370
    15
100
AcDbCircle
 10
955.4448593163
 20
331.9156372649
 30
0.0
 40
51.16592250188835
100
AcDbArc
 50
91.0444952125
 51
101.3531299666
  0
ARC
  5
159
330
1F
100
AcDbEntity
  8
0
  6
Continuous
 62
     7
370
    15
100
AcDbCircle
 10
946.0053340329
 20
383.0523793715
 30
0.0
 40
1.159820975753547
100
AcDbArc
 50
188.8437550621
 51
236.9364854928
  0
SPLINE
  5
15A
330
1F
100
AcDbEntity
  8
0
  6
Continuous
 62
     7
370
    15
100
AcDbSpline
210
0.0
220
0.0
230
1.0
 70
     8
 71
     3
 72
    11
 73
     7
 74
     0
 42
0.00000001
 43
0.00000001
 12
1.0
 22
0.0
 32
0.0
 13
1.0
 23
0.0
 33
0.0
 40
0.0
 40
0.0
 40
0.0
 40
0.0
 40
0.2933074038052381
 40
0.5866060336787258
 40
0.8804831594186429
 40
1.0
 40
1.0
 40
1.0
 40
1.0
 10
954.5135257830408
 20
383.9164935799293
 30
0.0
 10
954.51344373532
 20
383.8058056722114
 30
0.0
 10
954.513279642333
 20
383.5844331678688
 30
0.0
 10
954.5128560620412
 20
383.306588537454
 30
0.0
 10
954.5124747970448
 20
383.1439474923977
 30
0.0
 10
954.5122324050428
 20
383.0889565526094
 30
0.0
 10
954.5121623267914
 20
383.0730580540351
 30
0.0
  0
ARC
  5
15B
330
1F
100
AcDbEntity
  8
0
  6
Continuous
 62
     7
370
    15
100
AcDbCircle
 10
966.0134117034
 20
383.0433430088
 30
0.0
 40
1.158253746296866
100
AcDbArc
 50
302.8769683581
 51
351.0833174321
  0
ARC
  5
15C
330
1F
100
AcDbEntity
  8
0
  6
Continuous
 62
     7
370
    15
100
AcDbCircle
 10
956.5384406537
 20
332.0577404465
 30
0.0
 40
51.02323871733546
100
AcDbArc
 50
78.5786965366
 51
88.906509032
  0
LWPOLYLINE
  5
15D
330
1F
100
AcDbEntity
  8
0
  6
Continuous
 62
     7
370
    15
100
AcDbPolyline
 90
        9
 70
   128
 43
0.0
 10
954.4589055767
 20
372.0122241231
 10
954.5722289076
 20
371.8347810956
 10
954.8966644397
 20
371.6842793675
 10
955.3828148236
 20
371.5835773202
 10
955.9566734423
 20
371.5480231496
 10
956.5308673372
 20
371.5830408784
 10
957.0179862966
 20
371.6832958909
 10
957.3438672414
 20
371.833529398
 10
957.4589042058
 20
372.0108532162
  0
ARC
  5
15E
330
1F
100
AcDbEntity
  8
0
  6
Continuous
 62
     7
370
    15
100
AcDbCircle
 10
971.6609254896
 20
377.2356587954
 30
0.0
 40
6.968837220079063
100
AcDbArc
 50
136.0687952164
 51
223.3794382573
  0
ARC
  5
15F
330
1F
100
AcDbEntity
  8
0
  6
Continuous
 62
     7
370
    15
100
AcDbCircle
 10
955.9860218287
 20
426.8208641898
 30
0.0
 40
55.39709066574409
100
AcDbArc
 50
258.9056700583
 51
281.0416654872
  0
ARC
  5
160
330
1F
100
AcDbEntity
  8
0
  6
Continuous
 62
     7
370
    15
100
AcDbCircle
 10
940.3074737351
 20
377.2939888831
 30
0.0
 40
6.968837220078988
100
AcDbArc
 50
316.0687952164
 51
43.3794382573
  0
LINE
  5
161
330
1F
100
AcDbEntity
  8
0
  6
Continuous
 62
     7
370
    15
100
AcDbLine
 10
954.5121623268
 20
383.073058054
 30
0.0
 11
954.4589055767
 21
372.0122241231
 31
0.0
  0
LINE
  5
162
330
1F
100
AcDbEntity
  8
0
  6
Continuous
 62
     7
370
    15
100
AcDbLine
 10
956.5108625283
 20
384.2281364651
 30
0.0
 11
955.5108605017
 21
384.2286133023
 31
0.0
  0
LINE
  5
163
330
1F
100
AcDbEntity
  8
0
  6
Continuous
 62
     7
370
    15
100
AcDbLine
 10
955.5108605017
 20
384.2286133023
 30
0.0
 11
955.4589076032
 21
373.4383546563
 31
0.0
  0
LWPOLYLINE
  5
164
330
1F
100
AcDbEntity
  8
0
  6
Continuous
 62
     7
370
    15
100
AcDbPolyline
 90
        3
 70
   128
 43
0.0
 10
954.5348418941
 20
372.8512489052
 10
954.478120624
 20
372.6732992383
 10
954.4615281811
 20
372.5565635415
  0
ARC
  5
165
330
1F
100
AcDbEntity
  8
0
  6
Continuous
 62
     7
370
    15
100
AcDbCircle
 10
956.4822365348
 20
372.4611939806
 30
0.0
 40
0.9769923379580767
100
AcDbArc
 50
1.4771449762
 51
91.3685749423
  0
LINE
  5
166
330
1F
100
AcDbEntity
  8
0
  6
Continuous
 62
     7
370
    15
100
AcDbLine
 10
956.4589021792
 20
373.4379076214
 30
0.0
 11
956.5108625283
 21
384.2281364651
 31
0.0
  0
LWPOLYLINE
  5
167
330
1F
100
AcDbEntity
  8
0
  6
Continuous
 62
     7
370
    15
100
AcDbPolyline
 90
        9
 70
   128
 43
0.0
 10
955.4589076032
 20
373.4383546563
 10
955.4966820469
 20
373.3791970463
 10
955.6048272242
 20
373.3290397378
 10
955.7668773522
 20
373.2954525204
 10
955.9581561079
 20
373.2836209984
 10
956.1495615234
 20
373.2953035088
 10
956.3119320264
 20
373.3287119122
 10
956.4205614915
 20
373.3787798138
 10
956.4589021792
 20
373.4379076214
  0
ARC
  5
168
330
1F
100
AcDbEntity
  8
0
  6
Continuous
 62
     7
370
    15
100
AcDbCircle
 10
945.4138545106
 20
373.5118090078
 30
0.0
 40
1.056397791800172
100
AcDbArc
 50
182.2210173217
 51
265.2428458495
  0
ARC
  5
169
330
1F
100
AcDbEntity
  8
0
  6
Continuous
 62
     7
370
    15
100
AcDbCircle
 10
966.5097586602
 20
373.5013713868
 30
0.0
 40
1.055610800504143
100
AcDbArc
 50
274.6767472987
 51
357.764745283
  0
LWPOLYLINE
  5
16A
330
1F
100
AcDbEntity
  8
0
  6
Continuous
 62
     7
370
    15
100
AcDbPolyline
 90
        3
 70
   128
 43
0.0
 10
944.3398473849
 20
373.2457124444
 10
944.3376718154
 20
373.2601963731
 10
944.3374333968
 20
373.2620143147
  0
LINE
  5
16B
330
1F
100
AcDbEntity
  8
0
  6
Continuous
 62
     7
370
    15
100
AcDbLine
 10
954.4871656289
 20
372.3975085469
 30
0.0
 11
954.4610736956
 21
372.4621497842
 31
0.0
  0
LINE
  5
16C
330
1F
100
AcDbEntity
  8
0
  6
Continuous
 62
     7
370
    15
100
AcDbLine
 10
1230.9842018475
 20
1152.8177820893
 30
0.0
 11
1230.4901091447
 21
1152.8177820893
 31
0.0
  0
LINE
  5
16D
330
1F
100
AcDbEntity
  8
0
  6
Continuous
 62
     7
370
    15
100
AcDbLine
 10
1230.9842018475
 20
1152.398254797
 30
0.0
 11
1230.9842018475
 21
1152.8177820893
 31
0.0
  0
ARC
  5
16E
330
1F
100
AcDbEntity
  8
0
  6
Continuous
 62
     7
370
    15
100
AcDbCircle
 10
1228.9341992438
 20
1151.5677758452
 30
0.0
 40
2.049999999999839
100
AcDbArc
 50
37.5718693197
 51
52.4281306804
  0
ARC
  5
16F
330
1F
100
AcDbEntity
  8
0
  6
Continuous
 62
     7
370
    15
100
AcDbCircle
 10
1228.9341992438
 20
1151.5677758452
 30
0.0
 40
2.04999999999985
100
AcDbArc
 50
53.5984794708
 51
90.0
  0
SPLINE
  5
170
330
1F
100
AcDbEntity
  8
0
  6
Continuous
 62
     7
370
    15
100
AcDbSpline
210
0.0
220
0.0
230
1.0
 70
     8
 71
     3
 72
     9
 73
     5
 74
     0
 42
0.00000001
 43
0.00000001
 12
1.0
 22
0.0
 32
0.0
 13
1.0
 23
0.0
 33
0.0
 40
0.0
 40
0.0
 40
0.0
 40
0.0
 40
0.5874677807738877
 40
1.0
 40
1.0
 40
1.0
 40
1.0
 10
833.0341933359888
 20
1153.617765829151
 30
0.0
 10
832.783220177664
 20
1153.597851793992
 30
0.0
 10
832.3560083942465
 20
1153.563953704922
 30
0.0
 10
832.0086554387077
 20
1153.318886838606
 30
0.0
 10
831.8653611531045
 20
1153.217788860386
 30
0.0
  0
SPLINE
  5
171
330
1F
100
AcDbEntity
  8
0
  6
Continuous
 62
     7
370
    15
100
AcDbSpline
210
0.0
220
0.0
230
1.0
 70
     8
 71
     3
 72
     9
 73
     5
 74
     0
 42
0.00000001
 43
0.00000001
 12
1.0
 22
0.0
 32
0.0
 13
1.0
 23
0.0
 33
0.0
 40
0.0
 40
0.0
 40
0.0
 40
0.0
 40
0.7444987334172577
 40
1.0
 40
1.0
 40
1.0
 40
1.0
 10
831.459438621023
 20
1152.827467844074
 30
0.0
 10
831.364777207762
 20
1152.734504414479
 30
0.0
 10
831.23762935779
 20
1152.609637271767
 30
0.0
 10
831.192876874065
 20
1152.441272268603
 30
0.0
 10
831.1814425577904
 20
1152.398254797047
 30
0.0
  0
LINE
  5
172
330
1F
100
AcDbEntity
  8
0
  6
Continuous
 62
     7
370
    15
100
AcDbLine
 10
833.6841968884
 20
439.017769024
 30
0.0
 11
830.9841958871
 21
439.017769024
 31
0.0
  0
LINE
  5
173
330
1F
100
AcDbEntity
  8
0
  6
Continuous
 62
     7
370
    15
100
AcDbLine
 10
830.9841958871
 20
1099.1179012509
 30
0.0
 11
830.9841958871
 21
439.017769024
 31
0.0
  0
LINE
  5
174
330
1F
100
AcDbEntity
  8
0
  6
Continuous
 62
     7
370
    15
100
AcDbLine
 10
833.6841968884
 20
439.017769024
 30
0.0
 11
846.2842015614
 21
439.017769024
 31
0.0
  0
LINE
  5
175
330
1F
100
AcDbEntity
  8
0
  6
Continuous
 62
     7
370
    15
100
AcDbLine
 10
1230.9842018475
 20
1099.1179012509
 30
0.0
 11
1230.9842018475
 21
439.017769024
 31
0.0
  0
LINE
  5
176
330
1F
100
AcDbEntity
  8
0
  6
Continuous
 62
     7
370
    15
100
AcDbLine
 10
1230.9842018475
 20
439.017769024
 30
0.0
 11
1228.2842008462
 21
439.017769024
 31
0.0
  0
LINE
  5
177
330
1F
100
AcDbEntity
  8
0
  6
Continuous
 62
     7
370
    15
100
AcDbLine
 10
1215.6841961732
 20
439.017769024
 30
0.0
 11
1228.2842008462
 21
439.017769024
 31
0.0
  0
LINE
  5
178
330
1F
100
AcDbEntity
  8
0
  6
Continuous
 62
     7
370
    15
100
AcDbLine
 10
1229.7634838214
 20
410.5177783223
 30
0.0
 11
1229.7634838214
 21
410.5894231053
 31
0.0
  0
LINE
  5
179
330
1F
100
AcDbEntity
  8
0
  6
Continuous
 62
     7
370
    15
100
AcDbLine
 10
832.2049139132
 20
410.5177783223
 30
0.0
 11
1229.7634838214
 21
410.5177783223
 31
0.0
  0
LINE
  5
17A
330
1F
100
AcDbEntity
  8
0
  6
Continuous
 62
     7
370
    15
100
AcDbLine
 10
832.2049139132
 20
410.5894231053
 30
0.0
 11
832.2049139132
 21
410.5177783223
 31
0.0
  0
LINE
  5
17B
330
1F
100
AcDbEntity
  8
0
  6
Continuous
 62
     7
370
    15
100
AcDbLine
 10
833.7049095025
 20
410.5894231053
 30
0.0
 11
832.2049139132
 21
410.5894231053
 31
0.0
  0
LINE
  5
17C
330
1F
100
AcDbEntity
  8
0
  6
Continuous
 62
     7
370
    15
100
AcDbLine
 10
833.7049095025
 20
438.8177656384
 30
0.0
 11
833.7049095025
 21
410.5894231053
 31
0.0
  0
LINE
  5
17D
330
1F
100
AcDbEntity
  8
0
  6
Continuous
 62
     7
370
    15
100
AcDbLine
 10
848.8549051871
 20
438.8177656384
 30
0.0
 11
833.7049095025
 21
438.8177656384
 31
0.0
  0
LINE
  5
17E
330
1F
100
AcDbEntity
  8
0
  6
Continuous
 62
     7
370
    15
100
AcDbLine
 10
848.8549051871
 20
436.3177680226
 30
0.0
 11
848.8549051871
 21
438.8177656384
 31
0.0
  0
LINE
  5
17F
330
1F
100
AcDbEntity
  8
0
  6
Continuous
 62
     7
370
    15
100
AcDbLine
 10
1213.1134925475
 20
436.3177680226
 30
0.0
 11
848.8549051871
 21
436.3177680226
 31
0.0
  0
LINE
  5
180
330
1F
100
AcDbEntity
  8
0
  6
Continuous
 62
     7
370
    15
100
AcDbLine
 10
1213.1134925475
 20
438.8177656384
 30
0.0
 11
1213.1134925475
 21
436.3177680226
 31
0.0
  0
LINE
  5
181
330
1F
100
AcDbEntity
  8
0
  6
Continuous
 62
     7
370
    15
100
AcDbLine
 10
1228.2634882321
 20
438.8177656384
 30
0.0
 11
1213.1134925475
 21
438.8177656384
 31
0.0
  0
LINE
  5
182
330
1F
100
AcDbEntity
  8
0
  6
Continuous
 62
     7
370
    15
100
AcDbLine
 10
1228.2634882321
 20
410.5894231053
 30
0.0
 11
1228.2634882321
 21
438.8177656384
 31
0.0
  0
LINE
  5
183
330
1F
100
AcDbEntity
  8
0
  6
Continuous
 62
     7
370
    15
100
AcDbLine
 10
1228.2634882321
 20
410.5894231053
 30
0.0
 11
1229.7634838214
 21
410.5894231053
 31
0.0
  0
SPLINE
  5
184
330
1F
100
AcDbEntity
  8
0
  6
Continuous
 62
     7
370
    15
100
AcDbSpline
210
0.0
220
0.0
230
1.0
 70
     8
 71
     3
 72
    11
 73
     7
 74
     0
 42
0.00000001
 43
0.00000001
 12
1.0
 22
0.0
 32
0.0
 13
1.0
 23
0.0
 33
0.0
 40
0.0
 40
0.0
 40
0.0
 40
0.0
 40
0.2500008131327137
 40
0.5000022268950376
 40
0.7499971216367044
 40
1.0
 40
1.0
 40
1.0
 40
1.0
 10
1230.963489233473
 20
410.3894197197608
 30
0.0
 10
1230.922900746078
 20
410.4060925738648
 30
0.0
 10
1230.841723673775
 20
410.439438322129
 30
0.0
 10
1230.217364509803
 20
410.4893949380857
 30
0.0
 10
1229.324872679024
 20
410.5394185246429
 30
0.0
 10
1228.617286813833
 20
410.5727547343208
 30
0.0
 10
1228.263488232114
 20
410.5894231053047
 30
0.0
  0
LINE
  5
185
330
1F
100
AcDbEntity
  8
0
  6
Continuous
 62
     7
370
    15
100
AcDbLine
 10
848.9842025628
 20
439.088489935
 30
0.0
 11
848.9842025628
 21
439.017769024
 31
0.0
  0
LINE
  5
186
330
1F
100
AcDbEntity
  8
0
  6
Continuous
 62
     7
370
    15
100
AcDbLine
 10
848.9842025628
 20
439.017769024
 30
0.0
 11
846.2842015614
 21
439.017769024
 31
0.0
  0
LINE
  5
187
330
1F
100
AcDbEntity
  8
0
  6
Continuous
 62
     7
370
    15
100
AcDbLine
 10
848.9842025628
 20
1098.2177817078
 30
0.0
 11
848.9842025628
 21
439.088489935
 31
0.0
  0
LINE
  5
188
330
1F
100
AcDbEntity
  8
0
  6
Continuous
 62
     7
370
    15
100
AcDbLine
 10
1228.2634882321
 20
438.8177656384
 30
0.0
 11
1230.9634892335
 21
438.8177656384
 31
0.0
  0
LINE
  5
189
330
1F
100
AcDbEntity
  8
0
  6
Continuous
 62
     7
370
    15
100
AcDbLine
 10
1230.9634892335
 20
438.8177656384
 30
0.0
 11
1230.9634892335
 21
410.3894197198
 31
0.0
  0
SPLINE
  5
18A
330
1F
100
AcDbEntity
  8
0
  6
Continuous
 62
     7
370
    15
100
AcDbSpline
210
0.0
220
0.0
230
1.0
 70
     8
 71
     3
 72
    11
 73
     7
 74
     0
 42
0.00000001
 43
0.00000001
 12
1.0
 22
0.0
 32
0.0
 13
1.0
 23
0.0
 33
0.0
 40
0.0
 40
0.0
 40
0.0
 40
0.0
 40
0.2500028783632956
 40
0.4999977731049624
 40
0.7499991868672864
 40
1.0
 40
1.0
 40
1.0
 40
1.0
 10
833.704909502485
 20
410.5894231053047
 30
0.0
 10
833.3511109207666
 20
410.5727547343208
 30
0.0
 10
832.6435250555754
 20
410.5394185246428
 30
0.0
 10
831.7510332247964
 20
410.4893949380859
 30
0.0
 10
831.1266740608241
 20
410.439438322129
 30
0.0
 10
831.0454969885213
 20
410.4060925738647
 30
0.0
 10
831.004908501127
 20
410.3894197197608
 30
0.0
  0
LINE
  5
18B
330
1F
100
AcDbEntity
  8
0
  6
Continuous
 62
     7
370
    15
100
AcDbLine
 10
831.0049085011
 20
410.3894197198
 30
0.0
 11
831.0049085011
 21
438.8177656384
 31
0.0
  0
LINE
  5
18C
330
1F
100
AcDbEntity
  8
0
  6
Continuous
 62
     7
370
    15
100
AcDbLine
 10
831.0049085011
 20
438.8177656384
 30
0.0
 11
833.7049095025
 21
438.8177656384
 31
0.0
  0
LINE
  5
18D
330
1F
100
AcDbEntity
  8
0
  6
Continuous
 62
     7
370
    15
100
AcDbLine
 10
832.2049139132
 20
387.3177730294
 30
0.0
 11
832.2049139132
 21
410.5177783223
 31
0.0
  0
LINE
  5
18E
330
1F
100
AcDbEntity
  8
0
  6
Continuous
 62
     7
370
    15
100
AcDbLine
 10
1229.7634838214
 20
410.5177783223
 30
0.0
 11
1229.7634838214
 21
387.3177730294
 31
0.0
  0
SPLINE
  5
18F
330
1F
100
AcDbEntity
  8
0
  6
Continuous
 62
     7
370
    15
100
AcDbSpline
210
0.0
220
0.0
230
1.0
 70
     8
 71
     3
 72
    11
 73
     7
 74
     0
 42
0.00000001
 43
0.00000001
 12
1.0
 22
0.0
 32
0.0
 13
1.0
 23
0.0
 33
0.0
 40
0.0
 40
0.0
 40
0.0
 40
0.0
 40
0.2499993960463125
 40
0.5000005833495709
 40
0.7499976829591054
 40
1.0
 40
1.0
 40
1.0
 40
1.0
 10
1212.913489161947
 20
439.0177690239601
 30
0.0
 10
1212.930151910939
 20
438.9771863920649
 30
0.0
 10
1212.963477528313
 20
438.8960208374983
 30
0.0
 10
1213.013496634682
 20
438.2716580447433
 30
0.0
 10
1213.063479620813
 20
437.3791546156203
 30
0.0
 10
1213.096821455959
 20
436.6715660148076
 30
0.0
 10
1213.113492547491
 20
436.317768022602
 30
0.0
  0
SPLINE
  5
190
330
1F
100
AcDbEntity
  8
0
  6
Continuous
 62
     7
370
    15
100
AcDbSpline
210
0.0
220
0.0
230
1.0
 70
     8
 71
     3
 72
    11
 73
     7
 74
     0
 42
0.00000001
 43
0.00000001
 12
1.0
 22
0.0
 32
0.0
 13
1.0
 23
0.0
 33
0.0
 40
0.0
 40
0.0
 40
0.0
 40
0.0
 40
0.2500023170408945
 40
0.4999994166504291
 40
0.7500006039536874
 40
1.0
 40
1.0
 40
1.0
 40
1.0
 10
848.8549051871088
 20
436.317768022602
 30
0.0
 10
848.8715762786408
 20
436.6715660148076
 30
0.0
 10
848.904918113787
 20
437.3791546156206
 30
0.0
 10
848.9549010999173
 20
438.2716580447433
 30
0.0
 10
849.0049202062869
 20
438.8960208374983
 30
0.0
 10
849.0382458236604
 20
438.9771863920649
 30
0.0
 10
849.0549085726526
 20
439.0177690239601
 30
0.0
  0
LINE
  5
191
330
1F
100
AcDbEntity
  8
0
  6
Continuous
 62
     7
370
    15
100
AcDbLine
 10
849.0549085727
 20
439.017769024
 30
0.0
 11
1212.9134891619
 21
439.017769024
 31
0.0
  0
LINE
  5
192
330
1F
100
AcDbEntity
  8
0
  6
Continuous
 62
     7
370
    15
100
AcDbLine
 10
1215.6841961732
 20
439.017769024
 30
0.0
 11
1212.9841951718
 21
439.017769024
 31
0.0
  0
LINE
  5
193
330
1F
100
AcDbEntity
  8
0
  6
Continuous
 62
     7
370
    15
100
AcDbLine
 10
1212.9841951718
 20
439.017769024
 30
0.0
 11
1212.9841951718
 21
439.088489935
 31
0.0
  0
LINE
  5
194
330
1F
100
AcDbEntity
  8
0
  6
Continuous
 62
     7
370
    15
100
AcDbLine
 10
1212.9841951718
 20
439.088489935
 30
0.0
 11
1212.9841951718
 21
1098.2177817078
 31
0.0
  0
SPLINE
  5
195
330
1F
100
AcDbEntity
  8
0
  6
Continuous
 62
     7
370
    15
100
AcDbSpline
210
0.0
220
0.0
230
1.0
 70
     8
 71
     3
 72
    11
 73
     7
 74
     0
 42
0.00000001
 43
0.00000001
 12
1.0
 22
0.0
 32
0.0
 13
1.0
 23
0.0
 33
0.0
 40
0.0
 40
0.0
 40
0.0
 40
0.0
 40
0.3521167368057111
 40
0.691625622117472
 40
0.9844688440111444
 40
1.0
 40
1.0
 40
1.0
 40
1.0
 10
1230.742609321096
 20
1152.398254797047
 30
0.0
 10
1230.588076756969
 20
1152.685041999212
 30
0.0
 10
1230.284544803981
 20
1153.248347733874
 30
0.0
 10
1229.45197104297
 20
1153.80615224311
 30
0.0
 10
1228.812093759205
 20
1153.995034361454
 30
0.0
 10
1228.499926418794
 20
1154.007943329759
 30
0.0
 10
1228.484204231718
 20
1154.008593484944
 30
0.0
  0
SPLINE
  5
196
330
1F
100
AcDbEntity
  8
0
  6
Continuous
 62
     7
370
    15
100
AcDbSpline
210
0.0
220
0.0
230
1.0
 70
     8
 71
     3
 72
    11
 73
     7
 74
     0
 42
0.00000001
 43
0.00000001
 12
1.0
 22
0.0
 32
0.0
 13
1.0
 23
0.0
 33
0.0
 40
0.0
 40
0.0
 40
0.0
 40
0.0
 40
0.218807236095845
 40
0.5046424880070653
 40
0.7934259843989002
 40
1.0
 40
1.0
 40
1.0
 40
1.0
 10
833.4841935028817
 20
1153.985317871158
 30
0.0
 10
833.2622174778048
 20
1153.962662301407
 30
0.0
 10
832.7502667051913
 20
1153.910410998887
 30
0.0
 10
832.0491182237516
 20
1153.510125414277
 30
0.0
 10
831.4979949109519
 20
1152.982710941114
 30
0.0
 10
831.3158660863088
 20
1152.570256549179
 30
0.0
 10
831.2399147143151
 20
1152.398254797047
 30
0.0
  0
LINE
  5
197
330
1F
100
AcDbEntity
  8
0
  6
Continuous
 62
     7
370
    15
100
AcDbLine
 10
1230.9634892335
 20
410.3894197198
 30
0.0
 11
1230.9634892335
 21
388.6177801343
 31
0.0
  0
LINE
  5
198
330
1F
100
AcDbEntity
  8
0
  6
Continuous
 62
     7
370
    15
100
AcDbLine
 10
1230.9634892335
 20
410.3894197198
 30
0.0
 11
1229.7634838214
 21
410.3894197198
 31
0.0
  0
LINE
  5
199
330
1F
100
AcDbEntity
  8
0
  6
Continuous
 62
     7
370
    15
100
AcDbLine
 10
831.0049085011
 20
388.6177801343
 30
0.0
 11
831.0049085011
 21
410.3894197198
 31
0.0
  0
LINE
  5
19A
330
1F
100
AcDbEntity
  8
0
  6
Continuous
 62
     7
370
    15
100
AcDbLine
 10
831.0049085011
 20
410.3894197198
 30
0.0
 11
832.2049139132
 21
410.3894197198
 31
0.0
  0
SPLINE
  5
19B
330
1F
100
AcDbEntity
  8
0
  6
Continuous
 62
     7
370
    15
100
AcDbSpline
210
0.0
220
0.0
230
1.0
 70
     8
 71
     3
 72
    12
 73
     8
 74
     0
 42
0.00000001
 43
0.00000001
 12
1.0
 22
0.0
 32
0.0
 13
1.0
 23
0.0
 33
0.0
 40
0.0
 40
0.0
 40
0.0
 40
0.0
 40
0.1759814348354199
 40
0.3519464956066776
 40
0.527174459806037
 40
0.8081479235953964
 40
1.0
 40
1.0
 40
1.0
 40
1.0
 10
849.0549085726525
 20
439.01776902396
 30
0.0
 10
849.0845903504392
 20
439.0333514873928
 30
0.0
 10
849.143951144293
 20
439.0645149643998
 30
0.0
 10
849.3079687548686
 20
439.2992765579043
 30
0.0
 10
849.6289131362133
 20
439.6592500522828
 30
0.0
 10
850.0444402770479
 20
440.0767453683697
 30
0.0
 10
850.3572667505249
 20
440.3904797308977
 30
0.0
 10
850.4841981520441
 20
440.5177795143775
 30
0.0
  0
SPLINE
  5
19C
330
1F
100
AcDbEntity
  8
0
  6
Continuous
 62
     7
370
    15
100
AcDbSpline
210
0.0
220
0.0
230
1.0
 70
     8
 71
     3
 72
    12
 73
     8
 74
     0
 42
0.00000001
 43
0.00000001
 12
1.0
 22
0.0
 32
0.0
 13
1.0
 23
0.0
 33
0.0
 40
0.0
 40
0.0
 40
0.0
 40
0.0
 40
0.3425516538792358
 40
0.5625291843368166
 40
0.7358841050920704
 40
0.9098199421701387
 40
1.0
 40
1.0
 40
1.0
 40
1.0
 10
1211.484199582555
 20
440.5177795143775
 30
0.0
 10
1211.709681316333
 20
440.2864076380844
 30
0.0
 10
1212.07996140212
 20
439.9064549174487
 30
0.0
 10
1212.526687470386
 20
439.4636260624851
 30
0.0
 10
1212.771594792914
 20
439.1735095787284
 30
0.0
 10
1212.881077782989
 20
439.0346379131257
 30
0.0
 10
1212.90523939221
 20
439.0220627151205
 30
0.0
 10
1212.913489161947
 20
439.0177690239601
 30
0.0
  0
SPLINE
  5
19D
330
1F
100
AcDbEntity
  8
0
  6
Continuous
 62
     7
370
    15
100
AcDbSpline
210
0.0
220
0.0
230
1.0
 70
     8
 71
     3
 72
    11
 73
     7
 74
     0
 42
0.00000001
 43
0.00000001
 12
1.0
 22
0.0
 32
0.0
 13
1.0
 23
0.0
 33
0.0
 40
0.0
 40
0.0
 40
0.0
 40
0.0
 40
0.2500015863539752
 40
0.5000017551338439
 40
0.7499911275741665
 40
1.0
 40
1.0
 40
1.0
 40
1.0
 10
850.4841981520441
 20
440.5177795143775
 30
0.0
 10
850.2876443676342
 20
440.3986701004964
 30
0.0
 10
849.8945379133257
 20
440.1604519481155
 30
0.0
 10
849.3987182361744
 20
439.8031205784773
 30
0.0
 10
849.0518245081058
 20
439.4458120703582
 30
0.0
 10
849.006743797278
 20
439.2076004102036
 30
0.0
 10
848.9842025627878
 20
439.0884899349861
 30
0.0
  0
SPLINE
  5
19E
330
1F
100
AcDbEntity
  8
0
  6
Continuous
 62
     7
370
    15
100
AcDbSpline
210
0.0
220
0.0
230
1.0
 70
     8
 71
     3
 72
     9
 73
     5
 74
     0
 42
0.00000001
 43
0.00000001
 12
1.0
 22
0.0
 32
0.0
 13
1.0
 23
0.0
 33
0.0
 40
0.0
 40
0.0
 40
0.0
 40
0.0
 40
0.4450677060380623
 40
1.0
 40
1.0
 40
1.0
 40
1.0
 10
849.4491634955194
 20
1098.217781707828
 30
0.0
 10
849.5808006285961
 20
1098.113999142567
 30
0.0
 10
849.8765694100442
 20
1097.880815373326
 30
0.0
 10
850.2673444581666
 20
1097.647345006063
 30
0.0
 10
850.4841981520441
 20
1097.517784759586
 30
0.0
  0
SPLINE
  5
19F
330
1F
100
AcDbEntity
  8
0
  6
Continuous
 62
     7
370
    15
100
AcDbSpline
210
0.0
220
0.0
230
1.0
 70
     8
 71
     3
 72
     9
 73
     5
 74
     0
 42
0.00000001
 43
0.00000001
 12
1.0
 22
0.0
 32
0.0
 13
1.0
 23
0.0
 33
0.0
 40
0.0
 40
0.0
 40
0.0
 40
0.0
 40
0.7943654002889345
 40
1.0
 40
1.0
 40
1.0
 40
1.0
 10
850.4841981520441
 20
1097.517784759586
 30
0.0
 10
850.3650980475459
 20
1097.720694742179
 30
0.0
 10
850.2151669145247
 20
1097.976131324033
 30
0.0
 10
850.0652125954609
 20
1098.176565505213
 30
0.0
 10
850.0343767990853
 20
1098.217781707828
 30
0.0
  0
SPLINE
  5
1A0
330
1F
100
AcDbEntity
  8
0
  6
Continuous
 62
     7
370
    15
100
AcDbSpline
210
0.0
220
0.0
230
1.0
 70
     8
 71
     3
 72
     9
 73
     5
 74
     0
 42
0.00000001
 43
0.00000001
 12
1.0
 22
0.0
 32
0.0
 13
1.0
 23
0.0
 33
0.0
 40
0.0
 40
0.0
 40
0.0
 40
0.0
 40
0.1323766655392818
 40
0.9999999999999999
 40
0.9999999999999999
 40
0.9999999999999999
 40
0.9999999999999999
 10
1211.932024179914
 20
1098.217781707828
 30
0.0
 10
1211.912281397809
 20
1098.191900599807
 30
0.0
 10
1211.763140444417
 20
1097.996389495823
 30
0.0
 10
1211.613784384919
 20
1097.740125436896
 30
0.0
 10
1211.484199582555
 20
1097.517784759586
 30
0.0
  0
SPLINE
  5
1A1
330
1F
100
AcDbEntity
  8
0
  6
Continuous
 62
     7
370
    15
100
AcDbSpline
210
0.0
220
0.0
230
1.0
 70
     8
 71
     3
 72
     9
 73
     5
 74
     0
 42
0.00000001
 43
0.00000001
 12
1.0
 22
0.0
 32
0.0
 13
1.0
 23
0.0
 33
0.0
 40
0.0
 40
0.0
 40
0.0
 40
0.0
 40
0.5104498527156711
 40
1.0
 40
1.0
 40
1.0
 40
1.0
 10
1211.484199582555
 20
1097.517784759586
 30
0.0
 10
1211.68297677205
 20
1097.636882463346
 30
0.0
 10
1212.072392477505
 20
1097.870201570259
 30
0.0
 10
1212.376188294527
 20
1098.103547280844
 30
0.0
 10
1212.524911581495
 20
1098.217781707828
 30
0.0
  0
SPLINE
  5
1A2
330
1F
100
AcDbEntity
  8
0
  6
Continuous
 62
     7
370
    15
100
AcDbSpline
210
0.0
220
0.0
230
1.0
 70
     8
 71
     3
 72
    11
 73
     7
 74
     0
 42
0.00000001
 43
0.00000001
 12
1.0
 22
0.0
 32
0.0
 13
1.0
 23
0.0
 33
0.0
 40
0.0
 40
0.0
 40
0.0
 40
0.0
 40
0.2500088724258335
 40
0.4999982448661559
 40
0.7499984136460247
 40
1.0
 40
1.0
 40
1.0
 40
1.0
 10
1212.984195171812
 20
439.0884899349861
 30
0.0
 10
1212.961653937321
 20
439.2076004102036
 30
0.0
 10
1212.916573226494
 20
439.4458120703582
 30
0.0
 10
1212.569679498425
 20
439.8031205784772
 30
0.0
 10
1212.073859821274
 20
440.1604519481156
 30
0.0
 10
1211.680753366965
 20
440.3986701004965
 30
0.0
 10
1211.484199582555
 20
440.5177795143775
 30
0.0
  0
ARC
  5
1A3
330
1F
100
AcDbEntity
  8
0
  6
Continuous
 62
     7
370
    15
100
AcDbCircle
 10
1145.2341992438
 20
1042.0177758452
 30
0.0
 40
42.00000000000008
100
AcDbArc
 50
41.9755413407
 51
49.6353893803
  0
LINE
  5
1A4
330
1F
100
AcDbEntity
  8
0
  6
Continuous
 62
     7
370
    15
100
AcDbLine
 10
1230.9634892335
 20
439.017769024
 30
0.0
 11
1230.9634892335
 21
438.8177656384
 31
0.0
  0
LINE
  5
1A5
330
1F
100
AcDbEntity
  8
0
  6
Continuous
 62
     7
370
    15
100
AcDbLine
 10
1229.7634838214
 20
439.017769024
 30
0.0
 11
1229.7634838214
 21
438.8177656384
 31
0.0
  0
LINE
  5
1A6
330
1F
100
AcDbEntity
  8
0
  6
Continuous
 62
     7
370
    15
100
AcDbLine
 10
831.0049085011
 20
438.8177656384
 30
0.0
 11
831.0049085011
 21
439.017769024
 31
0.0
  0
LINE
  5
1A7
330
1F
100
AcDbEntity
  8
0
  6
Continuous
 62
     7
370
    15
100
AcDbLine
 10
832.2049139132
 20
438.8177656384
 30
0.0
 11
832.2049139132
 21
439.017769024
 31
0.0
  0
LINE
  5
1A8
330
1F
100
AcDbEntity
  8
0
  6
Continuous
 62
     7
370
    15
100
AcDbLine
 10
1228.6841927161
 20
1153.6177658292
 30
0.0
 11
1228.4842042317
 21
1153.6177658292
 31
0.0
  0
LINE
  5
1A9
330
1F
100
AcDbEntity
  8
0
  6
Continuous
 62
     7
370
    15
100
AcDbLine
 10
833.4841935029
 20
1153.6177658292
 30
0.0
 11
833.2842050185
 21
1153.6177658292
 31
0.0
  0
LINE
  5
1AA
330
1F
100
AcDbEntity
  8
0
  6
Continuous
 62
     7
370
    15
100
AcDbLine
 10
1228.6841927161
 20
1153.6177658292
 30
0.0
 11
1228.6841927161
 21
1153.2177888604
 31
0.0
  0
LINE
  5
1AB
330
1F
100
AcDbEntity
  8
0
  6
Continuous
 62
     7
370
    15
100
AcDbLine
 10
833.2842050185
 20
1153.2177888604
 30
0.0
 11
833.2842050185
 21
1153.6177658292
 31
0.0
  0
SPLINE
  5
1AC
330
1F
100
AcDbEntity
  8
0
  6
Continuous
 62
     7
370
    15
100
AcDbSpline
210
0.0
220
0.0
230
1.0
 70
     8
 71
     3
 72
     9
 73
     5
 74
     0
 42
0.00000001
 43
0.00000001
 12
1.0
 22
0.0
 32
0.0
 13
1.0
 23
0.0
 33
0.0
 40
0.0
 40
0.0
 40
0.0
 40
0.0
 40
0.5768546458677324
 40
1.0
 40
1.0
 40
1.0
 40
1.0
 10
833.284205018499
 20
1153.617765829151
 30
0.0
 10
833.0256086719377
 20
1153.599625562348
 30
0.0
 10
832.5773218315458
 20
1153.568178703191
 30
0.0
 10
832.2050415985609
 20
1153.321970652982
 30
0.0
 10
832.0475129475382
 20
1153.217788860386
 30
0.0
  0
SPLINE
  5
1AD
330
1F
100
AcDbEntity
  8
0
  6
Continuous
 62
     7
370
    15
100
AcDbSpline
210
0.0
220
0.0
230
1.0
 70
     8
 71
     3
 72
    10
 73
     6
 74
     0
 42
0.00000001
 43
0.00000001
 12
1.0
 22
0.0
 32
0.0
 13
1.0
 23
0.0
 33
0.0
 40
0.0
 40
0.0
 40
0.0
 40
0.0
 40
0.0953244769214621
 40
0.9443401173750262
 40
1.0
 40
1.0
 40
1.0
 40
1.0
 10
831.8934349407938
 20
1153.130915090626
 30
0.0
 10
831.8662791868662
 20
1153.116079665013
 30
0.0
 10
831.5972583783671
 20
1152.96911124707
 30
0.0
 10
831.3637568104491
 20
1152.693875247668
 30
0.0
 10
831.2699314782147
 20
1152.415388602054
 30
0.0
 10
831.2641589035776
 20
1152.398254797047
 30
0.0
  0
SPLINE
  5
1AE
330
1F
100
AcDbEntity
  8
0
  6
Continuous
 62
     7
370
    15
100
AcDbSpline
210
0.0
220
0.0
230
1.0
 70
     8
 71
     3
 72
     9
 73
     5
 74
     0
 42
0.00000001
 43
0.00000001
 12
1.0
 22
0.0
 32
0.0
 13
1.0
 23
0.0
 33
0.0
 40
0.0
 40
0.0
 40
0.0
 40
0.0
 40
0.5631389592349364
 40
1.0
 40
1.0
 40
1.0
 40
1.0
 10
1230.6722609391
 20
1152.398254797047
 30
0.0
 10
1230.610399709989
 20
1152.538380514692
 30
0.0
 10
1230.500548974044
 20
1152.787210249072
 30
0.0
 10
1230.280384491501
 20
1152.944176460061
 30
0.0
 10
1230.184203206518
 20
1153.012748882359
 30
0.0
  0
SPLINE
  5
1AF
330
1F
100
AcDbEntity
  8
0
  6
Continuous
 62
     7
370
    15
100
AcDbSpline
210
0.0
220
0.0
230
1.0
 70
     8
 71
     3
 72
    10
 73
     6
 74
     0
 42
0.00000001
 43
0.00000001
 12
1.0
 22
0.0
 32
0.0
 13
1.0
 23
0.0
 33
0.0
 40
0.0
 40
0.0
 40
0.0
 40
0.0
 40
0.1193172567931347
 40
0.738263620747887
 40
1.0
 40
1.0
 40
1.0
 40
1.0
 10
1229.938512860754
 20
1153.217788860386
 30
0.0
 10
1229.898458304378
 20
1153.25301832874
 30
0.0
 10
1229.650624733509
 20
1153.470997148928
 30
0.0
 10
1229.190554620774
 20
1153.589588704089
 30
0.0
 10
1228.800203844517
 20
1153.611310248579
 30
0.0
 10
1228.6841927161
 20
1153.617765829151
 30
0.0
  0
SPLINE
  5
1B0
330
1F
100
AcDbEntity
  8
0
  6
Continuous
 62
     7
370
    15
100
AcDbSpline
210
0.0
220
0.0
230
1.0
 70
     8
 71
     3
 72
     9
 73
     5
 74
     0
 42
0.00000001
 43
0.00000001
 12
1.0
 22
0.0
 32
0.0
 13
1.0
 23
0.0
 33
0.0
 40
0.0
 40
0.0
 40
0.0
 40
0.0
 40
0.5875475815542143
 40
1.0
 40
1.0
 40
1.0
 40
1.0
 10
849.9842045893456
 20
566.4470755310707
 30
0.0
 10
850.0099675556021
 20
566.4255885751148
 30
0.0
 10
850.0538158617907
 20
566.3890179949092
 30
0.0
 10
850.3585215528517
 20
566.2520405914483
 30
0.0
 10
850.4841981520439
 20
566.1955439301184
 30
0.0
  0
LINE
  5
1B1
330
1F
100
AcDbEntity
  8
0
  6
Continuous
 62
     7
370
    15
100
AcDbLine
 10
849.9842045893
 20
566.4470755311
 30
0.0
 11
850.484198152
 21
566.4470755311
 31
0.0
  0
LINE
  5
1B2
330
1F
100
AcDbEntity
  8
0
  6
Continuous
 62
     7
370
    15
100
AcDbLine
 10
849.9842045893
 20
441.5884875508
 30
0.0
 11
850.484198152
 21
441.5884875508
 31
0.0
  0
SPLINE
  5
1B3
330
1F
100
AcDbEntity
  8
0
  6
Continuous
 62
     7
370
    15
100
AcDbSpline
210
0.0
220
0.0
230
1.0
 70
     8
 71
     3
 72
    10
 73
     6
 74
     0
 42
0.00000001
 43
0.00000001
 12
1.0
 22
0.0
 32
0.0
 13
1.0
 23
0.0
 33
0.0
 40
0.0
 40
0.0
 40
0.0
 40
0.0
 40
0.1038578530645899
 40
0.5264385444792291
 40
0.9999999999999999
 40
0.9999999999999999
 40
0.9999999999999999
 40
0.9999999999999999
 10
850.4841981520441
 20
441.8587946148567
 30
0.0
 10
850.4486640995443
 20
441.8436460161335
 30
0.0
 10
850.2685477739573
 20
441.7668602360759
 30
0.0
 10
850.0536402928058
 20
441.676138963951
 30
0.0
 10
850.0082112961518
 20
441.6187921588305
 30
0.0
 10
849.9842045893456
 20
441.5884875508003
 30
0.0
  0
LINE
  5
1B4
330
1F
100
AcDbEntity
  8
0
  6
Continuous
 62
     7
370
    15
100
AcDbLine
 10
851.5549061885
 20
440.8976995202
 30
0.0
 11
851.5549061885
 21
441.1197864266
 31
0.0
  0
LINE
  5
1B5
330
1F
100
AcDbEntity
  8
0
  6
Continuous
 62
     7
370
    15
100
AcDbLine
 10
849.9842045893
 20
566.4470755311
 30
0.0
 11
849.9842045893
 21
441.5884875508
 31
0.0
  0
SPLINE
  5
1B6
330
1F
100
AcDbEntity
  8
0
  6
Continuous
 62
     7
370
    15
100
AcDbSpline
210
0.0
220
0.0
230
1.0
 70
     8
 71
     3
 72
    10
 73
     6
 74
     0
 42
0.00000001
 43
0.00000001
 12
1.0
 22
0.0
 32
0.0
 13
1.0
 23
0.0
 33
0.0
 40
0.0
 40
0.0
 40
0.0
 40
0.0
 40
0.2020732909084562
 40
0.8064511268375101
 40
1.0
 40
1.0
 40
1.0
 40
1.0
 10
1211.484199582555
 20
566.1748015137366
 30
0.0
 10
1211.554863970276
 20
566.2054788762116
 30
0.0
 10
1211.836877366745
 20
566.3279086808886
 30
0.0
 10
1211.961845854256
 20
566.3896183001312
 30
0.0
 10
1211.979830664656
 20
566.435859135526
 30
0.0
 10
1211.984193145254
 20
566.4470755310707
 30
0.0
  0
LINE
  5
1B7
330
1F
100
AcDbEntity
  8
0
  6
Continuous
 62
     7
370
    15
100
AcDbLine
 10
1211.9841931453
 20
441.5884875508
 30
0.0
 11
1211.9841931453
 21
566.4470755311
 31
0.0
  0
SPLINE
  5
1B8
330
1F
100
AcDbEntity
  8
0
  6
Continuous
 62
     7
370
    15
100
AcDbSpline
210
0.0
220
0.0
230
1.0
 70
     8
 71
     3
 72
     9
 73
     5
 74
     0
 42
0.00000001
 43
0.00000001
 12
1.0
 22
0.0
 32
0.0
 13
1.0
 23
0.0
 33
0.0
 40
0.0
 40
0.0
 40
0.0
 40
0.0
 40
0.5875496164851048
 40
1.0
 40
1.0
 40
1.0
 40
1.0
 10
1211.984193145254
 20
441.5884875508003
 30
0.0
 10
1211.958430672623
 20
441.6099784455579
 30
0.0
 10
1211.914583358441
 20
441.6465556028817
 30
0.0
 10
1211.609876176576
 20
441.7835046587961
 30
0.0
 10
1211.484199582555
 20
441.83998934943
 30
0.0
  0
LINE
  5
1B9
330
1F
100
AcDbEntity
  8
0
  6
Continuous
 62
     7
370
    15
100
AcDbLine
 10
1211.9841931453
 20
566.4470755311
 30
0.0
 11
1211.4841995826
 21
566.4470755311
 31
0.0
  0
LINE
  5
1BA
330
1F
100
AcDbEntity
  8
0
  6
Continuous
 62
     7
370
    15
100
AcDbLine
 10
1210.4134915461
 20
440.893616602
 30
0.0
 11
1210.4134915461
 21
441.1214255543
 31
0.0
  0
LINE
  5
1BB
330
1F
100
AcDbEntity
  8
0
  6
Continuous
 62
     7
370
    15
100
AcDbLine
 10
1211.9841931453
 20
441.5884875508
 30
0.0
 11
1211.4841995826
 21
441.5884875508
 31
0.0
  0
LINE
  5
1BC
330
1F
100
AcDbEntity
  8
0
  6
Continuous
 62
     7
370
    15
100
AcDbLine
 10
926.4014719119
 20
1096.8177878113
 30
0.0
 11
926.4409152856
 21
1096.8177878113
 31
0.0
  0
LINE
  5
1BD
330
1F
100
AcDbEntity
  8
0
  6
Continuous
 62
     7
370
    15
100
AcDbLine
 10
935.5274794688
 20
1096.8177878113
 30
0.0
 11
935.5669377436
 21
1096.8177878113
 31
0.0
  0
SPLINE
  5
1BE
330
1F
100
AcDbEntity
  8
0
  6
Continuous
 62
     7
370
    15
100
AcDbSpline
210
0.0
220
0.0
230
1.0
 70
     8
 71
     3
 72
    12
 73
     8
 74
     0
 42
0.00000001
 43
0.00000001
 12
1.0
 22
0.0
 32
0.0
 13
1.0
 23
0.0
 33
0.0
 40
0.0
 40
0.0
 40
0.0
 40
0.0
 40
0.0424493484452351
 40
0.2847886706471153
 40
0.5278317779505369
 40
0.7726212930464875
 40
1.0
 40
1.0
 40
1.0
 40
1.0
 10
935.5274794688012
 20
1096.817787811344
 30
0.0
 10
935.5210710494333
 20
1096.789338975977
 30
0.0
 10
935.4780775689769
 20
1096.598478425645
 30
0.0
 10
935.321552569394
 20
1096.2615247574
 30
0.0
 10
934.9679352386391
 20
1095.895941746432
 30
0.0
 10
934.5212801238066
 20
1095.660310586132
 30
0.0
 10
934.1956700865002
 20
1095.631595580158
 30
0.0
 10
934.038868366697
 20
1095.617767498081
 30
0.0
  0
LINE
  5
1BF
330
1F
100
AcDbEntity
  8
0
  6
Continuous
 62
     7
370
    15
100
AcDbLine
 10
934.0388683667
 20
1095.6177674981
 30
0.0
 11
927.9295263877
 21
1095.6177674981
 31
0.0
  0
SPLINE
  5
1C0
330
1F
100
AcDbEntity
  8
0
  6
Continuous
 62
     7
370
    15
100
AcDbSpline
210
0.0
220
0.0
230
1.0
 70
     8
 71
     3
 72
    12
 73
     8
 74
     0
 42
0.00000001
 43
0.00000001
 12
1.0
 22
0.0
 32
0.0
 13
1.0
 23
0.0
 33
0.0
 40
0.0
 40
0.0
 40
0.0
 40
0.0
 40
0.1898661385385893
 40
0.4424313388742354
 40
0.5994427753587576
 40
0.8426897628439849
 40
1.0
 40
1.0
 40
1.0
 40
1.0
 10
927.9295263876702
 20
1095.617767498081
 30
0.0
 10
927.7987242104911
 20
1095.627453597832
 30
0.0
 10
927.4939253515556
 20
1095.650024415958
 30
0.0
 10
927.109566467981
 20
1095.830787014715
 30
0.0
 10
926.7668841245103
 20
1096.122136916425
 30
0.0
 10
926.5427005474348
 20
1096.446666105713
 30
0.0
 10
926.4696171991568
 20
1096.713137069861
 30
0.0
 10
926.440915285566
 20
1096.817787811344
 30
0.0
  0
LINE
  5
1C1
330
1F
100
AcDbEntity
  8
0
  6
Continuous
 62
     7
370
    15
100
AcDbLine
 10
1126.4014674415
 20
1096.8177878113
 30
0.0
 11
1126.4409145405
 21
1096.8177878113
 31
0.0
  0
LINE
  5
1C2
330
1F
100
AcDbEntity
  8
0
  6
Continuous
 62
     7
370
    15
100
AcDbLine
 10
1135.527482449
 20
1096.8177878113
 30
0.0
 11
1135.5669332733
 21
1096.8177878113
 31
0.0
  0
SPLINE
  5
1C3
330
1F
100
AcDbEntity
  8
0
  6
Continuous
 62
     7
370
    15
100
AcDbSpline
210
0.0
220
0.0
230
1.0
 70
     8
 71
     3
 72
    12
 73
     8
 74
     0
 42
0.00000001
 43
0.00000001
 12
1.0
 22
0.0
 32
0.0
 13
1.0
 23
0.0
 33
0.0
 40
0.0
 40
0.0
 40
0.0
 40
0.0
 40
0.0424502095361922
 40
0.2847881880105363
 40
0.5278314593235157
 40
0.7726211396075293
 40
1.0
 40
1.0
 40
1.0
 40
1.0
 10
1135.527482449033
 20
1096.817787811344
 30
0.0
 10
1135.521071322979
 20
1096.789339037367
 30
0.0
 10
1135.47806062899
 20
1096.598483093887
 30
0.0
 10
1135.321562778824
 20
1096.261521495389
 30
0.0
 10
1134.967936071517
 20
1095.895942422908
 30
0.0
 10
1134.521283598045
 20
1095.660310430507
 30
0.0
 10
1134.195673227303
 20
1095.631595529574
 30
0.0
 10
1134.038871346929
 20
1095.617767498081
 30
0.0
  0
LINE
  5
1C4
330
1F
100
AcDbEntity
  8
0
  6
Continuous
 62
     7
370
    15
100
AcDbLine
 10
1134.0388713469
 20
1095.6177674981
 30
0.0
 11
1127.9295293679
 21
1095.6177674981
 31
0.0
  0
SPLINE
  5
1C5
330
1F
100
AcDbEntity
  8
0
  6
Continuous
 62
     7
370
    15
100
AcDbSpline
210
0.0
220
0.0
230
1.0
 70
     8
 71
     3
 72
    12
 73
     8
 74
     0
 42
0.00000001
 43
0.00000001
 12
1.0
 22
0.0
 32
0.0
 13
1.0
 23
0.0
 33
0.0
 40
0.0
 40
0.0
 40
0.0
 40
0.0
 40
0.1898657195615767
 40
0.4424336528460465
 40
0.5994461183714062
 40
0.842689555254148
 40
1.0
 40
1.0
 40
1.0
 40
1.0
 10
1127.929529367902
 20
1095.617767498081
 30
0.0
 10
1127.79872718879
 20
1095.627453762832
 30
0.0
 10
1127.493926058608
 20
1095.650025133303
 30
0.0
 10
1127.109564432672
 20
1095.830787135119
 30
0.0
 10
1126.766875153488
 20
1096.122132620257
 30
0.0
 10
1126.542705968833
 20
1096.446670136138
 30
0.0
 10
1126.469618392151
 20
1096.713137480108
 30
0.0
 10
1126.440914540508
 20
1096.817787811344
 30
0.0
  0
LINE
  5
1C6
330
1F
100
AcDbEntity
  8
0
  6
Continuous
 62
     7
370
    15
100
AcDbLine
 10
877.6708601107
 20
1177.7177714558
 30
0.0
 11
877.6708601107
 21
1172.3177694531
 31
0.0
  0
LINE
  5
1C7
330
1F
100
AcDbEntity
  8
0
  6
Continuous
 62
     7
370
    15
100
AcDbLine
 10
877.6708601107
 20
1177.7177714558
 30
0.0
 11
894.677525579
 21
1177.7177714558
 31
0.0
  0
LINE
  5
1C8
330
1F
100
AcDbEntity
  8
0
  6
Continuous
 62
     7
370
    15
100
AcDbLine
 10
894.677525579
 20
1177.7177714558
 30
0.0
 11
894.677525579
 21
1172.3177694531
 31
0.0
  0
LINE
  5
1C9
330
1F
100
AcDbEntity
  8
0
  6
Continuous
 62
     7
370
    15
100
AcDbLine
 10
877.6708601107
 20
1172.3177694531
 30
0.0
 11
894.677525579
 21
1172.3177694531
 31
0.0
  0
LINE
  5
1CA
330
1F
100
AcDbEntity
  8
0
  6
Continuous
 62
     7
370
    15
100
AcDbLine
 10
860.6775311818
 20
1177.7177714558
 30
0.0
 11
860.6775311818
 21
1172.3177694531
 31
0.0
  0
LINE
  5
1CB
330
1F
100
AcDbEntity
  8
0
  6
Continuous
 62
     7
370
    15
100
AcDbLine
 10
860.6775311818
 20
1172.3177694531
 30
0.0
 11
877.6708601107
 21
1172.3177694531
 31
0.0
  0
LINE
  5
1CC
330
1F
100
AcDbEntity
  8
0
  6
Continuous
 62
     7
370
    15
100
AcDbLine
 10
860.6775311818
 20
1177.7177714558
 30
0.0
 11
877.6708601107
 21
1177.7177714558
 31
0.0
  0
LINE
  5
1CD
330
1F
100
AcDbEntity
  8
0
  6
Continuous
 62
     7
370
    15
100
AcDbLine
 10
878.1551329484
 20
1157.4177705498
 30
0.0
 11
878.1551329484
 21
1154.0177726002
 31
0.0
  0
LINE
  5
1CE
330
1F
100
AcDbEntity
  8
0
  6
Continuous
 62
     7
370
    15
100
AcDbLine
 10
878.1551329484
 20
1157.4177705498
 30
0.0
 11
893.8382623782
 21
1157.4177705498
 31
0.0
  0
LINE
  5
1CF
330
1F
100
AcDbEntity
  8
0
  6
Continuous
 62
     7
370
    15
100
AcDbLine
 10
893.8382623782
 20
1157.4177705498
 30
0.0
 11
893.8382623782
 21
1154.0177726002
 31
0.0
  0
LINE
  5
1D0
330
1F
100
AcDbEntity
  8
0
  6
Continuous
 62
     7
370
    15
100
AcDbLine
 10
861.5301309218
 20
1157.4177705498
 30
0.0
 11
861.5301309218
 21
1154.0177726002
 31
0.0
  0
LINE
  5
1D1
330
1F
100
AcDbEntity
  8
0
  6
Continuous
 62
     7
370
    15
100
AcDbLine
 10
861.5301309218
 20
1157.4177705498
 30
0.0
 11
877.2132603516
 21
1157.4177705498
 31
0.0
  0
LINE
  5
1D2
330
1F
100
AcDbEntity
  8
0
  6
Continuous
 62
     7
370
    15
100
AcDbLine
 10
877.2132603516
 20
1157.4177705498
 30
0.0
 11
877.2132603516
 21
1154.0177726002
 31
0.0
  0
LINE
  5
1D3
330
1F
100
AcDbEntity
  8
0
  6
Continuous
 62
     7
370
    15
100
AcDbLine
 10
877.2132603516
 20
1157.4177705498
 30
0.0
 11
878.1551329484
 21
1157.4177705498
 31
0.0
  0
LINE
  5
1D4
330
1F
100
AcDbEntity
  8
0
  6
Continuous
 62
     7
370
    15
100
AcDbLine
 10
877.68419665
 20
1165.7177769395
 30
0.0
 11
894.5591954579
 21
1165.7177769395
 31
0.0
  0
LINE
  5
1D5
330
1F
100
AcDbEntity
  8
0
  6
Continuous
 62
     7
370
    15
100
AcDbLine
 10
860.8091978421
 20
1165.7177769395
 30
0.0
 11
877.68419665
 21
1165.7177769395
 31
0.0
  0
LINE
  5
1D6
330
1F
100
AcDbEntity
  8
0
  6
Continuous
 62
     7
370
    15
100
AcDbLine
 10
877.68419665
 20
1186.6677664967
 30
0.0
 11
888.3092014184
 21
1186.6677664967
 31
0.0
  0
LINE
  5
1D7
330
1F
100
AcDbEntity
  8
0
  6
Continuous
 62
     7
370
    15
100
AcDbLine
 10
867.0591918816
 20
1186.6677664967
 30
0.0
 11
877.68419665
 21
1186.6677664967
 31
0.0
  0
LINE
  5
1D8
330
1F
100
AcDbEntity
  8
0
  6
Continuous
 62
     7
370
    15
100
AcDbLine
 10
877.68419665
 20
1160.3677832337
 30
0.0
 11
893.534204184
 21
1160.3677832337
 31
0.0
  0
LINE
  5
1D9
330
1F
100
AcDbEntity
  8
0
  6
Continuous
 62
     7
370
    15
100
AcDbLine
 10
861.8342040171
 20
1160.3677832337
 30
0.0
 11
877.68419665
 21
1160.3677832337
 31
0.0
  0
LINE
  5
1DA
330
1F
100
AcDbEntity
  8
0
  6
Continuous
 62
     7
370
    15
100
AcDbLine
 10
894.3091986766
 20
1157.4177705498
 30
0.0
 11
894.3091986766
 21
1154.0177726002
 31
0.0
  0
LINE
  5
1DB
330
1F
100
AcDbEntity
  8
0
  6
Continuous
 62
     7
370
    15
100
AcDbLine
 10
893.8382623782
 20
1157.4177705498
 30
0.0
 11
894.3091986766
 21
1157.4177705498
 31
0.0
  0
LINE
  5
1DC
330
1F
100
AcDbEntity
  8
0
  6
Continuous
 62
     7
370
    15
100
AcDbLine
 10
861.0591946234
 20
1157.4177705498
 30
0.0
 11
861.0591946234
 21
1154.0177726002
 31
0.0
  0
LINE
  5
1DD
330
1F
100
AcDbEntity
  8
0
  6
Continuous
 62
     7
370
    15
100
AcDbLine
 10
861.0591946234
 20
1157.4177705498
 30
0.0
 11
861.5301309218
 21
1157.4177705498
 31
0.0
  0
LINE
  5
1DE
330
1F
100
AcDbEntity
  8
0
  6
Continuous
 62
     7
370
    15
100
AcDbLine
 10
894.6908621182
 20
1177.7177714558
 30
0.0
 11
894.6908621182
 21
1172.3177694531
 31
0.0
  0
LINE
  5
1DF
330
1F
100
AcDbEntity
  8
0
  6
Continuous
 62
     7
370
    15
100
AcDbLine
 10
894.677525579
 20
1172.3177694531
 30
0.0
 11
894.6908621182
 21
1172.3177694531
 31
0.0
  0
LINE
  5
1E0
330
1F
100
AcDbEntity
  8
0
  6
Continuous
 62
     7
370
    15
100
AcDbLine
 10
894.677525579
 20
1177.7177714558
 30
0.0
 11
894.6908621182
 21
1177.7177714558
 31
0.0
  0
SPLINE
  5
1E1
330
1F
100
AcDbEntity
  8
0
  6
Continuous
 62
     7
370
    15
100
AcDbSpline
210
0.0
220
0.0
230
1.0
 70
     8
 71
     3
 72
    12
 73
     8
 74
     0
 42
0.00000001
 43
0.00000001
 12
1.0
 22
0.0
 32
0.0
 13
1.0
 23
0.0
 33
0.0
 40
0.0
 40
0.0
 40
0.0
 40
0.0
 40
0.2289424769149979
 40
0.459418816717068
 40
0.6825388456290411
 40
0.8947204866554825
 40
1.0
 40
1.0
 40
1.0
 40
1.0
 10
893.6333267082955
 20
1163.717772886341
 30
0.0
 10
893.7551378310941
 20
1163.735105190221
 30
0.0
 10
893.9995761837022
 20
1163.769885920502
 30
0.0
 10
894.3195079984112
 20
1164.043759539968
 30
0.0
 10
894.5489638707214
 20
1164.440804438392
 30
0.0
 10
894.6517091669333
 20
1164.841680932332
 30
0.0
 10
894.6604432072608
 20
1165.086564456422
 30
0.0
 10
894.663339673498
 20
1165.167775079792
 30
0.0
  0
LINE
  5
1E2
330
1F
100
AcDbEntity
  8
0
  6
Continuous
 62
     7
370
    15
100
AcDbLine
 10
893.6333267083
 20
1163.7177728863
 30
0.0
 11
893.534204184
 21
1163.7177728863
 31
0.0
  0
LINE
  5
1E3
330
1F
100
AcDbEntity
  8
0
  6
Continuous
 62
     7
370
    15
100
AcDbLine
 10
894.6633396735
 20
1165.1677750798
 30
0.0
 11
894.6633396735
 21
1170.2677869054
 31
0.0
  0
LINE
  5
1E4
330
1F
100
AcDbEntity
  8
0
  6
Continuous
 62
     7
370
    15
100
AcDbLine
 10
894.6633396735
 20
1165.1677750798
 30
0.0
 11
894.701844274
 21
1165.1677750798
 31
0.0
  0
LINE
  5
1E5
330
1F
100
AcDbEntity
  8
0
  6
Continuous
 62
     7
370
    15
100
AcDbLine
 10
894.4841979136
 20
1163.7177728863
 30
0.0
 11
893.6333267083
 21
1163.7177728863
 31
0.0
  0
LINE
  5
1E6
330
1F
100
AcDbEntity
  8
0
  6
Continuous
 62
     7
370
    15
100
AcDbLine
 10
895.1140699973
 20
1159.5677696915
 30
0.0
 11
895.1140699973
 21
1164.6677815171
 31
0.0
  0
LINE
  5
1E7
330
1F
100
AcDbEntity
  8
0
  6
Continuous
 62
     7
370
    15
100
AcDbLine
 10
894.5841996064
 20
1159.5677696915
 30
0.0
 11
895.1140699973
 21
1159.5677696915
 31
0.0
  0
SPLINE
  5
1E8
330
1F
100
AcDbEntity
  8
0
  6
Continuous
 62
     7
370
    15
100
AcDbSpline
210
0.0
220
0.0
230
1.0
 70
     8
 71
     3
 72
    11
 73
     7
 74
     0
 42
0.00000001
 43
0.00000001
 12
1.0
 22
0.0
 32
0.0
 13
1.0
 23
0.0
 33
0.0
 40
0.0
 40
0.0
 40
0.0
 40
0.0
 40
0.0449130488299986
 40
0.4391162790631602
 40
0.8139935037467153
 40
1.0
 40
1.0
 40
1.0
 40
1.0
 10
894.7341946949747
 20
1165.794964954441
 30
0.0
 10
894.7471778274688
 20
1165.78556997413
 30
0.0
 10
894.874114318754
 20
1165.693714958637
 30
0.0
 10
895.0332414733163
 20
1165.384712416733
 30
0.0
 10
895.1517527770442
 20
1164.994955010325
 30
0.0
 10
895.1610199218208
 20
1164.749261222869
 30
0.0
 10
895.1640931954172
 20
1164.667781517094
 30
0.0
  0
LINE
  5
1E9
330
1F
100
AcDbEntity
  8
0
  6
Continuous
 62
     7
370
    15
100
AcDbLine
 10
894.1840587249
 20
1159.5677696915
 30
0.0
 11
894.5841996064
 21
1159.5677696915
 31
0.0
  0
ARC
  5
1EA
330
1F
100
AcDbEntity
  8
0
  6
Continuous
 62
     7
370
    15
100
AcDbCircle
 10
894.3639774745
 20
1159.5354612683
 30
0.0
 40
0.222579472522369
100
AcDbArc
 50
282.0520380598
 51
8.3462289589
  0
ARC
  5
1EB
330
1F
100
AcDbEntity
  8
0
  6
Continuous
 62
     7
370
    15
100
AcDbCircle
 10
894.4228581708
 20
1159.5565295239
 30
0.0
 40
0.2390638340134627
100
AcDbArc
 50
177.3051060393
 51
267.0253266177
  0
LINE
  5
1EC
330
1F
100
AcDbEntity
  8
0
  6
Continuous
 62
     7
370
    15
100
AcDbLine
 10
894.9403224578
 20
1159.3177878113
 30
0.0
 11
894.4104520669
 21
1159.3177878113
 31
0.0
  0
ARC
  5
1ED
330
1F
100
AcDbEntity
  8
0
  6
Continuous
 62
     7
370
    15
100
AcDbCircle
 10
894.8938695132
 20
1159.5354462222
 30
0.0
 40
0.2225602387728843
100
AcDbArc
 50
282.0473966882
 51
8.3508703306
  0
LINE
  5
1EE
330
1F
100
AcDbEntity
  8
0
  6
Continuous
 62
     7
370
    15
100
AcDbLine
 10
894.4104520669
 20
1159.3177878113
 30
0.0
 11
892.6091997018
 21
1159.3177878113
 31
0.0
  0
LINE
  5
1EF
330
1F
100
AcDbEntity
  8
0
  6
Continuous
 62
     8
370
    15
100
AcDbLine
 10
1153.4842012515
 20
1089.7177719327
 30
0.0
 11
1174.6268553724
 21
1068.5751252623
 31
0.0
  0
LINE
  5
1F0
330
1F
100
AcDbEntity
  8
0
  6
Continuous
 62
     8
370
    15
100
AcDbLine
 10
1185.2751506557
 20
1057.9268150778
 30
0.0
 11
1209.1842053523
 21
1034.017782733
 31
0.0
  0
LWPOLYLINE
  5
1F1
330
1F
100
AcDbEntity
  8
0
  6
Continuous
 62
     8
370
    15
100
AcDbPolyline
 90
       20
 70
   128
 43
0.0
 10
1152.1328670969
 20
368.5016297551
 10
1152.0863158693
 20
368.7375449391
 10
1152.2071717372
 20
369.3722151967
 10
1152.6828242531
 20
369.9907325955
 10
1153.4988341918
 20
370.5743514748
 10
1154.6303911199
 20
371.1053096505
 10
1156.0431180587
 20
371.5674542638
 10
1157.6940996637
 20
371.9468080254
 10
1159.5331562748
 20
372.2317778321
 10
1161.5044234385
 20
372.4137508126
 10
1163.547998487
 20
372.487183735
 10
1165.6017882814
 20
372.449841425
 10
1167.6033867588
 20
372.302856371
 10
1169.4919822802
 20
372.0506989213
 10
1171.210190474
 20
371.7010282727
 10
1172.7057976713
 20
371.2644838544
 10
1173.933362781
 20
370.7542978974
 10
1174.8555956473
 20
370.1859974118
 10
1175.444467186
 20
369.5768379422
 10
1175.563631772
 20
369.3671189995
  0
SPLINE
  5
1F2
330
1F
100
AcDbEntity
  8
0
  6
Continuous
 62
     8
370
    15
100
AcDbSpline
210
0.0
220
0.0
230
1.0
 70
     8
 71
     3
 72
    20
 73
    16
 74
     0
 42
0.00000001
 43
0.00000001
 12
1.0
 22
0.0
 32
0.0
 13
1.0
 23
0.0
 33
0.0
 40
0.0
 40
0.0
 40
0.0
 40
0.0
 40
0.076452994969004
 40
0.1574858632115539
 40
0.2418872462365755
 40
0.3280787593251414
 40
0.414272554104243
 40
0.4986731865970593
 40
0.579706209648879
 40
0.6561586752221893
 40
0.7326112697009404
 40
0.8136448130133009
 40
0.8980451346448329
 40
0.9842379428060238
 40
1.0
 40
1.0
 40
1.0
 40
1.0
 10
1163.561685203531
 20
371.9942831249886
 30
0.0
 10
1164.253002080468
 20
371.9890115948111
 30
0.0
 10
1165.677048779507
 20
371.9781527464326
 30
0.0
 10
1167.804270539272
 20
371.8021379018888
 30
0.0
 10
1169.862297706755
 20
371.4973779843278
 30
0.0
 10
1171.714219392196
 20
371.0583771106502
 30
0.0
 10
1173.235953064404
 20
370.5122374435934
 30
0.0
 10
1174.344563751797
 20
369.894616651571
 30
0.0
 10
1175.010937589541
 20
369.2482491597861
 30
0.0
 10
1175.265253761139
 20
368.597089058899
 30
0.0
 10
1175.130297215837
 20
367.9431744413372
 30
0.0
 10
1174.589642588098
 20
367.2841343303414
 30
0.0
 10
1173.574426229708
 20
366.6557208549784
 30
0.0
 10
1172.606888560406
 20
366.2192072837308
 30
0.0
 10
1171.90079474501
 20
366.0367275476411
 30
0.0
 10
1171.791633783796
 20
366.0085164757423
 30
0.0
  0
SPLINE
  5
1F3
330
1F
100
AcDbEntity
  8
0
  6
Continuous
 62
     8
370
    15
100
AcDbSpline
210
0.0
220
0.0
230
1.0
 70
     8
 71
     3
 72
    19
 73
    15
 74
     0
 42
0.00000001
 43
0.00000001
 12
1.0
 22
0.0
 32
0.0
 13
1.0
 23
0.0
 33
0.0
 40
0.0
 40
0.0
 40
0.0
 40
0.0
 40
0.0834921757834201
 40
0.1696294518326222
 40
0.2523286534732214
 40
0.3303524564238866
 40
0.4083767534542651
 40
0.4910764215966325
 40
0.5772118145964045
 40
0.6651762676978079
 40
0.7531401806619339
 40
0.8392770747539305
 40
0.9219754817054349
 40
1.0
 40
1.0
 40
1.0
 40
1.0
 10
1156.032247661569
 20
365.9813367577247
 30
0.0
 10
1155.525752633937
 20
366.1482683021605
 30
0.0
 10
1154.496716402853
 20
366.4874199185911
 30
0.0
 10
1153.428128306241
 20
367.1006355039104
 30
0.0
 10
1152.756326570853
 20
367.7454630010282
 30
0.0
 10
1152.503704169918
 20
368.3968481407363
 30
0.0
 10
1152.636921732389
 20
369.0511404848799
 30
0.0
 10
1153.183284596294
 20
369.7083192860559
 30
0.0
 10
1154.176217132641
 20
370.3443732073738
 30
0.0
 10
1155.594871323264
 20
370.9164560523846
 30
0.0
 10
1157.362879217478
 20
371.3872954278014
 30
0.0
 10
1159.361380552542
 20
371.7277858533019
 30
0.0
 10
1161.452735101282
 20
371.9409542244998
 30
0.0
 10
1162.872463935253
 20
371.9768548262384
 30
0.0
 10
1163.561685203531
 20
371.9942831249886
 30
0.0
  0
SPLINE
  5
1F4
330
1F
100
AcDbEntity
  8
0
  6
Continuous
 62
     8
370
    15
100
AcDbSpline
210
0.0
220
0.0
230
1.0
 70
     8
 71
     3
 72
    19
 73
    15
 74
     0
 42
0.00000001
 43
0.00000001
 12
1.0
 22
0.0
 32
0.0
 13
1.0
 23
0.0
 33
0.0
 40
0.0
 40
0.0
 40
0.0
 40
0.0
 40
0.0301148684597136
 40
0.1104712571105791
 40
0.1925355464175644
 40
0.2745979585553568
 40
0.3549554770049396
 40
0.5042307887893395
 40
0.653506149808567
 40
0.7338632235233846
 40
0.8159249052773423
 40
0.8979893916617973
 40
0.9783469498505231
 40
1.0
 40
1.0
 40
1.0
 40
1.0
 10
1171.319036005953
 20
369.2846261711769
 30
0.0
 10
1171.282975440442
 20
369.345814273969
 30
0.0
 10
1171.150693408082
 20
369.57027238989
 30
0.0
 10
1170.422996809533
 20
369.9094712431819
 30
0.0
 10
1169.389775132732
 20
370.2963201972702
 30
0.0
 10
1168.079585863951
 20
370.6032785897111
 30
0.0
 10
1166.204433565708
 20
370.8838429880108
 30
0.0
 10
1163.652318121068
 20
371.0119620718856
 30
0.0
 10
1161.127719161451
 20
370.8391886127928
 30
0.0
 10
1159.307741028162
 20
370.5259979450071
 30
0.0
 10
1158.054898932071
 20
370.1965879113871
 30
0.0
 10
1157.099610042661
 20
369.7917966556112
 30
0.0
 10
1156.451052097401
 20
369.4569920593643
 30
0.0
 10
1156.362064121653
 20
369.248306958256
 30
0.0
 10
1156.34317529104
 20
369.2040108891181
 30
0.0
  0
SPLINE
  5
1F5
330
1F
100
AcDbEntity
  8
0
  6
Continuous
 62
     8
370
    15
100
AcDbSpline
210
0.0
220
0.0
230
1.0
 70
     8
 71
     3
 72
    20
 73
    16
 74
     0
 42
0.00000001
 43
0.00000001
 12
1.0
 22
0.0
 32
0.0
 13
1.0
 23
0.0
 33
0.0
 40
0.0
 40
0.0
 40
0.0
 40
0.0
 40
0.0498350389769337
 40
0.1092072234626121
 40
0.1682076439755833
 40
0.2814339431722929
 40
0.388612773106324
 40
0.4930311789470274
 40
0.5972632430113665
 40
0.704948165138839
 40
0.8187583205701172
 40
0.8781034834287942
 40
0.9377406021009157
 40
0.9971089598837899
 40
1.0
 40
1.0
 40
1.0
 40
1.0
 10
1157.204171835401
 20
347.541745826786
 30
0.0
 10
1157.185141684581
 20
347.159007126743
 30
0.0
 10
1157.143439501221
 20
346.3202833773196
 30
0.0
 10
1157.480426573794
 20
345.053060798217
 30
0.0
 10
1158.30938932942
 20
343.4235527208629
 30
0.0
 10
1160.00402825318
 20
341.7574663257981
 30
0.0
 10
1162.680105898869
 20
340.5651856392719
 30
0.0
 10
1165.619833555701
 20
340.2272974461816
 30
0.0
 10
1168.545428356807
 20
340.7398397098822
 30
0.0
 10
1171.177634354904
 20
342.0957845685735
 30
0.0
 10
1172.794009837081
 20
343.8732885198256
 30
0.0
 10
1173.565147370392
 20
345.5644584616637
 30
0.0
 10
1173.799442833963
 20
346.9209851293137
 30
0.0
 10
1173.824164066962
 20
347.8733691844106
 30
0.0
 10
1173.683319844403
 20
348.3335627238505
 30
0.0
 10
1173.67677968643
 20
348.3549319954567
 30
0.0
  0
LWPOLYLINE
  5
1F6
330
1F
100
AcDbEntity
  8
0
  6
Continuous
 62
     8
370
    15
100
AcDbPolyline
 90
       15
 70
   128
 43
0.0
 10
1164.3146483292
 20
368.7629067155
 10
1165.9402681579
 20
368.6793410035
 10
1167.469738244
 20
368.4897386285
 10
1168.8315628161
 20
368.2029806824
 10
1169.9620468607
 20
367.8324484082
 10
1170.8083359589
 20
367.3954867573
 10
1171.3308675279
 20
366.9125103207
 10
1171.5051962127
 20
366.406139061
 10
1171.3231785288
 20
365.9000062199
 10
1170.7933155885
 20
365.4178046437
 10
1169.9403954735
 20
364.9820648881
 10
1168.8042936911
 20
364.6131717416
 10
1167.4381328811
 20
364.3283807488
 10
1165.9057943215
 20
364.141013548
 10
1164.689434885
 20
364.0698157998
  0
LWPOLYLINE
  5
1F7
330
1F
100
AcDbEntity
  8
0
  6
Continuous
 62
     8
370
    15
100
AcDbPolyline
 90
       17
 70
   128
 43
0.0
 10
1163.5104401102
 20
364.0594743939
 10
1162.6336110821
 20
364.0885614606
 10
1161.0467640748
 20
364.2259501668
 10
1159.5925895562
 20
364.4655310364
 10
1158.3390889754
 20
364.7961281987
 10
1157.34487605
 20
365.2022444459
 10
1156.6564275017
 20
365.6649255009
 10
1156.3059447398
 20
366.1625348778
 10
1156.3098115911
 20
366.6717671605
 10
1156.6678492417
 20
367.1688400956
 10
1157.363316237
 20
367.630537674
 10
1158.3636907925
 20
368.0352234097
 10
1159.6221981635
 20
368.363972828
 10
1161.0799936642
 20
368.6014675351
 10
1162.6689119329
 20
368.7365316601
 10
1164.3146483292
 20
368.7629067155
 10
1164.3146483292
 20
368.7629067155
  0
LWPOLYLINE
  5
1F8
330
1F
100
AcDbEntity
  8
0
  6
Continuous
 62
     8
370
    15
100
AcDbPolyline
 90
       17
 70
   128
 43
0.0
 10
1155.3841961612
 20
367.3557304593
 10
1155.5699465861
 20
367.9018282147
 10
1156.1190618267
 20
368.4240841122
 10
1157.007558464
 20
368.8996099683
 10
1158.1965891709
 20
369.3076931687
 10
1159.6342010488
 20
369.6304523202
 10
1161.257555901
 20
369.8538207265
 10
1162.9957092991
 20
369.9679636212
 10
1164.7726876726
 20
369.9679636212
 10
1166.5108410706
 20
369.8538207265
 10
1168.1341959228
 20
369.6304523202
 10
1169.5718078007
 20
369.3076931687
 10
1170.7608459582
 20
368.8996099683
 10
1171.649335145
 20
368.4240841122
 10
1172.1984503855
 20
367.9018282147
 10
1172.3842008104
 20
367.3557304593
 10
1172.3841114034
 20
367.343690321
  0
LWPOLYLINE
  5
1F9
330
1F
100
AcDbEntity
  8
0
  6
Continuous
 62
     8
370
    15
100
AcDbPolyline
 90
        9
 70
   128
 43
0.0
 10
1164.3642989983
 20
370.1683842393
 10
1166.1182327261
 20
370.0802289696
 10
1167.7745340457
 20
369.88132827
 10
1169.2608056655
 20
369.5803248139
 10
1170.5120934238
 20
369.1904508324
 10
1171.4737100591
 20
368.728663847
 10
1172.1036342969
 20
368.2152294369
 10
1172.3743213405
 20
367.6724993439
 10
1172.3842008104
 20
367.5459288808
  0
LWPOLYLINE
  5
1FA
330
1F
100
AcDbEntity
  8
0
  6
Continuous
 62
     8
370
    15
100
AcDbPolyline
 90
        9
 70
   128
 43
0.0
 10
1155.3841961612
 20
367.5459288808
 10
1155.4944424023
 20
367.9676019402
 10
1155.9614820471
 20
368.4973978253
 10
1156.774787425
 20
368.985649273
 10
1157.8988043656
 20
369.4109582158
 10
1159.284411191
 20
369.7547578068
 10
1160.871049582
 20
370.0019978734
 10
1162.5893769851
 20
370.141919777
 10
1164.3642989983
 20
370.1683842393
  0
LWPOLYLINE
  5
1FB
330
1F
100
AcDbEntity
  8
0
  6
Continuous
 62
     8
370
    15
100
AcDbPolyline
 90
       17
 70
   128
 43
0.0
 10
1158.486774384
 20
1035.5062597247
 10
1158.2458747616
 20
1035.3619717808
 10
1157.6066969027
 20
1035.2816396208
 10
1156.7835865607
 20
1035.4807489367
 10
1155.8150408854
 20
1035.9499716016
 10
1154.7463370552
 20
1036.6673731061
 10
1153.627446114
 20
1037.5994258376
 10
1152.5107009401
 20
1038.7025140973
 10
1151.4483003011
 20
1039.9250947686
 10
1150.4899321189
 20
1041.2099771949
 10
1149.6804116359
 20
1042.4970947953
 10
1149.0575803509
 20
1043.7262617798
 10
1148.650570034
 20
1044.8399894686
 10
1148.4784094682
 20
1045.7862281056
 10
1148.5491452803
 20
1046.5207063409
 10
1148.8594694128
 20
1047.009091899
 10
1148.8594694128
 20
1047.009091899
  0
LINE
  5
1FC
330
1F
100
AcDbEntity
  8
0
  6
Continuous
 62
     8
370
    15
100
AcDbLine
 10
831.0049085011
 20
428.0786179753
 30
0.0
 11
830.9841958871
 21
428.0786179753
 31
0.0
  0
LINE
  5
1FD
330
1F
100
AcDbEntity
  8
0
  6
Continuous
 62
     8
370
    15
100
AcDbLine
 10
831.0049085011
 20
426.1289500447
 30
0.0
 11
830.9841958871
 21
426.1289500447
 31
0.0
  0
LINE
  5
1FE
330
1F
100
AcDbEntity
  8
0
  6
Continuous
 62
     8
370
    15
100
AcDbLine
 10
1230.9842018475
 20
428.0786179753
 30
0.0
 11
1230.9634892335
 21
428.0786179753
 31
0.0
  0
LINE
  5
1FF
330
1F
100
AcDbEntity
  8
0
  6
Continuous
 62
     8
370
    15
100
AcDbLine
 10
1230.9842018475
 20
426.1289500447
 30
0.0
 11
1230.9634892335
 21
426.1289500447
 31
0.0
  0
LINE
  5
200
330
1F
100
AcDbEntity
  8
0
  6
Continuous
 62
     8
370
    15
100
AcDbLine
 10
1230.9842018475
 20
401.8048309537
 30
0.0
 11
1230.9634892335
 21
401.8048309537
 31
0.0
  0
LINE
  5
201
330
1F
100
AcDbEntity
  8
0
  6
Continuous
 62
     8
370
    15
100
AcDbLine
 10
831.0049085011
 20
401.8048309537
 30
0.0
 11
830.9841958871
 21
401.8048309537
 31
0.0
  0
LINE
  5
202
330
1F
100
AcDbEntity
  8
0
  6
Continuous
 62
     8
370
    15
100
AcDbLine
 10
1230.9842018475
 20
395.7144581528
 30
0.0
 11
1230.9634892335
 21
395.7144581528
 31
0.0
  0
LINE
  5
203
330
1F
100
AcDbEntity
  8
0
  6
Continuous
 62
     8
370
    15
100
AcDbLine
 10
831.0049085011
 20
395.7144581528
 30
0.0
 11
830.9841958871
 21
395.7144581528
 31
0.0
  0
LINE
  5
204
330
1F
100
AcDbEntity
  8
0
  6
Continuous
 62
     8
370
    15
100
AcDbLine
 10
1230.9842018475
 20
376.2640618535
 30
0.0
 11
1177.9861508002
 21
376.2640618535
 31
0.0
  0
LINE
  5
205
330
1F
100
AcDbEntity
  8
0
  6
Continuous
 62
     8
370
    15
100
AcDbLine
 10
1149.7822461715
 20
376.2640618535
 30
0.0
 11
968.1244699349
 21
376.2640618535
 31
0.0
  0
LINE
  5
206
330
1F
100
AcDbEntity
  8
0
  6
Continuous
 62
     8
370
    15
100
AcDbLine
 10
943.8091276278
 20
376.2640618535
 30
0.0
 11
830.9841958871
 21
376.2640618535
 31
0.0
  0
LINE
  5
207
330
1F
100
AcDbEntity
  8
0
  6
Continuous
 62
     8
370
    15
100
AcDbLine
 10
967.1576676955
 20
382.8638159486
 30
0.0
 11
967.7920324793
 21
387.3177730294
 31
0.0
  0
LINE
  5
208
330
1F
100
AcDbEntity
  8
0
  6
Continuous
 62
     8
370
    15
100
AcDbLine
 10
944.2317692628
 20
387.3177730294
 30
0.0
 11
944.8593018641
 21
382.8740679475
 31
0.0
  0
LINE
  5
209
330
1F
100
AcDbEntity
  8
0
  6
Continuous
 62
     8
370
    15
100
AcDbLine
 10
955.5599374761
 20
387.3177730294
 30
0.0
 11
955.4796127667
 21
385.0550317021
 31
0.0
  0
LINE
  5
20A
330
1F
100
AcDbEntity
  8
0
  6
Continuous
 62
     8
370
    15
100
AcDbLine
 10
956.5447999229
 20
385.0545250626
 30
0.0
 11
956.4820809355
 21
387.3177730294
 31
0.0
  0
ARC
  5
20B
330
1F
100
AcDbEntity
  8
0
  6
Continuous
 62
     8
370
    15
100
AcDbCircle
 10
944.6676455962
 20
383.5372290535
 30
0.0
 40
0.6903004980533336
100
AcDbArc
 50
245.3743691969
 51
286.1195098316
  0
ARC
  5
20C
330
1F
100
AcDbEntity
  8
0
  6
Continuous
 62
     8
370
    15
100
AcDbCircle
 10
967.3291903942
 20
383.7958209513
 30
0.0
 40
0.9476567740498553
100
AcDbArc
 50
259.5721829468
 51
288.7985179543
  0
ARC
  5
20D
330
1F
100
AcDbEntity
  8
0
  6
Continuous
 62
     8
370
    15
100
AcDbCircle
 10
938.8297537751
 20
378.5371512893
 30
0.0
 40
7.498765923260561
100
AcDbArc
 50
317.4980363933
 51
356.9102424752
  0
LINE
  5
20E
330
1F
100
AcDbEntity
  8
0
  6
Continuous
 62
     8
370
    15
100
AcDbLine
 10
942.6614550938
 20
387.3177730294
 30
0.0
 11
941.8563602557
 21
386.641707346
 31
0.0
  0
ARC
  5
20F
330
1F
100
AcDbEntity
  8
0
  6
Continuous
 62
     8
370
    15
100
AcDbCircle
 10
972.9490330899
 20
378.3879399138
 30
0.0
 40
7.298979801835815
100
AcDbArc
 50
180.8914819822
 51
222.4640326104
  0
LINE
  5
210
330
1F
100
AcDbEntity
  8
0
  6
Continuous
 62
     8
370
    15
100
AcDbLine
 10
970.0460938802
 20
386.6287433358
 30
0.0
 11
969.2339507928
 21
387.3177730294
 31
0.0
  0
ARC
  5
211
330
1F
100
AcDbEntity
  8
0
  6
Continuous
 62
     8
370
    15
100
AcDbCircle
 10
955.4441405327
 20
372.4408349518
 30
0.0
 40
0.9976290028337057
100
AcDbArc
 50
89.151867361
 51
155.7078580713
  0
LINE
  5
212
330
1F
100
AcDbEntity
  8
0
  6
Continuous
 62
     8
370
    15
100
AcDbLine
 10
941.5368048539
 20
387.3177730294
 30
0.0
 11
941.8563602557
 21
386.641707346
 31
0.0
  0
LINE
  5
213
330
1F
100
AcDbEntity
  8
0
  6
Continuous
 62
     8
370
    15
100
AcDbLine
 10
970.0460938802
 20
386.6287433358
 30
0.0
 11
970.3707901826
 21
387.3177730294
 31
0.0
  0
ARC
  5
214
330
1F
100
AcDbEntity
  8
0
  6
Continuous
 62
     8
370
    15
100
AcDbCircle
 10
945.2868174436
 20
382.972957477
 30
0.0
 40
0.8966949600558666
100
AcDbArc
 50
220.1915062176
 51
275.4878366493
  0
ARC
  5
215
330
1F
100
AcDbEntity
  8
0
  6
Continuous
 62
     8
370
    15
100
AcDbCircle
 10
966.7271911446
 20
382.9651809659
 30
0.0
 40
0.898616208110293
100
AcDbArc
 50
264.5699422965
 51
319.3530855761
  0
LWPOLYLINE
  5
216
330
1F
100
AcDbEntity
  8
0
  6
Continuous
 62
     8
370
    15
100
AcDbPolyline
 90
        3
 70
   128
 43
0.0
 10
944.3374333968
 20
373.2620143147
 10
944.3359432807
 20
373.3649813386
 10
944.358250319
 20
373.47086899
  0
ARC
  5
217
330
1F
100
AcDbEntity
  8
0
  6
Continuous
 62
     8
370
    15
100
AcDbCircle
 10
945.1819380716
 20
372.7551043048
 30
0.0
 40
0.3293513890643
100
AcDbArc
 50
258.9936274288
 51
295.9861488316
  0
ARC
  5
218
330
1F
100
AcDbEntity
  8
0
  6
Continuous
 62
     8
370
    15
100
AcDbCircle
 10
966.7397905516
 20
372.7424747493
 30
0.0
 40
0.326636694914468
100
AcDbArc
 50
243.8485365341
 51
280.9339330768
  0
ARC
  5
219
330
1F
100
AcDbEntity
  8
0
  6
Continuous
 62
     8
370
    15
100
AcDbCircle
 10
967.1194750187
 20
373.3123221609
 30
0.0
 40
0.4690138498601576
100
AcDbArc
 50
350.8224156493
 51
18.3786076145
  0
ARC
  5
21A
330
1F
100
AcDbEntity
  8
0
  6
Continuous
 62
     8
370
    15
100
AcDbCircle
 10
942.2678251485
 20
386.4234039231
 30
0.0
 40
0.4657893756647773
100
AcDbArc
 50
152.0517352232
 51
190.984098786
  0
ARC
  5
21B
330
1F
100
AcDbEntity
  8
0
  6
Continuous
 62
     8
370
    15
100
AcDbCircle
 10
969.6338600311
 20
386.412060378
 30
0.0
 40
0.4657126265503174
100
AcDbArc
 50
349.4642654276
 51
27.7278146921
  0
LWPOLYLINE
  5
21C
330
1F
100
AcDbEntity
  8
0
  6
Continuous
 62
     8
370
    15
100
AcDbPolyline
 90
        9
 70
   128
 43
0.0
 10
957.4589042058
 20
372.4863790723
 10
957.3438672414
 20
372.309055254
 10
957.0179862966
 20
372.1588217469
 10
956.5308673372
 20
372.0585667344
 10
955.9566734423
 20
372.0235490056
 10
955.3828148236
 20
372.0591031762
 10
954.8966644397
 20
372.1598052235
 10
954.5722289076
 20
372.3103367539
 10
954.4871656289
 20
372.3975085469
  0
LINE
  5
21D
330
1F
100
AcDbEntity
  8
0
  6
Continuous
 62
     8
370
    15
100
AcDbLine
 10
833.6841968884
 20
1098.2177817078
 30
0.0
 11
833.6841968884
 21
439.017769024
 31
0.0
  0
LINE
  5
21E
330
1F
100
AcDbEntity
  8
0
  6
Continuous
 62
     8
370
    15
100
AcDbLine
 10
846.2842015614
 20
1098.2177817078
 30
0.0
 11
846.2842015614
 21
439.017769024
 31
0.0
  0
LINE
  5
21F
330
1F
100
AcDbEntity
  8
0
  6
Continuous
 62
     8
370
    15
100
AcDbLine
 10
1228.2842008462
 20
439.017769024
 30
0.0
 11
1228.2842008462
 21
1098.2177817078
 31
0.0
  0
LINE
  5
220
330
1F
100
AcDbEntity
  8
0
  6
Continuous
 62
     8
370
    15
100
AcDbLine
 10
1215.6841961732
 20
439.017769024
 30
0.0
 11
1215.6841961732
 21
1098.2177817078
 31
0.0
  0
LINE
  5
221
330
1F
100
AcDbEntity
  8
0
  6
Continuous
 62
     8
370
    15
100
AcDbLine
 10
850.484198152
 20
1091.6177891942
 30
0.0
 11
850.484198152
 21
1097.5177847596
 31
0.0
  0
LINE
  5
222
330
1F
100
AcDbEntity
  8
0
  6
Continuous
 62
     8
370
    15
100
AcDbLine
 10
850.484198152
 20
1097.5177847596
 30
0.0
 11
926.3304380765
 21
1097.5177847596
 31
0.0
  0
LINE
  5
223
330
1F
100
AcDbEntity
  8
0
  6
Continuous
 62
     8
370
    15
100
AcDbLine
 10
935.6379566779
 20
1097.5177847596
 30
0.0
 11
1126.3304373314
 21
1097.5177847596
 31
0.0
  0
LINE
  5
224
330
1F
100
AcDbEntity
  8
0
  6
Continuous
 62
     8
370
    15
100
AcDbLine
 10
1135.6379596581
 20
1097.5177847596
 30
0.0
 11
1211.4841995826
 21
1097.5177847596
 31
0.0
  0
LINE
  5
225
330
1F
100
AcDbEntity
  8
0
  6
Continuous
 62
     8
370
    15
100
AcDbLine
 10
1211.4841995826
 20
1097.5177847596
 30
0.0
 11
1211.4841995826
 21
1034.6336775275
 31
0.0
  0
LINE
  5
226
330
1F
100
AcDbEntity
  8
0
  6
Continuous
 62
     8
370
    15
100
AcDbLine
 10
926.3768700948
 20
1096.9870352002
 30
0.0
 11
935.5915246596
 21
1096.9870352002
 31
0.0
  0
LINE
  5
227
330
1F
100
AcDbEntity
  8
0
  6
Continuous
 62
     8
370
    15
100
AcDbLine
 10
1126.3768693497
 20
1096.9870352002
 30
0.0
 11
1135.5915276398
 21
1096.9870352002
 31
0.0
  0
LINE
  5
228
330
1F
100
AcDbEntity
  8
0
  6
Continuous
 62
     8
370
    15
100
AcDbLine
 10
877.68419665
 20
1178.8615249844
 30
0.0
 11
860.8091978421
 21
1178.8615249844
 31
0.0
  0
LINE
  5
229
330
1F
100
AcDbEntity
  8
0
  6
Continuous
 62
     8
370
    15
100
AcDbLine
 10
894.5591954579
 20
1178.8615249844
 30
0.0
 11
877.68419665
 21
1178.8615249844
 31
0.0
  0
LINE
  5
22A
330
1F
100
AcDbEntity
  8
0
  6
Continuous
 62
     8
370
    15
100
AcDbLine
 10
893.534204184
 20
1165.1677750798
 30
0.0
 11
894.6633396735
 21
1165.1677750798
 31
0.0
  0
LINE
  5
22B
330
1F
100
AcDbEntity
  8
0
  6
Continuous
 62
     8
370
    15
100
AcDbLine
 10
894.6633396735
 20
1170.2677869054
 30
0.0
 11
894.5591954579
 21
1170.2677869054
 31
0.0
  0
ARC
  5
22C
330
1F
100
AcDbEntity
  8
0
  6
Continuous
 62
     8
370
    15
100
AcDbCircle
 10
894.4050076366
 20
1170.2757439149
 30
0.0
 40
0.2584545517388823
100
AcDbArc
 50
358.2357628665
 51
53.3749260134
  0
LINE
  5
22D
330
1F
100
AcDbEntity
  8
0
  6
Continuous
 62
     8
370
    15
100
AcDbLine
 10
894.6633396735
 20
1170.2677869054
 30
0.0
 11
894.701844274
 21
1170.2677869054
 31
0.0
  0
LINE
  5
22E
330
1F
100
AcDbEntity
  8
0
  6
Continuous
 62
     8
370
    15
100
AcDbLine
 10
894.3517563929
 20
1163.9677845689
 30
0.0
 11
894.734194695
 21
1163.9677845689
 31
0.0
  0
LINE
  5
22F
330
1F
100
AcDbEntity
  8
0
  6
Continuous
 62
     8
370
    15
100
AcDbLine
 10
894.734194695
 20
1165.867772028
 30
0.0
 11
894.701844274
 21
1165.867772028
 31
0.0
  0
LINE
  5
230
330
1F
100
AcDbEntity
  8
0
  6
Continuous
 62
     8
370
    15
100
AcDbLine
 10
894.701844274
 20
1165.1677750798
 30
0.0
 11
894.734194695
 21
1165.1677750798
 31
0.0
  0
SPLINE
  5
231
330
1F
100
AcDbEntity
  8
0
  6
Continuous
 62
     8
370
    15
100
AcDbSpline
210
0.0
220
0.0
230
1.0
 70
     8
 71
     3
 72
    11
 73
     7
 74
     0
 42
0.00000001
 43
0.00000001
 12
1.0
 22
0.0
 32
0.0
 13
1.0
 23
0.0
 33
0.0
 40
0.0
 40
0.0
 40
0.0
 40
0.0
 40
0.17654382471869
 40
0.5328360280971229
 40
0.9091255361936099
 40
1.0
 40
1.0
 40
1.0
 40
1.0
 10
895.1140699972894
 20
1164.667781517094
 30
0.0
 10
895.1115728634375
 20
1164.735186026569
 30
0.0
 10
895.1040361348923
 20
1164.938623055091
 30
0.0
 10
895.0093629575148
 20
1165.263420140652
 30
0.0
 10
894.8702913916451
 20
1165.529060533362
 30
0.0
 10
894.7563575309807
 20
1165.611174888903
 30
0.0
 10
894.7341946949747
 20
1165.627148077076
 30
0.0
  0
LINE
  5
232
330
1F
100
AcDbEntity
  8
0
  6
Continuous
 62
     8
370
    15
100
AcDbLine
 10
894.5841996064
 20
1163.738634512
 30
0.0
 11
894.5841996064
 21
1159.5677696915
 31
0.0
  0
LINE
  5
233
330
1F
100
AcDbEntity
  8
0
  6
Continuous
 62
     8
370
    15
100
AcDbLine
 10
895.1903192391
 20
1164.6677815171
 30
0.0
 11
895.1140699973
 21
1164.6677815171
 31
0.0
  0
LINE
  5
234
330
1F
100
AcDbEntity
  8
0
  6
Continuous
 62
     8
370
    15
100
AcDbLine
 10
894.1840587249
 20
1159.5677696915
 30
0.0
 11
894.1840587249
 21
1163.7177728863
 31
0.0
  0
LINE
  5
235
330
1F
100
AcDbEntity
  8
0
  6
Continuous
 62
     8
370
    15
100
AcDbLine
 10
892.6091997018
 20
1159.5677696915
 30
0.0
 11
894.1840587249
 21
1159.5677696915
 31
0.0
  0
LINE
  5
236
330
1F
100
AcDbEntity
  8
0
  6
Continuous
 62
     8
370
    15
100
AcDbLine
 10
895.1903192391
 20
1159.5677696915
 30
0.0
 11
895.1140699973
 21
1159.5677696915
 31
0.0
  0
ENDSEC
  0
SECTION
  2
OBJECTS
  0
DICTIONARY
  5
C
330
0
100
AcDbDictionary
281
     1
  3
ACAD_GROUP
350
D
  3
ACAD_LAYOUT
350
1A
  3
ACAD_MLINESTYLE
350
17
  3
ACAD_PLOTSETTINGS
350
19
  3
ACAD_PLOTSTYLENAME
350
E
  0
DICTIONARY
  5
D
102
{ACAD_REACTORS
330
C
102
}
330
C
100
AcDbDictionary
281
     1
  0
DICTIONARY
  5
1A
102
{ACAD_REACTORS
330
C
102
}
330
C
100
AcDbDictionary
281
     1
  3
Layout1
350
1E
  3
Layout2
350
26
  3
Model
350
22
  0
DICTIONARY
  5
17
102
{ACAD_REACTORS
330
C
102
}
330
C
100
AcDbDictionary
281
     1
  3
Standard
350
18
  0
DICTIONARY
  5
19
102
{ACAD_REACTORS
330
C
102
}
330
C
100
AcDbDictionary
281
     1
  0
ACDBDICTIONARYWDFLT
  5
E
102
{ACAD_REACTORS
330
C
102
}
330
C
100
AcDbDictionary
281
     1
  3
Normal
350
F
100
AcDbDictionaryWithDefault
340
F
  0
LAYOUT
  5
1E
102
{ACAD_REACTORS
330
1A
102
}
330
1A
100
AcDbPlotSettings
  1

  2
none_device
  4

  6

 40
0.0
 41
0.0
 42
0.0
 43
0.0
 44
0.0
 45
0.0
 46
0.0
 47
0.0
 48
0.0
 49
0.0
140
0.0
141
0.0
142
1.0
143
1.0
 70
   688
 72
     0
 73
     0
 74
     5
  7

 75
    16
147
1.0
148
0.0
149
0.0
100
AcDbLayout
  1
Layout1
 70
     1
 71
     1
 10
0.0
 20
0.0
 11
420.0
 21
297.0
 12
0.0
 22
0.0
 32
0.0
 14
1.0000000000E+20
 24
1.0000000000E+20
 34
1.0000000000E+20
 15
-1.0000000000E+20
 25
-1.0000000000E+20
 35
-1.0000000000E+20
146
0.0
 13
0.0
 23
0.0
 33
0.0
 16
1.0
 26
0.0
 36
0.0
 17
0.0
 27
1.0
 37
0.0
 76
     0
330
1B
  0
LAYOUT
  5
26
102
{ACAD_REACTORS
330
1A
102
}
330
1A
100
AcDbPlotSettings
  1

  2
none_device
  4

  6

 40
0.0
 41
0.0
 42
0.0
 43
0.0
 44
0.0
 45
0.0
 46
0.0
 47
0.0
 48
0.0
 49
0.0
140
0.0
141
0.0
142
1.0
143
1.0
 70
   688
 72
     0
 73
     0
 74
     5
  7

 75
    16
147
1.0
148
0.0
149
0.0
100
AcDbLayout
  1
Layout2
 70
     1
 71
     2
 10
0.0
 20
0.0
 11
0.0
 21
0.0
 12
0.0
 22
0.0
 32
0.0
 14
0.0
 24
0.0
 34
0.0
 15
0.0
 25
0.0
 35
0.0
146
0.0
 13
0.0
 23
0.0
 33
0.0
 16
1.0
 26
0.0
 36
0.0
 17
0.0
 27
1.0
 37
0.0
 76
     0
330
23
  0
LAYOUT
  5
22
102
{ACAD_REACTORS
330
1A
102
}
330
1A
100
AcDbPlotSettings
  1

  2
none_device
  4

  6

 40
0.0
 41
0.0
 42
0.0
 43
0.0
 44
0.0
 45
0.0
 46
0.0
 47
0.0
 48
0.0
 49
0.0
140
0.0
141
0.0
142
1.0
143
1.0
 70
  1712
 72
     0
 73
     0
 74
     0
  7

 75
     0
147
1.0
148
0.0
149
0.0
100
AcDbLayout
  1
Model
 70
     1
 71
     0
 10
0.0
 20
0.0
 11
2159.0
 21
1397.0
 12
0.0
 22
0.0
 32
0.0
 14
0.0
 24
0.0
 34
0.0
 15
2159.0
 25
1397.0
 35
0.0
146
0.0
 13
0.0
 23
0.0
 33
0.0
 16
1.0
 26
0.0
 36
0.0
 17
0.0
 27
1.0
 37
0.0
 76
     0
330
1F
331
29
  0
MLINESTYLE
  5
18
102
{ACAD_REACTORS
330
17
102
}
330
17
100
AcDbMlineStyle
  2
Standard
 70
     0
  3

 62
   256
 51
90.0
 52
90.0
 71
     2
 49
0.5
 62
   256
  6
BYLAYER
 49
-0.5
 62
   256
  6
BYLAYER
  0
ACDBPLACEHOLDER
  5
F
102
{ACAD_REACTORS
330
E
102
}
330
E
  0
ENDSEC
  0
EOF
