  0
SECTION
  2
HEADER
  9
$ACADVER
  1
AC1015
  9
$ACADMAINTVER
 70
     6
  9
$DWGCODEPAGE
  3
ANSI_1252
  9
$INSBASE
 10
0.0
 20
0.0
 30
0.0
  9
$EXTMIN
 10
0.0
 20
0.0
 30
0.0
  9
$EXTMAX
 10
2159.0
 20
1397.0
 30
0.0
  9
$LIMMIN
 10
0.0
 20
0.0
  9
$LIMMAX
 10
2159.0
 20
1397.0
  9
$ORTHOMODE
 70
     0
  9
$REGENMODE
 70
     1
  9
$FILLMODE
 70
     1
  9
$QTEXTMODE
 70
     0
  9
$MIRRTEXT
 70
     1
  9
$LTSCALE
 40
5.0
  9
$ATTMODE
 70
     1
  9
$TEXTSIZE
 40
17.5
  9
$TRACEWID
 40
1.0
  9
$TEXTSTYLE
  7
Standard
  9
$CLAYER
  8
0
  9
$CELTYPE
  6
ByLayer
  9
$CECOLOR
 62
   256
  9
$CELTSCALE
 40
1.0
  9
$DISPSILH
 70
     0
  9
$DIMSCALE
 40
1.0
  9
$DIMASZ
 40
16.51
  9
$DIMEXO
 40
5.0
  9
$DIMDLI
 40
3.75
  9
$DIMRND
 40
0.0
  9
$DIMDLE
 40
0.0
  9
$DIMEXE
 40
5.0
  9
$DIMTP
 40
0.0
  9
$DIMTM
 40
0.0
  9
$DIMTXT
 40
17.5
  9
$DIMCEN
 40
2.5
  9
$DIMTSZ
 40
0.0
  9
$DIMTOL
 70
     0
  9
$DIMLIM
 70
     0
  9
$DIMTIH
 70
     1
  9
$DIMTOH
 70
     1
  9
$DIMSE1
 70
     0
  9
$DIMSE2
 70
     0
  9
$DIMTAD
 70
     1
  9
$DIMZIN
 70
     0
  9
$DIMBLK
  1

  9
$DIMASO
 70
     1
  9
$DIMSHO
 70
     1
  9
$DIMPOST
  1

  9
$DIMAPOST
  1

  9
$DIMALT
 70
     0
  9
$DIMALTD
 70
     3
  9
$DIMALTF
 40
0.0393700787
  9
$DIMLFAC
 40
1.0
  9
$DIMTOFL
 70
     1
  9
$DIMTVP
 40
0.0
  9
$DIMTIX
 70
     0
  9
$DIMSOXD
 70
     0
  9
$DIMSAH
 70
     0
  9
$DIMBLK1
  1

  9
$DIMBLK2
  1

  9
$DIMSTYLE
  2
ISO-25
  9
$DIMCLRD
 70
     0
  9
$DIMCLRE
 70
     0
  9
$DIMCLRT
 70
     0
  9
$DIMTFAC
 40
1.0
  9
$DIMGAP
 40
7.62
  9
$DIMJUST
 70
     0
  9
$DIMSD1
 70
     0
  9
$DIMSD2
 70
     0
  9
$DIMTOLJ
 70
     0
  9
$DIMTZIN
 70
     0
  9
$DIMALTZ
 70
     0
  9
$DIMALTTZ
 70
     0
  9
$DIMUPT
 70
     0
  9
$DIMDEC
 70
     3
  9
$DIMTDEC
 70
     3
  9
$DIMALTU
 70
     2
  9
$DIMALTTD
 70
     3
  9
$DIMTXSTY
  7
Standard
  9
$DIMAUNIT
 70
     0
  9
$DIMADEC
 70
     2
  9
$DIMALTRND
 40
0.0
  9
$DIMAZIN
 70
     0
  9
$DIMDSEP
 70
    44
  9
$DIMATFIT
 70
     3
  9
$DIMFRAC
 70
     0
  9
$DIMLDRBLK
  1

  9
$DIMLUNIT
 70
     2
  9
$DIMLWD
 70
    -2
  9
$DIMLWE
 70
    -2
  9
$DIMTMOVE
 70
     0
  9
$LUNITS
 70
     2
  9
$LUPREC
 70
     8
  9
$SKETCHINC
 40
1.0
  9
$FILLETRAD
 40
10.0
  9
$AUNITS
 70
     0
  9
$AUPREC
 70
     8
  9
$MENU
  1
.
  9
$ELEVATION
 40
0.0
  9
$PELEVATION
 40
0.0
  9
$THICKNESS
 40
0.0
  9
$LIMCHECK
 70
     0
  9
$CHAMFERA
 40
10.0
  9
$CHAMFERB
 40
10.0
  9
$CHAMFERC
 40
20.0
  9
$CHAMFERD
 40
0.0
  9
$SKPOLY
 70
     0
  9
$TDCREATE
 40
2456315.40911691
  9
$TDUCREATE
 40
2456315.40911691
  9
$TDUPDATE
 40
2456315.409118171
  9
$TDUUPDATE
 40
2456315.409118171
  9
$TDINDWG
 40
0.0000000116
  9
$TDUSRTIMER
 40
0.0000000116
  9
$USRTIMER
 70
     1
  9
$ANGBASE
 50
0.0
  9
$ANGDIR
 70
     0
  9
$PDMODE
 70
     0
  9
$PDSIZE
 40
-1.0
  9
$PLINEWID
 40
0.0
  9
$SPLFRAME
 70
     0
  9
$SPLINETYPE
 70
     6
  9
$SPLINESEGS
 70
     8
  9
$HANDSEED
  5
350
  9
$SURFTAB1
 70
     6
  9
$SURFTAB2
 70
     6
  9
$SURFTYPE
 70
     6
  9
$SURFU
 70
     6
  9
$SURFV
 70
     6
  9
$UCSBASE
  2

  9
$UCSNAME
  2

  9
$UCSORG
 10
0.0
 20
0.0
 30
0.0
  9
$UCSXDIR
 10
1.0
 20
0.0
 30
0.0
  9
$UCSYDIR
 10
0.0
 20
1.0
 30
0.0
  9
$UCSORTHOREF
  2

  9
$UCSORTHOVIEW
 70
     0
  9
$UCSORGTOP
 10
0.0
 20
0.0
 30
0.0
  9
$UCSORGBOTTOM
 10
0.0
 20
0.0
 30
0.0
  9
$UCSORGLEFT
 10
0.0
 20
0.0
 30
0.0
  9
$UCSORGRIGHT
 10
0.0
 20
0.0
 30
0.0
  9
$UCSORGFRONT
 10
0.0
 20
0.0
 30
0.0
  9
$UCSORGBACK
 10
0.0
 20
0.0
 30
0.0
  9
$PUCSBASE
  2

  9
$PUCSNAME
  2

  9
$PUCSORG
 10
0.0
 20
0.0
 30
0.0
  9
$PUCSXDIR
 10
1.0
 20
0.0
 30
0.0
  9
$PUCSYDIR
 10
0.0
 20
1.0
 30
0.0
  9
$PUCSORTHOREF
  2

  9
$PUCSORTHOVIEW
 70
     0
  9
$PUCSORGTOP
 10
0.0
 20
0.0
 30
0.0
  9
$PUCSORGBOTTOM
 10
0.0
 20
0.0
 30
0.0
  9
$PUCSORGLEFT
 10
0.0
 20
0.0
 30
0.0
  9
$PUCSORGRIGHT
 10
0.0
 20
0.0
 30
0.0
  9
$PUCSORGFRONT
 10
0.0
 20
0.0
 30
0.0
  9
$PUCSORGBACK
 10
0.0
 20
0.0
 30
0.0
  9
$USERI1
 70
     0
  9
$USERI2
 70
     0
  9
$USERI3
 70
     0
  9
$USERI4
 70
     0
  9
$USERI5
 70
     0
  9
$USERR1
 40
0.0
  9
$USERR2
 40
0.0
  9
$USERR3
 40
0.0
  9
$USERR4
 40
0.0
  9
$USERR5
 40
0.0
  9
$WORLDVIEW
 70
     1
  9
$SHADEDGE
 70
     3
  9
$SHADEDIF
 70
    70
  9
$TILEMODE
 70
     1
  9
$MAXACTVP
 70
    64
  9
$PINSBASE
 10
0.0
 20
0.0
 30
0.0
  9
$PLIMCHECK
 70
     0
  9
$PEXTMIN
 10
1.0000000000E+20
 20
1.0000000000E+20
 30
1.0000000000E+20
  9
$PEXTMAX
 10
-1.0000000000E+20
 20
-1.0000000000E+20
 30
-1.0000000000E+20
  9
$PLIMMIN
 10
0.0
 20
0.0
  9
$PLIMMAX
 10
420.0
 20
297.0
  9
$UNITMODE
 70
     0
  9
$VISRETAIN
 70
     1
  9
$PLINEGEN
 70
     0
  9
$PSLTSCALE
 70
     1
  9
$TREEDEPTH
 70
  3020
  9
$CMLSTYLE
  2
Standard
  9
$CMLJUST
 70
     0
  9
$CMLSCALE
 40
20.0
  9
$PROXYGRAPHICS
 70
     1
  9
$MEASUREMENT
 70
     1
  9
$CELWEIGHT
370
    -1
  9
$ENDCAPS
280
     0
  9
$JOINSTYLE
280
     0
  9
$LWDISPLAY
290
     1
  9
$INSUNITS
 70
     4
  9
$HYPERLINKBASE
  1

  9
$STYLESHEET
  1

  9
$XEDIT
290
     1
  9
$CEPSNTYPE
380
     0
  9
$PSTYLEMODE
290
     1
  9
$FINGERPRINTGUID
  2
{FD79BC18-959E-4CC5-9EDE-826E84C4C549}
  9
$VERSIONGUID
  2
{FAEB1C32-E019-11D5-929B-00C0DF256EC4}
  9
$EXTNAMES
290
     1
  9
$PSVPSCALE
 40
0.0
  9
$OLESTARTUP
290
     0
  0
ENDSEC
  0
SECTION
  2
CLASSES
  0
CLASS
  1
ACDBDICTIONARYWDFLT
  2
AcDbDictionaryWithDefault
  3
ObjectDBX Classes
 90
        0
280
     0
281
     0
  0
CLASS
  1
VISUALSTYLE
  2
AcDbVisualStyle
  3
ObjectDBX Classes
 90
     4095
280
     0
281
     0
  0
CLASS
  1
MATERIAL
  2
AcDbMaterial
  3
ObjectDBX Classes
 90
     1153
280
     0
281
     0
  0
CLASS
  1
ACDBPLACEHOLDER
  2
AcDbPlaceHolder
  3
ObjectDBX Classes
 90
        0
280
     0
281
     0
  0
CLASS
  1
LAYOUT
  2
AcDbLayout
  3
ObjectDBX Classes
 90
        0
280
     0
281
     0
  0
ENDSEC
  0
SECTION
  2
TABLES
  0
TABLE
  2
VPORT
  5
8
330
0
100
AcDbSymbolTable
 70
     1
  0
VPORT
  5
29
330
8
100
AcDbSymbolTableRecord
100
AcDbViewportTableRecord
  2
*Active
 70
     0
 10
0.0
 20
0.0
 11
1.0
 21
1.0
 12
1079.5
 22
698.5
 13
0.0
 23
0.0
 14
10.0
 24
10.0
 15
10.0
 25
10.0
 16
0.0
 26
0.0
 36
1.0
 17
0.0
 27
0.0
 37
0.0
 40
1397.0
 41
1.5454545455
 42
50.0
 43
0.0
 44
0.0
 50
0.0
 51
0.0
 71
     0
 72
  2000
 73
     1
 74
     3
 75
     0
 76
     0
 77
     0
 78
     0
281
     0
 65
     1
110
0.0
120
0.0
130
0.0
111
1.0
121
0.0
131
0.0
112
0.0
122
1.0
132
0.0
 79
     0
146
0.0
  0
ENDTAB
  0
TABLE
  2
LTYPE
  5
5
330
0
100
AcDbSymbolTable
 70
     6
  0
LTYPE
  5
14
330
5
100
AcDbSymbolTableRecord
100
AcDbLinetypeTableRecord
  2
ByBlock
 70
     0
  3

 72
    65
 73
     0
 40
0.0
  0
LTYPE
  5
15
330
5
100
AcDbSymbolTableRecord
100
AcDbLinetypeTableRecord
  2
ByLayer
 70
     0
  3

 72
    65
 73
     0
 40
0.0
  0
LTYPE
  5
16
330
5
100
AcDbSymbolTableRecord
100
AcDbLinetypeTableRecord
  2
Continuous
 70
     0
  3
Solid line
 72
    65
 73
     0
 40
0.0
  0
LTYPE
  5
3F
330
5
100
AcDbSymbolTableRecord
100
AcDbLinetypeTableRecord
  2
HIDDEN
 70
     0
  3
Hidden __ __ __ __ __ __ __ __ __ __ __ __ __ __
 72
    65
 73
     2
 40
1.905
 49
1.27
 74
     0
 49
-0.635
 74
     0
  0
LTYPE
  5
40
330
5
100
AcDbSymbolTableRecord
100
AcDbLinetypeTableRecord
  2
PHANTOM
 70
     0
  3
Phantom ______  __  __  ______  __  __  ______
 72
    65
 73
     6
 40
12.7
 49
6.35
 74
     0
 49
-1.27
 74
     0
 49
1.27
 74
     0
 49
-1.27
 74
     0
 49
1.27
 74
     0
 49
-1.27
 74
     0
  0
LTYPE
  5
41
330
5
100
AcDbSymbolTableRecord
100
AcDbLinetypeTableRecord
  2
CENTER
 70
     0
  3
Center ____ _ ____ _ ____ _ ____ _ ____ _ ____
 72
    65
 73
     4
 40
10.16
 49
6.35
 74
     0
 49
-1.27
 74
     0
 49
1.27
 74
     0
 49
-1.27
 74
     0
  0
LTYPE
  5
42
330
5
100
AcDbSymbolTableRecord
100
AcDbLinetypeTableRecord
  2
CENTERX2
 70
     0
  3
Center (2x) ________  __  ________  __  _____
 72
    65
 73
     4
 40
20.32
 49
12.7
 74
     0
 49
-2.54
 74
     0
 49
2.54
 74
     0
 49
-2.54
 74
     0
  0
LTYPE
  5
43
330
5
100
AcDbSymbolTableRecord
100
AcDbLinetypeTableRecord
  2
DOT2
 70
     0
  3
Dot (.5x) ........................................
 72
    65
 73
     2
 40
0.635
 49
0.0
 74
     0
 49
-0.635
 74
     0
  0
ENDTAB
  0
TABLE
  2
LAYER
  5
2
330
0
100
AcDbSymbolTable
 70
     1
  0
LAYER
  5
10
330
2
100
AcDbSymbolTableRecord
100
AcDbLayerTableRecord
  2
0
 70
     0
 62
     7
  6
Continuous
370
    -3
390
F
  0
ENDTAB
  0
TABLE
  2
STYLE
  5
3
330
0
100
AcDbSymbolTable
 70
     1
  0
STYLE
  5
11
330
3
100
AcDbSymbolTableRecord
100
AcDbTextStyleTableRecord
  2
Standard
 70
     0
 40
0.0
 41
1.0
 50
0.0
 71
     0
 42
17.5
  3
txt
  4

  0
ENDTAB
  0
TABLE
  2
VIEW
  5
6
330
0
100
AcDbSymbolTable
 70
     0
  0
ENDTAB
  0
TABLE
  2
UCS
  5
7
330
0
100
AcDbSymbolTable
 70
     0
  0
ENDTAB
  0
TABLE
  2
APPID
  5
9
330
0
100
AcDbSymbolTable
 70
     1
  0
APPID
  5
12
330
9
100
AcDbSymbolTableRecord
100
AcDbRegAppTableRecord
  2
ACAD
 70
     0
  0
ENDTAB
  0
TABLE
  2
DIMSTYLE
  5
A
330
0
100
AcDbSymbolTable
 70
     1
100
AcDbDimStyleTable
  0
DIMSTYLE
105
27
330
A
100
AcDbSymbolTableRecord
100
AcDbDimStyleTableRecord
  2
ISO-25
 70
     0
 41
2.5
 42
0.625
 43
3.75
 44
1.25
 73
     0
 74
     0
 77
     1
 78
     8
140
2.5
141
2.5
143
0.0393700787
147
0.625
171
     3
172
     1
178
     0
271
     2
272
     2
274
     3
278
    44
283
     0
284
     8
340
11
  0
ENDTAB
  0
TABLE
  2
BLOCK_RECORD
  5
1
330
0
100
AcDbSymbolTable
 70
     1
  0
BLOCK_RECORD
  5
1F
330
1
100
AcDbSymbolTableRecord
100
AcDbBlockTableRecord
  2
*Model_Space
340
22
  0
BLOCK_RECORD
  5
1B
330
1
100
AcDbSymbolTableRecord
100
AcDbBlockTableRecord
  2
*Paper_Space
340
1E
  0
BLOCK_RECORD
  5
23
330
1
100
AcDbSymbolTableRecord
100
AcDbBlockTableRecord
  2
*Paper_Space0
340
26
  0
ENDTAB
  0
ENDSEC
  0
SECTION
  2
BLOCKS
  0
BLOCK
  5
20
330
1F
100
AcDbEntity
  8
0
100
AcDbBlockBegin
  2
*Model_Space
 70
     0
 10
0.0
 20
0.0
 30
0.0
  3
*Model_Space
  1

  0
ENDBLK
  5
21
330
1F
100
AcDbEntity
  8
0
100
AcDbBlockEnd
  0
BLOCK
  5
1C
330
1B
100
AcDbEntity
 67
     1
  8
0
100
AcDbBlockBegin
  2
*Paper_Space
 70
     0
 10
0.0
 20
0.0
 30
0.0
  3
*Paper_Space
  1

  0
ENDBLK
  5
1D
330
1B
100
AcDbEntity
 67
     1
  8
0
100
AcDbBlockEnd
  0
BLOCK
  5
24
330
23
100
AcDbEntity
  8
0
100
AcDbBlockBegin
  2
*Paper_Space0
 70
     0
 10
0.0
 20
0.0
 30
0.0
  3
*Paper_Space0
  1

  0
ENDBLK
  5
25
330
23
100
AcDbEntity
  8
0
100
AcDbBlockEnd
  0
ENDSEC
  0
SECTION
  2
ENTITIES
  0
LINE
  5
44
330
1F
100
AcDbEntity
  8
0
  6
CENTERX2
 62
     7
100
AcDbLine
 10
891.9718650262
 20
570.0614968077
 30
0.0
 11
892.8479085726
 21
570.0614968077
 31
0.0
  0
LINE
  5
45
330
1F
100
AcDbEntity
  8
0
  6
Continuous
 62
     7
370
    15
100
AcDbLine
 10
1220.5132479263
 20
838.9892453985
 30
0.0
 11
1220.5136921
 21
838.9894850377
 31
0.0
  0
LINE
  5
46
330
1F
100
AcDbEntity
  8
0
  6
Continuous
 62
     7
370
    15
100
AcDbLine
 10
823.3703117804
 20
801.4596485602
 30
0.0
 11
1220.5733330587
 21
801.4596485602
 31
0.0
  0
LINE
  5
47
330
1F
100
AcDbEntity
  8
0
  6
Continuous
 62
     7
370
    15
100
AcDbLine
 10
876.3246265119
 20
816.647693942
 30
0.0
 11
876.3246265119
 21
816.5610914016
 31
0.0
  0
LINE
  5
48
330
1F
100
AcDbEntity
  8
0
  6
Continuous
 62
     7
370
    15
100
AcDbLine
 10
906.8605248968
 20
816.5610914016
 30
0.0
 11
906.8605248968
 21
816.647693942
 31
0.0
  0
LINE
  5
49
330
1F
100
AcDbEntity
  8
0
  6
Continuous
 62
     7
370
    15
100
AcDbLine
 10
941.8161074001
 20
550.4856310066
 30
0.0
 11
1102.6737359323
 21
551.3315458589
 31
0.0
  0
LINE
  5
4A
330
1F
100
AcDbEntity
  8
0
  6
Continuous
 62
     7
370
    15
100
AcDbLine
 10
1161.3817907344
 20
607.0024462007
 30
0.0
 11
1160.359183121
 21
801.4596485602
 31
0.0
  0
LINE
  5
4B
330
1F
100
AcDbEntity
  8
0
  6
Continuous
 62
     7
370
    15
100
AcDbLine
 10
881.4954744889
 20
801.4596485602
 30
0.0
 11
882.5257937995
 21
605.5360039087
 31
0.0
  0
LINE
  5
4C
330
1F
100
AcDbEntity
  8
0
  6
Continuous
 62
     7
370
    15
100
AcDbLine
 10
823.1925757043
 20
349.7815071213
 30
0.0
 11
1220.7511543481
 21
349.7815071213
 31
0.0
  0
LINE
  5
4D
330
1F
100
AcDbEntity
  8
0
  6
Continuous
 62
     7
370
    15
100
AcDbLine
 10
1220.7511543481
 20
351.0815071213
 30
0.0
 11
1221.9511543481
 21
351.0815071213
 31
0.0
  0
LINE
  5
4E
330
1F
100
AcDbEntity
  8
0
  6
Continuous
 62
     7
370
    15
100
AcDbLine
 10
821.9925757043
 20
351.0815071213
 30
0.0
 11
823.1925757043
 21
351.0815071213
 31
0.0
  0
LINE
  5
4F
330
1F
100
AcDbEntity
  8
0
  6
Continuous
 62
     7
370
    15
100
AcDbLine
 10
821.9925757043
 20
332.2216245513
 30
0.0
 11
1221.9925757043
 21
332.2216245513
 31
0.0
  0
SPLINE
  5
50
330
1F
100
AcDbEntity
  8
0
  6
Continuous
 62
     7
370
    15
100
AcDbSpline
210
0.0
220
0.0
230
1.0
 70
     8
 71
     3
 72
    12
 73
     8
 74
     0
 42
0.00000001
 43
0.00000001
 12
1.0
 22
0.0
 32
0.0
 13
1.0
 23
0.0
 33
0.0
 40
0.0
 40
0.0
 40
0.0
 40
0.0
 40
0.1147200835909904
 40
0.3239231834926546
 40
0.5484927428927253
 40
0.797239587825109
 40
1.0
 40
1.0
 40
1.0
 40
1.0
 10
847.0602009776655
 20
1127.431401195806
 30
0.0
 10
847.0595367838293
 20
1127.447383033613
 30
0.0
 10
847.0576613686875
 20
1127.492509288914
 30
0.0
 10
847.0926083463007
 20
1127.563913108598
 30
0.0
 10
847.1587046710497
 20
1127.631905930688
 30
0.0
 10
847.2453687464526
 20
1127.675723785834
 30
0.0
 10
847.3082911835022
 20
1127.677047979934
 30
0.0
 10
847.3365480477507
 20
1127.677642641785
 30
0.0
  0
LINE
  5
51
330
1F
100
AcDbEntity
  8
0
  6
Continuous
 62
     7
370
    15
100
AcDbLine
 10
847.0558852965
 20
1122.3315071213
 30
0.0
 11
847.0558852965
 21
1127.4315071213
 31
0.0
  0
ARC
  5
52
330
1F
100
AcDbEntity
  8
0
  6
Continuous
 62
     7
370
    15
100
AcDbCircle
 10
846.8058852965
 20
1122.3315071213
 30
0.0
 40
0.25
100
AcDbArc
 50
270.0
 51
0.0
  0
ARC
  5
53
330
1F
100
AcDbEntity
  8
0
  6
Continuous
 62
     7
370
    15
100
AcDbCircle
 10
846.7718650262
 20
1127.4315071213
 30
0.0
 40
1.449999999999932
100
AcDbArc
 50
90.0
 51
180.0
  0
LINE
  5
54
330
1F
100
AcDbEntity
  8
0
  6
Continuous
 62
     7
370
    15
100
AcDbLine
 10
845.3218650262
 20
1127.4315071213
 30
0.0
 11
845.3218650262
 21
1122.3315071213
 31
0.0
  0
ARC
  5
55
330
1F
100
AcDbEntity
  8
0
  6
Continuous
 62
     7
370
    15
100
AcDbCircle
 10
845.5718650262
 20
1122.3315071213
 30
0.0
 40
0.25
100
AcDbArc
 50
180.0
 51
270.0
  0
ARC
  5
56
330
1F
100
AcDbEntity
  8
0
  6
Continuous
 62
     7
370
    15
100
AcDbCircle
 10
852.0036777481
 20
1133.0315071213
 30
0.0
 40
0.2500000000001137
100
AcDbArc
 50
90.0
 51
180.0
  0
LINE
  5
57
330
1F
100
AcDbEntity
  8
0
  6
Continuous
 62
     7
370
    15
100
AcDbLine
 10
851.7536777481
 20
1133.0315071213
 30
0.0
 11
851.7536777481
 21
1130.2815071213
 31
0.0
  0
LINE
  5
58
330
1F
100
AcDbEntity
  8
0
  6
Continuous
 62
     7
370
    15
100
AcDbLine
 10
858.2851701177
 20
1130.2815071213
 30
0.0
 11
858.2851701177
 21
1133.0315071213
 31
0.0
  0
ARC
  5
59
330
1F
100
AcDbEntity
  8
0
  6
Continuous
 62
     7
370
    15
100
AcDbCircle
 10
858.0351701177
 20
1133.0315071213
 30
0.0
 40
0.25
100
AcDbArc
 50
0.0
 51
90.0
  0
LINE
  5
5A
330
1F
100
AcDbEntity
  8
0
  6
Continuous
 62
     7
370
    15
100
AcDbLine
 10
847.0558852965
 20
1126.4820183475
 30
0.0
 11
847.0718650262
 21
1126.4815071213
 31
0.0
  0
LINE
  5
5B
330
1F
100
AcDbEntity
  8
0
  6
Continuous
 62
     7
370
    15
100
AcDbLine
 10
850.5218650262
 20
1134.0815071213
 30
0.0
 11
850.1780298885
 21
1133.8829938119
 31
0.0
  0
LINE
  5
5C
330
1F
100
AcDbEntity
  8
0
  6
Continuous
 62
     7
370
    15
100
AcDbLine
 10
860.865700164
 20
1133.8829938119
 30
0.0
 11
860.5218650262
 21
1134.0815071213
 31
0.0
  0
LINE
  5
5D
330
1F
100
AcDbEntity
  8
0
  6
Continuous
 62
     7
370
    15
100
AcDbLine
 10
871.4218650262
 20
1116.0815071213
 30
0.0
 11
871.4218650262
 21
1117.6815071213
 31
0.0
  0
LINE
  5
5E
330
1F
100
AcDbEntity
  8
0
  6
Continuous
 62
     7
370
    15
100
AcDbLine
 10
849.6218650262
 20
1117.6815071213
 30
0.0
 11
849.6218650262
 21
1116.4815071213
 31
0.0
  0
LINE
  5
5F
330
1F
100
AcDbEntity
  8
0
  6
Continuous
 62
     7
370
    15
100
AcDbLine
 10
871.4218650262
 20
1121.5815071213
 30
0.0
 11
871.4218650262
 21
1128.3900790893
 31
0.0
  0
LINE
  5
60
330
1F
100
AcDbEntity
  8
0
  6
Continuous
 62
     7
370
    15
100
AcDbLine
 10
849.6218650262
 20
1128.3900790893
 30
0.0
 11
849.6218650262
 21
1121.5815071213
 31
0.0
  0
ARC
  5
61
330
1F
100
AcDbEntity
  8
0
  6
Continuous
 62
     7
370
    15
100
AcDbCircle
 10
851.6218650262
 20
1128.3900790893
 30
0.0
 40
2.000000000000121
100
AcDbArc
 50
108.9655749888
 51
151.4768278745
  0
LWPOLYLINE
  5
62
330
1F
100
AcDbEntity
  8
0
  6
Continuous
 62
     7
370
    15
100
AcDbPolyline
 90
        3
 70
   128
 43
0.0
 10
849.6605429987
 20
1128.7815071213
 10
849.645833652
 20
1128.6987860831
 10
849.6218650262
 20
1128.3900790893
  0
LWPOLYLINE
  5
63
330
1F
100
AcDbEntity
  8
0
  6
Continuous
 62
     7
370
    15
100
AcDbPolyline
 90
        3
 70
   128
 43
0.0
 10
871.4218650262
 20
1128.3900790893
 10
871.3978964005
 20
1128.6987860831
 10
871.3831870538
 20
1128.7815071213
  0
ARC
  5
64
330
1F
100
AcDbEntity
  8
0
  6
Continuous
 62
     7
370
    15
100
AcDbCircle
 10
869.4218650262
 20
1128.3900790893
 30
0.0
 40
2.000000000000158
100
AcDbArc
 50
28.523170667
 51
71.0344250112
  0
LWPOLYLINE
  5
65
330
1F
100
AcDbEntity
  8
0
  6
Continuous
 62
     7
370
    15
100
AcDbPolyline
 90
        3
 70
   128
 43
0.0
 10
871.4218650262
 20
1128.7815071213
 10
871.313629118
 20
1129.0923590548
 10
871.1791131797
 20
1129.3451073281
  0
LWPOLYLINE
  5
66
330
1F
100
AcDbEntity
  8
0
  6
Continuous
 62
     7
370
    15
100
AcDbPolyline
 90
        3
 70
   128
 43
0.0
 10
849.8646168998
 20
1129.3451073712
 10
849.7301009344
 20
1129.0923590548
 10
849.6218650262
 20
1128.7815071213
  0
SPLINE
  5
67
330
1F
100
AcDbEntity
  8
0
  6
Continuous
 62
     7
370
    15
100
AcDbSpline
210
0.0
220
0.0
230
1.0
 70
     8
 71
     3
 72
    16
 73
    12
 74
     0
 42
0.00000001
 43
0.00000001
 12
1.0
 22
0.0
 32
0.0
 13
1.0
 23
0.0
 33
0.0
 40
0.0
 40
0.0
 40
0.0
 40
0.0
 40
0.1168973430613805
 40
0.2364219307346073
 40
0.3679456599700236
 40
0.5044225071299439
 40
0.6184807428479815
 40
0.7370282667195148
 40
0.8351994193744382
 40
0.936548605426753
 40
0.9999999999999999
 40
0.9999999999999999
 40
0.9999999999999999
 40
0.9999999999999999
 10
824.0218650262223
 20
839.9846485601654
 30
0.0
 10
823.9060113917437
 20
839.9211802771134
 30
0.0
 10
823.6717003353182
 20
839.7928172739297
 30
0.0
 10
823.3137076334529
 20
839.5592128951956
 30
0.0
 10
822.9568041827082
 20
839.2869711239931
 30
0.0
 10
822.6314011125481
 20
839.006862482449
 30
0.0
 10
822.3610391227558
 20
838.7334885607811
 30
0.0
 10
822.1687275137238
 20
838.4892915750563
 30
0.0
 10
822.0410385145399
 20
838.2619512582202
 30
0.0
 10
821.9803191067001
 20
838.0820690551216
 30
0.0
 10
821.9742151622754
 20
837.9783051493233
 30
0.0
 10
821.971865026222
 20
837.9383540490039
 30
0.0
  0
LINE
  5
68
330
1F
100
AcDbEntity
  8
0
  6
Continuous
 62
     7
370
    15
100
AcDbLine
 10
821.9718650262
 20
837.938354049
 30
0.0
 11
821.9718650262
 21
837.947014303
 31
0.0
  0
LINE
  5
69
330
1F
100
AcDbEntity
  8
0
  6
Continuous
 62
     7
370
    15
100
AcDbLine
 10
821.9718650262
 20
837.947014303
 30
0.0
 11
821.9718650262
 21
1113.7623994353
 31
0.0
  0
SPLINE
  5
6A
330
1F
100
AcDbEntity
  8
0
  6
Continuous
 62
     7
370
    15
100
AcDbSpline
210
0.0
220
0.0
230
1.0
 70
     8
 71
     3
 72
    11
 73
     7
 74
     0
 42
0.00000001
 43
0.00000001
 12
1.0
 22
0.0
 32
0.0
 13
1.0
 23
0.0
 33
0.0
 40
0.0
 40
0.0
 40
0.0
 40
0.0
 40
0.2500000000000159
 40
0.5000000000000052
 40
0.7500000000000068
 40
1.0
 40
1.0
 40
1.0
 40
1.0
 10
821.9718650262244
 20
1113.762399435254
 30
0.0
 10
822.0026797504383
 20
1113.919138045659
 30
0.0
 10
822.0643091988661
 20
1114.232615266468
 30
0.0
 10
822.538370085767
 20
1114.638700748501
 30
0.0
 10
823.2159872068158
 20
1114.943008113461
 30
0.0
 10
823.7532390864214
 20
1115.018674118681
 30
0.0
 10
824.0218650262243
 20
1115.056507121291
 30
0.0
  0
LINE
  5
6B
330
1F
100
AcDbEntity
  8
0
  6
Continuous
 62
     7
370
    15
100
AcDbLine
 10
824.0218650262
 20
1115.0565071213
 30
0.0
 11
824.0218650262
 21
839.9846485602
 31
0.0
  0
SPLINE
  5
6C
330
1F
100
AcDbEntity
  8
0
  6
Continuous
 62
     7
370
    15
100
AcDbSpline
210
0.0
220
0.0
230
1.0
 70
     8
 71
     3
 72
    12
 73
     8
 74
     0
 42
0.00000001
 43
0.00000001
 12
1.0
 22
0.0
 32
0.0
 13
1.0
 23
0.0
 33
0.0
 40
0.0
 40
0.0
 40
0.0
 40
0.0
 40
0.0010484827179702
 40
0.3307163578082509
 40
0.6088774317691031
 40
0.8883928174272873
 40
1.0
 40
1.0
 40
1.0
 40
1.0
 10
823.4505032008522
 20
839.0271507729511
 30
0.0
 10
823.4501295841598
 20
839.0267863274462
 30
0.0
 10
823.3322820035036
 20
838.911831557119
 30
0.0
 10
823.1342320891058
 20
838.6607206797381
 30
0.0
 10
822.8887065856345
 20
838.3255215196273
 30
0.0
 10
822.7824555239263
 20
838.0854621038841
 30
0.0
 10
822.7742161415258
 20
837.9710123818612
 30
0.0
 10
822.7718650262219
 20
837.938354049004
 30
0.0
  0
LINE
  5
6D
330
1F
100
AcDbEntity
  8
0
  6
Continuous
 62
     7
370
    15
100
AcDbLine
 10
822.7718650262
 20
837.938354049
 30
0.0
 11
821.9718650262
 21
837.938354049
 31
0.0
  0
SPLINE
  5
6E
330
1F
100
AcDbEntity
  8
0
  6
Continuous
 62
     7
370
    15
100
AcDbSpline
210
0.0
220
0.0
230
1.0
 70
     8
 71
     3
 72
    12
 73
     8
 74
     0
 42
0.00000001
 43
0.00000001
 12
1.0
 22
0.0
 32
0.0
 13
1.0
 23
0.0
 33
0.0
 40
0.0
 40
0.0
 40
0.0
 40
0.0
 40
0.228082737210721
 40
0.4372044786916697
 40
0.6293676628333535
 40
0.8071667536756443
 40
0.9999999999999999
 40
0.9999999999999999
 40
0.9999999999999999
 40
0.9999999999999999
 10
822.8425757043404
 20
837.8771168054349
 30
0.0
 10
822.8630746009494
 20
837.9382336125693
 30
0.0
 10
822.902368277951
 20
838.0553864586343
 30
0.0
 10
822.9908862059723
 20
838.2886837519031
 30
0.0
 10
823.0997280789851
 20
838.5204433518409
 30
0.0
 10
823.2342014001064
 20
838.7503902161639
 30
0.0
 10
823.3521897313943
 20
838.8854389469105
 30
0.0
 10
823.4135769085751
 20
838.955702338823
 30
0.0
  0
SPLINE
  5
6F
330
1F
100
AcDbEntity
  8
0
  6
Continuous
 62
     7
370
    15
100
AcDbSpline
210
0.0
220
0.0
230
1.0
 70
     8
 71
     3
 72
    13
 73
     9
 74
     0
 42
0.00000001
 43
0.00000001
 12
1.0
 22
0.0
 32
0.0
 13
1.0
 23
0.0
 33
0.0
 40
0.0
 40
0.0
 40
0.0
 40
0.0
 40
0.1538408554290704
 40
0.2928955392719114
 40
0.417704950667218
 40
0.5290313271451175
 40
0.7483423516466245
 40
0.9999999999999999
 40
0.9999999999999999
 40
0.9999999999999999
 40
0.9999999999999999
 10
822.8425757043404
 20
837.1842964824075
 30
0.0
 10
822.8629686817845
 20
837.2841796810984
 30
0.0
 10
822.9017945977558
 20
837.474345962111
 30
0.0
 10
822.9900364937661
 20
837.8545739303479
 30
0.0
 10
823.0968484795994
 20
838.2335431482285
 30
0.0
 10
823.2736608756588
 20
838.7141983012924
 30
0.0
 10
823.5873726133306
 20
839.3282641556009
 30
0.0
 10
823.870551220391
 20
839.7560599372205
 30
0.0
 10
824.0218650262221
 20
839.9846485601649
 30
0.0
  0
LINE
  5
70
330
1F
100
AcDbEntity
  8
0
  6
Continuous
 62
     7
370
    15
100
AcDbLine
 10
822.8425757043
 20
837.8771168054
 30
0.0
 11
822.8425757043
 21
837.1842964824
 31
0.0
  0
SPLINE
  5
71
330
1F
100
AcDbEntity
  8
0
  6
Continuous
 62
     7
370
    15
100
AcDbSpline
210
0.0
220
0.0
230
1.0
 70
     8
 71
     3
 72
    13
 73
     9
 74
     0
 42
0.00000001
 43
0.00000001
 12
1.0
 22
0.0
 32
0.0
 13
1.0
 23
0.0
 33
0.0
 40
0.0
 40
0.0
 40
0.0
 40
0.0
 40
0.2599451809570015
 40
0.4775009570278823
 40
0.6081790122285601
 40
0.7381327030628204
 40
0.868397129707592
 40
1.0
 40
1.0
 40
1.0
 40
1.0
 10
1219.921865026222
 20
839.984648560162
 30
0.0
 10
1220.077718783268
 20
839.7472976920365
 30
0.0
 10
1220.364011138724
 20
839.3113008935421
 30
0.0
 10
1220.688355122469
 20
838.6684128739736
 30
0.0
 10
1220.87676601368
 20
838.1669404676861
 30
0.0
 10
1220.992826880994
 20
837.7817709135687
 30
0.0
 10
1221.071927478045
 20
837.4370772289036
 30
0.0
 10
1221.091378918326
 20
837.2688433542246
 30
0.0
 10
1221.101154348103
 20
837.1842964824037
 30
0.0
  0
LINE
  5
72
330
1F
100
AcDbEntity
  8
0
  6
Continuous
 62
     7
370
    15
100
AcDbLine
 10
1221.1011543481
 20
837.1842964824
 30
0.0
 11
1219.8511543481
 21
837.1842964824
 31
0.0
  0
LINE
  5
73
330
1F
100
AcDbEntity
  8
0
  6
Continuous
 62
     7
370
    15
100
AcDbLine
 10
824.0925757043
 20
837.1842964824
 30
0.0
 11
1219.8511543481
 21
837.1842964824
 31
0.0
  0
LINE
  5
74
330
1F
100
AcDbEntity
  8
0
  6
Continuous
 62
     7
370
    15
100
AcDbLine
 10
822.8425757043
 20
837.1842964824
 30
0.0
 11
824.0925757043
 21
837.1842964824
 31
0.0
  0
LINE
  5
75
330
1F
100
AcDbEntity
  8
0
  6
Continuous
 62
     7
370
    15
100
AcDbLine
 10
824.0218650262
 20
839.9846485602
 30
0.0
 11
1219.9218650262
 21
839.9846485602
 31
0.0
  0
SPLINE
  5
76
330
1F
100
AcDbEntity
  8
0
  6
Continuous
 62
     7
370
    15
100
AcDbSpline
210
0.0
220
0.0
230
1.0
 70
     8
 71
     3
 72
    12
 73
     8
 74
     0
 42
0.00000001
 43
0.00000001
 12
1.0
 22
0.0
 32
0.0
 13
1.0
 23
0.0
 33
0.0
 40
0.0
 40
0.0
 40
0.0
 40
0.0
 40
0.2240526388889598
 40
0.4273752782769058
 40
0.6221794164767286
 40
0.8118377996163887
 40
1.0
 40
1.0
 40
1.0
 40
1.0
 10
1220.50528847333
 20
838.9846118214878
 30
0.0
 10
1220.578414634281
 20
838.9002066768651
 30
0.0
 10
1220.717901111838
 20
838.7392057962239
 30
0.0
 10
1220.873762505972
 20
838.4802730619738
 30
0.0
 10
1220.991531850268
 20
838.2448785968824
 30
0.0
 10
1221.071480967923
 20
838.0328395288519
 30
0.0
 10
1221.091289368697
 20
837.9288871615653
 30
0.0
 10
1221.101154348103
 20
837.8771168054313
 30
0.0
  0
LINE
  5
77
330
1F
100
AcDbEntity
  8
0
  6
Continuous
 62
     7
370
    15
100
AcDbLine
 10
1221.1011543481
 20
837.8771168054
 30
0.0
 11
1221.1011543481
 21
837.1842964824
 31
0.0
  0
SPLINE
  5
78
330
1F
100
AcDbEntity
  8
0
  6
Continuous
 62
     7
370
    15
100
AcDbSpline
210
0.0
220
0.0
230
1.0
 70
     8
 71
     3
 72
    11
 73
     7
 74
     0
 42
0.00000001
 43
0.00000001
 12
1.0
 22
0.0
 32
0.0
 13
1.0
 23
0.0
 33
0.0
 40
0.0
 40
0.0
 40
0.0
 40
0.0
 40
0.2499999999999878
 40
0.4999999999999786
 40
0.7499999999999923
 40
1.0
 40
1.0
 40
1.0
 40
1.0
 10
1219.921865026224
 20
1115.056507121286
 30
0.0
 10
1220.190490966027
 20
1115.018674118676
 30
0.0
 10
1220.727742845633
 20
1114.943008113456
 30
0.0
 10
1221.405359966682
 20
1114.638700748497
 30
0.0
 10
1221.879420853583
 20
1114.232615266463
 30
0.0
 10
1221.94105030201
 20
1113.919138045654
 30
0.0
 10
1221.971865026224
 20
1113.76239943525
 30
0.0
  0
LINE
  5
79
330
1F
100
AcDbEntity
  8
0
  6
Continuous
 62
     7
370
    15
100
AcDbLine
 10
1221.9718650262
 20
1113.7623994353
 30
0.0
 11
1221.9718650262
 21
837.947014303
 31
0.0
  0
LINE
  5
7A
330
1F
100
AcDbEntity
  8
0
  6
Continuous
 62
     7
370
    15
100
AcDbLine
 10
1221.9718650262
 20
837.947014303
 30
0.0
 11
1221.9718650262
 21
837.938354049
 31
0.0
  0
SPLINE
  5
7B
330
1F
100
AcDbEntity
  8
0
  6
Continuous
 62
     7
370
    15
100
AcDbSpline
210
0.0
220
0.0
230
1.0
 70
     8
 71
     3
 72
    14
 73
    10
 74
     0
 42
0.00000001
 43
0.00000001
 12
1.0
 22
0.0
 32
0.0
 13
1.0
 23
0.0
 33
0.0
 40
0.0
 40
0.0
 40
0.0
 40
0.0
 40
0.1864963818145086
 40
0.3733597707485737
 40
0.5655694929620922
 40
0.6673084747529208
 40
0.7712849608817317
 40
0.8844404043497197
 40
1.0
 40
1.0
 40
1.0
 40
1.0
 10
1221.971865026222
 20
837.9383540489996
 30
0.0
 10
1221.951813870661
 20
838.0601924821532
 30
0.0
 10
1221.911672100775
 20
838.3041091148942
 30
0.0
 10
1221.603873660042
 20
838.7243914017735
 30
0.0
 10
1221.23208078071
 20
839.0809172518009
 30
0.0
 10
1220.882145514067
 20
839.3686942260381
 30
0.0
 10
1220.586009041109
 20
839.5881885693574
 30
0.0
 10
1220.262520473263
 20
839.7981719188969
 30
0.0
 10
1220.036209801412
 20
839.9220556093993
 30
0.0
 10
1219.921865026222
 20
839.9846485601616
 30
0.0
  0
LINE
  5
7C
330
1F
100
AcDbEntity
  8
0
  6
Continuous
 62
     7
370
    15
100
AcDbLine
 10
1219.9218650262
 20
839.9846485602
 30
0.0
 11
1219.9218650262
 21
1115.0565071213
 31
0.0
  0
SPLINE
  5
7D
330
1F
100
AcDbEntity
  8
0
  6
Continuous
 62
     7
370
    15
100
AcDbSpline
210
0.0
220
0.0
230
1.0
 70
     8
 71
     3
 72
    11
 73
     7
 74
     0
 42
0.00000001
 43
0.00000001
 12
1.0
 22
0.0
 32
0.0
 13
1.0
 23
0.0
 33
0.0
 40
0.0
 40
0.0
 40
0.0
 40
0.0
 40
0.2734368118282004
 40
0.5150669330845368
 40
0.77773931033622
 40
1.0
 40
1.0
 40
1.0
 40
1.0
 10
1221.171865026222
 20
837.9383540489999
 30
0.0
 10
1221.158478248549
 20
838.0219265125405
 30
0.0
 10
1221.13326186867
 20
838.1793501315418
 30
0.0
 10
1220.956368063617
 20
838.4684713772116
 30
0.0
 10
1220.742169172338
 20
838.7479075009736
 30
0.0
 10
1220.576059941196
 20
838.9285616600325
 30
0.0
 10
1220.499926646125
 20
839.0113613714204
 30
0.0
  0
LINE
  5
7E
330
1F
100
AcDbEntity
  8
0
  6
Continuous
 62
     7
370
    15
100
AcDbLine
 10
1221.1718650262
 20
837.938354049
 30
0.0
 11
1221.9718650262
 21
837.938354049
 31
0.0
  0
LINE
  5
7F
330
1F
100
AcDbEntity
  8
0
  6
Continuous
 62
     7
370
    15
100
AcDbLine
 10
824.0718650262
 20
1115.0565071213
 30
0.0
 11
824.0218650262
 21
1115.0565071213
 31
0.0
  0
LINE
  5
80
330
1F
100
AcDbEntity
  8
0
  6
Continuous
 62
     7
370
    15
100
AcDbLine
 10
1219.8718650262
 20
1115.0565071213
 30
0.0
 11
824.0718650262
 21
1115.0565071213
 31
0.0
  0
LINE
  5
81
330
1F
100
AcDbEntity
  8
0
  6
Continuous
 62
     7
370
    15
100
AcDbLine
 10
1219.9218650262
 20
1115.0565071213
 30
0.0
 11
1219.8718650262
 21
1115.0565071213
 31
0.0
  0
LINE
  5
82
330
1F
100
AcDbEntity
  8
0
  6
Continuous
 62
     7
370
    15
100
AcDbLine
 10
1157.8218650262
 20
849.9439407037
 30
0.0
 11
1127.8218650262
 21
849.9439407037
 31
0.0
  0
LWPOLYLINE
  5
83
330
1F
100
AcDbEntity
  8
0
  6
Continuous
 62
     7
370
    15
100
AcDbPolyline
 90
        9
 70
   128
 43
0.0
 10
1127.8218650262
 20
849.9439407037
 10
1127.2478398777
 20
849.8450573158
 10
1126.7612048544
 20
849.5634612516
 10
1126.4360457275
 20
849.1420229591
 10
1126.3218650262
 20
848.644902598
 10
1126.4360457275
 20
848.147782237
 10
1126.7612048544
 20
847.7263439445
 10
1127.2478398777
 20
847.4447478802
 10
1127.8218650262
 20
847.3458644923
  0
LINE
  5
84
330
1F
100
AcDbEntity
  8
0
  6
Continuous
 62
     7
370
    15
100
AcDbLine
 10
1127.8218650262
 20
847.3458644923
 30
0.0
 11
1157.8218650262
 21
847.3458644923
 31
0.0
  0
LWPOLYLINE
  5
85
330
1F
100
AcDbEntity
  8
0
  6
Continuous
 62
     7
370
    15
100
AcDbPolyline
 90
        9
 70
   128
 43
0.0
 10
1157.8218650262
 20
847.3458644923
 10
1158.3958901748
 20
847.4447478802
 10
1158.882525198
 20
847.7263439445
 10
1159.207684325
 20
848.147782237
 10
1159.3218650262
 20
848.644902598
 10
1159.207684325
 20
849.1420229591
 10
1158.882525198
 20
849.5634612516
 10
1158.3958901748
 20
849.8450573158
 10
1157.8218650262
 20
849.9439407037
  0
LINE
  5
86
330
1F
100
AcDbEntity
  8
0
  6
Continuous
 62
     7
370
    15
100
AcDbLine
 10
1097.3843650262
 20
849.9439407037
 30
0.0
 11
1067.3843650262
 21
849.9439407037
 31
0.0
  0
LWPOLYLINE
  5
87
330
1F
100
AcDbEntity
  8
0
  6
Continuous
 62
     7
370
    15
100
AcDbPolyline
 90
        9
 70
   128
 43
0.0
 10
1067.3843650262
 20
849.9439407037
 10
1066.8103398777
 20
849.8450573158
 10
1066.3237048544
 20
849.5634612516
 10
1065.9985457275
 20
849.1420229591
 10
1065.8843650262
 20
848.644902598
 10
1065.9985457275
 20
848.147782237
 10
1066.3237048544
 20
847.7263439445
 10
1066.8103398777
 20
847.4447478802
 10
1067.3843650262
 20
847.3458644923
  0
LINE
  5
88
330
1F
100
AcDbEntity
  8
0
  6
Continuous
 62
     7
370
    15
100
AcDbLine
 10
1067.3843650262
 20
847.3458644923
 30
0.0
 11
1097.3843650262
 21
847.3458644923
 31
0.0
  0
LWPOLYLINE
  5
89
330
1F
100
AcDbEntity
  8
0
  6
Continuous
 62
     7
370
    15
100
AcDbPolyline
 90
        9
 70
   128
 43
0.0
 10
1097.3843650262
 20
847.3458644923
 10
1097.9583901748
 20
847.4447478802
 10
1098.445025198
 20
847.7263439445
 10
1098.770184325
 20
848.147782237
 10
1098.8843650262
 20
848.644902598
 10
1098.770184325
 20
849.1420229591
 10
1098.445025198
 20
849.5634612516
 10
1097.9583901748
 20
849.8450573158
 10
1097.3843650262
 20
849.9439407037
  0
LINE
  5
8A
330
1F
100
AcDbEntity
  8
0
  6
Continuous
 62
     7
370
    15
100
AcDbLine
 10
1036.9468650262
 20
849.9439407037
 30
0.0
 11
1006.9468650262
 21
849.9439407037
 31
0.0
  0
LWPOLYLINE
  5
8B
330
1F
100
AcDbEntity
  8
0
  6
Continuous
 62
     7
370
    15
100
AcDbPolyline
 90
        9
 70
   128
 43
0.0
 10
1006.9468650262
 20
849.9439407037
 10
1006.3728398777
 20
849.8450573158
 10
1005.8862048544
 20
849.5634612516
 10
1005.5610457275
 20
849.1420229591
 10
1005.4468650262
 20
848.644902598
 10
1005.5610457275
 20
848.147782237
 10
1005.8862048544
 20
847.7263439445
 10
1006.3728398777
 20
847.4447478802
 10
1006.9468650262
 20
847.3458644923
  0
LINE
  5
8C
330
1F
100
AcDbEntity
  8
0
  6
Continuous
 62
     7
370
    15
100
AcDbLine
 10
1006.9468650262
 20
847.3458644923
 30
0.0
 11
1036.9468650262
 21
847.3458644923
 31
0.0
  0
LWPOLYLINE
  5
8D
330
1F
100
AcDbEntity
  8
0
  6
Continuous
 62
     7
370
    15
100
AcDbPolyline
 90
        9
 70
   128
 43
0.0
 10
1036.9468650262
 20
847.3458644923
 10
1037.5208901748
 20
847.4447478802
 10
1038.007525198
 20
847.7263439445
 10
1038.332684325
 20
848.147782237
 10
1038.4468650262
 20
848.644902598
 10
1038.332684325
 20
849.1420229591
 10
1038.007525198
 20
849.5634612516
 10
1037.5208901748
 20
849.8450573158
 10
1036.9468650262
 20
849.9439407037
  0
LINE
  5
8E
330
1F
100
AcDbEntity
  8
0
  6
Continuous
 62
     7
370
    15
100
AcDbLine
 10
976.5093650262
 20
849.9439407037
 30
0.0
 11
946.5093650262
 21
849.9439407037
 31
0.0
  0
LWPOLYLINE
  5
8F
330
1F
100
AcDbEntity
  8
0
  6
Continuous
 62
     7
370
    15
100
AcDbPolyline
 90
        9
 70
   128
 43
0.0
 10
946.5093650262
 20
849.9439407037
 10
945.9353398777
 20
849.8450573158
 10
945.4487048544
 20
849.5634612516
 10
945.1235457275
 20
849.1420229591
 10
945.0093650262
 20
848.644902598
 10
945.1235457275
 20
848.147782237
 10
945.4487048544
 20
847.7263439445
 10
945.9353398777
 20
847.4447478802
 10
946.5093650262
 20
847.3458644923
  0
LINE
  5
90
330
1F
100
AcDbEntity
  8
0
  6
Continuous
 62
     7
370
    15
100
AcDbLine
 10
946.5093650262
 20
847.3458644923
 30
0.0
 11
976.5093650262
 21
847.3458644923
 31
0.0
  0
LWPOLYLINE
  5
91
330
1F
100
AcDbEntity
  8
0
  6
Continuous
 62
     7
370
    15
100
AcDbPolyline
 90
        9
 70
   128
 43
0.0
 10
976.5093650262
 20
847.3458644923
 10
977.0833901748
 20
847.4447478802
 10
977.570025198
 20
847.7263439445
 10
977.895184325
 20
848.147782237
 10
978.0093650262
 20
848.644902598
 10
977.895184325
 20
849.1420229591
 10
977.570025198
 20
849.5634612516
 10
977.0833901748
 20
849.8450573158
 10
976.5093650262
 20
849.9439407037
  0
LINE
  5
92
330
1F
100
AcDbEntity
  8
0
  6
Continuous
 62
     7
370
    15
100
AcDbLine
 10
916.0718650262
 20
849.9439407037
 30
0.0
 11
886.0718650262
 21
849.9439407037
 31
0.0
  0
LWPOLYLINE
  5
93
330
1F
100
AcDbEntity
  8
0
  6
Continuous
 62
     7
370
    15
100
AcDbPolyline
 90
        9
 70
   128
 43
0.0
 10
886.0718650262
 20
849.9439407037
 10
885.4978398777
 20
849.8450573158
 10
885.0112048544
 20
849.5634612516
 10
884.6860457275
 20
849.1420229591
 10
884.5718650262
 20
848.644902598
 10
884.6860457275
 20
848.147782237
 10
885.0112048544
 20
847.7263439445
 10
885.4978398777
 20
847.4447478802
 10
886.0718650262
 20
847.3458644923
  0
LINE
  5
94
330
1F
100
AcDbEntity
  8
0
  6
Continuous
 62
     7
370
    15
100
AcDbLine
 10
886.0718650262
 20
847.3458644923
 30
0.0
 11
916.0718650262
 21
847.3458644923
 31
0.0
  0
LWPOLYLINE
  5
95
330
1F
100
AcDbEntity
  8
0
  6
Continuous
 62
     7
370
    15
100
AcDbPolyline
 90
        9
 70
   128
 43
0.0
 10
916.0718650262
 20
847.3458644923
 10
916.6458901748
 20
847.4447478802
 10
917.132525198
 20
847.7263439445
 10
917.457684325
 20
848.147782237
 10
917.5718650262
 20
848.644902598
 10
917.457684325
 20
849.1420229591
 10
917.132525198
 20
849.5634612516
 10
916.6458901748
 20
849.8450573158
 10
916.0718650262
 20
849.9439407037
  0
SPLINE
  5
96
330
1F
100
AcDbEntity
  8
0
  6
Continuous
 62
     7
370
    15
100
AcDbSpline
210
0.0
220
0.0
230
1.0
 70
     8
 71
     3
 72
    12
 73
     8
 74
     0
 42
0.00000001
 43
0.00000001
 12
1.0
 22
0.0
 32
0.0
 13
1.0
 23
0.0
 33
0.0
 40
0.0
 40
0.0
 40
0.0
 40
0.0
 40
0.1049252743889192
 40
0.3944789952894056
 40
0.6924288578163369
 40
0.9819823791426288
 40
1.0
 40
1.0
 40
1.0
 40
1.0
 10
1221.101154348103
 20
837.3011525987902
 30
0.0
 10
1221.137302117119
 20
837.3145706670331
 30
0.0
 10
1221.273203935688
 20
837.3650174836843
 30
0.0
 10
1221.469371872133
 20
837.4997585714921
 30
0.0
 10
1221.668010393527
 20
837.6962868367355
 30
0.0
 10
1221.781120280457
 20
837.8488728511875
 30
0.0
 10
1221.808207033819
 20
837.9334022862884
 30
0.0
 10
1221.809793784932
 20
837.9383540489996
 30
0.0
  0
SPLINE
  5
97
330
1F
100
AcDbEntity
  8
0
  6
Continuous
 62
     7
370
    15
100
AcDbSpline
210
0.0
220
0.0
230
1.0
 70
     8
 71
     3
 72
     9
 73
     5
 74
     0
 42
0.00000001
 43
0.00000001
 12
1.0
 22
0.0
 32
0.0
 13
1.0
 23
0.0
 33
0.0
 40
0.0
 40
0.0
 40
0.0
 40
0.0
 40
0.0098179027969963
 40
1.0
 40
1.0
 40
1.0
 40
1.0
 10
1221.012941844556
 20
838.0908074872895
 30
0.0
 10
1221.013772907005
 20
838.0914339972923
 30
0.0
 10
1221.098420561978
 20
838.1552470147665
 30
0.0
 10
1221.099794198154
 20
838.247902629373
 30
0.0
 10
1221.101154348103
 20
838.3396485601619
 30
0.0
  0
LINE
  5
98
330
1F
100
AcDbEntity
  8
0
  6
Continuous
 62
     7
370
    15
100
AcDbLine
 10
1221.9011543481
 20
804.1296485602
 30
0.0
 11
1221.9011543481
 21
837.938354049
 31
0.0
  0
SPLINE
  5
99
330
1F
100
AcDbEntity
  8
0
  6
Continuous
 62
     7
370
    15
100
AcDbSpline
210
0.0
220
0.0
230
1.0
 70
     8
 71
     3
 72
    16
 73
    12
 74
     0
 42
0.00000001
 43
0.00000001
 12
1.0
 22
0.0
 32
0.0
 13
1.0
 23
0.0
 33
0.0
 40
0.0
 40
0.0
 40
0.0
 40
0.0
 40
0.1134381984892971
 40
0.230163307631647
 40
0.3436415010701481
 40
0.4604101906775631
 40
0.5738885692540509
 40
0.6906574617121408
 40
0.8041357620738583
 40
0.9209045764301943
 40
1.0
 40
1.0
 40
1.0
 40
1.0
 10
1221.901154348104
 20
804.1296485601623
 30
0.0
 10
1221.894863691946
 20
804.0007572655411
 30
0.0
 10
1221.882100105713
 20
803.7392400068925
 30
0.0
 10
1221.779527438925
 20
803.358994947036
 30
0.0
 10
1221.617673384323
 20
802.9958206283159
 30
0.0
 10
1221.398628974084
 20
802.6657454768841
 30
0.0
 10
1221.127251790186
 20
802.3713488212355
 30
0.0
 10
1220.81677447143
 20
802.1248912524393
 30
0.0
 10
1220.471907940944
 20
801.9287645272723
 30
0.0
 10
1220.146074893796
 20
801.8004917886334
 30
0.0
 10
1219.935991757905
 20
801.7533383511492
 30
0.0
 10
1219.851154348105
 20
801.7342964824034
 30
0.0
  0
LINE
  5
9A
330
1F
100
AcDbEntity
  8
0
  6
Continuous
 62
     7
370
    15
100
AcDbLine
 10
1219.8511543481
 20
801.7342964824
 30
0.0
 11
1219.8511543481
 21
837.1842964824
 31
0.0
  0
SPLINE
  5
9B
330
1F
100
AcDbEntity
  8
0
  6
Continuous
 62
     7
370
    15
100
AcDbSpline
210
0.0
220
0.0
230
1.0
 70
     8
 71
     3
 72
    16
 73
    12
 74
     0
 42
0.00000001
 43
0.00000001
 12
1.0
 22
0.0
 32
0.0
 13
1.0
 23
0.0
 33
0.0
 40
0.0
 40
0.0
 40
0.0
 40
0.0
 40
0.1134381984893803
 40
0.2301633076317421
 40
0.3436415010702688
 40
0.4604101906776837
 40
0.5738885692542149
 40
0.6906574617122667
 40
0.8041357620740877
 40
0.9209045764304599
 40
1.0
 40
1.0
 40
1.0
 40
1.0
 10
824.0925757043398
 20
801.7342964824069
 30
0.0
 10
823.9708155572553
 20
801.7631882645246
 30
0.0
 10
823.7237672211228
 20
801.8218089780422
 30
0.0
 10
823.3667133897409
 20
801.9816668845752
 30
0.0
 10
823.030155851062
 20
802.1935435479554
 30
0.0
 10
822.731051795208
 20
802.4542850124664
 30
0.0
 10
822.4739238323106
 20
802.7610218554854
 30
0.0
 10
822.2713730101249
 20
803.1009465120526
 30
0.0
 10
822.1277130913534
 20
803.4713232743738
 30
0.0
 10
822.0534412811037
 20
803.8174544347736
 30
0.0
 10
822.0457013169909
 20
804.0398421992992
 30
0.0
 10
822.0425757043399
 20
804.1296485601647
 30
0.0
  0
LINE
  5
9C
330
1F
100
AcDbEntity
  8
0
  6
Continuous
 62
     7
370
    15
100
AcDbLine
 10
822.0425757043
 20
837.938354049
 30
0.0
 11
822.0425757043
 21
804.1296485602
 31
0.0
  0
SPLINE
  5
9D
330
1F
100
AcDbEntity
  8
0
  6
Continuous
 62
     7
370
    15
100
AcDbSpline
210
0.0
220
0.0
230
1.0
 70
     8
 71
     3
 72
    12
 73
     8
 74
     0
 42
0.00000001
 43
0.00000001
 12
1.0
 22
0.0
 32
0.0
 13
1.0
 23
0.0
 33
0.0
 40
0.0
 40
0.0
 40
0.0
 40
0.0
 40
0.1472195342556874
 40
0.422257163347349
 40
0.7052699834197492
 40
0.9803080612311166
 40
1.0
 40
1.0
 40
1.0
 40
1.0
 10
822.1230351518863
 20
837.9797408923451
 30
0.0
 10
822.1387274525259
 20
837.9374844679368
 30
0.0
 10
822.1837363325492
 20
837.8162839900643
 30
0.0
 10
822.3276450148713
 20
837.6329096984966
 30
0.0
 10
822.5471457058031
 20
837.4485504762434
 30
0.0
 10
822.7256284492729
 20
837.334237434116
 30
0.0
 10
822.8352514124236
 20
837.2982293072814
 30
0.0
 10
822.8425757043403
 20
837.2958234789336
 30
0.0
  0
LINE
  5
9E
330
1F
100
AcDbEntity
  8
0
  6
Continuous
 62
     7
370
    15
100
AcDbLine
 10
824.0925757043
 20
837.1842964824
 30
0.0
 11
824.0925757043
 21
801.7342964824
 31
0.0
  0
LINE
  5
9F
330
1F
100
AcDbEntity
  8
0
  6
Continuous
 62
     7
370
    15
100
AcDbLine
 10
822.8425757043
 20
838.3396485602
 30
0.0
 11
822.9368819942
 21
838.0871402499
 31
0.0
  0
LINE
  5
A0
330
1F
100
AcDbEntity
  8
0
  6
Continuous
 62
     7
370
    15
100
AcDbLine
 10
824.0925757043
 20
801.7342964824
 30
0.0
 11
1219.8511543481
 21
801.7342964824
 31
0.0
  0
LINE
  5
A1
330
1F
100
AcDbEntity
  8
0
  6
Continuous
 62
     7
370
    15
100
AcDbLine
 10
1036.9468650262
 20
849.5439407037
 30
0.0
 11
1036.9468650262
 21
849.9439407037
 31
0.0
  0
ARC
  5
A2
330
1F
100
AcDbEntity
  8
0
  6
Continuous
 62
     7
370
    15
100
AcDbCircle
 10
1037.0305592513
 20
848.1079293472
 30
0.0
 40
1.438448240005098
100
AcDbArc
 50
13.5481060374
 51
93.3355636296
  0
LINE
  5
A3
330
1F
100
AcDbEntity
  8
0
  6
Continuous
 62
     7
370
    15
100
AcDbLine
 10
1006.9468650262
 20
849.5439407037
 30
0.0
 11
1006.9468650262
 21
849.9439407037
 31
0.0
  0
ARC
  5
A4
330
1F
100
AcDbEntity
  8
0
  6
Continuous
 62
     7
370
    15
100
AcDbCircle
 10
1006.8631707976
 20
848.1079293572
 30
0.0
 40
1.438448230255158
100
AcDbArc
 50
86.6644362076
 51
166.4518970381
  0
LINE
  5
A5
330
1F
100
AcDbEntity
  8
0
  6
Continuous
 62
     7
370
    15
100
AcDbLine
 10
946.5093650262
 20
849.5439407037
 30
0.0
 11
946.5093650262
 21
849.9439407037
 31
0.0
  0
ARC
  5
A6
330
1F
100
AcDbEntity
  8
0
  6
Continuous
 62
     7
370
    15
100
AcDbCircle
 10
946.4256707976
 20
848.1079293572
 30
0.0
 40
1.438448230224487
100
AcDbArc
 50
86.6644362071
 51
166.451897048
  0
LINE
  5
A7
330
1F
100
AcDbEntity
  8
0
  6
Continuous
 62
     7
370
    15
100
AcDbLine
 10
916.0718650262
 20
849.5439407037
 30
0.0
 11
916.0718650262
 21
849.9439407037
 31
0.0
  0
ARC
  5
A8
330
1F
100
AcDbEntity
  8
0
  6
Continuous
 62
     7
370
    15
100
AcDbCircle
 10
916.1555592548
 20
848.1079293572
 30
0.0
 40
1.438448230226654
100
AcDbArc
 50
13.5481029529
 51
93.3355637928
  0
LINE
  5
A9
330
1F
100
AcDbEntity
  8
0
  6
Continuous
 62
     7
370
    15
100
AcDbLine
 10
886.0718650262
 20
849.5439407037
 30
0.0
 11
886.0718650262
 21
849.9439407037
 31
0.0
  0
ARC
  5
AA
330
1F
100
AcDbEntity
  8
0
  6
Continuous
 62
     7
370
    15
100
AcDbCircle
 10
885.9881707976
 20
848.1079293572
 30
0.0
 40
1.438448230271439
100
AcDbArc
 50
86.6644362079
 51
166.4518970332
  0
LINE
  5
AB
330
1F
100
AcDbEntity
  8
0
  6
Continuous
 62
     7
370
    15
100
AcDbLine
 10
1067.3843650262
 20
849.5439407037
 30
0.0
 11
1067.3843650262
 21
849.9439407037
 31
0.0
  0
ARC
  5
AC
330
1F
100
AcDbEntity
  8
0
  6
Continuous
 62
     7
370
    15
100
AcDbCircle
 10
1067.3006707955
 20
848.1079293634
 30
0.0
 40
1.43844822423225
100
AcDbArc
 50
86.6644361071
 51
166.4518989382
  0
LINE
  5
AD
330
1F
100
AcDbEntity
  8
0
  6
Continuous
 62
     7
370
    15
100
AcDbLine
 10
1097.3843650262
 20
849.5439407037
 30
0.0
 11
1097.3843650262
 21
849.9439407037
 31
0.0
  0
ARC
  5
AE
330
1F
100
AcDbEntity
  8
0
  6
Continuous
 62
     7
370
    15
100
AcDbCircle
 10
1097.4680592548
 20
848.1079293572
 30
0.0
 40
1.438448230246439
100
AcDbArc
 50
13.5481029592
 51
93.3355637925
  0
LINE
  5
AF
330
1F
100
AcDbEntity
  8
0
  6
Continuous
 62
     7
370
    15
100
AcDbLine
 10
1127.8218650262
 20
849.5439407037
 30
0.0
 11
1127.8218650262
 21
849.9439407037
 31
0.0
  0
ARC
  5
B0
330
1F
100
AcDbEntity
  8
0
  6
Continuous
 62
     7
370
    15
100
AcDbCircle
 10
1127.7381707976
 20
848.1079293572
 30
0.0
 40
1.438448230245217
100
AcDbArc
 50
86.6644362075
 51
166.4518970411
  0
LINE
  5
B1
330
1F
100
AcDbEntity
  8
0
  6
Continuous
 62
     7
370
    15
100
AcDbLine
 10
976.5093650262
 20
849.5439407037
 30
0.0
 11
976.5093650262
 21
849.9439407037
 31
0.0
  0
ARC
  5
B2
330
1F
100
AcDbEntity
  8
0
  6
Continuous
 62
     7
370
    15
100
AcDbCircle
 10
976.5930592624
 20
848.1079293789
 30
0.0
 40
1.438448209073312
100
AcDbArc
 50
13.5480962799
 51
93.3355641461
  0
LINE
  5
B3
330
1F
100
AcDbEntity
  8
0
  6
Continuous
 62
     7
370
    15
100
AcDbLine
 10
1157.8218650262
 20
849.5439407037
 30
0.0
 11
1157.8218650262
 21
849.9439407037
 31
0.0
  0
ARC
  5
B4
330
1F
100
AcDbEntity
  8
0
  6
Continuous
 62
     7
370
    15
100
AcDbCircle
 10
1157.9055592548
 20
848.1079293572
 30
0.0
 40
1.438448230275793
100
AcDbArc
 50
13.5481029681
 51
93.335563792
  0
LINE
  5
B5
330
1F
100
AcDbEntity
  8
0
  6
Continuous
 62
     7
370
    15
100
AcDbLine
 10
976.5093650262
 20
849.5439407037
 30
0.0
 11
946.5093650262
 21
849.5439407037
 31
0.0
  0
LINE
  5
B6
330
1F
100
AcDbEntity
  8
0
  6
Continuous
 62
     7
370
    15
100
AcDbLine
 10
1036.9468650262
 20
849.5439407037
 30
0.0
 11
1006.9468650262
 21
849.5439407037
 31
0.0
  0
LINE
  5
B7
330
1F
100
AcDbEntity
  8
0
  6
Continuous
 62
     7
370
    15
100
AcDbLine
 10
1157.8218650262
 20
849.5439407037
 30
0.0
 11
1127.8218650262
 21
849.5439407037
 31
0.0
  0
LINE
  5
B8
330
1F
100
AcDbEntity
  8
0
  6
Continuous
 62
     7
370
    15
100
AcDbLine
 10
916.0718650262
 20
849.5439407037
 30
0.0
 11
886.0718650262
 21
849.5439407037
 31
0.0
  0
LINE
  5
B9
330
1F
100
AcDbEntity
  8
0
  6
Continuous
 62
     7
370
    15
100
AcDbLine
 10
1097.3843650262
 20
849.5439407037
 30
0.0
 11
1067.3843650262
 21
849.5439407037
 31
0.0
  0
LINE
  5
BA
330
1F
100
AcDbEntity
  8
0
  6
Continuous
 62
     7
370
    15
100
AcDbLine
 10
822.0425757043
 20
818.8756588944
 30
0.0
 11
821.9718650262
 21
818.8756588944
 31
0.0
  0
LINE
  5
BB
330
1F
100
AcDbEntity
  8
0
  6
Continuous
 62
     7
370
    15
100
AcDbLine
 10
821.9718650262
 20
837.938354049
 30
0.0
 11
821.9718650262
 21
818.8756588944
 31
0.0
  0
LINE
  5
BC
330
1F
100
AcDbEntity
  8
0
  6
Continuous
 62
     7
370
    15
100
AcDbLine
 10
1221.9011543481
 20
818.8756588944
 30
0.0
 11
1221.9718650262
 21
818.8756588944
 31
0.0
  0
LINE
  5
BD
330
1F
100
AcDbEntity
  8
0
  6
Continuous
 62
     7
370
    15
100
AcDbLine
 10
1221.9718650262
 20
818.8756588944
 30
0.0
 11
1221.9718650262
 21
837.938354049
 31
0.0
  0
LINE
  5
BE
330
1F
100
AcDbEntity
  8
0
  6
Continuous
 62
     7
370
    15
100
AcDbLine
 10
822.7718650262
 20
802.497014303
 30
0.0
 11
821.9718650262
 21
802.497014303
 31
0.0
  0
LINE
  5
BF
330
1F
100
AcDbEntity
  8
0
  6
Continuous
 62
     7
370
    15
100
AcDbLine
 10
821.9718650262
 20
818.8756588944
 30
0.0
 11
821.9718650262
 21
802.497014303
 31
0.0
  0
LINE
  5
C0
330
1F
100
AcDbEntity
  8
0
  6
Continuous
 62
     7
370
    15
100
AcDbLine
 10
1221.1718650262
 20
802.497014303
 30
0.0
 11
1221.9718650262
 21
802.497014303
 31
0.0
  0
LINE
  5
C1
330
1F
100
AcDbEntity
  8
0
  6
Continuous
 62
     7
370
    15
100
AcDbLine
 10
1221.9718650262
 20
802.497014303
 30
0.0
 11
1221.9718650262
 21
818.8756588944
 31
0.0
  0
LINE
  5
C2
330
1F
100
AcDbEntity
  8
0
  6
Continuous
 62
     7
370
    15
100
AcDbLine
 10
1221.1011543481
 20
802.4271168054
 30
0.0
 11
1221.1011543481
 21
801.7342964824
 31
0.0
  0
LINE
  5
C3
330
1F
100
AcDbEntity
  8
0
  6
Continuous
 62
     7
370
    15
100
AcDbLine
 10
1221.1011543481
 20
801.7342964824
 30
0.0
 11
1219.8511543481
 21
801.7342964824
 31
0.0
  0
SPLINE
  5
C4
330
1F
100
AcDbEntity
  8
0
  6
Continuous
 62
     7
370
    15
100
AcDbSpline
210
0.0
220
0.0
230
1.0
 70
     8
 71
     3
 72
    10
 73
     6
 74
     0
 42
0.00000001
 43
0.00000001
 12
1.0
 22
0.0
 32
0.0
 13
1.0
 23
0.0
 33
0.0
 40
0.0
 40
0.0
 40
0.0
 40
0.0
 40
0.3386878217838728
 40
0.6863219904100951
 40
1.0
 40
1.0
 40
1.0
 40
1.0
 10
1221.101154348106
 20
801.7342964824037
 30
0.0
 10
1221.041568784107
 20
801.6794230434352
 30
0.0
 10
1220.920823719616
 20
801.568226698509
 30
0.0
 10
1220.74488521427
 20
801.4758579425212
 30
0.0
 10
1220.628525551274
 20
801.4672738492827
 30
0.0
 10
1220.5733330587
 20
801.4632021848407
 30
0.0
  0
SPLINE
  5
C5
330
1F
100
AcDbEntity
  8
0
  6
Continuous
 62
     7
370
    15
100
AcDbSpline
210
0.0
220
0.0
230
1.0
 70
     8
 71
     3
 72
    11
 73
     7
 74
     0
 42
0.00000001
 43
0.00000001
 12
1.0
 22
0.0
 32
0.0
 13
1.0
 23
0.0
 33
0.0
 40
0.0
 40
0.0
 40
0.0
 40
0.0
 40
0.1233371378767273
 40
0.4774589377553436
 40
0.8418484300838441
 40
1.0
 40
1.0
 40
1.0
 40
1.0
 10
823.370311780391
 20
801.4679966297239
 30
0.0
 10
823.348611404015
 20
801.4656910715046
 30
0.0
 10
823.2646055738835
 20
801.4567658653801
 30
0.0
 10
823.1165187489884
 20
801.516289639748
 30
0.0
 10
822.9622042658575
 20
801.6176563126319
 30
0.0
 10
822.8703701065663
 20
801.7071964006758
 30
0.0
 10
822.8425757043398
 20
801.7342964824068
 30
0.0
  0
LINE
  5
C6
330
1F
100
AcDbEntity
  8
0
  6
Continuous
 62
     7
370
    15
100
AcDbLine
 10
822.8425757043
 20
801.7342964824
 30
0.0
 11
824.0925757043
 21
801.7342964824
 31
0.0
  0
LINE
  5
C7
330
1F
100
AcDbEntity
  8
0
  6
Continuous
 62
     7
370
    15
100
AcDbLine
 10
822.8425757043
 20
802.4271168054
 30
0.0
 11
822.8425757043
 21
801.7342964824
 31
0.0
  0
LINE
  5
C8
330
1F
100
AcDbEntity
  8
0
  6
Continuous
 62
     7
370
    15
100
AcDbLine
 10
822.7718650262
 20
802.488354049
 30
0.0
 11
821.9718650262
 21
802.488354049
 31
0.0
  0
LINE
  5
C9
330
1F
100
AcDbEntity
  8
0
  6
Continuous
 62
     7
370
    15
100
AcDbLine
 10
821.9718650262
 20
802.497014303
 30
0.0
 11
821.9718650262
 21
802.488354049
 31
0.0
  0
ARC
  5
CA
330
1F
100
AcDbEntity
  8
0
  6
Continuous
 62
     7
370
    15
100
AcDbCircle
 10
823.0881303836
 20
802.7755226071
 30
0.0
 40
1.152611872590737
100
AcDbArc
 50
194.4269785493
 51
257.9128601193
  0
LINE
  5
CB
330
1F
100
AcDbEntity
  8
0
  6
Continuous
 62
     7
370
    15
100
AcDbLine
 10
1221.9718650262
 20
802.488354049
 30
0.0
 11
1221.9718650262
 21
802.497014303
 31
0.0
  0
LINE
  5
CC
330
1F
100
AcDbEntity
  8
0
  6
Continuous
 62
     7
370
    15
100
AcDbLine
 10
1221.1718650262
 20
802.488354049
 30
0.0
 11
1221.9718650262
 21
802.488354049
 31
0.0
  0
ARC
  5
CD
330
1F
100
AcDbEntity
  8
0
  6
Continuous
 62
     7
370
    15
100
AcDbCircle
 10
1220.8167452554
 20
802.7987122512
 30
0.0
 40
1.196086910950359
100
AcDbArc
 50
278.8732244491
 51
344.9609110735
  0
LINE
  5
CE
330
1F
100
AcDbEntity
  8
0
  6
Continuous
 62
     7
370
    15
100
AcDbLine
 10
824.0718650262
 20
1115.0565071213
 30
0.0
 11
824.0718650262
 21
1116.0815071213
 31
0.0
  0
LINE
  5
CF
330
1F
100
AcDbEntity
  8
0
  6
Continuous
 62
     7
370
    15
100
AcDbLine
 10
824.0718650262
 20
1116.0815071213
 30
0.0
 11
1219.8718650262
 21
1116.0815071213
 31
0.0
  0
LINE
  5
D0
330
1F
100
AcDbEntity
  8
0
  6
Continuous
 62
     7
370
    15
100
AcDbLine
 10
1219.8718650262
 20
1116.0815071213
 30
0.0
 11
1219.8718650262
 21
1115.0565071213
 31
0.0
  0
LINE
  5
D1
330
1F
100
AcDbEntity
  8
0
  6
Continuous
 62
     7
370
    15
100
AcDbLine
 10
824.0218650262
 20
1115.2815071213
 30
0.0
 11
824.0218650262
 21
1116.0815071213
 31
0.0
  0
SPLINE
  5
D2
330
1F
100
AcDbEntity
  8
0
  6
Continuous
 62
     7
370
    15
100
AcDbSpline
210
0.0
220
0.0
230
1.0
 70
     8
 71
     3
 72
    10
 73
     6
 74
     0
 42
0.00000001
 43
0.00000001
 12
1.0
 22
0.0
 32
0.0
 13
1.0
 23
0.0
 33
0.0
 40
0.0
 40
0.0
 40
0.0
 40
0.0
 40
0.4619033069226689
 40
0.9238066138452724
 40
1.0
 40
1.0
 40
1.0
 40
1.0
 10
824.0218650262242
 20
1115.281507121291
 30
0.0
 10
823.8610067754745
 20
1115.260811198653
 30
0.0
 10
823.5392902739748
 20
1115.219419353376
 30
0.0
 10
823.2093135778144
 20
1115.03145456891
 30
0.0
 10
823.1076759662134
 20
1114.871189609148
 30
0.0
 10
823.0932842892378
 20
1114.84849642013
 30
0.0
  0
SPLINE
  5
D3
330
1F
100
AcDbEntity
  8
0
  6
Continuous
 62
     7
370
    15
100
AcDbSpline
210
0.0
220
0.0
230
1.0
 70
     8
 71
     3
 72
    11
 73
     7
 74
     0
 42
0.00000001
 43
0.00000001
 12
1.0
 22
0.0
 32
0.0
 13
1.0
 23
0.0
 33
0.0
 40
0.0
 40
0.0
 40
0.0
 40
0.0
 40
0.2500000000000098
 40
0.4999999999999983
 40
0.7499999999999869
 40
1.0
 40
1.0
 40
1.0
 40
1.0
 10
824.0218650262242
 20
1116.081507121291
 30
0.0
 10
823.7532390864213
 20
1116.050692397077
 30
0.0
 10
823.2159872068158
 20
1115.989062948649
 30
0.0
 10
822.5383700857672
 20
1115.515002061748
 30
0.0
 10
822.0643091988662
 20
1114.8373849407
 30
0.0
 10
822.0026797504381
 20
1114.300133061094
 30
0.0
 10
821.9718650262242
 20
1114.031507121291
 30
0.0
  0
LINE
  5
D4
330
1F
100
AcDbEntity
  8
0
  6
Continuous
 62
     7
370
    15
100
AcDbLine
 10
1219.9218650262
 20
1115.2815071213
 30
0.0
 11
1219.9218650262
 21
1116.0815071213
 31
0.0
  0
SPLINE
  5
D5
330
1F
100
AcDbEntity
  8
0
  6
Continuous
 62
     7
370
    15
100
AcDbSpline
210
0.0
220
0.0
230
1.0
 70
     8
 71
     3
 72
    11
 73
     7
 74
     0
 42
0.00000001
 43
0.00000001
 12
1.0
 22
0.0
 32
0.0
 13
1.0
 23
0.0
 33
0.0
 40
0.0
 40
0.0
 40
0.0
 40
0.0
 40
0.2499999999999973
 40
0.5
 40
0.7500000000000027
 40
1.0
 40
1.0
 40
1.0
 40
1.0
 10
1221.971865026224
 20
1114.031507121287
 30
0.0
 10
1221.94105030201
 20
1114.30013306109
 30
0.0
 10
1221.879420853582
 20
1114.837384940695
 30
0.0
 10
1221.405359966681
 20
1115.515002061744
 30
0.0
 10
1220.727742845633
 20
1115.989062948645
 30
0.0
 10
1220.190490966027
 20
1116.050692397073
 30
0.0
 10
1219.921865026224
 20
1116.081507121287
 30
0.0
  0
SPLINE
  5
D6
330
1F
100
AcDbEntity
  8
0
  6
Continuous
 62
     7
370
    15
100
AcDbSpline
210
0.0
220
0.0
230
1.0
 70
     8
 71
     3
 72
    10
 73
     6
 74
     0
 42
0.00000001
 43
0.00000001
 12
1.0
 22
0.0
 32
0.0
 13
1.0
 23
0.0
 33
0.0
 40
0.0
 40
0.0
 40
0.0
 40
0.0
 40
0.0642582096448538
 40
0.5321291048224397
 40
0.9999999999999999
 40
0.9999999999999999
 40
0.9999999999999999
 40
0.9999999999999999
 10
1220.842963440213
 20
1114.859694507842
 30
0.0
 10
1220.830919803664
 20
1114.878541255589
 30
0.0
 10
1220.731185161644
 20
1115.034613188864
 30
0.0
 10
1220.404058289178
 20
1115.21912228033
 30
0.0
 10
1220.082596113876
 20
1115.260712174301
 30
0.0
 10
1219.921865026224
 20
1115.281507121287
 30
0.0
  0
LINE
  5
D7
330
1F
100
AcDbEntity
  8
0
  6
Continuous
 62
     7
370
    15
100
AcDbLine
 10
824.0218650262
 20
1115.2815071213
 30
0.0
 11
824.0718650262
 21
1115.2815071213
 31
0.0
  0
LINE
  5
D8
330
1F
100
AcDbEntity
  8
0
  6
Continuous
 62
     7
370
    15
100
AcDbLine
 10
824.0218650262
 20
1116.0815071213
 30
0.0
 11
824.0718650262
 21
1116.0815071213
 31
0.0
  0
LINE
  5
D9
330
1F
100
AcDbEntity
  8
0
  6
Continuous
 62
     7
370
    15
100
AcDbLine
 10
1219.8718650262
 20
1115.2815071213
 30
0.0
 11
1219.9218650262
 21
1115.2815071213
 31
0.0
  0
LINE
  5
DA
330
1F
100
AcDbEntity
  8
0
  6
Continuous
 62
     7
370
    15
100
AcDbLine
 10
1219.8718650262
 20
1116.0815071213
 30
0.0
 11
1219.9218650262
 21
1116.0815071213
 31
0.0
  0
LINE
  5
DB
330
1F
100
AcDbEntity
  8
0
  6
Continuous
 62
     7
370
    15
100
AcDbLine
 10
821.9718650262
 20
1113.7623994353
 30
0.0
 11
821.9718650262
 21
1114.0315071213
 31
0.0
  0
LINE
  5
DC
330
1F
100
AcDbEntity
  8
0
  6
Continuous
 62
     7
370
    15
100
AcDbLine
 10
1221.9718650262
 20
1114.0315071213
 30
0.0
 11
1221.9718650262
 21
1113.7623994352
 31
0.0
  0
LINE
  5
DD
330
1F
100
AcDbEntity
  8
0
  6
Continuous
 62
     7
370
    15
100
AcDbLine
 10
909.0925757043
 20
831.647693942
 30
0.0
 11
909.0925757043
 21
831.7342964824
 31
0.0
  0
LINE
  5
DE
330
1F
100
AcDbEntity
  8
0
  6
Continuous
 62
     7
370
    15
100
AcDbLine
 10
909.0925757043
 20
831.647693942
 30
0.0
 11
874.0925757043
 21
831.647693942
 31
0.0
  0
LINE
  5
DF
330
1F
100
AcDbEntity
  8
0
  6
Continuous
 62
     7
370
    15
100
AcDbLine
 10
874.0925757043
 20
831.647693942
 30
0.0
 11
874.0925757043
 21
831.7342964824
 31
0.0
  0
LINE
  5
E0
330
1F
100
AcDbEntity
  8
0
  6
Continuous
 62
     7
370
    15
100
AcDbLine
 10
909.0925757043
 20
831.7342964824
 30
0.0
 11
874.0925757043
 21
831.7342964824
 31
0.0
  0
ARC
  5
E1
330
1F
100
AcDbEntity
  8
0
  6
Continuous
 62
     7
370
    15
100
AcDbCircle
 10
891.5925757043
 20
827.9460877007
 30
0.0
 40
1.568724713999863
100
AcDbArc
 50
56.4917559099
 51
123.5082440901
  0
LINE
  5
E2
330
1F
100
AcDbEntity
  8
0
  6
Continuous
 62
     7
370
    15
100
AcDbLine
 10
890.7265503006
 20
829.2541004026
 30
0.0
 11
876.4586011081
 21
816.897693942
 31
0.0
  0
LWPOLYLINE
  5
E3
330
1F
100
AcDbEntity
  8
0
  6
Continuous
 62
     7
370
    15
100
AcDbPolyline
 90
        3
 70
   128
 43
0.0
 10
876.4586011081
 20
816.897693942
 10
876.3587006856
 20
816.7771034646
 10
876.3246265119
 20
816.647693942
  0
LWPOLYLINE
  5
E4
330
1F
100
AcDbEntity
  8
0
  6
Continuous
 62
     7
370
    15
100
AcDbPolyline
 90
        3
 70
   128
 43
0.0
 10
906.8605248968
 20
816.647693942
 10
906.8264507231
 20
816.7771034646
 10
906.7265503006
 20
816.897693942
  0
LINE
  5
E5
330
1F
100
AcDbEntity
  8
0
  6
Continuous
 62
     7
370
    15
100
AcDbLine
 10
906.7265503006
 20
816.897693942
 30
0.0
 11
892.4586011081
 21
829.2541004026
 31
0.0
  0
LINE
  5
E6
330
1F
100
AcDbEntity
  8
0
  6
Continuous
 62
     7
370
    15
100
AcDbLine
 10
874.0925757043
 20
814.147693942
 30
0.0
 11
909.0925757043
 21
814.147693942
 31
0.0
  0
LINE
  5
E7
330
1F
100
AcDbEntity
  8
0
  6
Continuous
 62
     7
370
    15
100
AcDbLine
 10
874.0925757043
 20
831.647693942
 30
0.0
 11
874.0925757043
 21
814.147693942
 31
0.0
  0
LINE
  5
E8
330
1F
100
AcDbEntity
  8
0
  6
Continuous
 62
     7
370
    15
100
AcDbLine
 10
909.0925757043
 20
814.147693942
 30
0.0
 11
909.0925757043
 21
831.647693942
 31
0.0
  0
LINE
  5
E9
330
1F
100
AcDbEntity
  8
0
  6
Continuous
 62
     7
370
    15
100
AcDbLine
 10
879.0566773195
 20
817.0610914016
 30
0.0
 11
904.1284740892
 21
817.0610914016
 31
0.0
  0
LINE
  5
EA
330
1F
100
AcDbEntity
  8
0
  6
Continuous
 62
     7
370
    15
100
AcDbLine
 10
904.1284740892
 20
817.0610914016
 30
0.0
 11
891.5925757043
 21
827.9174978622
 31
0.0
  0
LINE
  5
EB
330
1F
100
AcDbEntity
  8
0
  6
Continuous
 62
     7
370
    15
100
AcDbLine
 10
891.5925757043
 20
827.9174978622
 30
0.0
 11
879.0566773195
 21
817.0610914016
 31
0.0
  0
LINE
  5
EC
330
1F
100
AcDbEntity
  8
0
  6
Continuous
 62
     7
370
    15
100
AcDbLine
 10
877.3246265119
 20
816.0610914016
 30
0.0
 11
905.8605248968
 21
816.0610914016
 31
0.0
  0
LWPOLYLINE
  5
ED
330
1F
100
AcDbEntity
  8
0
  6
Continuous
 62
     7
370
    15
100
AcDbPolyline
 90
        9
 70
   128
 43
0.0
 10
876.4586011081
 20
816.8110914016
 10
876.3587006856
 20
816.6905009242
 10
876.3246265119
 20
816.5610914016
 10
876.3587006856
 20
816.4316818791
 10
876.4586011081
 20
816.3110914016
 10
876.6175197307
 20
816.2075380111
 10
876.8246265119
 20
816.1280786998
 10
877.0658074668
 20
816.0781284885
 10
877.3246265119
 20
816.0610914016
  0
LINE
  5
EE
330
1F
100
AcDbEntity
  8
0
  6
Continuous
 62
     7
370
    15
100
AcDbLine
 10
890.7265503006
 20
829.1674978622
 30
0.0
 11
876.4586011081
 21
816.8110914016
 31
0.0
  0
ARC
  5
EF
330
1F
100
AcDbEntity
  8
0
  6
Continuous
 62
     7
370
    15
100
AcDbCircle
 10
891.5925757043
 20
827.8594851603
 30
0.0
 40
1.568724713999863
100
AcDbArc
 50
56.4917559099
 51
123.5082440901
  0
LINE
  5
F0
330
1F
100
AcDbEntity
  8
0
  6
Continuous
 62
     7
370
    15
100
AcDbLine
 10
906.7265503006
 20
816.8110914016
 30
0.0
 11
892.4586011081
 21
829.1674978622
 31
0.0
  0
LWPOLYLINE
  5
F1
330
1F
100
AcDbEntity
  8
0
  6
Continuous
 62
     7
370
    15
100
AcDbPolyline
 90
        9
 70
   128
 43
0.0
 10
905.8605248968
 20
816.0610914016
 10
906.1193439419
 20
816.0781284885
 10
906.3605248968
 20
816.1280786998
 10
906.567631678
 20
816.2075380111
 10
906.7265503006
 20
816.3110914016
 10
906.8264507231
 20
816.4316818791
 10
906.8605248968
 20
816.5610914016
 10
906.8264507231
 20
816.6905009242
 10
906.7265503006
 20
816.8110914016
  0
LINE
  5
F2
330
1F
100
AcDbEntity
  8
0
  6
Continuous
 62
     7
370
    15
100
AcDbLine
 10
892.4586011081
 20
829.1674978622
 30
0.0
 11
892.4586011081
 21
829.2541004026
 31
0.0
  0
LINE
  5
F3
330
1F
100
AcDbEntity
  8
0
  6
Continuous
 62
     7
370
    15
100
AcDbLine
 10
890.7265503006
 20
829.1674978622
 30
0.0
 11
890.7265503006
 21
829.2541004026
 31
0.0
  0
LINE
  5
F4
330
1F
100
AcDbEntity
  8
0
  6
Continuous
 62
     7
370
    15
100
AcDbLine
 10
876.4586011081
 20
816.8110914016
 30
0.0
 11
876.4586011081
 21
816.897693942
 31
0.0
  0
LINE
  5
F5
330
1F
100
AcDbEntity
  8
0
  6
Continuous
 62
     7
370
    15
100
AcDbLine
 10
906.7265503006
 20
816.8110914016
 30
0.0
 11
906.7265503006
 21
816.897693942
 31
0.0
  0
LINE
  5
F6
330
1F
100
AcDbEntity
  8
0
  6
Continuous
 62
     7
370
    15
100
AcDbLine
 10
879.1566773195
 20
817.147693942
 30
0.0
 11
904.0284740892
 21
817.147693942
 31
0.0
  0
LINE
  5
F7
330
1F
100
AcDbEntity
  8
0
  6
Continuous
 62
     7
370
    15
100
AcDbLine
 10
885.5925757043
 20
818.147693942
 30
0.0
 11
897.5925757043
 21
818.147693942
 31
0.0
  0
LINE
  5
F8
330
1F
100
AcDbEntity
  8
0
  6
Continuous
 62
     7
370
    15
100
AcDbLine
 10
897.5925757043
 20
818.147693942
 30
0.0
 11
897.5925757043
 21
818.647693942
 31
0.0
  0
LINE
  5
F9
330
1F
100
AcDbEntity
  8
0
  6
Continuous
 62
     7
370
    15
100
AcDbLine
 10
897.5925757043
 20
818.647693942
 30
0.0
 11
885.5925757043
 21
818.647693942
 31
0.0
  0
LINE
  5
FA
330
1F
100
AcDbEntity
  8
0
  6
Continuous
 62
     7
370
    15
100
AcDbLine
 10
885.5925757043
 20
818.647693942
 30
0.0
 11
885.5925757043
 21
818.147693942
 31
0.0
  0
LINE
  5
FB
330
1F
100
AcDbEntity
  8
0
  6
Continuous
 62
     7
370
    15
100
AcDbLine
 10
894.7715536133
 20
824.4678153148
 30
0.0
 11
894.047145423
 21
824.8125009592
 31
0.0
  0
SPLINE
  5
FC
330
1F
100
AcDbEntity
  8
0
  6
Continuous
 62
     7
370
    15
100
AcDbSpline
210
0.0
220
0.0
230
1.0
 70
     8
 71
     3
 72
    16
 73
    12
 74
     0
 42
0.00000001
 43
0.00000001
 12
1.0
 22
0.0
 32
0.0
 13
1.0
 23
0.0
 33
0.0
 40
0.0
 40
0.0
 40
0.0
 40
0.0
 40
0.1748440723198077
 40
0.3268352069744137
 40
0.4652185655989986
 40
0.5935875129107003
 40
0.7092179225859065
 40
0.8069161094297818
 40
0.8641077816295588
 40
0.9241586668290644
 40
1.0
 40
1.0
 40
1.0
 40
1.0
 10
894.0471454230465
 20
824.812500959231
 30
0.0
 10
893.6100285236324
 20
824.538845398927
 30
0.0
 10
892.7929279471219
 20
824.0273023394174
 30
0.0
 10
892.4859083022164
 20
823.0866507183283
 30
0.0
 10
892.7644981430949
 20
822.2669881744104
 30
0.0
 10
893.2525766289735
 20
821.5521818056828
 30
0.0
 10
893.6978691970926
 20
820.9169564678473
 30
0.0
 10
893.913271844614
 20
820.3883738295391
 30
0.0
 10
893.8475279353651
 20
819.9615286265004
 30
0.0
 10
893.5742298794224
 20
819.5986228058816
 30
0.0
 10
893.229663485484
 20
819.3910990183444
 30
0.0
 10
893.0373612698342
 20
819.2752801664616
 30
0.0
  0
LINE
  5
FD
330
1F
100
AcDbEntity
  8
0
  6
Continuous
 62
     7
370
    15
100
AcDbLine
 10
893.0373612698
 20
819.2752801665
 30
0.0
 11
893.7715536133
 21
818.9358094008
 31
0.0
  0
SPLINE
  5
FE
330
1F
100
AcDbEntity
  8
0
  6
Continuous
 62
     7
370
    15
100
AcDbSpline
210
0.0
220
0.0
230
1.0
 70
     8
 71
     3
 72
    17
 73
    13
 74
     0
 42
0.00000001
 43
0.00000001
 12
1.0
 22
0.0
 32
0.0
 13
1.0
 23
0.0
 33
0.0
 40
0.0
 40
0.0
 40
0.0
 40
0.0
 40
0.0970840047900397
 40
0.1804039698639911
 40
0.258343662499847
 40
0.3758104533700491
 40
0.4973750901671923
 40
0.6189528001758322
 40
0.7367467105551012
 40
0.8154942427422959
 40
0.9004148171428817
 40
1.0
 40
1.0
 40
1.0
 40
1.0
 10
893.7715536132761
 20
818.9358094008456
 30
0.0
 10
894.0163940227288
 20
819.0845584257746
 30
0.0
 10
894.4713627062307
 20
819.3609676516675
 30
0.0
 10
894.8319651386721
 20
819.8475196001883
 30
0.0
 10
894.9242289933318
 20
820.4004933072629
 30
0.0
 10
894.683208711414
 20
821.0209663351798
 30
0.0
 10
894.2147645217382
 20
821.6921139955871
 30
0.0
 10
893.7522223090454
 20
822.3651636798314
 30
0.0
 10
893.5302892853421
 20
822.9903172812533
 30
0.0
 10
893.6500139073199
 20
823.5476796521687
 30
0.0
 10
894.0412187168891
 20
824.0385915123351
 30
0.0
 10
894.5155421608367
 20
824.3173552866159
 30
0.0
 10
894.7715536132758
 20
824.4678153147923
 30
0.0
  0
LINE
  5
FF
330
1F
100
AcDbEntity
  8
0
  6
Continuous
 62
     7
370
    15
100
AcDbLine
 10
890.1472996739
 20
824.4678153148
 30
0.0
 11
889.4228914837
 21
824.8125009592
 31
0.0
  0
SPLINE
  5
100
330
1F
100
AcDbEntity
  8
0
  6
Continuous
 62
     7
370
    15
100
AcDbSpline
210
0.0
220
0.0
230
1.0
 70
     8
 71
     3
 72
    16
 73
    12
 74
     0
 42
0.00000001
 43
0.00000001
 12
1.0
 22
0.0
 32
0.0
 13
1.0
 23
0.0
 33
0.0
 40
0.0
 40
0.0
 40
0.0
 40
0.0
 40
0.1748440723198159
 40
0.3268352069744156
 40
0.4652185655990059
 40
0.5935875129106991
 40
0.7092179225859077
 40
0.8069161094297823
 40
0.8641077816295596
 40
0.9241586668290637
 40
0.9999999999999999
 40
0.9999999999999999
 40
0.9999999999999999
 40
0.9999999999999999
 10
889.4228914836781
 20
824.8125009592312
 30
0.0
 10
888.9857745842642
 20
824.5388453989274
 30
0.0
 10
888.1686740077538
 20
824.0273023394175
 30
0.0
 10
887.8616543628482
 20
823.0866507183283
 30
0.0
 10
888.1402442037264
 20
822.2669881744105
 30
0.0
 10
888.6283226896053
 20
821.552181805683
 30
0.0
 10
889.0736152577242
 20
820.9169564678474
 30
0.0
 10
889.2890179052457
 20
820.3883738295392
 30
0.0
 10
889.2232739959969
 20
819.9615286265005
 30
0.0
 10
888.9499759400542
 20
819.5986228058817
 30
0.0
 10
888.6054095461158
 20
819.3910990183447
 30
0.0
 10
888.413107330466
 20
819.2752801664617
 30
0.0
  0
LINE
  5
101
330
1F
100
AcDbEntity
  8
0
  6
Continuous
 62
     7
370
    15
100
AcDbLine
 10
888.4131073305
 20
819.2752801665
 30
0.0
 11
889.1472996739
 21
818.9358094008
 31
0.0
  0
SPLINE
  5
102
330
1F
100
AcDbEntity
  8
0
  6
Continuous
 62
     7
370
    15
100
AcDbSpline
210
0.0
220
0.0
230
1.0
 70
     8
 71
     3
 72
    17
 73
    13
 74
     0
 42
0.00000001
 43
0.00000001
 12
1.0
 22
0.0
 32
0.0
 13
1.0
 23
0.0
 33
0.0
 40
0.0
 40
0.0
 40
0.0
 40
0.0
 40
0.0970840047900449
 40
0.1804039698639945
 40
0.2583436624998492
 40
0.3758104533700501
 40
0.4973750901671928
 40
0.6189528001758331
 40
0.7367467105550958
 40
0.8154942427422918
 40
0.9004148171428795
 40
1.0
 40
1.0
 40
1.0
 40
1.0
 10
889.1472996739078
 20
818.9358094008458
 30
0.0
 10
889.3921400833607
 20
819.0845584257747
 30
0.0
 10
889.8471087668626
 20
819.3609676516676
 30
0.0
 10
890.2077111993038
 20
819.8475196001885
 30
0.0
 10
890.2999750539635
 20
820.4004933072629
 30
0.0
 10
890.0589547720456
 20
821.0209663351798
 30
0.0
 10
889.5905105823699
 20
821.6921139955871
 30
0.0
 10
889.1279683696771
 20
822.3651636798314
 30
0.0
 10
888.9060353459737
 20
822.9903172812535
 30
0.0
 10
889.0257599679517
 20
823.5476796521687
 30
0.0
 10
889.4169647775208
 20
824.0385915123352
 30
0.0
 10
889.8912882214684
 20
824.317355286616
 30
0.0
 10
890.1472996739077
 20
824.4678153147925
 30
0.0
  0
LINE
  5
103
330
1F
100
AcDbEntity
  8
0
  6
Continuous
 62
     7
370
    15
100
AcDbLine
 10
892.5925757043
 20
824.4678153148
 30
0.0
 11
891.8681675141
 21
824.8125009592
 31
0.0
  0
SPLINE
  5
104
330
1F
100
AcDbEntity
  8
0
  6
Continuous
 62
     7
370
    15
100
AcDbSpline
210
0.0
220
0.0
230
1.0
 70
     8
 71
     3
 72
    16
 73
    12
 74
     0
 42
0.00000001
 43
0.00000001
 12
1.0
 22
0.0
 32
0.0
 13
1.0
 23
0.0
 33
0.0
 40
0.0
 40
0.0
 40
0.0
 40
0.0
 40
0.1748440723198128
 40
0.3268352069744183
 40
0.4652185655990003
 40
0.5935875129107017
 40
0.7092179225859072
 40
0.8069161094297805
 40
0.8641077816295573
 40
0.9241586668290603
 40
1.0
 40
1.0
 40
1.0
 40
1.0
 10
891.8681675141096
 20
824.8125009592311
 30
0.0
 10
891.4310506146957
 20
824.5388453989272
 30
0.0
 10
890.6139500381852
 20
824.0273023394175
 30
0.0
 10
890.3069303932798
 20
823.0866507183283
 30
0.0
 10
890.5855202341578
 20
822.2669881744105
 30
0.0
 10
891.0735987200368
 20
821.5521818056828
 30
0.0
 10
891.5188912881558
 20
820.9169564678474
 30
0.0
 10
891.7342939356771
 20
820.3883738295391
 30
0.0
 10
891.6685500264283
 20
819.9615286265005
 30
0.0
 10
891.3952519704857
 20
819.5986228058817
 30
0.0
 10
891.0506855765472
 20
819.3910990183444
 30
0.0
 10
890.8583833608974
 20
819.2752801664616
 30
0.0
  0
LINE
  5
105
330
1F
100
AcDbEntity
  8
0
  6
Continuous
 62
     7
370
    15
100
AcDbLine
 10
890.8583833609
 20
819.2752801665
 30
0.0
 11
891.5925757043
 21
818.9358094008
 31
0.0
  0
SPLINE
  5
106
330
1F
100
AcDbEntity
  8
0
  6
Continuous
 62
     7
370
    15
100
AcDbSpline
210
0.0
220
0.0
230
1.0
 70
     8
 71
     3
 72
    17
 73
    13
 74
     0
 42
0.00000001
 43
0.00000001
 12
1.0
 22
0.0
 32
0.0
 13
1.0
 23
0.0
 33
0.0
 40
0.0
 40
0.0
 40
0.0
 40
0.0
 40
0.0970840047900451
 40
0.1804039698639953
 40
0.2583436624998507
 40
0.3758104533700526
 40
0.4973750901671881
 40
0.618952800175829
 40
0.7367467105550991
 40
0.8154942427422944
 40
0.900414817142881
 40
1.0
 40
1.0
 40
1.0
 40
1.0
 10
891.5925757043393
 20
818.9358094008458
 30
0.0
 10
891.8374161137921
 20
819.0845584257747
 30
0.0
 10
892.292384797294
 20
819.3609676516676
 30
0.0
 10
892.6529872297353
 20
819.8475196001883
 30
0.0
 10
892.7452510843949
 20
820.400493307263
 30
0.0
 10
892.5042308024771
 20
821.0209663351798
 30
0.0
 10
892.0357866128015
 20
821.6921139955871
 30
0.0
 10
891.5732444001086
 20
822.3651636798315
 30
0.0
 10
891.3513113764053
 20
822.9903172812535
 30
0.0
 10
891.4710359983831
 20
823.5476796521687
 30
0.0
 10
891.8622408079524
 20
824.0385915123352
 30
0.0
 10
892.3365642518999
 20
824.3173552866159
 30
0.0
 10
892.5925757043391
 20
824.4678153147923
 30
0.0
  0
SPLINE
  5
107
330
1F
100
AcDbEntity
  8
0
  6
Continuous
 62
     7
370
    15
100
AcDbSpline
210
0.0
220
0.0
230
1.0
 70
     8
 71
     3
 72
    12
 73
     8
 74
     0
 42
0.00000001
 43
0.00000001
 12
1.0
 22
0.0
 32
0.0
 13
1.0
 23
0.0
 33
0.0
 40
0.0
 40
0.0
 40
0.0
 40
0.0
 40
0.2558823038913474
 40
0.5182439018556555
 40
0.7545703631297512
 40
0.9542467876495982
 40
1.0
 40
1.0
 40
1.0
 40
1.0
 10
892.6045284918275
 20
822.9957028895003
 30
0.0
 10
892.6546508378104
 20
822.7491095170617
 30
0.0
 10
892.7561646969452
 20
822.2496786867116
 30
0.0
 10
893.2631340359469
 20
821.5610032175993
 30
0.0
 10
893.6818346036121
 20
820.9260770914273
 30
0.0
 10
893.9167322470876
 20
820.463918402316
 30
0.0
 10
893.8639072826173
 20
820.2279626158108
 30
0.0
 10
893.8540596055086
 20
820.1839755271162
 30
0.0
  0
SPLINE
  5
108
330
1F
100
AcDbEntity
  8
0
  6
Continuous
 62
     7
370
    15
100
AcDbSpline
210
0.0
220
0.0
230
1.0
 70
     8
 71
     3
 72
    12
 73
     8
 74
     0
 42
0.00000001
 43
0.00000001
 12
1.0
 22
0.0
 32
0.0
 13
1.0
 23
0.0
 33
0.0
 40
0.0
 40
0.0
 40
0.0
 40
0.0
 40
0.2558823038913364
 40
0.5182439018556358
 40
0.7545703631297245
 40
0.9542467876495606
 40
1.0
 40
1.0
 40
1.0
 40
1.0
 10
890.4255505828908
 20
822.9957028895004
 30
0.0
 10
890.4756729288736
 20
822.7491095170618
 30
0.0
 10
890.5771867880082
 20
822.2496786867116
 30
0.0
 10
891.0841561270099
 20
821.5610032175993
 30
0.0
 10
891.5028566946753
 20
820.9260770914273
 30
0.0
 10
891.7377543381505
 20
820.463918402316
 30
0.0
 10
891.6849293736805
 20
820.2279626158108
 30
0.0
 10
891.6750816965719
 20
820.1839755271162
 30
0.0
  0
SPLINE
  5
109
330
1F
100
AcDbEntity
  8
0
  6
Continuous
 62
     7
370
    15
100
AcDbSpline
210
0.0
220
0.0
230
1.0
 70
     8
 71
     3
 72
    12
 73
     8
 74
     0
 42
0.00000001
 43
0.00000001
 12
1.0
 22
0.0
 32
0.0
 13
1.0
 23
0.0
 33
0.0
 40
0.0
 40
0.0
 40
0.0
 40
0.0
 40
0.2558823038913356
 40
0.5182439018556366
 40
0.7545703631297216
 40
0.9542467876495605
 40
1.0
 40
1.0
 40
1.0
 40
1.0
 10
887.9802745524593
 20
822.9957028895006
 30
0.0
 10
888.0303968984421
 20
822.7491095170619
 30
0.0
 10
888.1319107575769
 20
822.2496786867117
 30
0.0
 10
888.6388800965786
 20
821.5610032175994
 30
0.0
 10
889.0575806642437
 20
820.9260770914274
 30
0.0
 10
889.2924783077193
 20
820.4639184023162
 30
0.0
 10
889.2396533432491
 20
820.2279626158108
 30
0.0
 10
889.2298056661404
 20
820.1839755271163
 30
0.0
  0
LINE
  5
10A
330
1F
100
AcDbEntity
  8
0
  6
Continuous
 62
     7
370
    15
100
AcDbLine
 10
893.0373612698
 20
819.2839404205
 30
0.0
 11
893.7715536133
 21
818.9444696549
 31
0.0
  0
SPLINE
  5
10B
330
1F
100
AcDbEntity
  8
0
  6
Continuous
 62
     7
370
    15
100
AcDbSpline
210
0.0
220
0.0
230
1.0
 70
     8
 71
     3
 72
    11
 73
     7
 74
     0
 42
0.00000001
 43
0.00000001
 12
1.0
 22
0.0
 32
0.0
 13
1.0
 23
0.0
 33
0.0
 40
0.0
 40
0.0
 40
0.0
 40
0.0
 40
0.3686878694449081
 40
0.6851051873313307
 40
0.9810902910077586
 40
0.9999999999999999
 40
0.9999999999999999
 40
0.9999999999999999
 40
0.9999999999999999
 10
893.7715536132761
 20
818.9444696548834
 30
0.0
 10
894.0183393178805
 20
819.0933181323479
 30
0.0
 10
894.4769227983684
 20
819.3699121634744
 30
0.0
 10
894.8138444503502
 20
819.8552534403631
 30
0.0
 10
894.9255128593068
 20
820.187955688766
 30
0.0
 10
894.8710754162556
 20
820.3493084836923
 30
0.0
 10
894.8678064001748
 20
820.3589978601901
 30
0.0
  0
SPLINE
  5
10C
330
1F
100
AcDbEntity
  8
0
  6
Continuous
 62
     7
370
    15
100
AcDbSpline
210
0.0
220
0.0
230
1.0
 70
     8
 71
     3
 72
    11
 73
     7
 74
     0
 42
0.00000001
 43
0.00000001
 12
1.0
 22
0.0
 32
0.0
 13
1.0
 23
0.0
 33
0.0
 40
0.0
 40
0.0
 40
0.0
 40
0.0
 40
0.0439341368879178
 40
0.3299242093662143
 40
0.6383331277560591
 40
1.0
 40
1.0
 40
1.0
 40
1.0
 10
893.6029832038627
 20
823.0059439635982
 30
0.0
 10
893.5953688633132
 20
823.0295306363569
 30
0.0
 10
893.5381888328496
 20
823.2066551894432
 30
0.0
 10
893.6665819229095
 20
823.5570672797637
 30
0.0
 10
894.0360795786212
 20
824.0470261465175
 30
0.0
 10
894.5137406883083
 20
824.3259364519135
 30
0.0
 10
894.7715536132758
 20
824.4764755688302
 30
0.0
  0
LINE
  5
10D
330
1F
100
AcDbEntity
  8
0
  6
Continuous
 62
     7
370
    15
100
AcDbLine
 10
890.8583833609
 20
819.2839404205
 30
0.0
 11
891.5925757043
 21
818.9444696549
 31
0.0
  0
SPLINE
  5
10E
330
1F
100
AcDbEntity
  8
0
  6
Continuous
 62
     7
370
    15
100
AcDbSpline
210
0.0
220
0.0
230
1.0
 70
     8
 71
     3
 72
    11
 73
     7
 74
     0
 42
0.00000001
 43
0.00000001
 12
1.0
 22
0.0
 32
0.0
 13
1.0
 23
0.0
 33
0.0
 40
0.0
 40
0.0
 40
0.0
 40
0.0
 40
0.368687869444892
 40
0.6851051873313524
 40
0.9810902910077882
 40
0.9999999999999999
 40
0.9999999999999999
 40
0.9999999999999999
 40
0.9999999999999999
 10
891.5925757043393
 20
818.9444696548835
 30
0.0
 10
891.8393614089437
 20
819.093318132348
 30
0.0
 10
892.2979448894315
 20
819.3699121634745
 30
0.0
 10
892.6348665414139
 20
819.8552534403632
 30
0.0
 10
892.7465349503689
 20
820.1879556887659
 30
0.0
 10
892.692097507319
 20
820.3493084836924
 30
0.0
 10
892.688828491238
 20
820.3589978601901
 30
0.0
  0
SPLINE
  5
10F
330
1F
100
AcDbEntity
  8
0
  6
Continuous
 62
     7
370
    15
100
AcDbSpline
210
0.0
220
0.0
230
1.0
 70
     8
 71
     3
 72
    11
 73
     7
 74
     0
 42
0.00000001
 43
0.00000001
 12
1.0
 22
0.0
 32
0.0
 13
1.0
 23
0.0
 33
0.0
 40
0.0
 40
0.0
 40
0.0
 40
0.0
 40
0.0439341368879179
 40
0.3299242093662152
 40
0.6383331277560599
 40
1.0
 40
1.0
 40
1.0
 40
1.0
 10
891.4240052949259
 20
823.0059439635983
 30
0.0
 10
891.4163909543764
 20
823.0295306363569
 30
0.0
 10
891.359210923913
 20
823.2066551894432
 30
0.0
 10
891.4876040139727
 20
823.5570672797637
 30
0.0
 10
891.8571016696844
 20
824.0470261465175
 30
0.0
 10
892.3347627793717
 20
824.3259364519135
 30
0.0
 10
892.5925757043391
 20
824.4764755688302
 30
0.0
  0
LINE
  5
110
330
1F
100
AcDbEntity
  8
0
  6
Continuous
 62
     7
370
    15
100
AcDbLine
 10
888.4131073305
 20
819.2839404205
 30
0.0
 11
889.1472996739
 21
818.9444696549
 31
0.0
  0
SPLINE
  5
111
330
1F
100
AcDbEntity
  8
0
  6
Continuous
 62
     7
370
    15
100
AcDbSpline
210
0.0
220
0.0
230
1.0
 70
     8
 71
     3
 72
    11
 73
     7
 74
     0
 42
0.00000001
 43
0.00000001
 12
1.0
 22
0.0
 32
0.0
 13
1.0
 23
0.0
 33
0.0
 40
0.0
 40
0.0
 40
0.0
 40
0.0
 40
0.3686878694448935
 40
0.6851051873313537
 40
0.9810902910077882
 40
0.9999999999999999
 40
0.9999999999999999
 40
0.9999999999999999
 40
0.9999999999999999
 10
889.1472996739078
 20
818.9444696548835
 30
0.0
 10
889.3940853785122
 20
819.093318132348
 30
0.0
 10
889.852668859
 20
819.3699121634747
 30
0.0
 10
890.1895905109823
 20
819.8552534403632
 30
0.0
 10
890.3012589199376
 20
820.1879556887659
 30
0.0
 10
890.2468214768875
 20
820.3493084836924
 30
0.0
 10
890.2435524608065
 20
820.3589978601902
 30
0.0
  0
SPLINE
  5
112
330
1F
100
AcDbEntity
  8
0
  6
Continuous
 62
     7
370
    15
100
AcDbSpline
210
0.0
220
0.0
230
1.0
 70
     8
 71
     3
 72
    11
 73
     7
 74
     0
 42
0.00000001
 43
0.00000001
 12
1.0
 22
0.0
 32
0.0
 13
1.0
 23
0.0
 33
0.0
 40
0.0
 40
0.0
 40
0.0
 40
0.0
 40
0.0439341368879176
 40
0.3299242093662137
 40
0.6383331277560591
 40
1.0
 40
1.0
 40
1.0
 40
1.0
 10
888.9787292644943
 20
823.0059439635982
 30
0.0
 10
888.9711149239449
 20
823.0295306363569
 30
0.0
 10
888.9139348934815
 20
823.2066551894432
 30
0.0
 10
889.0423279835412
 20
823.5570672797637
 30
0.0
 10
889.411825639253
 20
824.0470261465175
 30
0.0
 10
889.8894867489402
 20
824.3259364519137
 30
0.0
 10
890.1472996739077
 20
824.4764755688302
 30
0.0
  0
LINE
  5
113
330
1F
100
AcDbEntity
  8
0
  6
Continuous
 62
     7
370
    15
100
AcDbLine
 10
889.1472996739
 20
818.9444696549
 30
0.0
 11
889.1472996739
 21
818.9358094008
 31
0.0
  0
LINE
  5
114
330
1F
100
AcDbEntity
  8
0
  6
Continuous
 62
     7
370
    15
100
AcDbLine
 10
891.5925757043
 20
818.9444696549
 30
0.0
 11
891.5925757043
 21
818.9358094008
 31
0.0
  0
LINE
  5
115
330
1F
100
AcDbEntity
  8
0
  6
Continuous
 62
     7
370
    15
100
AcDbLine
 10
893.7715536133
 20
818.9444696549
 30
0.0
 11
893.7715536133
 21
818.9358094008
 31
0.0
  0
LINE
  5
116
330
1F
100
AcDbEntity
  8
0
  6
Continuous
 62
     7
370
    15
100
AcDbLine
 10
885.5925757043
 20
818.1563541961
 30
0.0
 11
897.5925757043
 21
818.1563541961
 31
0.0
  0
LINE
  5
117
330
1F
100
AcDbEntity
  8
0
  6
Continuous
 62
     7
370
    15
100
AcDbLine
 10
941.8109867739
 20
551.4593599603
 30
0.0
 11
941.8161074001
 21
550.4856310066
 31
0.0
  0
LINE
  5
118
330
1F
100
AcDbEntity
  8
0
  6
Continuous
 62
     7
370
    15
100
AcDbLine
 10
941.8109867739
 20
551.4593599603
 30
0.0
 11
1102.6686153061
 21
552.3052748126
 31
0.0
  0
LINE
  5
119
330
1F
100
AcDbEntity
  8
0
  6
Continuous
 62
     7
370
    15
100
AcDbLine
 10
1102.6737359323
 20
551.3315458589
 30
0.0
 11
1102.6686153061
 21
552.3052748126
 31
0.0
  0
LINE
  5
11A
330
1F
100
AcDbEntity
  8
0
  6
Continuous
 62
     7
370
    15
100
AcDbLine
 10
1102.6686153061
 20
552.3052748126
 30
0.0
 11
1104.6685876519
 21
552.3157922268
 31
0.0
  0
LINE
  5
11B
330
1F
100
AcDbEntity
  8
0
  6
Continuous
 62
     7
370
    15
100
AcDbLine
 10
939.8110144281
 20
551.448842546
 30
0.0
 11
941.8109867739
 21
551.4593599603
 31
0.0
  0
LINE
  5
11C
330
1F
100
AcDbEntity
  8
0
  6
Continuous
 62
     7
370
    15
100
AcDbLine
 10
939.8113478848
 20
551.3854330192
 30
0.0
 11
939.8110144281
 21
551.448842546
 31
0.0
  0
ARC
  5
11D
330
1F
100
AcDbEntity
  8
0
  6
Continuous
 62
     7
370
    15
100
AcDbCircle
 10
941.4276030481
 20
606.2665541328
 30
0.0
 40
54.90491540323423
100
AcDbArc
 50
180.3984036941
 51
268.3131204457
  0
ARC
  5
11E
330
1F
100
AcDbEntity
  8
0
  6
Continuous
 62
     7
370
    15
100
AcDbCircle
 10
1102.4857552581
 20
607.1037049575
 30
0.0
 40
54.89475172113269
100
AcDbArc
 50
272.2792558971
 51
0.2144324117
  0
LINE
  5
11F
330
1F
100
AcDbEntity
  8
0
  6
Continuous
 62
     7
370
    15
100
AcDbLine
 10
1104.6685876519
 20
552.3157922268
 30
0.0
 11
1104.6689211087
 21
552.2523827
 31
0.0
  0
ARC
  5
120
330
1F
100
AcDbEntity
  8
0
  6
Continuous
 62
     7
370
    15
100
AcDbCircle
 10
1120.9286483494
 20
801.4716635664
 30
0.0
 40
3.20000806681057
100
AcDbArc
 50
180.4299540953
 51
0.1726521291
  0
ARC
  5
121
330
1F
100
AcDbEntity
  8
0
  6
Continuous
 62
     7
370
    15
100
AcDbCircle
 10
1040.929807083
 20
801.0495616757
 30
0.0
 40
3.199071017258971
100
AcDbArc
 50
172.6350248112
 51
7.3649751888
  0
ARC
  5
122
330
1F
100
AcDbEntity
  8
0
  6
Continuous
 62
     7
370
    15
100
AcDbCircle
 10
960.9309282033
 20
800.627443465
 30
0.0
 40
3.198123736808058
100
AcDbArc
 50
164.9170812973
 51
15.0829187027
  0
CIRCLE
  5
123
330
1F
100
AcDbEntity
  8
0
  6
Continuous
 62
     7
370
    15
100
AcDbCircle
 10
1141.0310365557
 20
781.6289860466
 30
0.0
 40
3.197419732556534
  0
CIRCLE
  5
124
330
1F
100
AcDbEntity
  8
0
  6
Continuous
 62
     7
370
    15
100
AcDbCircle
 10
1061.0321427234
 20
781.2082894774
 30
0.0
 40
3.19741973255699
  0
CIRCLE
  5
125
330
1F
100
AcDbEntity
  8
0
  6
Continuous
 62
     7
370
    15
100
AcDbCircle
 10
981.0332488911
 20
780.7875929081
 30
0.0
 40
3.197419732556986
  0
CIRCLE
  5
126
330
1F
100
AcDbEntity
  8
0
  6
Continuous
 62
     7
370
    15
100
AcDbCircle
 10
901.0343550588
 20
780.3668963388
 30
0.0
 40
3.197419732556874
  0
CIRCLE
  5
127
330
1F
100
AcDbEntity
  8
0
  6
Continuous
 62
     7
370
    15
100
AcDbCircle
 10
1081.1366866854
 20
761.3809874029
 30
0.0
 40
3.19741973255699
  0
CIRCLE
  5
128
330
1F
100
AcDbEntity
  8
0
  6
Continuous
 62
     7
370
    15
100
AcDbCircle
 10
1001.137792853
 20
760.9602908336
 30
0.0
 40
3.197419732556532
  0
CIRCLE
  5
129
330
1F
100
AcDbEntity
  8
0
  6
Continuous
 62
     7
370
    15
100
AcDbCircle
 10
921.1388990207
 20
760.5395942643
 30
0.0
 40
3.197419732556758
  0
CIRCLE
  5
12A
330
1F
100
AcDbEntity
  8
0
  6
Continuous
 62
     7
370
    15
100
AcDbCircle
 10
1101.2412306473
 20
741.5536853284
 30
0.0
 40
3.197419732557102
  0
CIRCLE
  5
12B
330
1F
100
AcDbEntity
  8
0
  6
Continuous
 62
     7
370
    15
100
AcDbCircle
 10
1021.242336815
 20
741.1329887591
 30
0.0
 40
3.197419732556988
  0
CIRCLE
  5
12C
330
1F
100
AcDbEntity
  8
0
  6
Continuous
 62
     7
370
    15
100
AcDbCircle
 10
941.2434429827
 20
740.7122921898
 30
0.0
 40
3.197419732556531
  0
CIRCLE
  5
12D
330
1F
100
AcDbEntity
  8
0
  6
Continuous
 62
     7
370
    15
100
AcDbCircle
 10
1121.3457746093
 20
721.7263832538
 30
0.0
 40
3.197419732557103
  0
CIRCLE
  5
12E
330
1F
100
AcDbEntity
  8
0
  6
Continuous
 62
     7
370
    15
100
AcDbCircle
 10
1041.346880777
 20
721.3056866846
 30
0.0
 40
3.197419732556532
  0
CIRCLE
  5
12F
330
1F
100
AcDbEntity
  8
0
  6
Continuous
 62
     7
370
    15
100
AcDbCircle
 10
961.3479869446
 20
720.8849901153
 30
0.0
 40
3.197419732557102
  0
CIRCLE
  5
130
330
1F
100
AcDbEntity
  8
0
  6
Continuous
 62
     7
370
    15
100
AcDbCircle
 10
1141.4503185713
 20
701.8990811793
 30
0.0
 40
3.197419732556531
  0
CIRCLE
  5
131
330
1F
100
AcDbEntity
  8
0
  6
Continuous
 62
     7
370
    15
100
AcDbCircle
 10
1061.4514247389
 20
701.4783846101
 30
0.0
 40
3.19741973255676
  0
CIRCLE
  5
132
330
1F
100
AcDbEntity
  8
0
  6
Continuous
 62
     7
370
    15
100
AcDbCircle
 10
981.4525309066
 20
701.0576880408
 30
0.0
 40
3.197419732556991
  0
CIRCLE
  5
133
330
1F
100
AcDbEntity
  8
0
  6
Continuous
 62
     7
370
    15
100
AcDbCircle
 10
901.4536370743
 20
700.6369914715
 30
0.0
 40
3.197419732556988
  0
CIRCLE
  5
134
330
1F
100
AcDbEntity
  8
0
  6
Continuous
 62
     7
370
    15
100
AcDbCircle
 10
1081.5559687009
 20
681.6510825356
 30
0.0
 40
3.197419732556987
  0
CIRCLE
  5
135
330
1F
100
AcDbEntity
  8
0
  6
Continuous
 62
     7
370
    15
100
AcDbCircle
 10
1001.5570748686
 20
681.2303859663
 30
0.0
 40
3.197419732556646
  0
CIRCLE
  5
136
330
1F
100
AcDbEntity
  8
0
  6
Continuous
 62
     7
370
    15
100
AcDbCircle
 10
921.5581810362
 20
680.809689397
 30
0.0
 40
3.197419732556759
  0
CIRCLE
  5
137
330
1F
100
AcDbEntity
  8
0
  6
Continuous
 62
     7
370
    15
100
AcDbCircle
 10
1101.6605126629
 20
661.823780461
 30
0.0
 40
3.197419732557104
  0
CIRCLE
  5
138
330
1F
100
AcDbEntity
  8
0
  6
Continuous
 62
     7
370
    15
100
AcDbCircle
 10
1021.6616188305
 20
661.4030838918
 30
0.0
 40
3.197419732556988
  0
CIRCLE
  5
139
330
1F
100
AcDbEntity
  8
0
  6
Continuous
 62
     7
370
    15
100
AcDbCircle
 10
941.6627249982
 20
660.9823873225
 30
0.0
 40
3.197419732557103
  0
CIRCLE
  5
13A
330
1F
100
AcDbEntity
  8
0
  6
Continuous
 62
     7
370
    15
100
AcDbCircle
 10
1121.7650566248
 20
641.9964783865
 30
0.0
 40
3.19741973255733
  0
CIRCLE
  5
13B
330
1F
100
AcDbEntity
  8
0
  6
Continuous
 62
     7
370
    15
100
AcDbCircle
 10
1041.7661627925
 20
641.5757818173
 30
0.0
 40
3.197419732556535
  0
CIRCLE
  5
13C
330
1F
100
AcDbEntity
  8
0
  6
Continuous
 62
     7
370
    15
100
AcDbCircle
 10
961.7672689602
 20
641.155085248
 30
0.0
 40
3.197419732556989
  0
CIRCLE
  5
13D
330
1F
100
AcDbEntity
  8
0
  6
Continuous
 62
     7
370
    15
100
AcDbCircle
 10
1141.8696005868
 20
622.169176312
 30
0.0
 40
3.197419732556647
  0
CIRCLE
  5
13E
330
1F
100
AcDbEntity
  8
0
  6
Continuous
 62
     7
370
    15
100
AcDbCircle
 10
1061.8707067545
 20
621.7484797428
 30
0.0
 40
3.197419732556421
  0
CIRCLE
  5
13F
330
1F
100
AcDbEntity
  8
0
  6
Continuous
 62
     7
370
    15
100
AcDbCircle
 10
941.872366006
 20
621.1174348889
 30
0.0
 40
3.197419732557217
  0
CIRCLE
  5
140
330
1F
100
AcDbEntity
  8
0
  6
Continuous
 62
     7
370
    15
100
AcDbCircle
 10
1021.8689745261
 20
621.5173000638
 30
0.0
 40
12.48696849810078
  0
CIRCLE
  5
141
330
1F
100
AcDbEntity
  8
0
  6
Continuous
 62
     7
370
    15
100
AcDbCircle
 10
1081.9752507164
 20
601.9211776682
 30
0.0
 40
3.197419732556875
  0
CIRCLE
  5
142
330
1F
100
AcDbEntity
  8
0
  6
Continuous
 62
     7
370
    15
100
AcDbCircle
 10
1001.9763568841
 20
601.500481099
 30
0.0
 40
3.197419732556988
  0
CIRCLE
  5
143
330
1F
100
AcDbEntity
  8
0
  6
Continuous
 62
     7
370
    15
100
AcDbCircle
 10
921.9774630518
 20
601.0797845297
 30
0.0
 40
3.197419732556987
  0
CIRCLE
  5
144
330
1F
100
AcDbEntity
  8
0
  6
Continuous
 62
     7
370
    15
100
AcDbCircle
 10
1102.0797946784
 20
582.0938755937
 30
0.0
 40
3.197419732557329
  0
CIRCLE
  5
145
330
1F
100
AcDbEntity
  8
0
  6
Continuous
 62
     7
370
    15
100
AcDbCircle
 10
1022.0809008461
 20
581.6731790245
 30
0.0
 40
3.197419732556759
  0
CIRCLE
  5
146
330
1F
100
AcDbEntity
  8
0
  6
Continuous
 62
     7
370
    15
100
AcDbCircle
 10
942.0820070137
 20
581.2524824552
 30
0.0
 40
3.197419732556988
  0
CIRCLE
  5
147
330
1F
100
AcDbEntity
  8
0
  6
Continuous
 62
     7
370
    15
100
AcDbCircle
 10
902.0825600976
 20
581.0421341706
 30
0.0
 40
3.197419732556532
  0
CIRCLE
  5
148
330
1F
100
AcDbEntity
  8
0
  6
Continuous
 62
     7
370
    15
100
AcDbCircle
 10
982.0814539299
 20
581.4628307398
 30
0.0
 40
3.197419732556761
  0
CIRCLE
  5
149
330
1F
100
AcDbEntity
  8
0
  6
Continuous
 62
     7
370
    15
100
AcDbCircle
 10
1062.0803477622
 20
581.8835273091
 30
0.0
 40
3.197419732556988
  0
CIRCLE
  5
14A
330
1F
100
AcDbEntity
  8
0
  6
Continuous
 62
     7
370
    15
100
AcDbCircle
 10
1142.0792415946
 20
582.3042238784
 30
0.0
 40
3.197419732557328
  0
CIRCLE
  5
14B
330
1F
100
AcDbEntity
  8
0
  6
Continuous
 62
     7
370
    15
100
AcDbCircle
 10
961.9769099679
 20
601.2901328143
 30
0.0
 40
3.197419732556758
  0
CIRCLE
  5
14C
330
1F
100
AcDbEntity
  8
0
  6
Continuous
 62
     7
370
    15
100
AcDbCircle
 10
1041.9758038003
 20
601.7108293836
 30
0.0
 40
3.197419732556875
  0
CIRCLE
  5
14D
330
1F
100
AcDbEntity
  8
0
  6
Continuous
 62
     7
370
    15
100
AcDbCircle
 10
1121.9746976326
 20
602.1315259529
 30
0.0
 40
3.197419732556648
  0
CIRCLE
  5
14E
330
1F
100
AcDbEntity
  8
0
  6
Continuous
 62
     7
370
    15
100
AcDbCircle
 10
901.8729190898
 20
620.9070866042
 30
0.0
 40
3.197419732557102
  0
CIRCLE
  5
14F
330
1F
100
AcDbEntity
  8
0
  6
Continuous
 62
     7
370
    15
100
AcDbCircle
 10
981.8718129221
 20
621.3277831735
 30
0.0
 40
3.197419732556648
  0
CIRCLE
  5
150
330
1F
100
AcDbEntity
  8
0
  6
Continuous
 62
     7
370
    15
100
AcDbCircle
 10
1101.8701536706
 20
621.9588280274
 30
0.0
 40
3.197419732556417
  0
CIRCLE
  5
151
330
1F
100
AcDbEntity
  8
0
  6
Continuous
 62
     7
370
    15
100
AcDbCircle
 10
921.767822044
 20
640.9447369634
 30
0.0
 40
3.197419732556989
  0
CIRCLE
  5
152
330
1F
100
AcDbEntity
  8
0
  6
Continuous
 62
     7
370
    15
100
AcDbCircle
 10
1001.7667158763
 20
641.3654335326
 30
0.0
 40
3.1974197325571
  0
CIRCLE
  5
153
330
1F
100
AcDbEntity
  8
0
  6
Continuous
 62
     7
370
    15
100
AcDbCircle
 10
1081.7656097087
 20
641.7861301019
 30
0.0
 40
3.197419732556647
  0
CIRCLE
  5
154
330
1F
100
AcDbEntity
  8
0
  6
Continuous
 62
     7
370
    15
100
AcDbCircle
 10
901.663278082
 20
660.7720390379
 30
0.0
 40
3.197419732556875
  0
CIRCLE
  5
155
330
1F
100
AcDbEntity
  8
0
  6
Continuous
 62
     7
370
    15
100
AcDbCircle
 10
981.6621719144
 20
661.1927356071
 30
0.0
 40
3.197419732556531
  0
CIRCLE
  5
156
330
1F
100
AcDbEntity
  8
0
  6
Continuous
 62
     7
370
    15
100
AcDbCircle
 10
1061.6610657467
 20
661.6134321764
 30
0.0
 40
3.197419732557327
  0
CIRCLE
  5
157
330
1F
100
AcDbEntity
  8
0
  6
Continuous
 62
     7
370
    15
100
AcDbCircle
 10
1141.659959579
 20
662.0341287457
 30
0.0
 40
3.19741973255699
  0
CIRCLE
  5
158
330
1F
100
AcDbEntity
  8
0
  6
Continuous
 62
     7
370
    15
100
AcDbCircle
 10
961.5576279524
 20
681.0200376817
 30
0.0
 40
3.197419732556991
  0
CIRCLE
  5
159
330
1F
100
AcDbEntity
  8
0
  6
Continuous
 62
     7
370
    15
100
AcDbCircle
 10
1041.5565217847
 20
681.4407342509
 30
0.0
 40
3.197419732557102
  0
CIRCLE
  5
15A
330
1F
100
AcDbEntity
  8
0
  6
Continuous
 62
     7
370
    15
100
AcDbCircle
 10
1121.5554156171
 20
681.8614308202
 30
0.0
 40
3.197419732556875
  0
CIRCLE
  5
15B
330
1F
100
AcDbEntity
  8
0
  6
Continuous
 62
     7
370
    15
100
AcDbCircle
 10
941.4530839904
 20
700.8473397562
 30
0.0
 40
3.19741973255676
  0
CIRCLE
  5
15C
330
1F
100
AcDbEntity
  8
0
  6
Continuous
 62
     7
370
    15
100
AcDbCircle
 10
1021.4519778228
 20
701.2680363254
 30
0.0
 40
3.197419732556875
  0
CIRCLE
  5
15D
330
1F
100
AcDbEntity
  8
0
  6
Continuous
 62
     7
370
    15
100
AcDbCircle
 10
1101.4508716551
 20
701.6887328947
 30
0.0
 40
3.197419732556418
  0
CIRCLE
  5
15E
330
1F
100
AcDbEntity
  8
0
  6
Continuous
 62
     7
370
    15
100
AcDbCircle
 10
921.3485400285
 20
720.6746418307
 30
0.0
 40
3.19741973255699
  0
CIRCLE
  5
15F
330
1F
100
AcDbEntity
  8
0
  6
Continuous
 62
     7
370
    15
100
AcDbCircle
 10
1001.3474338608
 20
721.0953383999
 30
0.0
 40
3.197419732556988
  0
CIRCLE
  5
160
330
1F
100
AcDbEntity
  8
0
  6
Continuous
 62
     7
370
    15
100
AcDbCircle
 10
1081.3463276931
 20
721.5160349692
 30
0.0
 40
3.197419732556534
  0
CIRCLE
  5
161
330
1F
100
AcDbEntity
  8
0
  6
Continuous
 62
     7
370
    15
100
AcDbCircle
 10
901.2439960665
 20
740.5019439052
 30
0.0
 40
3.197419732556876
  0
CIRCLE
  5
162
330
1F
100
AcDbEntity
  8
0
  6
Continuous
 62
     7
370
    15
100
AcDbCircle
 10
981.2428898988
 20
740.9226404745
 30
0.0
 40
3.1974197325571
  0
CIRCLE
  5
163
330
1F
100
AcDbEntity
  8
0
  6
Continuous
 62
     7
370
    15
100
AcDbCircle
 10
1061.2417837312
 20
741.3433370437
 30
0.0
 40
3.197419732557328
  0
CIRCLE
  5
164
330
1F
100
AcDbEntity
  8
0
  6
Continuous
 62
     7
370
    15
100
AcDbCircle
 10
1141.2406775635
 20
741.764033613
 30
0.0
 40
3.197419732557446
  0
CIRCLE
  5
165
330
1F
100
AcDbEntity
  8
0
  6
Continuous
 62
     7
370
    15
100
AcDbCircle
 10
961.1383459369
 20
760.749942549
 30
0.0
 40
3.1974197325571
  0
CIRCLE
  5
166
330
1F
100
AcDbEntity
  8
0
  6
Continuous
 62
     7
370
    15
100
AcDbCircle
 10
1041.1372397692
 20
761.1706391182
 30
0.0
 40
3.197419732557332
  0
CIRCLE
  5
167
330
1F
100
AcDbEntity
  8
0
  6
Continuous
 62
     7
370
    15
100
AcDbCircle
 10
1121.1361336015
 20
761.5913356875
 30
0.0
 40
3.197419732556873
  0
CIRCLE
  5
168
330
1F
100
AcDbEntity
  8
0
  6
Continuous
 62
     7
370
    15
100
AcDbCircle
 10
941.0338019749
 20
780.5772446235
 30
0.0
 40
3.197419732556761
  0
CIRCLE
  5
169
330
1F
100
AcDbEntity
  8
0
  6
Continuous
 62
     7
370
    15
100
AcDbCircle
 10
1021.0326958072
 20
780.9979411927
 30
0.0
 40
3.197419732556759
  0
CIRCLE
  5
16A
330
1F
100
AcDbEntity
  8
0
  6
Continuous
 62
     7
370
    15
100
AcDbCircle
 10
1101.0315896396
 20
781.418637762
 30
0.0
 40
3.197419732556873
  0
ARC
  5
16B
330
1F
100
AcDbEntity
  8
0
  6
Continuous
 62
     7
370
    15
100
AcDbCircle
 10
920.9314887635
 20
800.4163843597
 30
0.0
 40
3.19765022839176
100
AcDbArc
 50
160.9580928551
 51
19.0419071449
  0
ARC
  5
16C
330
1F
100
AcDbEntity
  8
0
  6
Continuous
 62
     7
370
    15
100
AcDbCircle
 10
1000.9303676432
 20
800.8385025704
 30
0.0
 40
3.198597333110068
100
AcDbArc
 50
168.8024010335
 51
11.1975989665
  0
ARC
  5
16D
330
1F
100
AcDbEntity
  8
0
  6
Continuous
 62
     7
370
    15
100
AcDbCircle
 10
1080.9292465229
 20
801.260620781
 30
0.0
 40
3.199544789215871
100
AcDbArc
 50
176.4336117957
 51
3.5663882043
  0
ARC
  5
16E
330
1F
100
AcDbEntity
  8
0
  6
Continuous
 62
     7
370
    15
100
AcDbCircle
 10
1102.4759005361
 20
607.0479219491
 30
0.0
 40
54.90491540323465
100
AcDbArc
 50
272.2894857786
 51
0.2042025302
  0
LINE
  5
16F
330
1F
100
AcDbEntity
  8
0
  6
Continuous
 62
     7
370
    15
100
AcDbLine
 10
1104.6689211087
 20
552.2523827
 30
0.0
 11
1104.6692658107
 21
552.1868347906
 31
0.0
  0
LINE
  5
170
330
1F
100
AcDbEntity
  8
0
  6
Continuous
 62
     7
370
    15
100
AcDbLine
 10
1157.3801225327
 20
607.3091509192
 30
0.0
 11
1157.3804672347
 21
607.2436030098
 31
0.0
  0
LINE
  5
171
330
1F
100
AcDbEntity
  8
0
  6
Continuous
 62
     7
370
    15
100
AcDbLine
 10
939.8113478848
 20
551.3854330192
 30
0.0
 11
939.8116925868
 21
551.3198851098
 31
0.0
  0
ARC
  5
172
330
1F
100
AcDbEntity
  8
0
  6
Continuous
 62
     7
370
    15
100
AcDbCircle
 10
941.4178515903
 20
606.1911345924
 30
0.0
 40
54.89475172113224
100
AcDbArc
 50
180.3881738126
 51
268.3233503272
  0
LINE
  5
173
330
1F
100
AcDbEntity
  8
0
  6
Continuous
 62
     7
370
    15
100
AcDbLine
 10
886.524359683
 20
605.8192303747
 30
0.0
 11
886.524014981
 21
605.8847782841
 31
0.0
  0
LINE
  5
174
330
1F
100
AcDbEntity
  8
0
  6
Continuous
 62
     7
370
    15
100
AcDbLine
 10
1104.668932354
 20
552.2502443175
 30
0.0
 11
1102.6689600082
 21
552.2397269032
 31
0.0
  0
LINE
  5
175
330
1F
100
AcDbEntity
  8
0
  6
Continuous
 62
     7
370
    15
100
AcDbLine
 10
941.8113314759
 20
551.3938120509
 30
0.0
 11
939.8113591301
 21
551.3832946367
 31
0.0
  0
LINE
  5
176
330
1F
100
AcDbEntity
  8
0
  6
Continuous
 62
     7
370
    15
100
AcDbLine
 10
1107.2399254189
 20
552.0821623141
 30
0.0
 11
1104.669887334
 21
552.0686470496
 31
0.0
  0
LINE
  5
177
330
1F
100
AcDbEntity
  8
0
  6
Continuous
 62
     7
370
    15
100
AcDbLine
 10
1104.669887334
 20
552.0686470496
 30
0.0
 11
1104.669542632
 21
552.134194959
 31
0.0
  0
LINE
  5
178
330
1F
100
AcDbEntity
  8
0
  6
Continuous
 62
     7
370
    15
100
AcDbLine
 10
1104.669542632
 20
552.134194959
 30
0.0
 11
1107.2395807169
 21
552.1477102235
 31
0.0
  0
LINE
  5
179
330
1F
100
AcDbEntity
  8
0
  6
Continuous
 62
     7
370
    15
100
AcDbLine
 10
1107.2399254189
 20
552.0821623141
 30
0.0
 11
1107.2395807169
 21
552.1477102235
 31
0.0
  0
LINE
  5
17A
330
1F
100
AcDbEntity
  8
0
  6
Continuous
 62
     7
370
    15
100
AcDbLine
 10
939.8114453056
 20
551.3669076593
 30
0.0
 11
941.8114176514
 21
551.3774250735
 31
0.0
  0
LINE
  5
17B
330
1F
100
AcDbEntity
  8
0
  6
Continuous
 62
     7
370
    15
100
AcDbLine
 10
939.8119694081
 20
551.2672452782
 30
0.0
 11
939.8116925868
 21
551.3198851098
 31
0.0
  0
LINE
  5
17C
330
1F
100
AcDbEntity
  8
0
  6
Continuous
 62
     7
370
    15
100
AcDbLine
 10
937.2419313232
 20
551.2537300138
 30
0.0
 11
939.8119694081
 21
551.2672452782
 31
0.0
  0
LINE
  5
17D
330
1F
100
AcDbEntity
  8
0
  6
Continuous
 62
     7
370
    15
100
AcDbLine
 10
937.2408483167
 20
551.4596725575
 30
0.0
 11
937.2419313232
 21
551.2537300138
 31
0.0
  0
LINE
  5
17E
330
1F
100
AcDbEntity
  8
0
  6
Continuous
 62
     7
370
    15
100
AcDbLine
 10
1107.2395807169
 20
552.1477102235
 30
0.0
 11
1107.2384977104
 21
552.3536527671
 31
0.0
  0
LINE
  5
17F
330
1F
100
AcDbEntity
  8
0
  6
Continuous
 62
     7
370
    15
100
AcDbLine
 10
1104.6692658107
 20
552.1868347906
 30
0.0
 11
1104.669542632
 21
552.134194959
 31
0.0
  0
LINE
  5
180
330
1F
100
AcDbEntity
  8
0
  6
Continuous
 62
     7
370
    15
100
AcDbLine
 10
1102.6690461837
 20
552.2233399259
 30
0.0
 11
1104.6690185295
 21
552.2338573401
 31
0.0
  0
LINE
  5
181
330
1F
100
AcDbEntity
  8
0
  6
Continuous
 62
     7
370
    15
100
AcDbLine
 10
939.8123141101
 20
551.2016973688
 30
0.0
 11
937.2422760252
 21
551.1881821044
 31
0.0
  0
LINE
  5
182
330
1F
100
AcDbEntity
  8
0
  6
Continuous
 62
     7
370
    15
100
AcDbLine
 10
937.2422760252
 20
551.1881821044
 30
0.0
 11
937.2419313232
 21
551.2537300138
 31
0.0
  0
LINE
  5
183
330
1F
100
AcDbEntity
  8
0
  6
Continuous
 62
     7
370
    15
100
AcDbLine
 10
939.8123141101
 20
551.2016973688
 30
0.0
 11
939.8119694081
 21
551.2672452782
 31
0.0
  0
LINE
  5
184
330
1F
100
AcDbEntity
  8
0
  6
Continuous
 62
     7
370
    15
100
AcDbLine
 10
1104.6693632315
 20
552.1683094307
 30
0.0
 11
1102.6693908857
 21
552.1577920165
 31
0.0
  0
LINE
  5
185
330
1F
100
AcDbEntity
  8
0
  6
Continuous
 62
     7
370
    15
100
AcDbLine
 10
941.8117623534
 20
551.3118771642
 30
0.0
 11
939.8117900076
 21
551.3013597499
 31
0.0
  0
ARC
  5
186
330
1F
100
AcDbEntity
  8
0
  6
Continuous
 62
     7
370
    15
100
AcDbCircle
 10
1142.0753944977
 20
582.2424846909
 30
0.0
 40
3.193594667054476
100
AcDbArc
 50
90.1863328635
 51
180.2232972916
  0
ARC
  5
187
330
1F
100
AcDbEntity
  8
0
  6
Continuous
 62
     7
370
    15
100
AcDbCircle
 10
1142.0873395927
 20
582.241668593
 30
0.0
 40
3.194471930566734
100
AcDbArc
 50
0.3950514478
 51
90.4005308458
  0
ARC
  5
188
330
1F
100
AcDbEntity
  8
0
  6
Continuous
 62
     7
370
    15
100
AcDbCircle
 10
1102.0759475815
 20
582.0321364063
 30
0.0
 40
3.193594667054504
100
AcDbArc
 50
90.1863328635
 51
180.2232972916
  0
ARC
  5
189
330
1F
100
AcDbEntity
  8
0
  6
Continuous
 62
     7
370
    15
100
AcDbCircle
 10
1102.0878926766
 20
582.0313203084
 30
0.0
 40
3.194471930567298
100
AcDbArc
 50
0.3950514478
 51
90.4005308458
  0
ARC
  5
18A
330
1F
100
AcDbEntity
  8
0
  6
Continuous
 62
     7
370
    15
100
AcDbCircle
 10
1062.0765006653
 20
581.8217881217
 30
0.0
 40
3.193594667054733
100
AcDbArc
 50
90.1863328635
 51
180.2232972916
  0
ARC
  5
18B
330
1F
100
AcDbEntity
  8
0
  6
Continuous
 62
     7
370
    15
100
AcDbCircle
 10
1062.0884457604
 20
581.8209720238
 30
0.0
 40
3.194471930567753
100
AcDbArc
 50
0.3950514478
 51
90.4005308458
  0
ARC
  5
18C
330
1F
100
AcDbEntity
  8
0
  6
Continuous
 62
     7
370
    15
100
AcDbCircle
 10
1022.0770537492
 20
581.611439837
 30
0.0
 40
3.193594667055189
100
AcDbArc
 50
90.1863328635
 51
180.2232972916
  0
ARC
  5
18D
330
1F
100
AcDbEntity
  8
0
  6
Continuous
 62
     7
370
    15
100
AcDbCircle
 10
1022.0889988443
 20
581.6106237391
 30
0.0
 40
3.194471930567411
100
AcDbArc
 50
0.3950514478
 51
90.4005308458
  0
ARC
  5
18E
330
1F
100
AcDbEntity
  8
0
  6
Continuous
 62
     7
370
    15
100
AcDbCircle
 10
982.077606833
 20
581.4010915524
 30
0.0
 40
3.193594667054277
100
AcDbArc
 50
90.1863328635
 51
180.2232972916
  0
ARC
  5
18F
330
1F
100
AcDbEntity
  8
0
  6
Continuous
 62
     7
370
    15
100
AcDbCircle
 10
982.0895519281
 20
581.4002754545
 30
0.0
 40
3.194471930567639
100
AcDbArc
 50
0.3950514478
 51
90.4005308458
  0
ARC
  5
190
330
1F
100
AcDbEntity
  8
0
  6
Continuous
 62
     7
370
    15
100
AcDbCircle
 10
942.0781599169
 20
581.1907432678
 30
0.0
 40
3.193594667054619
100
AcDbArc
 50
90.1863328635
 51
180.2232972916
  0
ARC
  5
191
330
1F
100
AcDbEntity
  8
0
  6
Continuous
 62
     7
370
    15
100
AcDbCircle
 10
942.0901050119
 20
581.1899271699
 30
0.0
 40
3.194471930567527
100
AcDbArc
 50
0.3950514478
 51
90.4005308458
  0
ARC
  5
192
330
1F
100
AcDbEntity
  8
0
  6
Continuous
 62
     7
370
    15
100
AcDbCircle
 10
902.0787130007
 20
580.9803949831
 30
0.0
 40
3.193594667054619
100
AcDbArc
 50
90.1863328635
 51
180.2232972916
  0
ARC
  5
193
330
1F
100
AcDbEntity
  8
0
  6
Continuous
 62
     7
370
    15
100
AcDbCircle
 10
902.0906580958
 20
580.9795788852
 30
0.0
 40
3.1944719305673
100
AcDbArc
 50
0.3950514478
 51
90.4005308458
  0
ARC
  5
194
330
1F
100
AcDbEntity
  8
0
  6
Continuous
 62
     7
370
    15
100
AcDbCircle
 10
1121.9708505357
 20
602.0697867654
 30
0.0
 40
3.193594667054619
100
AcDbArc
 50
90.1863328635
 51
180.2232972916
  0
ARC
  5
195
330
1F
100
AcDbEntity
  8
0
  6
Continuous
 62
     7
370
    15
100
AcDbCircle
 10
1121.9827956308
 20
602.0689706675
 30
0.0
 40
3.194471930567984
100
AcDbArc
 50
0.3950514478
 51
90.4005308458
  0
ARC
  5
196
330
1F
100
AcDbEntity
  8
0
  6
Continuous
 62
     7
370
    15
100
AcDbCircle
 10
1081.9714036196
 20
601.8594384808
 30
0.0
 40
3.193594667054619
100
AcDbArc
 50
90.1863328635
 51
180.2232972916
  0
ARC
  5
197
330
1F
100
AcDbEntity
  8
0
  6
Continuous
 62
     7
370
    15
100
AcDbCircle
 10
1081.9833487146
 20
601.8586223829
 30
0.0
 40
3.194471930567414
100
AcDbArc
 50
0.3950514478
 51
90.4005308458
  0
ARC
  5
198
330
1F
100
AcDbEntity
  8
0
  6
Continuous
 62
     7
370
    15
100
AcDbCircle
 10
1041.9719567034
 20
601.6490901962
 30
0.0
 40
3.193594667054619
100
AcDbArc
 50
90.1863328635
 51
180.2232972916
  0
ARC
  5
199
330
1F
100
AcDbEntity
  8
0
  6
Continuous
 62
     7
370
    15
100
AcDbCircle
 10
1041.9839017985
 20
601.6482740983
 30
0.0
 40
3.194471930567525
100
AcDbArc
 50
0.3950514478
 51
90.4005308458
  0
ARC
  5
19A
330
1F
100
AcDbEntity
  8
0
  6
Continuous
 62
     7
370
    15
100
AcDbCircle
 10
1001.9725097872
 20
601.4387419115
 30
0.0
 40
3.193594667054277
100
AcDbArc
 50
90.1863328635
 51
180.2232972916
  0
ARC
  5
19B
330
1F
100
AcDbEntity
  8
0
  6
Continuous
 62
     7
370
    15
100
AcDbCircle
 10
1001.9844548823
 20
601.4379258136
 30
0.0
 40
3.194471930567411
100
AcDbArc
 50
0.3950514478
 51
90.4005308458
  0
ARC
  5
19C
330
1F
100
AcDbEntity
  8
0
  6
Continuous
 62
     7
370
    15
100
AcDbCircle
 10
961.9730628711
 20
601.2283936269
 30
0.0
 40
3.193594667054733
100
AcDbArc
 50
90.1863328635
 51
180.2232972916
  0
ARC
  5
19D
330
1F
100
AcDbEntity
  8
0
  6
Continuous
 62
     7
370
    15
100
AcDbCircle
 10
961.9850079661
 20
601.227577529
 30
0.0
 40
3.194471930567414
100
AcDbArc
 50
0.3950514478
 51
90.4005308458
  0
ARC
  5
19E
330
1F
100
AcDbEntity
  8
0
  6
Continuous
 62
     7
370
    15
100
AcDbCircle
 10
921.9736159549
 20
601.0180453423
 30
0.0
 40
3.193594667054816
100
AcDbArc
 50
90.1863328635
 51
180.2232972916
  0
ARC
  5
19F
330
1F
100
AcDbEntity
  8
0
  6
Continuous
 62
     7
370
    15
100
AcDbCircle
 10
921.98556105
 20
601.0172292444
 30
0.0
 40
3.194471930567067
100
AcDbArc
 50
0.3950514478
 51
90.4005308458
  0
LWPOLYLINE
  5
1A0
330
1F
100
AcDbEntity
  8
0
  6
Continuous
 62
     7
370
    15
100
AcDbPolyline
 90
        9
 70
   128
 43
0.0
 10
1160.3892924312
 20
606.9075495693
 10
1160.5629324479
 20
606.9695952317
 10
1160.5542457605
 20
607.0323181464
 10
1160.3637302537
 20
607.0921232955
 10
1160.0023054879
 20
607.1455828955
 10
1159.4906868344
 20
607.1896328634
 10
1158.8581981566
 20
607.2217484374
 10
1158.1410910871
 20
607.2400888857
 10
1157.3804672347
 20
607.2436030098
  0
LWPOLYLINE
  5
1A1
330
1F
100
AcDbEntity
  8
0
  6
Continuous
 62
     7
370
    15
100
AcDbPolyline
 90
        9
 70
   128
 43
0.0
 10
1157.3801225327
 20
607.3091509192
 10
1158.3309023482
 20
607.3047582641
 10
1159.227286185
 20
607.2818327037
 10
1160.0178970324
 20
607.2416882362
 10
1160.6574203492
 20
607.1866257764
 10
1161.1092013065
 20
607.1198012764
 10
1161.3473456899
 20
607.0450448399
 10
1161.3582040492
 20
606.9666411966
 10
1161.1411540283
 20
606.8890841185
  0
LINE
  5
1A2
330
1F
100
AcDbEntity
  8
0
  6
Continuous
 62
     7
370
    15
100
AcDbLine
 10
1161.1411540283
 20
606.8890841185
 30
0.0
 11
1157.3731984291
 21
606.0200081888
 31
0.0
  0
LINE
  5
1A3
330
1F
100
AcDbEntity
  8
0
  6
Continuous
 62
     7
370
    15
100
AcDbLine
 10
1160.3892924312
 20
606.9075495693
 30
0.0
 11
1157.3761597339
 21
606.212572935
 31
0.0
  0
LWPOLYLINE
  5
1A4
330
1F
100
AcDbEntity
  8
0
  6
Continuous
 62
     7
370
    15
100
AcDbPolyline
 90
        9
 70
   128
 43
0.0
 10
882.767609456
 20
605.4251789373
 10
882.549755751
 20
605.5004489524
 10
882.5597889176
 20
605.5789624597
 10
882.7971338962
 20
605.65621939
 10
883.2481870551
 20
605.7277916958
 10
883.8870958946
 20
605.7895771489
 10
884.6772408046
 20
605.8380344629
 10
885.57333395
 20
605.8703862651
 10
886.524014981
 20
605.8847782841
  0
LWPOLYLINE
  5
1A5
330
1F
100
AcDbEntity
  8
0
  6
Continuous
 62
     7
370
    15
100
AcDbPolyline
 90
        9
 70
   128
 43
0.0
 10
886.524359683
 20
605.8192303747
 10
885.7638148582
 20
605.8077167595
 10
885.0469403419
 20
605.7818353177
 10
884.4148244139
 20
605.7430694666
 10
883.9036973423
 20
605.6936411041
 10
883.5428548152
 20
605.6363832594
 10
883.3529788323
 20
605.5745777152
 10
883.3449522991
 20
605.5117669093
 10
883.5192352631
 20
605.4515508972
  0
LINE
  5
1A6
330
1F
100
AcDbEntity
  8
0
  6
Continuous
 62
     7
370
    15
100
AcDbLine
 10
886.539510566
 20
604.7883026273
 30
0.0
 11
883.5192352631
 21
605.4515508972
 31
0.0
  0
LINE
  5
1A7
330
1F
100
AcDbEntity
  8
0
  6
Continuous
 62
     7
370
    15
100
AcDbLine
 10
886.5444969623
 20
604.5957796763
 30
0.0
 11
882.767609456
 21
605.4251789373
 31
0.0
  0
ARC
  5
1A8
330
1F
100
AcDbEntity
  8
0
  6
Continuous
 62
     7
370
    15
100
AcDbCircle
 10
1021.8511919704
 20
621.4613383156
 30
0.0
 40
12.47730694830282
100
AcDbArc
 50
90.1970279267
 51
180.2126022283
  0
ARC
  5
1A9
330
1F
100
AcDbEntity
  8
0
  6
Continuous
 62
     7
370
    15
100
AcDbCircle
 10
1021.89660735
 20
621.4615771451
 30
0.0
 40
12.47730694830258
100
AcDbArc
 50
0.390003996
 51
90.4055782976
  0
ARC
  5
1AA
330
1F
100
AcDbEntity
  8
0
  6
Continuous
 62
     7
370
    15
100
AcDbCircle
 10
1141.8657534899
 20
622.1074371246
 30
0.0
 40
3.193594667054504
100
AcDbArc
 50
90.1863328635
 51
180.2232972916
  0
ARC
  5
1AB
330
1F
100
AcDbEntity
  8
0
  6
Continuous
 62
     7
370
    15
100
AcDbCircle
 10
1141.877698585
 20
622.1066210267
 30
0.0
 40
3.194471930567638
100
AcDbArc
 50
0.3950514478
 51
90.4005308458
  0
ARC
  5
1AC
330
1F
100
AcDbEntity
  8
0
  6
Continuous
 62
     7
370
    15
100
AcDbCircle
 10
1101.8663065738
 20
621.89708884
 30
0.0
 40
3.193594667054732
100
AcDbArc
 50
90.1863328635
 51
180.2232972916
  0
ARC
  5
1AD
330
1F
100
AcDbEntity
  8
0
  6
Continuous
 62
     7
370
    15
100
AcDbCircle
 10
1101.8782516688
 20
621.896272742
 30
0.0
 40
3.19447193056696
100
AcDbArc
 50
0.3950514478
 51
90.4005308458
  0
ARC
  5
1AE
330
1F
100
AcDbEntity
  8
0
  6
Continuous
 62
     7
370
    15
100
AcDbCircle
 10
1061.8668596576
 20
621.6867405553
 30
0.0
 40
3.193594667054619
100
AcDbArc
 50
90.1863328635
 51
180.2232972916
  0
ARC
  5
1AF
330
1F
100
AcDbEntity
  8
0
  6
Continuous
 62
     7
370
    15
100
AcDbCircle
 10
1061.8788047527
 20
621.6859244574
 30
0.0
 40
3.194471930566847
100
AcDbArc
 50
0.3950514478
 51
90.4005308458
  0
ARC
  5
1B0
330
1F
100
AcDbEntity
  8
0
  6
Continuous
 62
     7
370
    15
100
AcDbCircle
 10
981.8679658253
 20
621.2660439861
 30
0.0
 40
3.193594667054277
100
AcDbArc
 50
90.1863328635
 51
180.2232972916
  0
ARC
  5
1B1
330
1F
100
AcDbEntity
  8
0
  6
Continuous
 62
     7
370
    15
100
AcDbCircle
 10
981.8799109203
 20
621.2652278881
 30
0.0
 40
3.194471930567185
100
AcDbArc
 50
0.3950514478
 51
90.4005308458
  0
ARC
  5
1B2
330
1F
100
AcDbEntity
  8
0
  6
Continuous
 62
     7
370
    15
100
AcDbCircle
 10
941.8685189091
 20
621.0556957014
 30
0.0
 40
3.193594667054733
100
AcDbArc
 50
90.1863328635
 51
180.2232972916
  0
ARC
  5
1B3
330
1F
100
AcDbEntity
  8
0
  6
Continuous
 62
     7
370
    15
100
AcDbCircle
 10
941.8804640042
 20
621.0548796035
 30
0.0
 40
3.194471930567415
100
AcDbArc
 50
0.3950514478
 51
90.4005308458
  0
ARC
  5
1B4
330
1F
100
AcDbEntity
  8
0
  6
Continuous
 62
     7
370
    15
100
AcDbCircle
 10
901.8690719929
 20
620.8453474168
 30
0.0
 40
3.193594667054049
100
AcDbArc
 50
90.1863328635
 51
180.2232972916
  0
ARC
  5
1B5
330
1F
100
AcDbEntity
  8
0
  6
Continuous
 62
     7
370
    15
100
AcDbCircle
 10
901.881017088
 20
620.8445313189
 30
0.0
 40
3.194471930566724
100
AcDbArc
 50
0.3950514478
 51
90.4005308458
  0
ARC
  5
1B6
330
1F
100
AcDbEntity
  8
0
  6
Continuous
 62
     7
370
    15
100
AcDbCircle
 10
1121.761209528
 20
641.9347391991
 30
0.0
 40
3.193594667054847
100
AcDbArc
 50
90.1863328635
 51
180.2232972916
  0
ARC
  5
1B7
330
1F
100
AcDbEntity
  8
0
  6
Continuous
 62
     7
370
    15
100
AcDbCircle
 10
1121.773154623
 20
641.9339231012
 30
0.0
 40
3.194471930567298
100
AcDbArc
 50
0.3950514478
 51
90.4005308458
  0
ARC
  5
1B8
330
1F
100
AcDbEntity
  8
0
  6
Continuous
 62
     7
370
    15
100
AcDbCircle
 10
1081.7617626118
 20
641.7243909145
 30
0.0
 40
3.193594667054704
100
AcDbArc
 50
90.1863328635
 51
180.2232972916
  0
ARC
  5
1B9
330
1F
100
AcDbEntity
  8
0
  6
Continuous
 62
     7
370
    15
100
AcDbCircle
 10
1081.7737077069
 20
641.7235748166
 30
0.0
 40
3.194471930567638
100
AcDbArc
 50
0.3950514478
 51
90.4005308458
  0
ARC
  5
1BA
330
1F
100
AcDbEntity
  8
0
  6
Continuous
 62
     7
370
    15
100
AcDbCircle
 10
1041.7623156956
 20
641.5140426298
 30
0.0
 40
3.193594667054929
100
AcDbArc
 50
90.1863328635
 51
180.2232972916
  0
ARC
  5
1BB
330
1F
100
AcDbEntity
  8
0
  6
Continuous
 62
     7
370
    15
100
AcDbCircle
 10
1041.7742607907
 20
641.5132265319
 30
0.0
 40
3.194471930567754
100
AcDbArc
 50
0.3950514478
 51
90.4005308458
  0
ARC
  5
1BC
330
1F
100
AcDbEntity
  8
0
  6
Continuous
 62
     7
370
    15
100
AcDbCircle
 10
1001.7628687795
 20
641.3036943452
 30
0.0
 40
3.193594667054961
100
AcDbArc
 50
90.1863328635
 51
180.2232972916
  0
ARC
  5
1BD
330
1F
100
AcDbEntity
  8
0
  6
Continuous
 62
     7
370
    15
100
AcDbCircle
 10
1001.7748138745
 20
641.3028782473
 30
0.0
 40
3.194471930567753
100
AcDbArc
 50
0.3950514478
 51
90.4005308458
  0
ARC
  5
1BE
330
1F
100
AcDbEntity
  8
0
  6
Continuous
 62
     7
370
    15
100
AcDbCircle
 10
961.7634218633
 20
641.0933460606
 30
0.0
 40
3.19359466705439
100
AcDbArc
 50
90.1863328635
 51
180.2232972916
  0
ARC
  5
1BF
330
1F
100
AcDbEntity
  8
0
  6
Continuous
 62
     7
370
    15
100
AcDbCircle
 10
961.7753669584
 20
641.0925299627
 30
0.0
 40
3.194471930567298
100
AcDbArc
 50
0.3950514478
 51
90.4005308458
  0
ARC
  5
1C0
330
1F
100
AcDbEntity
  8
0
  6
Continuous
 62
     7
370
    15
100
AcDbCircle
 10
921.7639749471
 20
640.8829977759
 30
0.0
 40
3.193594667054476
100
AcDbArc
 50
90.1863328635
 51
180.2232972916
  0
ARC
  5
1C1
330
1F
100
AcDbEntity
  8
0
  6
Continuous
 62
     7
370
    15
100
AcDbCircle
 10
921.7759200422
 20
640.882181678
 30
0.0
 40
3.194471930567411
100
AcDbArc
 50
0.3950514478
 51
90.4005308458
  0
ARC
  5
1C2
330
1F
100
AcDbEntity
  8
0
  6
Continuous
 62
     7
370
    15
100
AcDbCircle
 10
1141.6561124822
 20
661.9723895582
 30
0.0
 40
3.19359466705439
100
AcDbArc
 50
90.1863328635
 51
180.2232972916
  0
ARC
  5
1C3
330
1F
100
AcDbEntity
  8
0
  6
Continuous
 62
     7
370
    15
100
AcDbCircle
 10
1141.6680575772
 20
661.9715734603
 30
0.0
 40
3.194471930567297
100
AcDbArc
 50
0.3950514478
 51
90.4005308458
  0
ARC
  5
1C4
330
1F
100
AcDbEntity
  8
0
  6
Continuous
 62
     7
370
    15
100
AcDbCircle
 10
1101.656665566
 20
661.7620412736
 30
0.0
 40
3.193594667054703
100
AcDbArc
 50
90.1863328635
 51
180.2232972916
  0
ARC
  5
1C5
330
1F
100
AcDbEntity
  8
0
  6
Continuous
 62
     7
370
    15
100
AcDbCircle
 10
1101.6686106611
 20
661.7612251757
 30
0.0
 40
3.194471930567981
100
AcDbArc
 50
0.3950514478
 51
90.4005308458
  0
ARC
  5
1C6
330
1F
100
AcDbEntity
  8
0
  6
Continuous
 62
     7
370
    15
100
AcDbCircle
 10
1061.6572186498
 20
661.551692989
 30
0.0
 40
3.193594667054733
100
AcDbArc
 50
90.1863328635
 51
180.2232972916
  0
ARC
  5
1C7
330
1F
100
AcDbEntity
  8
0
  6
Continuous
 62
     7
370
    15
100
AcDbCircle
 10
1061.6691637449
 20
661.5508768911
 30
0.0
 40
3.194471930566838
100
AcDbArc
 50
0.3950514478
 51
90.4005308458
  0
ARC
  5
1C8
330
1F
100
AcDbEntity
  8
0
  6
Continuous
 62
     7
370
    15
100
AcDbCircle
 10
1021.6577717337
 20
661.3413447043
 30
0.0
 40
3.193594667054477
100
AcDbArc
 50
90.1863328635
 51
180.2232972916
  0
ARC
  5
1C9
330
1F
100
AcDbEntity
  8
0
  6
Continuous
 62
     7
370
    15
100
AcDbCircle
 10
1021.6697168287
 20
661.3405286064
 30
0.0
 40
3.194471930567751
100
AcDbArc
 50
0.3950514478
 51
90.4005308458
  0
ARC
  5
1CA
330
1F
100
AcDbEntity
  8
0
  6
Continuous
 62
     7
370
    15
100
AcDbCircle
 10
981.6583248175
 20
661.1309964197
 30
0.0
 40
3.193594667054732
100
AcDbArc
 50
90.1863328635
 51
180.2232972916
  0
ARC
  5
1CB
330
1F
100
AcDbEntity
  8
0
  6
Continuous
 62
     7
370
    15
100
AcDbCircle
 10
981.6702699126
 20
661.1301803218
 30
0.0
 40
3.194471930567184
100
AcDbArc
 50
0.3950514478
 51
90.4005308458
  0
ARC
  5
1CC
330
1F
100
AcDbEntity
  8
0
  6
Continuous
 62
     7
370
    15
100
AcDbCircle
 10
941.6588779013
 20
660.9206481351
 30
0.0
 40
3.193594667054137
100
AcDbArc
 50
90.1863328635
 51
180.2232972916
  0
ARC
  5
1CD
330
1F
100
AcDbEntity
  8
0
  6
Continuous
 62
     7
370
    15
100
AcDbCircle
 10
941.6708229964
 20
660.9198320372
 30
0.0
 40
3.194471930567184
100
AcDbArc
 50
0.3950514478
 51
90.4005308458
  0
ARC
  5
1CE
330
1F
100
AcDbEntity
  8
0
  6
Continuous
 62
     7
370
    15
100
AcDbCircle
 10
901.6594309852
 20
660.7102998504
 30
0.0
 40
3.193594667054476
100
AcDbArc
 50
90.1863328635
 51
180.2232972916
  0
ARC
  5
1CF
330
1F
100
AcDbEntity
  8
0
  6
Continuous
 62
     7
370
    15
100
AcDbCircle
 10
901.6713760802
 20
660.7094837525
 30
0.0
 40
3.194471930567301
100
AcDbArc
 50
0.3950514478
 51
90.4005308458
  0
LINE
  5
1D0
330
1F
100
AcDbEntity
  8
0
  6
Continuous
 62
     7
370
    15
100
AcDbLine
 10
1144.72154073
 20
623.5633561635
 30
0.0
 11
1144.6485745092
 21
620.5923753801
 31
0.0
  0
LINE
  5
1D1
330
1F
100
AcDbEntity
  8
0
  6
Continuous
 62
     7
370
    15
100
AcDbLine
 10
899.1151556058
 20
619.3011691893
 30
0.0
 11
899.010946817
 21
622.2712182483
 31
0.0
  0
ARC
  5
1D2
330
1F
100
AcDbEntity
  8
0
  6
Continuous
 62
     7
370
    15
100
AcDbCircle
 10
1121.5515685202
 20
681.7996916328
 30
0.0
 40
3.193594667054619
100
AcDbArc
 50
90.1863328635
 51
180.2232972916
  0
ARC
  5
1D3
330
1F
100
AcDbEntity
  8
0
  6
Continuous
 62
     7
370
    15
100
AcDbCircle
 10
1121.5635136153
 20
681.7988755348
 30
0.0
 40
3.1944719305673
100
AcDbArc
 50
0.3950514478
 51
90.4005308458
  0
ARC
  5
1D4
330
1F
100
AcDbEntity
  8
0
  6
Continuous
 62
     7
370
    15
100
AcDbCircle
 10
1081.552121604
 20
681.5893433481
 30
0.0
 40
3.193594667053821
100
AcDbArc
 50
90.1863328634
 51
180.2232972916
  0
ARC
  5
1D5
330
1F
100
AcDbEntity
  8
0
  6
Continuous
 62
     7
370
    15
100
AcDbCircle
 10
1081.5640666991
 20
681.5885272502
 30
0.0
 40
3.19447193056662
100
AcDbArc
 50
0.3950514478
 51
90.4005308458
  0
ARC
  5
1D6
330
1F
100
AcDbEntity
  8
0
  6
Continuous
 62
     7
370
    15
100
AcDbCircle
 10
1041.5526746879
 20
681.3789950635
 30
0.0
 40
3.193594667054391
100
AcDbArc
 50
90.1863328635
 51
180.2232972916
  0
ARC
  5
1D7
330
1F
100
AcDbEntity
  8
0
  6
Continuous
 62
     7
370
    15
100
AcDbCircle
 10
1041.5646197829
 20
681.3781789656
 30
0.0
 40
3.194471930567298
100
AcDbArc
 50
0.3950514478
 51
90.4005308458
  0
ARC
  5
1D8
330
1F
100
AcDbEntity
  8
0
  6
Continuous
 62
     7
370
    15
100
AcDbCircle
 10
1001.5532277717
 20
681.1686467789
 30
0.0
 40
3.19359466705459
100
AcDbArc
 50
90.1863328635
 51
180.2232972916
  0
ARC
  5
1D9
330
1F
100
AcDbEntity
  8
0
  6
Continuous
 62
     7
370
    15
100
AcDbCircle
 10
1001.5651728668
 20
681.1678306809
 30
0.0
 40
3.194471930566954
100
AcDbArc
 50
0.3950514478
 51
90.4005308458
  0
ARC
  5
1DA
330
1F
100
AcDbEntity
  8
0
  6
Continuous
 62
     7
370
    15
100
AcDbCircle
 10
961.5537808555
 20
680.9582984942
 30
0.0
 40
3.193594667054929
100
AcDbArc
 50
90.1863328635
 51
180.2232972916
  0
ARC
  5
1DB
330
1F
100
AcDbEntity
  8
0
  6
Continuous
 62
     7
370
    15
100
AcDbCircle
 10
961.5657259506
 20
680.9574823963
 30
0.0
 40
3.194471930567413
100
AcDbArc
 50
0.3950514478
 51
90.4005308458
  0
ARC
  5
1DC
330
1F
100
AcDbEntity
  8
0
  6
Continuous
 62
     7
370
    15
100
AcDbCircle
 10
921.5543339394
 20
680.7479502096
 30
0.0
 40
3.193594667054619
100
AcDbArc
 50
90.1863328635
 51
180.2232972916
  0
ARC
  5
1DD
330
1F
100
AcDbEntity
  8
0
  6
Continuous
 62
     7
370
    15
100
AcDbCircle
 10
921.5662790344
 20
680.7471341117
 30
0.0
 40
3.194471930567754
100
AcDbArc
 50
0.3950514478
 51
90.4005308458
  0
ARC
  5
1DE
330
1F
100
AcDbEntity
  8
0
  6
Continuous
 62
     7
370
    15
100
AcDbCircle
 10
1141.4464714744
 20
701.8373419919
 30
0.0
 40
3.193594667054847
100
AcDbArc
 50
90.1863328635
 51
180.2232972916
  0
ARC
  5
1DF
330
1F
100
AcDbEntity
  8
0
  6
Continuous
 62
     7
370
    15
100
AcDbCircle
 10
1141.4584165695
 20
701.836525894
 30
0.0
 40
3.194471930567751
100
AcDbArc
 50
0.3950514478
 51
90.4005308458
  0
ARC
  5
1E0
330
1F
100
AcDbEntity
  8
0
  6
Continuous
 62
     7
370
    15
100
AcDbCircle
 10
1101.4470245582
 20
701.6269937073
 30
0.0
 40
3.193594667054476
100
AcDbArc
 50
90.1863328635
 51
180.2232972916
  0
ARC
  5
1E1
330
1F
100
AcDbEntity
  8
0
  6
Continuous
 62
     7
370
    15
100
AcDbCircle
 10
1101.4589696533
 20
701.6261776094
 30
0.0
 40
3.194471930567186
100
AcDbArc
 50
0.3950514478
 51
90.4005308458
  0
ARC
  5
1E2
330
1F
100
AcDbEntity
  8
0
  6
Continuous
 62
     7
370
    15
100
AcDbCircle
 10
1061.4475776421
 20
701.4166454226
 30
0.0
 40
3.193594667054505
100
AcDbArc
 50
90.1863328635
 51
180.2232972916
  0
ARC
  5
1E3
330
1F
100
AcDbEntity
  8
0
  6
Continuous
 62
     7
370
    15
100
AcDbCircle
 10
1061.4595227371
 20
701.4158293247
 30
0.0
 40
3.194471930567412
100
AcDbArc
 50
0.3950514478
 51
90.4005308458
  0
ARC
  5
1E4
330
1F
100
AcDbEntity
  8
0
  6
Continuous
 62
     7
370
    15
100
AcDbCircle
 10
1021.4481307259
 20
701.206297138
 30
0.0
 40
3.193594667054163
100
AcDbArc
 50
90.1863328635
 51
180.2232972916
  0
ARC
  5
1E5
330
1F
100
AcDbEntity
  8
0
  6
Continuous
 62
     7
370
    15
100
AcDbCircle
 10
1021.460075821
 20
701.2054810401
 30
0.0
 40
3.194471930567411
100
AcDbArc
 50
0.3950514478
 51
90.4005308458
  0
ARC
  5
1E6
330
1F
100
AcDbEntity
  8
0
  6
Continuous
 62
     7
370
    15
100
AcDbCircle
 10
981.4486838097
 20
700.9959488534
 30
0.0
 40
3.19359466705459
100
AcDbArc
 50
90.1863328635
 51
180.2232972916
  0
ARC
  5
1E7
330
1F
100
AcDbEntity
  8
0
  6
Continuous
 62
     7
370
    15
100
AcDbCircle
 10
981.4606289048
 20
700.9951327555
 30
0.0
 40
3.194471930567187
100
AcDbArc
 50
0.3950514478
 51
90.4005308458
  0
ARC
  5
1E8
330
1F
100
AcDbEntity
  8
0
  6
Continuous
 62
     7
370
    15
100
AcDbCircle
 10
941.4492368936
 20
700.7856005687
 30
0.0
 40
3.19359466705493
100
AcDbArc
 50
90.1863328635
 51
180.2232972916
  0
ARC
  5
1E9
330
1F
100
AcDbEntity
  8
0
  6
Continuous
 62
     7
370
    15
100
AcDbCircle
 10
941.4611819886
 20
700.7847844708
 30
0.0
 40
3.194471930567186
100
AcDbArc
 50
0.3950514478
 51
90.4005308458
  0
ARC
  5
1EA
330
1F
100
AcDbEntity
  8
0
  6
Continuous
 62
     7
370
    15
100
AcDbCircle
 10
901.4497899774
 20
700.5752522841
 30
0.0
 40
3.193594667054477
100
AcDbArc
 50
90.1863328635
 51
180.2232972916
  0
ARC
  5
1EB
330
1F
100
AcDbEntity
  8
0
  6
Continuous
 62
     7
370
    15
100
AcDbCircle
 10
901.4617350725
 20
700.5744361862
 30
0.0
 40
3.194471930568097
100
AcDbArc
 50
0.3950514478
 51
90.4005308458
  0
ARC
  5
1EC
330
1F
100
AcDbEntity
  8
0
  6
Continuous
 62
     7
370
    15
100
AcDbCircle
 10
1121.3419275124
 20
721.6646440664
 30
0.0
 40
3.193594667054619
100
AcDbArc
 50
90.1863328635
 51
180.2232972916
  0
ARC
  5
1ED
330
1F
100
AcDbEntity
  8
0
  6
Continuous
 62
     7
370
    15
100
AcDbCircle
 10
1121.3538726075
 20
721.6638279685
 30
0.0
 40
3.194471930567073
100
AcDbArc
 50
0.3950514478
 51
90.4005308458
  0
ARC
  5
1EE
330
1F
100
AcDbEntity
  8
0
  6
Continuous
 62
     7
370
    15
100
AcDbCircle
 10
1081.3424805963
 20
721.4542957818
 30
0.0
 40
3.193594667054846
100
AcDbArc
 50
90.1863328635
 51
180.2232972916
  0
ARC
  5
1EF
330
1F
100
AcDbEntity
  8
0
  6
Continuous
 62
     7
370
    15
100
AcDbCircle
 10
1081.3544256913
 20
721.4534796839
 30
0.0
 40
3.194471930567751
100
AcDbArc
 50
0.3950514478
 51
90.4005308458
  0
ARC
  5
1F0
330
1F
100
AcDbEntity
  8
0
  6
Continuous
 62
     7
370
    15
100
AcDbCircle
 10
1041.3430336801
 20
721.2439474971
 30
0.0
 40
3.193594667054477
100
AcDbArc
 50
90.1863328635
 51
180.2232972916
  0
ARC
  5
1F1
330
1F
100
AcDbEntity
  8
0
  6
Continuous
 62
     7
370
    15
100
AcDbCircle
 10
1041.3549787752
 20
721.2431313992
 30
0.0
 40
3.194471930567186
100
AcDbArc
 50
0.3950514478
 51
90.4005308458
  0
ARC
  5
1F2
330
1F
100
AcDbEntity
  8
0
  6
Continuous
 62
     7
370
    15
100
AcDbCircle
 10
1001.3435867639
 20
721.0335992125
 30
0.0
 40
3.193594667054277
100
AcDbArc
 50
90.1863328635
 51
180.2232972916
  0
ARC
  5
1F3
330
1F
100
AcDbEntity
  8
0
  6
Continuous
 62
     7
370
    15
100
AcDbCircle
 10
1001.355531859
 20
721.0327831146
 30
0.0
 40
3.194471930566734
100
AcDbArc
 50
0.3950514478
 51
90.4005308458
  0
ARC
  5
1F4
330
1F
100
AcDbEntity
  8
0
  6
Continuous
 62
     7
370
    15
100
AcDbCircle
 10
961.3441398478
 20
720.8232509279
 30
0.0
 40
3.193594667054704
100
AcDbArc
 50
90.1863328635
 51
180.2232972916
  0
ARC
  5
1F5
330
1F
100
AcDbEntity
  8
0
  6
Continuous
 62
     7
370
    15
100
AcDbCircle
 10
961.3560849428
 20
720.82243483
 30
0.0
 40
3.1944719305673
100
AcDbArc
 50
0.3950514478
 51
90.4005308458
  0
ARC
  5
1F6
330
1F
100
AcDbEntity
  8
0
  6
Continuous
 62
     7
370
    15
100
AcDbCircle
 10
921.3446929316
 20
720.6129026432
 30
0.0
 40
3.193594667054049
100
AcDbArc
 50
90.1863328635
 51
180.2232972916
  0
ARC
  5
1F7
330
1F
100
AcDbEntity
  8
0
  6
Continuous
 62
     7
370
    15
100
AcDbCircle
 10
921.3566380267
 20
720.6120865453
 30
0.0
 40
3.194471930566958
100
AcDbArc
 50
0.3950514478
 51
90.4005308458
  0
ARC
  5
1F8
330
1F
100
AcDbEntity
  8
0
  6
Continuous
 62
     7
370
    15
100
AcDbCircle
 10
1141.2368304666
 20
741.7022944256
 30
0.0
 40
3.193594667054504
100
AcDbArc
 50
90.1863328635
 51
180.2232972916
  0
ARC
  5
1F9
330
1F
100
AcDbEntity
  8
0
  6
Continuous
 62
     7
370
    15
100
AcDbCircle
 10
1141.2487755617
 20
741.7014783276
 30
0.0
 40
3.194471930567073
100
AcDbArc
 50
0.3950514478
 51
90.4005308458
  0
ARC
  5
1FA
330
1F
100
AcDbEntity
  8
0
  6
Continuous
 62
     7
370
    15
100
AcDbCircle
 10
1101.2373835505
 20
741.4919461409
 30
0.0
 40
3.193594667054391
100
AcDbArc
 50
90.1863328635
 51
180.2232972916
  0
ARC
  5
1FB
330
1F
100
AcDbEntity
  8
0
  6
Continuous
 62
     7
370
    15
100
AcDbCircle
 10
1101.2493286455
 20
741.491130043
 30
0.0
 40
3.194471930567298
100
AcDbArc
 50
0.3950514478
 51
90.4005308458
  0
ARC
  5
1FC
330
1F
100
AcDbEntity
  8
0
  6
Continuous
 62
     7
370
    15
100
AcDbCircle
 10
1061.2379366343
 20
741.2815978563
 30
0.0
 40
3.193594667054733
100
AcDbArc
 50
90.1863328635
 51
180.2232972916
  0
ARC
  5
1FD
330
1F
100
AcDbEntity
  8
0
  6
Continuous
 62
     7
370
    15
100
AcDbCircle
 10
1061.2498817294
 20
741.2807817584
 30
0.0
 40
3.194471930567298
100
AcDbArc
 50
0.3950514478
 51
90.4005308458
  0
ARC
  5
1FE
330
1F
100
AcDbEntity
  8
0
  6
Continuous
 62
     7
370
    15
100
AcDbCircle
 10
1021.2384897181
 20
741.0712495717
 30
0.0
 40
3.193594667054929
100
AcDbArc
 50
90.1863328635
 51
180.2232972916
  0
ARC
  5
1FF
330
1F
100
AcDbEntity
  8
0
  6
Continuous
 62
     7
370
    15
100
AcDbCircle
 10
1021.2504348132
 20
741.0704334737
 30
0.0
 40
3.194471930567639
100
AcDbArc
 50
0.3950514478
 51
90.4005308458
  0
ARC
  5
200
330
1F
100
AcDbEntity
  8
0
  6
Continuous
 62
     7
370
    15
100
AcDbCircle
 10
981.239042802
 20
740.860901287
 30
0.0
 40
3.193594667054049
100
AcDbArc
 50
90.1863328635
 51
180.2232972916
  0
ARC
  5
201
330
1F
100
AcDbEntity
  8
0
  6
Continuous
 62
     7
370
    15
100
AcDbCircle
 10
981.250987897
 20
740.8600851891
 30
0.0
 40
3.194471930566953
100
AcDbArc
 50
0.3950514478
 51
90.4005308458
  0
ARC
  5
202
330
1F
100
AcDbEntity
  8
0
  6
Continuous
 62
     7
370
    15
100
AcDbCircle
 10
941.2395958858
 20
740.6505530024
 30
0.0
 40
3.19359466705459
100
AcDbArc
 50
90.1863328635
 51
180.2232972916
  0
ARC
  5
203
330
1F
100
AcDbEntity
  8
0
  6
Continuous
 62
     7
370
    15
100
AcDbCircle
 10
941.2515409809
 20
740.6497369045
 30
0.0
 40
3.194471930567413
100
AcDbArc
 50
0.3950514478
 51
90.4005308458
  0
ARC
  5
204
330
1F
100
AcDbEntity
  8
0
  6
Continuous
 62
     7
370
    15
100
AcDbCircle
 10
901.2401489696
 20
740.4402047178
 30
0.0
 40
3.193594667054391
100
AcDbArc
 50
90.1863328635
 51
180.2232972916
  0
ARC
  5
205
330
1F
100
AcDbEntity
  8
0
  6
Continuous
 62
     7
370
    15
100
AcDbCircle
 10
901.2520940647
 20
740.4393886198
 30
0.0
 40
3.194471930567411
100
AcDbArc
 50
0.3950514478
 51
90.4005308458
  0
ARC
  5
206
330
1F
100
AcDbEntity
  8
0
  6
Continuous
 62
     7
370
    15
100
AcDbCircle
 10
1121.1322865047
 20
761.5295965001
 30
0.0
 40
3.193594667054733
100
AcDbArc
 50
90.1863328635
 51
180.2232972916
  0
ARC
  5
207
330
1F
100
AcDbEntity
  8
0
  6
Continuous
 62
     7
370
    15
100
AcDbCircle
 10
1121.1442315997
 20
761.5287804022
 30
0.0
 40
3.194471930567985
100
AcDbArc
 50
0.3950514478
 51
90.4005308458
  0
ARC
  5
208
330
1F
100
AcDbEntity
  8
0
  6
Continuous
 62
     7
370
    15
100
AcDbCircle
 10
1081.1328395885
 20
761.3192482154
 30
0.0
 40
3.193594667054476
100
AcDbArc
 50
90.1863328635
 51
180.2232972916
  0
ARC
  5
209
330
1F
100
AcDbEntity
  8
0
  6
Continuous
 62
     7
370
    15
100
AcDbCircle
 10
1081.1447846836
 20
761.3184321175
 30
0.0
 40
3.194471930567298
100
AcDbArc
 50
0.3950514478
 51
90.4005308458
  0
ARC
  5
20A
330
1F
100
AcDbEntity
  8
0
  6
Continuous
 62
     7
370
    15
100
AcDbCircle
 10
1041.1333926723
 20
761.1088999308
 30
0.0
 40
3.193594667054961
100
AcDbArc
 50
90.1863328635
 51
180.2232972916
  0
ARC
  5
20B
330
1F
100
AcDbEntity
  8
0
  6
Continuous
 62
     7
370
    15
100
AcDbCircle
 10
1041.1453377674
 20
761.1080838329
 30
0.0
 40
3.194471930567981
100
AcDbArc
 50
0.3950514478
 51
90.4005308458
  0
ARC
  5
20C
330
1F
100
AcDbEntity
  8
0
  6
Continuous
 62
     7
370
    15
100
AcDbCircle
 10
1001.1339457562
 20
760.8985516462
 30
0.0
 40
3.19359466705391
100
AcDbArc
 50
90.1863328635
 51
180.2232972916
  0
ARC
  5
20D
330
1F
100
AcDbEntity
  8
0
  6
Continuous
 62
     7
370
    15
100
AcDbCircle
 10
1001.1458908512
 20
760.8977355483
 30
0.0
 40
3.194471930567411
100
AcDbArc
 50
0.3950514478
 51
90.4005308458
  0
ARC
  5
20E
330
1F
100
AcDbEntity
  8
0
  6
Continuous
 62
     7
370
    15
100
AcDbCircle
 10
961.13449884
 20
760.6882033615
 30
0.0
 40
3.193594667054847
100
AcDbArc
 50
90.1863328635
 51
180.2232972916
  0
ARC
  5
20F
330
1F
100
AcDbEntity
  8
0
  6
Continuous
 62
     7
370
    15
100
AcDbCircle
 10
961.1464439351
 20
760.6873872636
 30
0.0
 40
3.194471930568096
100
AcDbArc
 50
0.3950514478
 51
90.4005308458
  0
ARC
  5
210
330
1F
100
AcDbEntity
  8
0
  6
Continuous
 62
     7
370
    15
100
AcDbCircle
 10
921.1350519238
 20
760.4778550769
 30
0.0
 40
3.193594667054363
100
AcDbArc
 50
90.1863328635
 51
180.2232972916
  0
ARC
  5
211
330
1F
100
AcDbEntity
  8
0
  6
Continuous
 62
     7
370
    15
100
AcDbCircle
 10
921.1469970189
 20
760.477038979
 30
0.0
 40
3.194471930567186
100
AcDbArc
 50
0.3950514478
 51
90.4005308458
  0
ARC
  5
212
330
1F
100
AcDbEntity
  8
0
  6
Continuous
 62
     7
370
    15
100
AcDbCircle
 10
1141.0271894589
 20
781.5672468592
 30
0.0
 40
3.193594667054702
100
AcDbArc
 50
90.1863328635
 51
180.2232972916
  0
ARC
  5
213
330
1F
100
AcDbEntity
  8
0
  6
Continuous
 62
     7
370
    15
100
AcDbCircle
 10
1141.0391345539
 20
781.5664307613
 30
0.0
 40
3.194471930567186
100
AcDbArc
 50
0.3950514478
 51
90.4005308458
  0
ARC
  5
214
330
1F
100
AcDbEntity
  8
0
  6
Continuous
 62
     7
370
    15
100
AcDbCircle
 10
1101.0277425427
 20
781.3568985746
 30
0.0
 40
3.193594667054477
100
AcDbArc
 50
90.1863328635
 51
180.2232972916
  0
ARC
  5
215
330
1F
100
AcDbEntity
  8
0
  6
Continuous
 62
     7
370
    15
100
AcDbCircle
 10
1101.0396876378
 20
781.3560824767
 30
0.0
 40
3.194471930566735
100
AcDbArc
 50
0.3950514478
 51
90.4005308458
  0
ARC
  5
216
330
1F
100
AcDbEntity
  8
0
  6
Continuous
 62
     7
370
    15
100
AcDbCircle
 10
1061.0282956265
 20
781.1465502899
 30
0.0
 40
3.193594667054505
100
AcDbArc
 50
90.1863328635
 51
180.2232972916
  0
ARC
  5
217
330
1F
100
AcDbEntity
  8
0
  6
Continuous
 62
     7
370
    15
100
AcDbCircle
 10
1061.0402407216
 20
781.145734192
 30
0.0
 40
3.194471930566847
100
AcDbArc
 50
0.3950514478
 51
90.4005308458
  0
ARC
  5
218
330
1F
100
AcDbEntity
  8
0
  6
Continuous
 62
     7
370
    15
100
AcDbCircle
 10
1021.0288487104
 20
780.9362020053
 30
0.0
 40
3.193594667054476
100
AcDbArc
 50
90.1863328635
 51
180.2232972916
  0
ARC
  5
219
330
1F
100
AcDbEntity
  8
0
  6
Continuous
 62
     7
370
    15
100
AcDbCircle
 10
1021.0407938054
 20
780.9353859074
 30
0.0
 40
3.194471930566724
100
AcDbArc
 50
0.3950514478
 51
90.4005308458
  0
ARC
  5
21A
330
1F
100
AcDbEntity
  8
0
  6
Continuous
 62
     7
370
    15
100
AcDbCircle
 10
981.0294017942
 20
780.7258537207
 30
0.0
 40
3.193594667054847
100
AcDbArc
 50
90.1863328635
 51
180.2232972916
  0
ARC
  5
21B
330
1F
100
AcDbEntity
  8
0
  6
Continuous
 62
     7
370
    15
100
AcDbCircle
 10
981.0413468893
 20
780.7250376228
 30
0.0
 40
3.194471930567184
100
AcDbArc
 50
0.3950514478
 51
90.4005308458
  0
ARC
  5
21C
330
1F
100
AcDbEntity
  8
0
  6
Continuous
 62
     7
370
    15
100
AcDbCircle
 10
941.029954878
 20
780.515505436
 30
0.0
 40
3.193594667054619
100
AcDbArc
 50
90.1863328635
 51
180.2232972916
  0
ARC
  5
21D
330
1F
100
AcDbEntity
  8
0
  6
Continuous
 62
     7
370
    15
100
AcDbCircle
 10
941.0418999731
 20
780.5146893381
 30
0.0
 40
3.194471930567639
100
AcDbArc
 50
0.3950514478
 51
90.4005308458
  0
ARC
  5
21E
330
1F
100
AcDbEntity
  8
0
  6
Continuous
 62
     7
370
    15
100
AcDbCircle
 10
901.0305079619
 20
780.3051571514
 30
0.0
 40
3.193594667054733
100
AcDbArc
 50
90.1863328635
 51
180.2232972916
  0
ARC
  5
21F
330
1F
100
AcDbEntity
  8
0
  6
Continuous
 62
     7
370
    15
100
AcDbCircle
 10
901.0424530569
 20
780.3043410535
 30
0.0
 40
3.19447193056718
100
AcDbArc
 50
0.3950514478
 51
90.4005308458
  0
LINE
  5
220
330
1F
100
AcDbEntity
  8
0
  6
Continuous
 62
     7
370
    15
100
AcDbLine
 10
1117.7296132832
 20
801.4596485602
 30
0.0
 11
1117.7290750832
 21
801.3821026551
 31
0.0
  0
LINE
  5
221
330
1F
100
AcDbEntity
  8
0
  6
Continuous
 62
     7
370
    15
100
AcDbLine
 10
1077.7411731718
 20
801.4596485602
 30
0.0
 11
1077.729628167
 21
801.1717543705
 31
0.0
  0
LINE
  5
222
330
1F
100
AcDbEntity
  8
0
  6
Continuous
 62
     7
370
    15
100
AcDbLine
 10
1084.1295396736
 20
801.205410096
 30
0.0
 11
1084.1180139375
 21
801.4596485602
 31
0.0
  0
LINE
  5
223
330
1F
100
AcDbEntity
  8
0
  6
Continuous
 62
     7
370
    15
100
AcDbLine
 10
1037.7668217413
 20
801.4596485602
 30
0.0
 11
1037.7301812508
 21
800.9614060859
 31
0.0
  0
LINE
  5
224
330
1F
100
AcDbEntity
  8
0
  6
Continuous
 62
     7
370
    15
100
AcDbLine
 10
1044.1300927574
 20
800.9950618114
 30
0.0
 11
1044.0934864883
 21
801.4596485602
 31
0.0
  0
LWPOLYLINE
  5
225
330
1F
100
AcDbEntity
  8
0
  6
Continuous
 62
     7
370
    15
100
AcDbPolyline
 90
        3
 70
   128
 43
0.0
 10
997.8068984205
 20
801.4596485602
 10
997.7764365505
 20
801.3051115617
 10
997.7307343347
 20
800.7510578012
  0
LWPOLYLINE
  5
226
330
1F
100
AcDbEntity
  8
0
  6
Continuous
 62
     7
370
    15
100
AcDbPolyline
 90
        3
 70
   128
 43
0.0
 10
1004.1306458412
 20
800.7847135268
 10
1004.0791190208
 20
801.3382559812
 10
1004.0545309294
 20
801.4596485602
  0
LWPOLYLINE
  5
227
330
1F
100
AcDbEntity
  8
0
  6
Continuous
 62
     7
370
    15
100
AcDbPolyline
 90
        3
 70
   128
 43
0.0
 10
957.8619604261
 20
801.4596485602
 10
957.7769896343
 20
801.0947632771
 10
957.7312874185
 20
800.5407095166
  0
LWPOLYLINE
  5
228
330
1F
100
AcDbEntity
  8
0
  6
Continuous
 62
     7
370
    15
100
AcDbPolyline
 90
        3
 70
   128
 43
0.0
 10
964.1311989251
 20
800.5743652421
 10
964.0796721046
 20
801.1279076965
 10
964.000590044
 20
801.4596485602
  0
LWPOLYLINE
  5
229
330
1F
100
AcDbEntity
  8
0
  6
Continuous
 62
     7
370
    15
100
AcDbPolyline
 90
        3
 70
   128
 43
0.0
 10
917.9328246382
 20
801.4596485602
 10
917.7775427182
 20
800.8844149924
 10
917.7318405023
 20
800.330361232
  0
LWPOLYLINE
  5
22A
330
1F
100
AcDbEntity
  8
0
  6
Continuous
 62
     7
370
    15
100
AcDbPolyline
 90
        3
 70
   128
 43
0.0
 10
924.1317520089
 20
800.3640169575
 10
924.0802251884
 20
800.9175594119
 10
923.9308469523
 20
801.4596485602
  0
ARC
  5
22B
330
1F
100
AcDbEntity
  8
0
  6
Continuous
 62
     7
370
    15
100
AcDbCircle
 10
1177.4718650262
 20
525.6815071213
 30
0.0
 40
2.388313755650302
100
AcDbArc
 50
270.0
 51
0.0
  0
LINE
  5
22C
330
1F
100
AcDbEntity
  8
0
  6
Continuous
 62
     7
370
    15
100
AcDbLine
 10
1177.4718650262
 20
523.2931933656
 30
0.0
 11
866.4718650262
 21
523.2931933656
 31
0.0
  0
ARC
  5
22D
330
1F
100
AcDbEntity
  8
0
  6
Continuous
 62
     7
370
    15
100
AcDbCircle
 10
866.4718650262
 20
525.6815071213
 30
0.0
 40
2.388313755650529
100
AcDbArc
 50
180.0
 51
270.0
  0
LINE
  5
22E
330
1F
100
AcDbEntity
  8
0
  6
Continuous
 62
     7
370
    15
100
AcDbLine
 10
1120.9718650262
 20
530.4520676968
 30
0.0
 11
922.9718650262
 21
530.4520676968
 31
0.0
  0
ARC
  5
22F
330
1F
100
AcDbEntity
  8
0
  6
Continuous
 62
     7
370
    15
100
AcDbCircle
 10
1120.9718650262
 20
582.1815071213
 30
0.0
 40
51.72943942446034
100
AcDbArc
 50
270.0
 51
0.0
  0
ARC
  5
230
330
1F
100
AcDbEntity
  8
0
  6
Continuous
 62
     7
370
    15
100
AcDbCircle
 10
922.9718650262
 20
582.1815071213
 30
0.0
 40
51.72943942446057
100
AcDbArc
 50
180.0
 51
270.0
  0
LINE
  5
231
330
1F
100
AcDbEntity
  8
0
  6
Continuous
 62
     7
370
    15
100
AcDbLine
 10
1177.4718650262
 20
521.7242642845
 30
0.0
 11
866.4718650262
 21
521.7242642845
 31
0.0
  0
LINE
  5
232
330
1F
100
AcDbEntity
  8
0
  6
Continuous
 62
     7
370
    15
100
AcDbLine
 10
866.4718650262
 20
523.2931933656
 30
0.0
 11
866.4718650262
 21
521.7242642845
 31
0.0
  0
LINE
  5
233
330
1F
100
AcDbEntity
  8
0
  6
Continuous
 62
     7
370
    15
100
AcDbLine
 10
1177.4718650262
 20
523.2931933656
 30
0.0
 11
1177.4718650262
 21
521.7242642845
 31
0.0
  0
ARC
  5
234
330
1F
100
AcDbEntity
  8
0
  6
Continuous
 62
     7
370
    15
100
AcDbCircle
 10
1177.4718650262
 20
525.6815071213
 30
0.0
 40
3.957242836755881
100
AcDbArc
 50
270.0
 51
0.0
  0
LINE
  5
235
330
1F
100
AcDbEntity
  8
0
  6
Continuous
 62
     7
370
    15
100
AcDbLine
 10
1179.8601787819
 20
525.6815071213
 30
0.0
 11
1181.429107863
 21
525.6815071213
 31
0.0
  0
ARC
  5
236
330
1F
100
AcDbEntity
  8
0
  6
Continuous
 62
     7
370
    15
100
AcDbCircle
 10
866.4718650262
 20
525.6815071213
 30
0.0
 40
3.957242836755995
100
AcDbArc
 50
180.0
 51
270.0
  0
LINE
  5
237
330
1F
100
AcDbEntity
  8
0
  6
Continuous
 62
     7
370
    15
100
AcDbLine
 10
864.0835512706
 20
525.6815071213
 30
0.0
 11
862.5146221895
 21
525.6815071213
 31
0.0
  0
LINE
  5
238
330
1F
100
AcDbEntity
  8
0
  6
Continuous
 62
     7
370
    15
100
AcDbLine
 10
1172.7013044507
 20
582.1815071213
 30
0.0
 11
1170.902742725
 21
582.1815071213
 31
0.0
  0
LINE
  5
239
330
1F
100
AcDbEntity
  8
0
  6
Continuous
 62
     7
370
    15
100
AcDbLine
 10
1120.9718650262
 20
530.4520676968
 30
0.0
 11
1120.9718650262
 21
532.2506294225
 31
0.0
  0
ARC
  5
23A
330
1F
100
AcDbEntity
  8
0
  6
Continuous
 62
     7
370
    15
100
AcDbCircle
 10
1120.9718650262
 20
582.1815071213
 30
0.0
 40
49.93087769876115
100
AcDbArc
 50
270.0
 51
0.0
  0
LINE
  5
23B
330
1F
100
AcDbEntity
  8
0
  6
Continuous
 62
     7
370
    15
100
AcDbLine
 10
871.2424256018
 20
582.1815071213
 30
0.0
 11
873.0409873275
 21
582.1815071213
 31
0.0
  0
ARC
  5
23C
330
1F
100
AcDbEntity
  8
0
  6
Continuous
 62
     7
370
    15
100
AcDbCircle
 10
922.9718650262
 20
582.1815071213
 30
0.0
 40
49.93087769876115
100
AcDbArc
 50
180.0
 51
270.0
  0
LINE
  5
23D
330
1F
100
AcDbEntity
  8
0
  6
Continuous
 62
     7
370
    15
100
AcDbLine
 10
922.9718650262
 20
530.4520676968
 30
0.0
 11
922.9718650262
 21
532.2506294225
 31
0.0
  0
LINE
  5
23E
330
1F
100
AcDbEntity
  8
0
  6
Continuous
 62
     7
370
    15
100
AcDbLine
 10
922.9718650262
 20
532.2506294225
 30
0.0
 11
1120.9718650262
 21
532.2506294225
 31
0.0
  0
ARC
  5
23F
330
1F
100
AcDbEntity
  8
0
  6
Continuous
 62
     7
370
    15
100
AcDbCircle
 10
866.4718650262
 20
525.6815071213
 30
0.0
 40
4.571378581622184
100
AcDbArc
 50
180.0
 51
270.0
  0
LINE
  5
240
330
1F
100
AcDbEntity
  8
0
  6
Continuous
 62
     7
370
    15
100
AcDbLine
 10
862.5146221895
 20
525.6815071213
 30
0.0
 11
861.9004864446
 21
525.6815071213
 31
0.0
  0
LINE
  5
241
330
1F
100
AcDbEntity
  8
0
  6
Continuous
 62
     7
370
    15
100
AcDbLine
 10
866.4718650262
 20
521.7242642845
 30
0.0
 11
866.4718650262
 21
521.1101285397
 31
0.0
  0
LINE
  5
242
330
1F
100
AcDbEntity
  8
0
  6
Continuous
 62
     7
370
    15
100
AcDbLine
 10
1177.4718650262
 20
521.1101285397
 30
0.0
 11
866.4718650262
 21
521.1101285397
 31
0.0
  0
LINE
  5
243
330
1F
100
AcDbEntity
  8
0
  6
Continuous
 62
     7
370
    15
100
AcDbLine
 10
1177.4718650262
 20
521.7242642845
 30
0.0
 11
1177.4718650262
 21
521.1101285397
 31
0.0
  0
ARC
  5
244
330
1F
100
AcDbEntity
  8
0
  6
Continuous
 62
     7
370
    15
100
AcDbCircle
 10
1177.4718650262
 20
525.6815071213
 30
0.0
 40
4.571378581622071
100
AcDbArc
 50
270.0
 51
0.0
  0
LINE
  5
245
330
1F
100
AcDbEntity
  8
0
  6
Continuous
 62
     7
370
    15
100
AcDbLine
 10
1181.429107863
 20
525.6815071213
 30
0.0
 11
1182.0432436078
 21
525.6815071213
 31
0.0
  0
LINE
  5
246
330
1F
100
AcDbEntity
  8
0
  6
Continuous
 62
     7
370
    15
100
AcDbLine
 10
922.9718650262
 20
533.1450336543
 30
0.0
 11
1120.9718650262
 21
533.1450336543
 31
0.0
  0
LINE
  5
247
330
1F
100
AcDbEntity
  8
0
  6
Continuous
 62
     7
370
    15
100
AcDbLine
 10
1120.9718650262
 20
533.1450336543
 30
0.0
 11
1120.9718650262
 21
532.2506294225
 31
0.0
  0
LINE
  5
248
330
1F
100
AcDbEntity
  8
0
  6
Continuous
 62
     7
370
    15
100
AcDbLine
 10
922.9718650262
 20
533.1450336543
 30
0.0
 11
922.9718650262
 21
532.2506294225
 31
0.0
  0
LINE
  5
249
330
1F
100
AcDbEntity
  8
0
  6
Continuous
 62
     7
370
    15
100
AcDbLine
 10
1170.0083384932
 20
582.1815071213
 30
0.0
 11
1170.902742725
 21
582.1815071213
 31
0.0
  0
ARC
  5
24A
330
1F
100
AcDbEntity
  8
0
  6
Continuous
 62
     7
370
    15
100
AcDbCircle
 10
922.9718650262
 20
582.1815071213
 30
0.0
 40
49.03647346693867
100
AcDbArc
 50
180.0
 51
270.0
  0
LINE
  5
24B
330
1F
100
AcDbEntity
  8
0
  6
Continuous
 62
     7
370
    15
100
AcDbLine
 10
873.9353915593
 20
582.1815071213
 30
0.0
 11
873.0409873275
 21
582.1815071213
 31
0.0
  0
ARC
  5
24C
330
1F
100
AcDbEntity
  8
0
  6
Continuous
 62
     7
370
    15
100
AcDbCircle
 10
1120.9718650262
 20
582.1815071213
 30
0.0
 40
49.03647346693867
100
AcDbArc
 50
270.0
 51
0.0
  0
ARC
  5
24D
330
1F
100
AcDbEntity
  8
0
  6
Continuous
 62
     7
370
    15
100
AcDbCircle
 10
1120.9718650262
 20
582.1815071213
 30
0.0
 40
48.58843489359958
100
AcDbArc
 50
270.0
 51
0.0
  0
LINE
  5
24E
330
1F
100
AcDbEntity
  8
0
  6
Continuous
 62
     7
370
    15
100
AcDbLine
 10
1169.5602999198
 20
582.1815071213
 30
0.0
 11
1170.0083384932
 21
582.1815071213
 31
0.0
  0
LINE
  5
24F
330
1F
100
AcDbEntity
  8
0
  6
Continuous
 62
     7
370
    15
100
AcDbLine
 10
1120.9718650262
 20
533.5930722277
 30
0.0
 11
1120.9718650262
 21
533.1450336543
 31
0.0
  0
LINE
  5
250
330
1F
100
AcDbEntity
  8
0
  6
Continuous
 62
     7
370
    15
100
AcDbLine
 10
922.9718650262
 20
533.5930722277
 30
0.0
 11
1120.9718650262
 21
533.5930722277
 31
0.0
  0
LINE
  5
251
330
1F
100
AcDbEntity
  8
0
  6
Continuous
 62
     7
370
    15
100
AcDbLine
 10
922.9718650262
 20
533.5930722277
 30
0.0
 11
922.9718650262
 21
533.1450336543
 31
0.0
  0
LINE
  5
252
330
1F
100
AcDbEntity
  8
0
  6
Continuous
 62
     7
370
    15
100
AcDbLine
 10
874.3834301326
 20
582.1815071213
 30
0.0
 11
873.9353915593
 21
582.1815071213
 31
0.0
  0
ARC
  5
253
330
1F
100
AcDbEntity
  8
0
  6
Continuous
 62
     7
370
    15
100
AcDbCircle
 10
922.9718650262
 20
582.1815071213
 30
0.0
 40
48.58843489359958
100
AcDbArc
 50
180.0
 51
270.0
  0
LINE
  5
254
330
1F
100
AcDbEntity
  8
0
  6
Continuous
 62
     7
370
    15
100
AcDbLine
 10
875.2304710914
 20
582.1815071213
 30
0.0
 11
874.3834301326
 21
582.1815071213
 31
0.0
  0
LINE
  5
255
330
1F
100
AcDbEntity
  8
0
  6
Continuous
 62
     7
370
    15
100
AcDbLine
 10
922.9718650262
 20
534.4401131864
 30
0.0
 11
1120.9718650262
 21
534.4401131864
 31
0.0
  0
LINE
  5
256
330
1F
100
AcDbEntity
  8
0
  6
Continuous
 62
     7
370
    15
100
AcDbLine
 10
1120.9718650262
 20
534.4401131864
 30
0.0
 11
1120.9718650262
 21
533.5930722277
 31
0.0
  0
LINE
  5
257
330
1F
100
AcDbEntity
  8
0
  6
Continuous
 62
     7
370
    15
100
AcDbLine
 10
922.9718650262
 20
534.4401131864
 30
0.0
 11
922.9718650262
 21
533.5930722277
 31
0.0
  0
ARC
  5
258
330
1F
100
AcDbEntity
  8
0
  6
Continuous
 62
     7
370
    15
100
AcDbCircle
 10
1120.9718650262
 20
582.1815071213
 30
0.0
 40
47.74139393486894
100
AcDbArc
 50
270.0
 51
0.0
  0
LINE
  5
259
330
1F
100
AcDbEntity
  8
0
  6
Continuous
 62
     7
370
    15
100
AcDbLine
 10
1168.7132589611
 20
582.1815071213
 30
0.0
 11
1169.5602999198
 21
582.1815071213
 31
0.0
  0
ARC
  5
25A
330
1F
100
AcDbEntity
  8
0
  6
Continuous
 62
     7
370
    15
100
AcDbCircle
 10
922.9718650262
 20
582.1815071213
 30
0.0
 40
47.74139393486894
100
AcDbArc
 50
180.0
 51
270.0
  0
ARC
  5
25B
330
1F
100
AcDbEntity
  8
0
  6
Continuous
 62
     7
370
    15
100
AcDbCircle
 10
922.9718650262
 20
582.1815071213
 30
0.0
 40
47.21421694794878
100
AcDbArc
 50
180.0
 51
270.0
  0
LINE
  5
25C
330
1F
100
AcDbEntity
  8
0
  6
Continuous
 62
     7
370
    15
100
AcDbLine
 10
922.9718650262
 20
534.9672901733
 30
0.0
 11
922.9718650262
 21
534.4401131864
 31
0.0
  0
LINE
  5
25D
330
1F
100
AcDbEntity
  8
0
  6
Continuous
 62
     7
370
    15
100
AcDbLine
 10
875.7576480783
 20
582.1815071213
 30
0.0
 11
875.2304710914
 21
582.1815071213
 31
0.0
  0
LINE
  5
25E
330
1F
100
AcDbEntity
  8
0
  6
Continuous
 62
     7
370
    15
100
AcDbLine
 10
1168.1860819742
 20
582.1815071213
 30
0.0
 11
1168.7132589611
 21
582.1815071213
 31
0.0
  0
ARC
  5
25F
330
1F
100
AcDbEntity
  8
0
  6
Continuous
 62
     7
370
    15
100
AcDbCircle
 10
1120.9718650262
 20
582.1815071213
 30
0.0
 40
47.21421694794878
100
AcDbArc
 50
270.0
 51
0.0
  0
LINE
  5
260
330
1F
100
AcDbEntity
  8
0
  6
Continuous
 62
     7
370
    15
100
AcDbLine
 10
1120.9718650262
 20
534.9672901733
 30
0.0
 11
1120.9718650262
 21
534.4401131864
 31
0.0
  0
LINE
  5
261
330
1F
100
AcDbEntity
  8
0
  6
Continuous
 62
     7
370
    15
100
AcDbLine
 10
922.9718650262
 20
534.9672901733
 30
0.0
 11
1120.9718650262
 21
534.9672901733
 31
0.0
  0
LINE
  5
262
330
1F
100
AcDbEntity
  8
0
  6
Continuous
 62
     7
370
    15
100
AcDbLine
 10
879.3224677601
 20
582.1815071213
 30
0.0
 11
875.7576480783
 21
582.1815071213
 31
0.0
  0
ARC
  5
263
330
1F
100
AcDbEntity
  8
0
  6
Continuous
 62
     7
370
    15
100
AcDbCircle
 10
1120.9718650262
 20
582.1815071213
 30
0.0
 40
43.64939726611476
100
AcDbArc
 50
270.0
 51
0.0
  0
LINE
  5
264
330
1F
100
AcDbEntity
  8
0
  6
Continuous
 62
     7
370
    15
100
AcDbLine
 10
1164.6212622923
 20
582.1815071213
 30
0.0
 11
1168.1860819742
 21
582.1815071213
 31
0.0
  0
LINE
  5
265
330
1F
100
AcDbEntity
  8
0
  6
Continuous
 62
     7
370
    15
100
AcDbLine
 10
1120.9718650262
 20
538.5321098552
 30
0.0
 11
1120.9718650262
 21
534.9672901733
 31
0.0
  0
ARC
  5
266
330
1F
100
AcDbEntity
  8
0
  6
Continuous
 62
     7
370
    15
100
AcDbCircle
 10
922.9718650262
 20
582.1815071213
 30
0.0
 40
43.64939726611476
100
AcDbArc
 50
180.0
 51
270.0
  0
LINE
  5
267
330
1F
100
AcDbEntity
  8
0
  6
Continuous
 62
     7
370
    15
100
AcDbLine
 10
922.9718650262
 20
538.5321098552
 30
0.0
 11
922.9718650262
 21
534.9672901733
 31
0.0
  0
LINE
  5
268
330
1F
100
AcDbEntity
  8
0
  6
Continuous
 62
     7
370
    15
100
AcDbLine
 10
922.9718650262
 20
538.5321098552
 30
0.0
 11
1120.9718650262
 21
538.5321098552
 31
0.0
  0
LINE
  5
269
330
1F
100
AcDbEntity
  8
0
  6
Continuous
 62
     7
370
    15
100
AcDbLine
 10
1120.9718650262
 20
553.5015174348
 30
0.0
 11
1120.9718650262
 21
538.5321098552
 31
0.0
  0
LINE
  5
26A
330
1F
100
AcDbEntity
  8
0
  6
Continuous
 62
     7
370
    15
100
AcDbLine
 10
922.9718650262
 20
553.5015174348
 30
0.0
 11
922.9718650262
 21
538.5321098552
 31
0.0
  0
LINE
  5
26B
330
1F
100
AcDbEntity
  8
0
  6
Continuous
 62
     7
370
    15
100
AcDbLine
 10
824.6718650262
 20
401.4815071213
 30
0.0
 11
821.9718650262
 21
401.4815071213
 31
0.0
  0
LINE
  5
26C
330
1F
100
AcDbEntity
  8
0
  6
Continuous
 62
     7
370
    15
100
AcDbLine
 10
821.9718650262
 20
802.488354049
 30
0.0
 11
821.9718650262
 21
401.4815071213
 31
0.0
  0
SPLINE
  5
26D
330
1F
100
AcDbEntity
  8
0
  6
Continuous
 62
     7
370
    15
100
AcDbSpline
210
0.0
220
0.0
230
1.0
 70
     8
 71
     3
 72
     9
 73
     5
 74
     0
 42
0.00000001
 43
0.00000001
 12
1.0
 22
0.0
 32
0.0
 13
1.0
 23
0.0
 33
0.0
 40
0.0
 40
0.0
 40
0.0
 40
0.0
 40
0.6543257295631164
 40
0.9999999999999999
 40
0.9999999999999999
 40
0.9999999999999999
 40
0.9999999999999999
 10
822.8935186060914
 20
1114.549525947551
 30
0.0
 10
823.12729358436
 20
1114.6508420026
 30
0.0
 10
823.4845697355281
 20
1114.805682398555
 30
0.0
 10
823.944092808374
 20
1114.960522794511
 30
0.0
 10
824.1029381113287
 20
1115.014047135417
 30
0.0
  0
LINE
  5
26E
330
1F
100
AcDbEntity
  8
0
  6
Continuous
 62
     7
370
    15
100
AcDbLine
 10
824.6718650262
 20
401.4815071213
 30
0.0
 11
837.2718650262
 21
401.4815071213
 31
0.0
  0
LINE
  5
26F
330
1F
100
AcDbEntity
  8
0
  6
Continuous
 62
     7
370
    15
100
AcDbLine
 10
1206.6718650262
 20
401.4815071213
 30
0.0
 11
1219.2718650262
 21
401.4815071213
 31
0.0
  0
LINE
  5
270
330
1F
100
AcDbEntity
  8
0
  6
Continuous
 62
     7
370
    15
100
AcDbLine
 10
1221.9718650262
 20
802.488354049
 30
0.0
 11
1221.9718650262
 21
401.4815071213
 31
0.0
  0
LINE
  5
271
330
1F
100
AcDbEntity
  8
0
  6
Continuous
 62
     7
370
    15
100
AcDbLine
 10
1221.9718650262
 20
401.4815071213
 30
0.0
 11
1219.2718650262
 21
401.4815071213
 31
0.0
  0
LINE
  5
272
330
1F
100
AcDbEntity
  8
0
  6
Continuous
 62
     7
370
    15
100
AcDbLine
 10
1219.2511543481
 20
401.2815071213
 30
0.0
 11
1221.9511543481
 21
401.2815071213
 31
0.0
  0
LINE
  5
273
330
1F
100
AcDbEntity
  8
0
  6
Continuous
 62
     7
370
    15
100
AcDbLine
 10
1221.9511543481
 20
401.2815071213
 30
0.0
 11
1221.9511543481
 21
372.9531514713
 31
0.0
  0
SPLINE
  5
274
330
1F
100
AcDbEntity
  8
0
  6
Continuous
 62
     7
370
    15
100
AcDbSpline
210
0.0
220
0.0
230
1.0
 70
     8
 71
     3
 72
    11
 73
     7
 74
     0
 42
0.00000001
 43
0.00000001
 12
1.0
 22
0.0
 32
0.0
 13
1.0
 23
0.0
 33
0.0
 40
0.0
 40
0.0
 40
0.0
 40
0.0
 40
0.2499999999999959
 40
0.4999999999999967
 40
0.7499999999999976
 40
1.0
 40
1.0
 40
1.0
 40
1.0
 10
1221.951154348103
 20
372.9531514712856
 30
0.0
 10
1221.910569101577
 20
372.961484804619
 30
0.0
 10
1221.829398608525
 20
372.9781514712858
 30
0.0
 10
1221.205025733095
 20
373.0031514712857
 30
0.0
 10
1220.312554402933
 20
373.0281514712856
 30
0.0
 10
1219.604954366379
 20
373.0448181379522
 30
0.0
 10
1219.251154348103
 20
373.0531514712857
 30
0.0
  0
LINE
  5
275
330
1F
100
AcDbEntity
  8
0
  6
Continuous
 62
     7
370
    15
100
AcDbLine
 10
1219.2511543481
 20
373.0531514713
 30
0.0
 11
1219.2511543481
 21
401.2815071213
 31
0.0
  0
LINE
  5
276
330
1F
100
AcDbEntity
  8
0
  6
Continuous
 62
     7
370
    15
100
AcDbLine
 10
1220.7511543481
 20
372.9815071213
 30
0.0
 11
1220.7511543481
 21
373.0531514713
 31
0.0
  0
LINE
  5
277
330
1F
100
AcDbEntity
  8
0
  6
Continuous
 62
     7
370
    15
100
AcDbLine
 10
823.1925757043
 20
372.9815071213
 30
0.0
 11
1220.7511543481
 21
372.9815071213
 31
0.0
  0
LINE
  5
278
330
1F
100
AcDbEntity
  8
0
  6
Continuous
 62
     7
370
    15
100
AcDbLine
 10
823.1925757043
 20
373.0531514713
 30
0.0
 11
823.1925757043
 21
372.9815071213
 31
0.0
  0
LINE
  5
279
330
1F
100
AcDbEntity
  8
0
  6
Continuous
 62
     7
370
    15
100
AcDbLine
 10
824.6925757043
 20
373.0531514713
 30
0.0
 11
823.1925757043
 21
373.0531514713
 31
0.0
  0
LINE
  5
27A
330
1F
100
AcDbEntity
  8
0
  6
Continuous
 62
     7
370
    15
100
AcDbLine
 10
824.6925757043
 20
401.2815071213
 30
0.0
 11
824.6925757043
 21
373.0531514713
 31
0.0
  0
LINE
  5
27B
330
1F
100
AcDbEntity
  8
0
  6
Continuous
 62
     7
370
    15
100
AcDbLine
 10
839.8425757043
 20
401.2815071213
 30
0.0
 11
824.6925757043
 21
401.2815071213
 31
0.0
  0
LINE
  5
27C
330
1F
100
AcDbEntity
  8
0
  6
Continuous
 62
     7
370
    15
100
AcDbLine
 10
839.8425757043
 20
398.7815071213
 30
0.0
 11
839.8425757043
 21
401.2815071213
 31
0.0
  0
LINE
  5
27D
330
1F
100
AcDbEntity
  8
0
  6
Continuous
 62
     7
370
    15
100
AcDbLine
 10
1204.1011543481
 20
398.7815071213
 30
0.0
 11
839.8425757043
 21
398.7815071213
 31
0.0
  0
LINE
  5
27E
330
1F
100
AcDbEntity
  8
0
  6
Continuous
 62
     7
370
    15
100
AcDbLine
 10
1204.1011543481
 20
401.2815071213
 30
0.0
 11
1204.1011543481
 21
398.7815071213
 31
0.0
  0
LINE
  5
27F
330
1F
100
AcDbEntity
  8
0
  6
Continuous
 62
     7
370
    15
100
AcDbLine
 10
1219.2511543481
 20
401.2815071213
 30
0.0
 11
1204.1011543481
 21
401.2815071213
 31
0.0
  0
LINE
  5
280
330
1F
100
AcDbEntity
  8
0
  6
Continuous
 62
     7
370
    15
100
AcDbLine
 10
1219.2511543481
 20
373.0531514713
 30
0.0
 11
1220.7511543481
 21
373.0531514713
 31
0.0
  0
LINE
  5
281
330
1F
100
AcDbEntity
  8
0
  6
Continuous
 62
     7
370
    15
100
AcDbLine
 10
839.9718650262
 20
401.5522177994
 30
0.0
 11
839.9718650262
 21
401.4815071213
 31
0.0
  0
LINE
  5
282
330
1F
100
AcDbEntity
  8
0
  6
Continuous
 62
     7
370
    15
100
AcDbLine
 10
839.9718650262
 20
401.4815071213
 30
0.0
 11
837.2718650262
 21
401.4815071213
 31
0.0
  0
LINE
  5
283
330
1F
100
AcDbEntity
  8
0
  6
Continuous
 62
     7
370
    15
100
AcDbLine
 10
839.9718650262
 20
801.4596485602
 30
0.0
 11
839.9718650262
 21
401.5522177994
 31
0.0
  0
SPLINE
  5
284
330
1F
100
AcDbEntity
  8
0
  6
Continuous
 62
     7
370
    15
100
AcDbSpline
210
0.0
220
0.0
230
1.0
 70
     8
 71
     3
 72
    11
 73
     7
 74
     0
 42
0.00000001
 43
0.00000001
 12
1.0
 22
0.0
 32
0.0
 13
1.0
 23
0.0
 33
0.0
 40
0.0
 40
0.0
 40
0.0
 40
0.0
 40
0.2500000000000012
 40
0.4999999999999982
 40
0.750000000000004
 40
1.0
 40
1.0
 40
1.0
 40
1.0
 10
824.6925757043397
 20
373.0531514712871
 30
0.0
 10
824.338775686063
 20
373.0448181379538
 30
0.0
 10
823.6311756495091
 20
373.0281514712871
 30
0.0
 10
822.7387043193473
 20
373.0031514712871
 30
0.0
 10
822.1143314439172
 20
372.9781514712872
 30
0.0
 10
822.0331609508656
 20
372.9614848046205
 30
0.0
 10
821.9925757043397
 20
372.9531514712871
 30
0.0
  0
LINE
  5
285
330
1F
100
AcDbEntity
  8
0
  6
Continuous
 62
     7
370
    15
100
AcDbLine
 10
821.9925757043
 20
372.9531514713
 30
0.0
 11
821.9925757043
 21
401.2815071213
 31
0.0
  0
LINE
  5
286
330
1F
100
AcDbEntity
  8
0
  6
Continuous
 62
     7
370
    15
100
AcDbLine
 10
821.9925757043
 20
401.2815071213
 30
0.0
 11
824.6925757043
 21
401.2815071213
 31
0.0
  0
LINE
  5
287
330
1F
100
AcDbEntity
  8
0
  6
Continuous
 62
     7
370
    15
100
AcDbLine
 10
823.1925757043
 20
349.7815071213
 30
0.0
 11
823.1925757043
 21
372.9815071213
 31
0.0
  0
LINE
  5
288
330
1F
100
AcDbEntity
  8
0
  6
Continuous
 62
     7
370
    15
100
AcDbLine
 10
1220.7511543481
 20
372.9815071213
 30
0.0
 11
1220.7511543481
 21
349.7815071213
 31
0.0
  0
SPLINE
  5
289
330
1F
100
AcDbEntity
  8
0
  6
Continuous
 62
     7
370
    15
100
AcDbSpline
210
0.0
220
0.0
230
1.0
 70
     8
 71
     3
 72
    11
 73
     7
 74
     0
 42
0.00000001
 43
0.00000001
 12
1.0
 22
0.0
 32
0.0
 13
1.0
 23
0.0
 33
0.0
 40
0.0
 40
0.0
 40
0.0
 40
0.0
 40
0.2500000000000003
 40
0.5000000000000007
 40
0.750000000000001
 40
1.0
 40
1.0
 40
1.0
 40
1.0
 10
839.8425757043395
 20
398.7815071212868
 30
0.0
 10
839.8592423710063
 20
399.1353071395636
 30
0.0
 10
839.8925757043396
 20
399.8429071761174
 30
0.0
 10
839.9425757043397
 20
400.735378506279
 30
0.0
 10
839.9925757043397
 20
401.3597513817095
 30
0.0
 10
840.025909037673
 20
401.440921874761
 30
0.0
 10
840.0425757043398
 20
401.4815071212868
 30
0.0
  0
SPLINE
  5
28A
330
1F
100
AcDbEntity
  8
0
  6
Continuous
 62
     7
370
    15
100
AcDbSpline
210
0.0
220
0.0
230
1.0
 70
     8
 71
     3
 72
    11
 73
     7
 74
     0
 42
0.00000001
 43
0.00000001
 12
1.0
 22
0.0
 32
0.0
 13
1.0
 23
0.0
 33
0.0
 40
0.0
 40
0.0
 40
0.0
 40
0.0
 40
0.2499999999999993
 40
0.4999999999999994
 40
0.7499999999999993
 40
1.0
 40
1.0
 40
1.0
 40
1.0
 10
1203.901154348102
 20
401.4815071212868
 30
0.0
 10
1203.917821014769
 20
401.4409218747612
 30
0.0
 10
1203.951154348103
 20
401.3597513817097
 30
0.0
 10
1204.001154348103
 20
400.7353785062791
 30
0.0
 10
1204.051154348103
 20
399.8429071761173
 30
0.0
 10
1204.084487681436
 20
399.1353071395636
 30
0.0
 10
1204.101154348102
 20
398.7815071212868
 30
0.0
  0
LINE
  5
28B
330
1F
100
AcDbEntity
  8
0
  6
Continuous
 62
     7
370
    15
100
AcDbLine
 10
840.0425757043
 20
401.4815071213
 30
0.0
 11
1203.9011543481
 21
401.4815071213
 31
0.0
  0
LINE
  5
28C
330
1F
100
AcDbEntity
  8
0
  6
Continuous
 62
     7
370
    15
100
AcDbLine
 10
1206.6718650262
 20
401.4815071213
 30
0.0
 11
1203.9718650262
 21
401.4815071213
 31
0.0
  0
LINE
  5
28D
330
1F
100
AcDbEntity
  8
0
  6
Continuous
 62
     7
370
    15
100
AcDbLine
 10
1203.9718650262
 20
401.4815071213
 30
0.0
 11
1203.9718650262
 21
401.5522177994
 31
0.0
  0
LINE
  5
28E
330
1F
100
AcDbEntity
  8
0
  6
Continuous
 62
     7
370
    15
100
AcDbLine
 10
1203.9718650262
 20
401.5522177994
 30
0.0
 11
1203.9718650262
 21
801.4596485602
 31
0.0
  0
LINE
  5
28F
330
1F
100
AcDbEntity
  8
0
  6
Continuous
 62
     7
370
    15
100
AcDbLine
 10
1219.2718650262
 20
1116.4815071213
 30
0.0
 11
1219.2718650262
 21
1116.0815071213
 31
0.0
  0
SPLINE
  5
290
330
1F
100
AcDbEntity
  8
0
  6
Continuous
 62
     7
370
    15
100
AcDbSpline
210
0.0
220
0.0
230
1.0
 70
     8
 71
     3
 72
    13
 73
     9
 74
     0
 42
0.00000001
 43
0.00000001
 12
1.0
 22
0.0
 32
0.0
 13
1.0
 23
0.0
 33
0.0
 40
0.0
 40
0.0
 40
0.0
 40
0.0
 40
0.0971108934950134
 40
0.3079263649066977
 40
0.5269934382171884
 40
0.7094198813301533
 40
0.8974038489697123
 40
1.0
 40
1.0
 40
1.0
 40
1.0
 10
1221.329454394831
 20
1115.509125849783
 30
0.0
 10
1221.285891294391
 20
1115.56644164121
 30
0.0
 10
1221.147758210863
 20
1115.748182769013
 30
0.0
 10
1220.824833334674
 20
1116.00507947469
 30
0.0
 10
1220.408120516089
 20
1116.24733877842
 30
0.0
 10
1219.963155109101
 20
1116.403371114359
 30
0.0
 10
1219.588111375131
 20
1116.472792499428
 30
0.0
 10
1219.354386939866
 20
1116.479233111564
 30
0.0
 10
1219.271865026221
 20
1116.481507121287
 30
0.0
  0
SPLINE
  5
291
330
1F
100
AcDbEntity
  8
0
  6
Continuous
 62
     7
370
    15
100
AcDbSpline
210
0.0
220
0.0
230
1.0
 70
     8
 71
     3
 72
     9
 73
     5
 74
     0
 42
0.00000001
 43
0.00000001
 12
1.0
 22
0.0
 32
0.0
 13
1.0
 23
0.0
 33
0.0
 40
0.0
 40
0.0
 40
0.0
 40
0.0
 40
0.3095695358817706
 40
0.9999999999999999
 40
0.9999999999999999
 40
0.9999999999999999
 40
0.9999999999999999
 10
824.0795974254949
 20
1115.156708103879
 30
0.0
 10
824.0641221435059
 20
1115.151107088661
 30
0.0
 10
824.0141324636596
 20
1115.133014173923
 30
0.0
 10
823.9711260778001
 20
1115.10600826381
 30
0.0
 10
823.9414331588513
 20
1115.087362560757
 30
0.0
  0
SPLINE
  5
292
330
1F
100
AcDbEntity
  8
0
  6
Continuous
 62
     7
370
    15
100
AcDbSpline
210
0.0
220
0.0
230
1.0
 70
     8
 71
     3
 72
    13
 73
     9
 74
     0
 42
0.00000001
 43
0.00000001
 12
1.0
 22
0.0
 32
0.0
 13
1.0
 23
0.0
 33
0.0
 40
0.0
 40
0.0
 40
0.0
 40
0.0
 40
0.1764343121900646
 40
0.357983378022916
 40
0.5344867419283302
 40
0.716014364734666
 40
0.8944510280398605
 40
1.0
 40
1.0
 40
1.0
 40
1.0
 10
824.671865026221
 20
1116.481507121288
 30
0.0
 10
824.5287054593168
 20
1116.474900425145
 30
0.0
 10
824.2382361921973
 20
1116.461495507623
 30
0.0
 10
823.8180477697928
 20
1116.35417724802
 30
0.0
 10
823.4187763811034
 20
1116.186529375569
 30
0.0
 10
823.0605637799202
 20
1115.959646663292
 30
0.0
 10
822.7813942822027
 20
1115.725927109658
 30
0.0
 10
822.6476716025152
 20
1115.559928184136
 30
0.0
 10
822.5979708796052
 20
1115.498231345424
 30
0.0
  0
LINE
  5
293
330
1F
100
AcDbEntity
  8
0
  6
Continuous
 62
     7
370
    15
100
AcDbLine
 10
824.6718650262
 20
1116.4815071213
 30
0.0
 11
824.6718650262
 21
1116.0815071213
 31
0.0
  0
LINE
  5
294
330
1F
100
AcDbEntity
  8
0
  6
Continuous
 62
     7
370
    15
100
AcDbLine
 10
824.6718650262
 20
1116.4815071213
 30
0.0
 11
861.1718650262
 21
1116.4815071213
 31
0.0
  0
LINE
  5
295
330
1F
100
AcDbEntity
  8
0
  6
Continuous
 62
     7
370
    15
100
AcDbLine
 10
1219.2718650262
 20
1116.4815071213
 30
0.0
 11
1182.7718650262
 21
1116.4815071213
 31
0.0
  0
LINE
  5
296
330
1F
100
AcDbEntity
  8
0
  6
Continuous
 62
     7
370
    15
100
AcDbLine
 10
863.1718650262
 20
1116.4815071213
 30
0.0
 11
863.1718650262
 21
1116.0815071213
 31
0.0
  0
LINE
  5
297
330
1F
100
AcDbEntity
  8
0
  6
Continuous
 62
     7
370
    15
100
AcDbLine
 10
861.1718650262
 20
1116.4815071213
 30
0.0
 11
863.1718650262
 21
1116.4815071213
 31
0.0
  0
LINE
  5
298
330
1F
100
AcDbEntity
  8
0
  6
Continuous
 62
     7
370
    15
100
AcDbLine
 10
1180.7718650262
 20
1116.0815071213
 30
0.0
 11
1180.7718650262
 21
1116.4815071213
 31
0.0
  0
LINE
  5
299
330
1F
100
AcDbEntity
  8
0
  6
Continuous
 62
     7
370
    15
100
AcDbLine
 10
1180.7718650262
 20
1116.4815071213
 30
0.0
 11
1182.7718650262
 21
1116.4815071213
 31
0.0
  0
LINE
  5
29A
330
1F
100
AcDbEntity
  8
0
  6
Continuous
 62
     7
370
    15
100
AcDbLine
 10
1221.9511543481
 20
372.9531514713
 30
0.0
 11
1221.9511543481
 21
351.0815071213
 31
0.0
  0
LINE
  5
29B
330
1F
100
AcDbEntity
  8
0
  6
Continuous
 62
     7
370
    15
100
AcDbLine
 10
1221.9511543481
 20
372.9531514713
 30
0.0
 11
1220.7511543481
 21
372.9531514713
 31
0.0
  0
LINE
  5
29C
330
1F
100
AcDbEntity
  8
0
  6
Continuous
 62
     7
370
    15
100
AcDbLine
 10
821.9925757043
 20
351.0815071213
 30
0.0
 11
821.9925757043
 21
372.9531514713
 31
0.0
  0
LINE
  5
29D
330
1F
100
AcDbEntity
  8
0
  6
Continuous
 62
     7
370
    15
100
AcDbLine
 10
821.9925757043
 20
372.9531514713
 30
0.0
 11
823.1925757043
 21
372.9531514713
 31
0.0
  0
SPLINE
  5
29E
330
1F
100
AcDbEntity
  8
0
  6
Continuous
 62
     7
370
    15
100
AcDbSpline
210
0.0
220
0.0
230
1.0
 70
     8
 71
     3
 72
    13
 73
     9
 74
     0
 42
0.00000001
 43
0.00000001
 12
1.0
 22
0.0
 32
0.0
 13
1.0
 23
0.0
 33
0.0
 40
0.0
 40
0.0
 40
0.0
 40
0.0
 40
0.1758180774098088
 40
0.351642255135748
 40
0.526711794682956
 40
0.6656147424074501
 40
0.808316090595886
 40
1.0
 40
1.0
 40
1.0
 40
1.0
 10
840.0425757043398
 20
401.4815071212871
 30
0.0
 10
840.0722357175351
 20
401.4971147028166
 30
0.0
 10
840.131556773032
 20
401.5283304074082
 30
0.0
 10
840.2959243579114
 20
401.7627404110781
 30
0.0
 10
840.543457438762
 20
402.0430236838869
 30
0.0
 10
840.8217354514968
 20
402.3234550501854
 30
0.0
 10
841.1217968690838
 20
402.6324272099528
 30
0.0
 10
841.3443106338947
 20
402.8543128162474
 30
0.0
 10
841.4718650262213
 20
402.9815071212872
 30
0.0
  0
LINE
  5
29F
330
1F
100
AcDbEntity
  8
0
  6
Continuous
 62
     7
370
    15
100
AcDbLine
 10
1202.4718650262
 20
402.9815071213
 30
0.0
 11
841.4718650262
 21
402.9815071213
 31
0.0
  0
SPLINE
  5
2A0
330
1F
100
AcDbEntity
  8
0
  6
Continuous
 62
     7
370
    15
100
AcDbSpline
210
0.0
220
0.0
230
1.0
 70
     8
 71
     3
 72
    12
 73
     8
 74
     0
 42
0.00000001
 43
0.00000001
 12
1.0
 22
0.0
 32
0.0
 13
1.0
 23
0.0
 33
0.0
 40
0.0
 40
0.0
 40
0.0
 40
0.0
 40
0.3425477113616225
 40
0.5625348677895993
 40
0.7358858171169991
 40
0.909827037132224
 40
1.0
 40
1.0
 40
1.0
 40
1.0
 10
1202.471865026221
 20
402.9815071212872
 30
0.0
 10
1202.697346754065
 20
402.7501408986776
 30
0.0
 10
1203.067634832935
 20
402.3701892506889
 30
0.0
 10
1203.51435247215
 20
401.927349660898
 30
0.0
 10
1203.7592592667
 20
401.6372264696913
 30
0.0
 10
1203.86873368491
 20
401.4983915228883
 30
0.0
 10
1203.892902659343
 20
401.4858045295814
 30
0.0
 10
1203.901154348102
 20
401.4815071212874
 30
0.0
  0
SPLINE
  5
2A1
330
1F
100
AcDbEntity
  8
0
  6
Continuous
 62
     7
370
    15
100
AcDbSpline
210
0.0
220
0.0
230
1.0
 70
     8
 71
     3
 72
    11
 73
     7
 74
     0
 42
0.00000001
 43
0.00000001
 12
1.0
 22
0.0
 32
0.0
 13
1.0
 23
0.0
 33
0.0
 40
0.0
 40
0.0
 40
0.0
 40
0.0
 40
0.2499999999999928
 40
0.4999999999999918
 40
0.7500000000000006
 40
1.0
 40
1.0
 40
1.0
 40
1.0
 10
841.4718650262213
 20
402.9815071212864
 30
0.0
 10
841.2753094605118
 20
402.8623996777962
 30
0.0
 10
840.8821983290932
 20
402.6241847908162
 30
0.0
 10
840.3863809234479
 20
402.2668624603457
 30
0.0
 10
840.0395071037641
 20
401.9095401298753
 30
0.0
 10
839.9944123854021
 20
401.671325242895
 30
0.0
 10
839.9718650262213
 20
401.552217799405
 30
0.0
  0
SPLINE
  5
2A2
330
1F
100
AcDbEntity
  8
0
  6
Continuous
 62
     7
370
    15
100
AcDbSpline
210
0.0
220
0.0
230
1.0
 70
     8
 71
     3
 72
    11
 73
     7
 74
     0
 42
0.00000001
 43
0.00000001
 12
1.0
 22
0.0
 32
0.0
 13
1.0
 23
0.0
 33
0.0
 40
0.0
 40
0.0
 40
0.0
 40
0.0
 40
0.2500000000000011
 40
0.5000000000000105
 40
0.7499999999999989
 40
1.0
 40
1.0
 40
1.0
 40
1.0
 10
1203.971865026221
 20
401.5522177994066
 30
0.0
 10
1203.94931766704
 20
401.6713252428967
 30
0.0
 10
1203.904222948678
 20
401.9095401298768
 30
0.0
 10
1203.557349128995
 20
402.2668624603471
 30
0.0
 10
1203.061531723349
 20
402.6241847908173
 30
0.0
 10
1202.668420591931
 20
402.8623996777974
 30
0.0
 10
1202.471865026221
 20
402.9815071212875
 30
0.0
  0
ARC
  5
2A3
330
1F
100
AcDbEntity
  8
0
  6
Continuous
 62
     7
370
    15
100
AcDbCircle
 10
1177.4718650262
 20
525.6815071213
 30
0.0
 40
4.799999999999955
100
AcDbArc
 50
270.0
 51
0.0
  0
LINE
  5
2A4
330
1F
100
AcDbEntity
  8
0
  6
Continuous
 62
     7
370
    15
100
AcDbLine
 10
1182.2718650262
 20
525.6815071213
 30
0.0
 11
1182.2718650262
 21
801.4596485602
 31
0.0
  0
LINE
  5
2A5
330
1F
100
AcDbEntity
  8
0
  6
Continuous
 62
     7
370
    15
100
AcDbLine
 10
861.6718650262
 20
801.4596485602
 30
0.0
 11
861.6718650262
 21
525.6815071213
 31
0.0
  0
ARC
  5
2A6
330
1F
100
AcDbEntity
  8
0
  6
Continuous
 62
     7
370
    15
100
AcDbCircle
 10
866.4718650262
 20
525.6815071213
 30
0.0
 40
4.799999999999955
100
AcDbArc
 50
180.0
 51
270.0
  0
LINE
  5
2A7
330
1F
100
AcDbEntity
  8
0
  6
Continuous
 62
     7
370
    15
100
AcDbLine
 10
866.4718650262
 20
520.8815071213
 30
0.0
 11
1177.4718650262
 21
520.8815071213
 31
0.0
  0
LINE
  5
2A8
330
1F
100
AcDbEntity
  8
0
  6
Continuous
 62
     7
370
    15
100
AcDbLine
 10
1220.7511543481
 20
401.4815071213
 30
0.0
 11
1220.7511543481
 21
401.2815071213
 31
0.0
  0
LINE
  5
2A9
330
1F
100
AcDbEntity
  8
0
  6
Continuous
 62
     7
370
    15
100
AcDbLine
 10
1221.9511543481
 20
401.4815071213
 30
0.0
 11
1221.9511543481
 21
401.2815071213
 31
0.0
  0
LINE
  5
2AA
330
1F
100
AcDbEntity
  8
0
  6
Continuous
 62
     7
370
    15
100
AcDbLine
 10
821.9925757043
 20
401.2815071213
 30
0.0
 11
821.9925757043
 21
401.4815071213
 31
0.0
  0
LINE
  5
2AB
330
1F
100
AcDbEntity
  8
0
  6
Continuous
 62
     7
370
    15
100
AcDbLine
 10
823.1925757043
 20
401.2815071213
 30
0.0
 11
823.1925757043
 21
401.4815071213
 31
0.0
  0
SPLINE
  5
2AC
330
1F
100
AcDbEntity
  8
0
  6
Continuous
 62
     7
370
    15
100
AcDbSpline
210
0.0
220
0.0
230
1.0
 70
     8
 71
     3
 72
     9
 73
     5
 74
     0
 42
0.00000001
 43
0.00000001
 12
1.0
 22
0.0
 32
0.0
 13
1.0
 23
0.0
 33
0.0
 40
0.0
 40
0.0
 40
0.0
 40
0.0
 40
0.7828812384224902
 40
1.0
 40
1.0
 40
1.0
 40
1.0
 10
1222.271865026223
 20
407.3315071212844
 30
0.0
 10
1222.257471668443
 20
407.4350845323002
 30
0.0
 10
1222.239086558321
 20
407.5673873720316
 30
0.0
 10
1222.036550156974
 20
407.6996902117626
 30
0.0
 10
1221.992575704339
 20
407.7284156404783
 30
0.0
  0
LINE
  5
2AD
330
1F
100
AcDbEntity
  8
0
  6
Continuous
 62
     7
370
    15
100
AcDbLine
 10
1222.2718650262
 20
352.6315071213
 30
0.0
 11
1222.2718650262
 21
407.3315071213
 31
0.0
  0
SPLINE
  5
2AE
330
1F
100
AcDbEntity
  8
0
  6
Continuous
 62
     7
370
    15
100
AcDbSpline
210
0.0
220
0.0
230
1.0
 70
     8
 71
     3
 72
     9
 73
     5
 74
     0
 42
0.00000001
 43
0.00000001
 12
1.0
 22
0.0
 32
0.0
 13
1.0
 23
0.0
 33
0.0
 40
0.0
 40
0.0
 40
0.0
 40
0.0
 40
0.2171187615783386
 40
1.0
 40
1.0
 40
1.0
 40
1.0
 10
1221.992575704339
 20
352.6540873909912
 30
0.0
 10
1222.036550156974
 20
352.6524531909262
 30
0.0
 10
1222.239086558322
 20
352.6449264343574
 30
0.0
 10
1222.257471668443
 20
352.6373996777884
 30
0.0
 10
1222.271865026224
 20
352.6315071212843
 30
0.0
  0
LINE
  5
2AF
330
1F
100
AcDbEntity
  8
0
  6
Continuous
 62
     7
370
    15
100
AcDbLine
 10
1221.9925757043
 20
352.6315071213
 30
0.0
 11
1222.2718650262
 21
352.6315071213
 31
0.0
  0
SPLINE
  5
2B0
330
1F
100
AcDbEntity
  8
0
  6
Continuous
 62
     7
370
    15
100
AcDbSpline
210
0.0
220
0.0
230
1.0
 70
     8
 71
     3
 72
    10
 73
     6
 74
     0
 42
0.00000001
 43
0.00000001
 12
1.0
 22
0.0
 32
0.0
 13
1.0
 23
0.0
 33
0.0
 40
0.0
 40
0.0
 40
0.0
 40
0.0
 40
0.3463928994425449
 40
0.6698588162261756
 40
1.0
 40
1.0
 40
1.0
 40
1.0
 10
1221.992575704339
 20
408.31665197787
 30
0.0
 10
1222.055223040921
 20
408.2110597684166
 30
0.0
 10
1222.176371224933
 20
408.0068642651569
 30
0.0
 10
1222.253893250929
 20
407.6669050402113
 30
0.0
 10
1222.265833785037
 20
407.4440650466738
 30
0.0
 10
1222.271865026224
 20
407.3315071212844
 30
0.0
  0
ARC
  5
2B1
330
1F
100
AcDbEntity
  8
0
  6
Continuous
 62
     7
370
    15
100
AcDbCircle
 10
1220.2218650262
 20
352.6315071213
 30
0.0
 40
2.049999999999967
100
AcDbArc
 50
329.7415622045
 51
0.0
  0
LWPOLYLINE
  5
2B2
330
1F
100
AcDbEntity
  8
0
  6
Continuous
 62
     7
370
    15
100
AcDbPolyline
 90
        3
 70
   128
 43
0.0
 10
1217.2675584766
 20
401.2815071213
 10
1217.1593018933
 20
401.4008943344
 10
1217.0726893462
 20
401.4815071213
  0
LWPOLYLINE
  5
2B3
330
1F
100
AcDbEntity
  8
0
  6
Continuous
 62
     7
370
    15
100
AcDbPolyline
 90
        3
 70
   128
 43
0.0
 10
1214.9124620625
 20
401.4815071213
 10
1214.8258495154
 20
401.4008943344
 10
1214.7175929321
 20
401.2815071213
  0
LINE
  5
2B4
330
1F
100
AcDbEntity
  8
0
  6
Continuous
 62
     7
370
    15
100
AcDbLine
 10
1216.1004541072
 20
401.2815071213
 30
0.0
 11
1216.1521674986
 21
401.4815071213
 31
0.0
  0
LWPOLYLINE
  5
2B5
330
1F
100
AcDbEntity
  8
0
  6
Continuous
 62
     7
370
    15
100
AcDbPolyline
 90
        3
 70
   128
 43
0.0
 10
829.2675584766
 20
401.2815071213
 10
829.1593018933
 20
401.4008943344
 10
829.0726893462
 20
401.4815071213
  0
LWPOLYLINE
  5
2B6
330
1F
100
AcDbEntity
  8
0
  6
Continuous
 62
     7
370
    15
100
AcDbPolyline
 90
        3
 70
   128
 43
0.0
 10
826.9124620625
 20
401.4815071213
 10
826.8258495154
 20
401.4008943344
 10
826.7175929321
 20
401.2815071213
  0
LINE
  5
2B7
330
1F
100
AcDbEntity
  8
0
  6
Continuous
 62
     7
370
    15
100
AcDbLine
 10
827.8846973015
 20
401.2815071213
 30
0.0
 11
827.8329839101
 21
401.4815071213
 31
0.0
  0
LINE
  5
2B8
330
1F
100
AcDbEntity
  8
0
  6
Continuous
 62
     7
370
    15
100
AcDbLine
 10
1221.9925757043
 20
391.1423463054
 30
0.0
 11
1221.9925757043
 21
389.192680447
 31
0.0
  0
LINE
  5
2B9
330
1F
100
AcDbEntity
  8
0
  6
Continuous
 62
     7
370
    15
100
AcDbLine
 10
836.9925757043
 20
401.2815071213
 30
0.0
 11
836.9925757043
 21
401.4815071213
 31
0.0
  0
LINE
  5
2BA
330
1F
100
AcDbEntity
  8
0
  6
Continuous
 62
     7
370
    15
100
AcDbLine
 10
829.696418734
 20
401.2815071213
 30
0.0
 11
829.555952012
 21
401.4815071213
 31
0.0
  0
LINE
  5
2BB
330
1F
100
AcDbEntity
  8
0
  6
Continuous
 62
     7
370
    15
100
AcDbLine
 10
826.4291993967
 20
401.4815071213
 30
0.0
 11
826.2887326747
 21
401.2815071213
 31
0.0
  0
LINE
  5
2BC
330
1F
100
AcDbEntity
  8
0
  6
Continuous
 62
     7
370
    15
100
AcDbLine
 10
1206.9925757043
 20
401.2815071213
 30
0.0
 11
1206.9925757043
 21
401.4815071213
 31
0.0
  0
LINE
  5
2BD
330
1F
100
AcDbEntity
  8
0
  6
Continuous
 62
     7
370
    15
100
AcDbLine
 10
1221.9718650262
 20
409.3815071213
 30
0.0
 11
1221.9925757043
 21
409.3815071213
 31
0.0
  0
LINE
  5
2BE
330
1F
100
AcDbEntity
  8
0
  6
Continuous
 62
     7
370
    15
100
AcDbLine
 10
1221.9925757043
 20
409.3815071213
 30
0.0
 11
1221.9925757043
 21
391.1423463054
 31
0.0
  0
LINE
  5
2BF
330
1F
100
AcDbEntity
  8
0
  6
Continuous
 62
     7
370
    15
100
AcDbLine
 10
1214.2887326747
 20
401.2815071213
 30
0.0
 11
1214.4291993967
 21
401.4815071213
 31
0.0
  0
LINE
  5
2C0
330
1F
100
AcDbEntity
  8
0
  6
Continuous
 62
     7
370
    15
100
AcDbLine
 10
1217.555952012
 20
401.4815071213
 30
0.0
 11
1217.696418734
 21
401.2815071213
 31
0.0
  0
LINE
  5
2C1
330
1F
100
AcDbEntity
  8
0
  6
Continuous
 62
     7
370
    15
100
AcDbLine
 10
1221.9925757043
 20
364.8685634935
 30
0.0
 11
1221.9925757043
 21
389.192680447
 31
0.0
  0
LINE
  5
2C2
330
1F
100
AcDbEntity
  8
0
  6
Continuous
 62
     7
370
    15
100
AcDbLine
 10
1221.9925757043
 20
358.7781997638
 30
0.0
 11
1221.9925757043
 21
364.8685634935
 31
0.0
  0
LINE
  5
2C3
330
1F
100
AcDbEntity
  8
0
  6
Continuous
 62
     7
370
    15
100
AcDbLine
 10
1221.9925757043
 20
339.3278070034
 30
0.0
 11
821.9925757043
 21
339.3278070034
 31
0.0
  0
LINE
  5
2C4
330
1F
100
AcDbEntity
  8
0
  6
Continuous
 62
     7
370
    15
100
AcDbLine
 10
821.9925757043
 20
339.3278070034
 30
0.0
 11
821.9925757043
 21
351.0815071213
 31
0.0
  0
LINE
  5
2C5
330
1F
100
AcDbEntity
  8
0
  6
Continuous
 62
     7
370
    15
100
AcDbLine
 10
1221.9925757043
 20
339.3278070034
 30
0.0
 11
1221.9925757043
 21
358.7781997638
 31
0.0
  0
LINE
  5
2C6
330
1F
100
AcDbEntity
  8
0
  6
Continuous
 62
     7
370
    15
100
AcDbLine
 10
1221.9925757043
 20
332.2216245513
 30
0.0
 11
1221.9925757043
 21
339.3278070034
 31
0.0
  0
LINE
  5
2C7
330
1F
100
AcDbEntity
  8
0
  6
Continuous
 62
     7
370
    15
100
AcDbLine
 10
821.9925757043
 20
332.2216245513
 30
0.0
 11
821.9925757043
 21
339.3278070034
 31
0.0
  0
SPLINE
  5
2C8
330
1F
100
AcDbEntity
  8
0
  6
Continuous
 62
     7
370
    15
100
AcDbSpline
210
0.0
220
0.0
230
1.0
 70
     8
 71
     3
 72
    11
 73
     7
 74
     0
 42
0.00000001
 43
0.00000001
 12
1.0
 22
0.0
 32
0.0
 13
1.0
 23
0.0
 33
0.0
 40
0.0
 40
0.0
 40
0.0
 40
0.0
 40
0.1675796220904069
 40
0.5005477732542383
 40
0.8335159244180826
 40
1.0
 40
1.0
 40
1.0
 40
1.0
 10
822.3493750728088
 20
1114.421176439525
 30
0.0
 10
822.3681723923792
 20
1114.555426376034
 30
0.0
 10
822.4243185773194
 20
1114.956420876087
 30
0.0
 10
822.8468105124462
 20
1115.506524675215
 30
0.0
 10
823.3961751994924
 20
1115.928662173141
 30
0.0
 10
823.7962546809098
 20
1115.98477827487
 30
0.0
 10
823.929614508049
 20
1116.003483642113
 30
0.0
  0
LINE
  5
2C9
330
1F
100
AcDbEntity
  8
0
  6
Continuous
 62
     7
370
    15
100
AcDbLine
 10
847.6563070454
 20
1128.8815071213
 30
0.0
 11
849.6504782965
 21
1128.8815071213
 31
0.0
  0
SPLINE
  5
2CA
330
1F
100
AcDbEntity
  8
0
  6
Continuous
 62
     7
370
    15
100
AcDbSpline
210
0.0
220
0.0
230
1.0
 70
     8
 71
     3
 72
    13
 73
     9
 74
     0
 42
0.00000001
 43
0.00000001
 12
1.0
 22
0.0
 32
0.0
 13
1.0
 23
0.0
 33
0.0
 40
0.0
 40
0.0
 40
0.0
 40
0.0
 40
0.0075462231146395
 40
0.2722763788512022
 40
0.4815195415731379
 40
0.6613541616923211
 40
0.8304588949399848
 40
1.0
 40
1.0
 40
1.0
 40
1.0
 10
847.6563070454368
 20
1128.881507121287
 30
0.0
 10
847.6556980660295
 20
1128.881503937245
 30
0.0
 10
847.6337253910508
 20
1128.881389053341
 30
0.0
 10
847.5947273925945
 20
1128.869803393729
 30
0.0
 10
847.5472241488208
 20
1128.827084614457
 30
0.0
 10
847.5143970450649
 20
1128.771413011352
 30
0.0
 10
847.4927417230349
 20
1128.705277217972
 30
0.0
 10
847.4898961354421
 20
1128.656118268574
 30
0.0
 10
847.4884715082641
 20
1128.631507121287
 30
0.0
  0
LINE
  5
2CB
330
1F
100
AcDbEntity
  8
0
  6
Continuous
 62
     7
370
    15
100
AcDbLine
 10
849.6218650262
 20
1127.6815071213
 30
0.0
 11
847.6563070454
 21
1127.6815071213
 31
0.0
  0
SPLINE
  5
2CC
330
1F
100
AcDbEntity
  8
0
  6
Continuous
 62
     7
370
    15
100
AcDbSpline
210
0.0
220
0.0
230
1.0
 70
     8
 71
     3
 72
    13
 73
     9
 74
     0
 42
0.00000001
 43
0.00000001
 12
1.0
 22
0.0
 32
0.0
 13
1.0
 23
0.0
 33
0.0
 40
0.0
 40
0.0
 40
0.0
 40
0.0
 40
0.1695411050599486
 40
0.3386458383079653
 40
0.5184804584268122
 40
0.7277236211489893
 40
0.9924537768852733
 40
1.0
 40
1.0
 40
1.0
 40
1.0
 10
847.488471508264
 20
1127.931507121287
 30
0.0
 10
847.489896135442
 20
1127.906895974
 30
0.0
 10
847.4927417230347
 20
1127.857737024602
 30
0.0
 10
847.5143970450648
 20
1127.791601231222
 30
0.0
 10
847.5472241488205
 20
1127.735929628117
 30
0.0
 10
847.5947273925954
 20
1127.693210848845
 30
0.0
 10
847.6337253910492
 20
1127.681625189233
 30
0.0
 10
847.6556980660295
 20
1127.68151030533
 30
0.0
 10
847.6563070454368
 20
1127.681507121287
 30
0.0
  0
LINE
  5
2CD
330
1F
100
AcDbEntity
  8
0
  6
Continuous
 62
     7
370
    15
100
AcDbLine
 10
847.4884715083
 20
1127.9315071213
 30
0.0
 11
847.4884715083
 21
1128.6315071213
 31
0.0
  0
SPLINE
  5
2CE
330
1F
100
AcDbEntity
  8
0
  6
Continuous
 62
     7
370
    15
100
AcDbSpline
210
0.0
220
0.0
230
1.0
 70
     8
 71
     3
 72
    12
 73
     8
 74
     0
 42
0.00000001
 43
0.00000001
 12
1.0
 22
0.0
 32
0.0
 13
1.0
 23
0.0
 33
0.0
 40
0.0
 40
0.0
 40
0.0
 40
0.0
 40
0.1789601577903955
 40
0.3929009169381102
 40
0.5976976172812766
 40
0.7987833678438206
 40
1.0
 40
1.0
 40
1.0
 40
1.0
 10
847.3390007920618
 20
1128.631507121287
 30
0.0
 10
847.2235499667918
 20
1128.622895151433
 30
0.0
 10
846.970081621268
 20
1128.603987865622
 30
0.0
 10
846.6110039382036
 20
1128.440451840469
 30
0.0
 10
846.312050166923
 20
1128.169879528704
 30
0.0
 10
846.1106873590979
 20
1127.821749409144
 30
0.0
 10
846.0847359762199
 20
1127.56161609375
 30
0.0
 10
846.0717560633814
 20
1127.431507121287
 30
0.0
  0
LINE
  5
2CF
330
1F
100
AcDbEntity
  8
0
  6
Continuous
 62
     7
370
    15
100
AcDbLine
 10
846.0717560634
 20
1127.4315071213
 30
0.0
 11
845.8314564226
 21
1127.4315071213
 31
0.0
  0
SPLINE
  5
2D0
330
1F
100
AcDbEntity
  8
0
  6
Continuous
 62
     7
370
    15
100
AcDbSpline
210
0.0
220
0.0
230
1.0
 70
     8
 71
     3
 72
    12
 73
     8
 74
     0
 42
0.00000001
 43
0.00000001
 12
1.0
 22
0.0
 32
0.0
 13
1.0
 23
0.0
 33
0.0
 40
0.0
 40
0.0
 40
0.0
 40
0.0
 40
0.2028202020467267
 40
0.4049472449426676
 40
0.6098312030740816
 40
0.8226939241827798
 40
1.0
 40
1.0
 40
1.0
 40
1.0
 10
845.831456422552
 20
1127.431507121287
 30
0.0
 10
845.8468840748897
 20
1127.588647961823
 30
0.0
 10
845.8776866539567
 20
1127.902392597715
 30
0.0
 10
846.1168610515355
 20
1128.322788848185
 30
0.0
 10
846.4719619509624
 20
1128.649867383624
 30
0.0
 10
846.898425207371
 20
1128.84807664989
 30
0.0
 10
847.1994260604567
 20
1128.871061855812
 30
0.0
 10
847.3362111660284
 20
1128.881507121287
 30
0.0
  0
ARC
  5
2D1
330
1F
100
AcDbEntity
  8
0
  6
Continuous
 62
     7
370
    15
100
AcDbCircle
 10
841.7357993868
 20
1128.6939993393
 30
0.0
 40
5.603549880686277
100
AcDbArc
 50
359.3610096022
 51
1.9176077168
  0
LINE
  5
2D2
330
1F
100
AcDbEntity
  8
0
  6
Continuous
 62
     7
370
    15
100
AcDbLine
 10
846.0717560634
 20
1127.4315071213
 30
0.0
 11
846.0717560634
 21
1122.3315071213
 31
0.0
  0
LINE
  5
2D3
330
1F
100
AcDbEntity
  8
0
  6
Continuous
 62
     7
370
    15
100
AcDbLine
 10
846.0717560634
 20
1122.3315071213
 30
0.0
 11
845.8314564226
 21
1122.3315071213
 31
0.0
  0
LINE
  5
2D4
330
1F
100
AcDbEntity
  8
0
  6
Continuous
 62
     7
370
    15
100
AcDbLine
 10
845.8314564226
 20
1122.3315071213
 30
0.0
 11
845.8314564226
 21
1127.4315071213
 31
0.0
  0
ARC
  5
2D5
330
1F
100
AcDbEntity
  8
0
  6
Continuous
 62
     7
370
    15
100
AcDbCircle
 10
840.468554659
 20
1122.2690149033
 30
0.0
 40
5.603549879757884
100
AcDbArc
 50
358.0823922829
 51
0.6389903979
  0
ARC
  5
2D6
330
1F
100
AcDbEntity
  8
0
  6
Continuous
 62
     7
370
    15
100
AcDbCircle
 10
846.0753756333
 20
1122.3254181284
 30
0.0
 40
0.2439951991143778
100
AcDbArc
 50
178.5700136075
 51
268.4947977639
  0
LINE
  5
2D7
330
1F
100
AcDbEntity
  8
0
  6
Continuous
 62
     7
370
    15
100
AcDbLine
 10
846.8086749226
 20
1122.3315071213
 30
0.0
 11
846.8086749226
 21
1127.4315071213
 31
0.0
  0
LINE
  5
2D8
330
1F
100
AcDbEntity
  8
0
  6
Continuous
 62
     7
370
    15
100
AcDbLine
 10
846.0717560634
 20
1122.3315071213
 30
0.0
 11
846.8086749226
 21
1122.3315071213
 31
0.0
  0
LINE
  5
2D9
330
1F
100
AcDbEntity
  8
0
  6
Continuous
 62
     7
370
    15
100
AcDbLine
 10
847.4884715083
 20
1128.6315071213
 30
0.0
 11
847.3390007921
 21
1128.6315071213
 31
0.0
  0
LINE
  5
2DA
330
1F
100
AcDbEntity
  8
0
  6
Continuous
 62
     7
370
    15
100
AcDbLine
 10
847.3390007921
 20
1127.9315071213
 30
0.0
 11
847.4884715083
 21
1127.9315071213
 31
0.0
  0
SPLINE
  5
2DB
330
1F
100
AcDbEntity
  8
0
  6
Continuous
 62
     7
370
    15
100
AcDbSpline
210
0.0
220
0.0
230
1.0
 70
     8
 71
     3
 72
    12
 73
     8
 74
     0
 42
0.00000001
 43
0.00000001
 12
1.0
 22
0.0
 32
0.0
 13
1.0
 23
0.0
 33
0.0
 40
0.0
 40
0.0
 40
0.0
 40
0.0
 40
0.1818603118643465
 40
0.3964966430174774
 40
0.6005836871107211
 40
0.800212370330519
 40
0.9999999999999999
 40
0.9999999999999999
 40
0.9999999999999999
 40
0.9999999999999999
 10
847.3390007920617
 20
1127.931507121287
 30
0.0
 10
847.290016011617
 20
1127.927789369694
 30
0.0
 10
847.1832181027925
 20
1127.919683829725
 30
0.0
 10
847.0328299257347
 20
1127.850529130718
 30
0.0
 10
846.9085129831233
 20
1127.737689723764
 30
0.0
 10
846.8248699897694
 20
1127.593268623019
 30
0.0
 10
846.8140747102765
 20
1127.485441924961
 30
0.0
 10
846.8086749225564
 20
1127.431507121287
 30
0.0
  0
ARC
  5
2DC
330
1F
100
AcDbEntity
  8
0
  6
Continuous
 62
     7
370
    15
100
AcDbCircle
 10
841.2054735182
 20
1122.2690149033
 30
0.0
 40
5.603549879816339
100
AcDbArc
 50
358.0823922829
 51
0.638990398
  0
LINE
  5
2DD
330
1F
100
AcDbEntity
  8
0
  6
Continuous
 62
     7
370
    15
100
AcDbLine
 10
846.8058852965
 20
1122.0815071213
 30
0.0
 11
846.0689664373
 21
1122.0815071213
 31
0.0
  0
ARC
  5
2DE
330
1F
100
AcDbEntity
  8
0
  6
Continuous
 62
     7
370
    15
100
AcDbCircle
 10
841.7357993868
 20
1127.8690149033
 30
0.0
 40
5.603549880687754
100
AcDbArc
 50
358.0823922832
 51
0.6389903978
  0
LINE
  5
2DF
330
1F
100
AcDbEntity
  8
0
  6
Continuous
 62
     7
370
    15
100
AcDbLine
 10
847.6563070454
 20
1127.6815071213
 30
0.0
 11
847.336211166
 21
1127.6815071213
 31
0.0
  0
LINE
  5
2E0
330
1F
100
AcDbEntity
  8
0
  6
Continuous
 62
     7
370
    15
100
AcDbLine
 10
847.336211166
 20
1128.8815071213
 30
0.0
 11
847.6563070454
 21
1128.8815071213
 31
0.0
  0
LINE
  5
2E1
330
1F
100
AcDbEntity
  8
0
  6
Continuous
 62
     7
370
    15
100
AcDbLine
 10
846.7718650262
 20
1128.8815071213
 30
0.0
 11
847.336211166
 21
1128.8815071213
 31
0.0
  0
LINE
  5
2E2
330
1F
100
AcDbEntity
  8
0
  6
Continuous
 62
     7
370
    15
100
AcDbLine
 10
846.0689664373
 20
1122.0815071213
 30
0.0
 11
845.5718650262
 21
1122.0815071213
 31
0.0
  0
LINE
  5
2E3
330
1F
100
AcDbEntity
  8
0
  6
Continuous
 62
     7
370
    15
100
AcDbLine
 10
852.0036777481
 20
1133.2815071213
 30
0.0
 11
857.9945623329
 21
1133.2815071213
 31
0.0
  0
ARC
  5
2E4
330
1F
100
AcDbEntity
  8
0
  6
Continuous
 62
     7
370
    15
100
AcDbCircle
 10
857.7585977371
 20
1133.0901472238
 30
0.0
 40
0.3038056957755726
100
AcDbArc
 50
348.8710102269
 51
39.0409700263
  0
LINE
  5
2E5
330
1F
100
AcDbEntity
  8
0
  6
Continuous
 62
     7
370
    15
100
AcDbLine
 10
858.0566904059
 20
1133.0315071213
 30
0.0
 11
851.9152810828
 21
1133.0315071213
 31
0.0
  0
LWPOLYLINE
  5
2E6
330
1F
100
AcDbEntity
  8
0
  6
Continuous
 62
     7
370
    15
100
AcDbPolyline
 90
        9
 70
   128
 43
0.0
 10
852.0036777481
 20
1133.2815071213
 10
851.9864324142
 20
1133.2767034414
 10
851.9698498088
 20
1133.2624770044
 10
851.9545671921
 20
1133.2393745244
 10
851.9411718666
 20
1133.2082838166
 10
851.9301786071
 20
1133.1703996795
 10
851.9220098783
 20
1133.1271779794
 10
851.9169795999
 20
1133.0802797018
 10
851.9152810828
 20
1133.0315071213
  0
ARC
  5
2E7
330
1F
100
AcDbEntity
  8
0
  6
Continuous
 62
     7
370
    15
100
AcDbCircle
 10
857.9943722839
 20
1133.0316968815
 30
0.0
 40
0.2498103120631367
100
AcDbArc
 50
359.9564771318
 51
89.9564109096
  0
LINE
  5
2E8
330
1F
100
AcDbEntity
  8
0
  6
Continuous
 62
     7
370
    15
100
AcDbLine
 10
858.0566904059
 20
1133.0315071213
 30
0.0
 11
858.2441825239
 21
1133.0315071213
 31
0.0
  0
LINE
  5
2E9
330
1F
100
AcDbEntity
  8
0
  6
Continuous
 62
     7
370
    15
100
AcDbLine
 10
858.2847903087
 20
1133.0315071213
 30
0.0
 11
858.2441825239
 21
1133.0315071213
 31
0.0
  0
ARC
  5
2EA
330
1F
100
AcDbEntity
  8
0
  6
Continuous
 62
     7
370
    15
100
AcDbCircle
 10
858.0349800687
 20
1133.0316968815
 30
0.0
 40
0.2498103120630978
100
AcDbArc
 50
359.9564771318
 51
89.9564109097
  0
LINE
  5
2EB
330
1F
100
AcDbEntity
  8
0
  6
Continuous
 62
     7
370
    15
100
AcDbLine
 10
857.9945623329
 20
1133.2815071213
 30
0.0
 11
858.0351701177
 21
1133.2815071213
 31
0.0
  0
LINE
  5
2EC
330
1F
100
AcDbEntity
  8
0
  6
Continuous
 62
     7
370
    15
100
AcDbLine
 10
849.6218650262
 20
1126.4815071213
 30
0.0
 11
847.0718650262
 21
1126.4815071213
 31
0.0
  0
LINE
  5
2ED
330
1F
100
AcDbEntity
  8
0
  6
Continuous
 62
     7
370
    15
100
AcDbLine
 10
847.6232026486
 20
1127.6815071213
 30
0.0
 11
849.6218650262
 21
1127.6815071213
 31
0.0
  0
LINE
  5
2EE
330
1F
100
AcDbEntity
  8
0
  6
Continuous
 62
     7
370
    15
100
AcDbLine
 10
849.8284714642
 20
1129.3280891087
 30
0.0
 11
849.8284714642
 21
1133.6349251339
 31
0.0
  0
SPLINE
  5
2EF
330
1F
100
AcDbEntity
  8
0
  6
Continuous
 62
     7
370
    15
100
AcDbSpline
210
0.0
220
0.0
230
1.0
 70
     8
 71
     3
 72
    10
 73
     6
 74
     0
 42
0.00000001
 43
0.00000001
 12
1.0
 22
0.0
 32
0.0
 13
1.0
 23
0.0
 33
0.0
 40
0.0
 40
0.0
 40
0.0
 40
0.0
 40
0.0700627427125036
 40
0.5307703520768449
 40
1.0
 40
1.0
 40
1.0
 40
1.0
 10
851.6668356108572
 20
1134.081507121287
 30
0.0
 10
851.6232774210742
 20
1134.080974303843
 30
0.0
 10
851.2932961095831
 20
1134.076937868906
 30
0.0
 10
850.6711157514552
 20
1133.979410009494
 30
0.0
 10
850.1110636844712
 20
1133.750452821333
 30
0.0
 10
849.8284714642433
 20
1133.634925133902
 30
0.0
  0
SPLINE
  5
2F0
330
1F
100
AcDbEntity
  8
0
  6
Continuous
 62
     7
370
    15
100
AcDbSpline
210
0.0
220
0.0
230
1.0
 70
     8
 71
     3
 72
     9
 73
     5
 74
     0
 42
0.00000001
 43
0.00000001
 12
1.0
 22
0.0
 32
0.0
 13
1.0
 23
0.0
 33
0.0
 40
0.0
 40
0.0
 40
0.0
 40
0.0
 40
0.4954579634770545
 40
1.0
 40
1.0
 40
1.0
 40
1.0
 10
853.5051997574709
 20
1133.634925133902
 30
0.0
 10
853.2066413381667
 20
1133.759743912953
 30
0.0
 10
852.6040505205539
 20
1134.011669985905
 30
0.0
 10
851.9811268089222
 20
1134.058087522728
 30
0.0
 10
851.6668356108572
 20
1134.081507121287
 30
0.0
  0
LINE
  5
2F1
330
1F
100
AcDbEntity
  8
0
  6
Continuous
 62
     7
370
    15
100
AcDbLine
 10
853.5051997575
 20
1133.2815071213
 30
0.0
 11
853.5051997575
 21
1133.6349251339
 31
0.0
  0
SPLINE
  5
2F2
330
1F
100
AcDbEntity
  8
0
  6
Continuous
 62
     7
370
    15
100
AcDbSpline
210
0.0
220
0.0
230
1.0
 70
     8
 71
     3
 72
    10
 73
     6
 74
     0
 42
0.00000001
 43
0.00000001
 12
1.0
 22
0.0
 32
0.0
 13
1.0
 23
0.0
 33
0.0
 40
0.0
 40
0.0
 40
0.0
 40
0.0
 40
0.2572432618847219
 40
0.6263798857722532
 40
1.0
 40
1.0
 40
1.0
 40
1.0
 10
853.5051997574709
 20
1133.634925133902
 30
0.0
 10
853.7442527492958
 20
1133.700735125089
 30
0.0
 10
854.3263398547687
 20
1133.860980545944
 30
0.0
 10
855.2763876524768
 20
1134.040350121416
 30
0.0
 10
855.9919537897456
 20
1134.067733024341
 30
0.0
 10
856.3518965384607
 20
1134.081507121287
 30
0.0
  0
LINE
  5
2F3
330
1F
100
AcDbEntity
  8
0
  6
Continuous
 62
     7
370
    15
100
AcDbLine
 10
851.6668356109
 20
1134.0815071213
 30
0.0
 11
856.3518965385
 21
1134.0815071213
 31
0.0
  0
SPLINE
  5
2F4
330
1F
100
AcDbEntity
  8
0
  6
Continuous
 62
     7
370
    15
100
AcDbSpline
210
0.0
220
0.0
230
1.0
 70
     8
 71
     3
 72
    10
 73
     6
 74
     0
 42
0.00000001
 43
0.00000001
 12
1.0
 22
0.0
 32
0.0
 13
1.0
 23
0.0
 33
0.0
 40
0.0
 40
0.0
 40
0.0
 40
0.0
 40
0.2684065359322153
 40
0.6323728964503232
 40
1.0
 40
1.0
 40
1.0
 40
1.0
 10
856.3518965384607
 20
1134.081507121287
 30
0.0
 10
856.6104184310086
 20
1134.074251367057
 30
0.0
 10
857.2195028462544
 20
1134.057156618219
 30
0.0
 10
858.1750772663408
 20
1133.910326591042
 30
0.0
 10
858.856285093853
 20
1133.727031343506
 30
0.0
 10
859.1985933194503
 20
1133.634925133902
 30
0.0
  0
LINE
  5
2F5
330
1F
100
AcDbEntity
  8
0
  6
Continuous
 62
     7
370
    15
100
AcDbLine
 10
859.1985933195
 20
1130.2815071213
 30
0.0
 11
859.1985933195
 21
1133.6349251339
 31
0.0
  0
SPLINE
  5
2F6
330
1F
100
AcDbEntity
  8
0
  6
Continuous
 62
     7
370
    15
100
AcDbSpline
210
0.0
220
0.0
230
1.0
 70
     8
 71
     3
 72
    10
 73
     6
 74
     0
 42
0.00000001
 43
0.00000001
 12
1.0
 22
0.0
 32
0.0
 13
1.0
 23
0.0
 33
0.0
 40
0.0
 40
0.0
 40
0.0
 40
0.0
 40
0.0700627427124374
 40
0.5307703520768361
 40
1.0
 40
1.0
 40
1.0
 40
1.0
 10
860.2069259538262
 20
1134.081507121287
 30
0.0
 10
860.1830345260405
 20
1134.080974303843
 30
0.0
 10
860.0020415896175
 20
1134.076937868906
 30
0.0
 10
859.6607790814667
 20
1133.979410009495
 30
0.0
 10
859.353593599673
 20
1133.750452821333
 30
0.0
 10
859.1985933194503
 20
1133.634925133902
 30
0.0
  0
LINE
  5
2F7
330
1F
100
AcDbEntity
  8
0
  6
Continuous
 62
     7
370
    15
100
AcDbLine
 10
856.3518965385
 20
1134.0815071213
 30
0.0
 11
860.2069259538
 21
1134.0815071213
 31
0.0
  0
SPLINE
  5
2F8
330
1F
100
AcDbEntity
  8
0
  6
Continuous
 62
     7
370
    15
100
AcDbSpline
210
0.0
220
0.0
230
1.0
 70
     8
 71
     3
 72
     9
 73
     5
 74
     0
 42
0.00000001
 43
0.00000001
 12
1.0
 22
0.0
 32
0.0
 13
1.0
 23
0.0
 33
0.0
 40
0.0
 40
0.0
 40
0.0
 40
0.0
 40
0.4954579634769958
 40
1.0
 40
1.0
 40
1.0
 40
1.0
 10
861.2152585882021
 20
1133.634925133902
 30
0.0
 10
861.0515009355049
 20
1133.759743912954
 30
0.0
 10
860.7209831827012
 20
1134.011669985905
 30
0.0
 10
860.3793129492374
 20
1134.058087522728
 30
0.0
 10
860.2069259538262
 20
1134.081507121287
 30
0.0
  0
LINE
  5
2F9
330
1F
100
AcDbEntity
  8
0
  6
Continuous
 62
     7
370
    15
100
AcDbLine
 10
861.2152585882
 20
1130.2815071213
 30
0.0
 11
861.2152585882
 21
1133.6349251339
 31
0.0
  0
LINE
  5
2FA
330
1F
100
AcDbEntity
  8
0
  6
Continuous
 62
     7
370
    15
100
AcDbLine
 10
849.8284714642
 20
1133.6349251339
 30
0.0
 11
850.1859039434
 21
1133.8693555487
 31
0.0
  0
LINE
  5
2FB
330
1F
100
AcDbEntity
  8
0
  6
Continuous
 62
     7
370
    15
100
AcDbLine
 10
850.5218650262
 20
1134.0815071213
 30
0.0
 11
851.6668356109
 21
1134.0815071213
 31
0.0
  0
LINE
  5
2FC
330
1F
100
AcDbEntity
  8
0
  6
Continuous
 62
     7
370
    15
100
AcDbLine
 10
860.2069259538
 20
1134.0815071213
 30
0.0
 11
860.5218650262
 21
1134.0815071213
 31
0.0
  0
LINE
  5
2FD
330
1F
100
AcDbEntity
  8
0
  6
Continuous
 62
     7
370
    15
100
AcDbLine
 10
855.5624086137
 20
1121.5815071213
 30
0.0
 11
855.5624086137
 21
1117.6815071213
 31
0.0
  0
LINE
  5
2FE
330
1F
100
AcDbEntity
  8
0
  6
Continuous
 62
     7
370
    15
100
AcDbLine
 10
866.3403535557
 20
1117.6815071213
 30
0.0
 11
866.3403535557
 21
1121.5815071213
 31
0.0
  0
LINE
  5
2FF
330
1F
100
AcDbEntity
  8
0
  6
Continuous
 62
     7
370
    15
100
AcDbLine
 10
866.3403535557
 20
1121.5815071213
 30
0.0
 11
855.5624086137
 21
1121.5815071213
 31
0.0
  0
LINE
  5
300
330
1F
100
AcDbEntity
  8
0
  6
Continuous
 62
     7
370
    15
100
AcDbLine
 10
866.3403535557
 20
1117.6815071213
 30
0.0
 11
855.5624086137
 21
1117.6815071213
 31
0.0
  0
LINE
  5
301
330
1F
100
AcDbEntity
  8
0
  6
Continuous
 62
     7
370
    15
100
AcDbLine
 10
867.5237439641
 20
1121.5815071213
 30
0.0
 11
867.5237439641
 21
1117.6815071213
 31
0.0
  0
LINE
  5
302
330
1F
100
AcDbEntity
  8
0
  6
Continuous
 62
     7
370
    15
100
AcDbLine
 10
866.3403535557
 20
1121.5815071213
 30
0.0
 11
867.5237439641
 21
1121.5815071213
 31
0.0
  0
LINE
  5
303
330
1F
100
AcDbEntity
  8
0
  6
Continuous
 62
     7
370
    15
100
AcDbLine
 10
867.5237439641
 20
1117.6815071213
 30
0.0
 11
866.3403535557
 21
1117.6815071213
 31
0.0
  0
LINE
  5
304
330
1F
100
AcDbEntity
  8
0
  6
Continuous
 62
     7
370
    15
100
AcDbLine
 10
853.9465215646
 20
1117.6815071213
 30
0.0
 11
853.9465215646
 21
1121.5815071213
 31
0.0
  0
LINE
  5
305
330
1F
100
AcDbEntity
  8
0
  6
Continuous
 62
     7
370
    15
100
AcDbLine
 10
853.9465215646
 20
1121.5815071213
 30
0.0
 11
855.5624086137
 21
1121.5815071213
 31
0.0
  0
LINE
  5
306
330
1F
100
AcDbEntity
  8
0
  6
Continuous
 62
     7
370
    15
100
AcDbLine
 10
855.5624086137
 20
1117.6815071213
 30
0.0
 11
853.9465215646
 21
1117.6815071213
 31
0.0
  0
LINE
  5
307
330
1F
100
AcDbEntity
  8
0
  6
Continuous
 62
     7
370
    15
100
AcDbLine
 10
860.5218650262
 20
1130.2815071213
 30
0.0
 11
850.9718650262
 21
1130.2815071213
 31
0.0
  0
LINE
  5
308
330
1F
100
AcDbEntity
  8
0
  6
Continuous
 62
     7
370
    15
100
AcDbLine
 10
870.0718650262
 20
1130.2815071213
 30
0.0
 11
860.5218650262
 21
1130.2815071213
 31
0.0
  0
LINE
  5
309
330
1F
100
AcDbEntity
  8
0
  6
Continuous
 62
     7
370
    15
100
AcDbLine
 10
848.5605296758
 20
1121.5815071213
 30
0.0
 11
848.5605296758
 21
1117.6815071213
 31
0.0
  0
LINE
  5
30A
330
1F
100
AcDbEntity
  8
0
  6
Continuous
 62
     7
370
    15
100
AcDbLine
 10
853.9465215646
 20
1121.5815071213
 30
0.0
 11
848.5605296758
 21
1121.5815071213
 31
0.0
  0
LINE
  5
30B
330
1F
100
AcDbEntity
  8
0
  6
Continuous
 62
     7
370
    15
100
AcDbLine
 10
853.9465215646
 20
1117.6815071213
 30
0.0
 11
848.5605296758
 21
1117.6815071213
 31
0.0
  0
LINE
  5
30C
330
1F
100
AcDbEntity
  8
0
  6
Continuous
 62
     7
370
    15
100
AcDbLine
 10
872.9156970173
 20
1117.6815071213
 30
0.0
 11
872.9156970173
 21
1121.5815071213
 31
0.0
  0
LINE
  5
30D
330
1F
100
AcDbEntity
  8
0
  6
Continuous
 62
     7
370
    15
100
AcDbLine
 10
872.9156970173
 20
1121.5815071213
 30
0.0
 11
867.5237439641
 21
1121.5815071213
 31
0.0
  0
LINE
  5
30E
330
1F
100
AcDbEntity
  8
0
  6
Continuous
 62
     7
370
    15
100
AcDbLine
 10
872.9156970173
 20
1117.6815071213
 30
0.0
 11
867.5237439641
 21
1117.6815071213
 31
0.0
  0
LINE
  5
30F
330
1F
100
AcDbEntity
  8
0
  6
Continuous
 62
     7
370
    15
100
AcDbLine
 10
848.1280330352
 20
1117.6815071213
 30
0.0
 11
848.1280330352
 21
1121.5815071213
 31
0.0
  0
LINE
  5
310
330
1F
100
AcDbEntity
  8
0
  6
Continuous
 62
     7
370
    15
100
AcDbLine
 10
848.1280330352
 20
1121.5815071213
 30
0.0
 11
848.5605296758
 21
1121.5815071213
 31
0.0
  0
LINE
  5
311
330
1F
100
AcDbEntity
  8
0
  6
Continuous
 62
     7
370
    15
100
AcDbLine
 10
848.5605296758
 20
1117.6815071213
 30
0.0
 11
848.1280330352
 21
1117.6815071213
 31
0.0
  0
LINE
  5
312
330
1F
100
AcDbEntity
  8
0
  6
Continuous
 62
     7
370
    15
100
AcDbLine
 10
849.6218650262
 20
1128.7815071213
 30
0.0
 11
871.4218650262
 21
1128.7815071213
 31
0.0
  0
LINE
  5
313
330
1F
100
AcDbEntity
  8
0
  6
Continuous
 62
     8
370
    15
100
AcDbLine
 10
885.495529798
 20
801.4596485602
 30
0.0
 11
886.524014981
 21
605.8847782841
 31
0.0
  0
LINE
  5
314
330
1F
100
AcDbEntity
  8
0
  6
Continuous
 62
     8
370
    15
100
AcDbLine
 10
1157.3801225327
 20
607.3091509192
 30
0.0
 11
1156.3591278118
 21
801.4596485602
 31
0.0
  0
LINE
  5
315
330
1F
100
AcDbEntity
  8
0
  6
Continuous
 62
     8
370
    15
100
AcDbLine
 10
1160.3883492709
 20
607.0868992122
 30
0.0
 11
1160.3892924312
 21
606.9075495693
 31
0.0
  0
LINE
  5
316
330
1F
100
AcDbEntity
  8
0
  6
Continuous
 62
     8
370
    15
100
AcDbLine
 10
883.5192352631
 20
605.4515508972
 30
0.0
 11
883.5182921028
 21
605.6309005401
 31
0.0
  0
LINE
  5
317
330
1F
100
AcDbEntity
  8
0
  6
Continuous
 62
     8
370
    15
100
AcDbLine
 10
1179.8601787819
 20
801.4596485602
 30
0.0
 11
1179.8601787819
 21
525.6815071213
 31
0.0
  0
LINE
  5
318
330
1F
100
AcDbEntity
  8
0
  6
Continuous
 62
     8
370
    15
100
AcDbLine
 10
864.0835512706
 20
801.4596485602
 30
0.0
 11
864.0835512706
 21
525.6815071213
 31
0.0
  0
LINE
  5
319
330
1F
100
AcDbEntity
  8
0
  6
Continuous
 62
     8
370
    15
100
AcDbLine
 10
1172.7013044507
 20
801.4596485602
 30
0.0
 11
1172.7013044507
 21
582.1815071213
 31
0.0
  0
LINE
  5
31A
330
1F
100
AcDbEntity
  8
0
  6
Continuous
 62
     8
370
    15
100
AcDbLine
 10
871.2424256018
 20
582.1815071213
 30
0.0
 11
871.2424256018
 21
801.4596485602
 31
0.0
  0
LINE
  5
31B
330
1F
100
AcDbEntity
  8
0
  6
Continuous
 62
     8
370
    15
100
AcDbLine
 10
1170.902742725
 20
582.1815071213
 30
0.0
 11
1170.902742725
 21
801.4596485602
 31
0.0
  0
LINE
  5
31C
330
1F
100
AcDbEntity
  8
0
  6
Continuous
 62
     8
370
    15
100
AcDbLine
 10
862.5146221895
 20
801.4596485602
 30
0.0
 11
862.5146221895
 21
525.6815071213
 31
0.0
  0
LINE
  5
31D
330
1F
100
AcDbEntity
  8
0
  6
Continuous
 62
     8
370
    15
100
AcDbLine
 10
1181.429107863
 20
801.4596485602
 30
0.0
 11
1181.429107863
 21
525.6815071213
 31
0.0
  0
LINE
  5
31E
330
1F
100
AcDbEntity
  8
0
  6
Continuous
 62
     8
370
    15
100
AcDbLine
 10
873.0409873275
 20
801.4596485602
 30
0.0
 11
873.0409873275
 21
582.1815071213
 31
0.0
  0
LINE
  5
31F
330
1F
100
AcDbEntity
  8
0
  6
Continuous
 62
     8
370
    15
100
AcDbLine
 10
861.9004864446
 20
801.4596485602
 30
0.0
 11
861.9004864446
 21
525.6815071213
 31
0.0
  0
LINE
  5
320
330
1F
100
AcDbEntity
  8
0
  6
Continuous
 62
     8
370
    15
100
AcDbLine
 10
1182.0432436078
 20
801.4596485602
 30
0.0
 11
1182.0432436078
 21
525.6815071213
 31
0.0
  0
LINE
  5
321
330
1F
100
AcDbEntity
  8
0
  6
Continuous
 62
     8
370
    15
100
AcDbLine
 10
1170.0083384932
 20
582.1815071213
 30
0.0
 11
1170.0083384932
 21
801.4596485602
 31
0.0
  0
LINE
  5
322
330
1F
100
AcDbEntity
  8
0
  6
Continuous
 62
     8
370
    15
100
AcDbLine
 10
873.9353915593
 20
582.1815071213
 30
0.0
 11
873.9353915593
 21
801.4596485602
 31
0.0
  0
LINE
  5
323
330
1F
100
AcDbEntity
  8
0
  6
Continuous
 62
     8
370
    15
100
AcDbLine
 10
1177.4718650262
 20
521.1101285397
 30
0.0
 11
1177.4718650262
 21
520.8815071213
 31
0.0
  0
LINE
  5
324
330
1F
100
AcDbEntity
  8
0
  6
Continuous
 62
     8
370
    15
100
AcDbLine
 10
1182.0432436078
 20
525.6815071213
 30
0.0
 11
1182.2718650262
 21
525.6815071213
 31
0.0
  0
LINE
  5
325
330
1F
100
AcDbEntity
  8
0
  6
Continuous
 62
     8
370
    15
100
AcDbLine
 10
861.9004864446
 20
525.6815071213
 30
0.0
 11
861.6718650262
 21
525.6815071213
 31
0.0
  0
LINE
  5
326
330
1F
100
AcDbEntity
  8
0
  6
Continuous
 62
     8
370
    15
100
AcDbLine
 10
866.4718650262
 20
521.1101285397
 30
0.0
 11
866.4718650262
 21
520.8815071213
 31
0.0
  0
LINE
  5
327
330
1F
100
AcDbEntity
  8
0
  6
Continuous
 62
     8
370
    15
100
AcDbLine
 10
1169.5602999198
 20
582.1815071213
 30
0.0
 11
1169.5602999198
 21
801.4596485602
 31
0.0
  0
LINE
  5
328
330
1F
100
AcDbEntity
  8
0
  6
Continuous
 62
     8
370
    15
100
AcDbLine
 10
874.3834301326
 20
582.1815071213
 30
0.0
 11
874.3834301326
 21
801.4596485602
 31
0.0
  0
LINE
  5
329
330
1F
100
AcDbEntity
  8
0
  6
Continuous
 62
     8
370
    15
100
AcDbLine
 10
875.2304710914
 20
582.1815071213
 30
0.0
 11
875.2304710914
 21
801.4596485602
 31
0.0
  0
LINE
  5
32A
330
1F
100
AcDbEntity
  8
0
  6
Continuous
 62
     8
370
    15
100
AcDbLine
 10
1168.7132589611
 20
582.1815071213
 30
0.0
 11
1168.7132589611
 21
801.4596485602
 31
0.0
  0
LINE
  5
32B
330
1F
100
AcDbEntity
  8
0
  6
Continuous
 62
     8
370
    15
100
AcDbLine
 10
1168.1860819742
 20
582.1815071213
 30
0.0
 11
1168.1860819742
 21
801.4596485602
 31
0.0
  0
LINE
  5
32C
330
1F
100
AcDbEntity
  8
0
  6
Continuous
 62
     8
370
    15
100
AcDbLine
 10
875.7576480783
 20
582.1815071213
 30
0.0
 11
875.7576480783
 21
801.4596485602
 31
0.0
  0
LINE
  5
32D
330
1F
100
AcDbEntity
  8
0
  6
Continuous
 62
     8
370
    15
100
AcDbLine
 10
879.3224677601
 20
582.1815071213
 30
0.0
 11
879.3224677601
 21
801.4596485602
 31
0.0
  0
LINE
  5
32E
330
1F
100
AcDbEntity
  8
0
  6
Continuous
 62
     8
370
    15
100
AcDbLine
 10
1164.6212622923
 20
582.1815071213
 30
0.0
 11
1164.6212622923
 21
801.4596485602
 31
0.0
  0
LINE
  5
32F
330
1F
100
AcDbEntity
  8
0
  6
Continuous
 62
     8
370
    15
100
AcDbLine
 10
1151.4431318222
 20
582.1815071213
 30
0.0
 11
1164.6212622923
 21
582.1815071213
 31
0.0
  0
LINE
  5
330
330
1F
100
AcDbEntity
  8
0
  6
Continuous
 62
     8
370
    15
100
AcDbLine
 10
922.9718650262
 20
553.5015174348
 30
0.0
 11
926.0684128604
 21
553.5015174348
 31
0.0
  0
LINE
  5
331
330
1F
100
AcDbEntity
  8
0
  6
Continuous
 62
     8
370
    15
100
AcDbLine
 10
1114.5646090174
 20
553.5015174348
 30
0.0
 11
1120.9718650262
 21
553.5015174348
 31
0.0
  0
LINE
  5
332
330
1F
100
AcDbEntity
  8
0
  6
Continuous
 62
     8
370
    15
100
AcDbLine
 10
892.0391034433
 20
582.1815071213
 30
0.0
 11
879.3224677601
 21
582.1815071213
 31
0.0
  0
ARC
  5
333
330
1F
100
AcDbEntity
  8
0
  6
Continuous
 62
     8
370
    15
100
AcDbCircle
 10
1120.9718650262
 20
582.1815071213
 30
0.0
 40
28.6799896864527
100
AcDbArc
 50
270.0
 51
352.7299614781
  0
ARC
  5
334
330
1F
100
AcDbEntity
  8
0
  6
Continuous
 62
     8
370
    15
100
AcDbCircle
 10
922.9718650262
 20
582.1815071213
 30
0.0
 40
28.67998968645272
100
AcDbArc
 50
189.7068029031
 51
270.0
  0
LINE
  5
335
330
1F
100
AcDbEntity
  8
0
  6
Continuous
 62
     8
370
    15
100
AcDbLine
 10
824.6718650262
 20
801.4596485602
 30
0.0
 11
824.6718650262
 21
401.4815071213
 31
0.0
  0
LINE
  5
336
330
1F
100
AcDbEntity
  8
0
  6
Continuous
 62
     8
370
    15
100
AcDbLine
 10
837.2718650262
 20
801.4596485602
 30
0.0
 11
837.2718650262
 21
401.4815071213
 31
0.0
  0
LINE
  5
337
330
1F
100
AcDbEntity
  8
0
  6
Continuous
 62
     8
370
    15
100
AcDbLine
 10
1206.6718650262
 20
401.4815071213
 30
0.0
 11
1206.6718650262
 21
801.4596485602
 31
0.0
  0
LINE
  5
338
330
1F
100
AcDbEntity
  8
0
  6
Continuous
 62
     8
370
    15
100
AcDbLine
 10
1219.2718650262
 20
401.4815071213
 30
0.0
 11
1219.2718650262
 21
801.4596485602
 31
0.0
  0
LINE
  5
339
330
1F
100
AcDbEntity
  8
0
  6
Continuous
 62
     8
370
    15
100
AcDbLine
 10
861.1718650262
 20
1116.0815071213
 30
0.0
 11
861.1718650262
 21
1116.4815071213
 31
0.0
  0
LINE
  5
33A
330
1F
100
AcDbEntity
  8
0
  6
Continuous
 62
     8
370
    15
100
AcDbLine
 10
1182.7718650262
 20
1116.4815071213
 30
0.0
 11
1182.7718650262
 21
1116.0815071213
 31
0.0
  0
LINE
  5
33B
330
1F
100
AcDbEntity
  8
0
  6
Continuous
 62
     8
370
    15
100
AcDbLine
 10
841.4718650262
 20
402.9815071213
 30
0.0
 11
841.4718650262
 21
801.4596485602
 31
0.0
  0
LINE
  5
33C
330
1F
100
AcDbEntity
  8
0
  6
Continuous
 62
     8
370
    15
100
AcDbLine
 10
1202.4718650262
 20
801.4596485602
 30
0.0
 11
1202.4718650262
 21
402.9815071213
 31
0.0
  0
LINE
  5
33D
330
1F
100
AcDbEntity
  8
0
  6
Continuous
 62
     8
370
    15
100
AcDbLine
 10
1221.9925757043
 20
391.1423463054
 30
0.0
 11
1221.9511543481
 21
391.1423463054
 31
0.0
  0
LINE
  5
33E
330
1F
100
AcDbEntity
  8
0
  6
Continuous
 62
     8
370
    15
100
AcDbLine
 10
1221.9925757043
 20
389.192680447
 30
0.0
 11
1221.9511543481
 21
389.192680447
 31
0.0
  0
LINE
  5
33F
330
1F
100
AcDbEntity
  8
0
  6
Continuous
 62
     8
370
    15
100
AcDbLine
 10
1221.9925757043
 20
364.8685634935
 30
0.0
 11
1221.9511543481
 21
364.8685634935
 31
0.0
  0
LINE
  5
340
330
1F
100
AcDbEntity
  8
0
  6
Continuous
 62
     8
370
    15
100
AcDbLine
 10
1221.9925757043
 20
358.7781997638
 30
0.0
 11
1221.9511543481
 21
358.7781997638
 31
0.0
  0
LINE
  5
341
330
1F
100
AcDbEntity
  8
0
  6
Continuous
 62
     8
370
    15
100
AcDbLine
 10
849.6364903751
 20
1128.6315071213
 30
0.0
 11
847.4884715083
 21
1128.6315071213
 31
0.0
  0
LINE
  5
342
330
1F
100
AcDbEntity
  8
0
  6
Continuous
 62
     8
370
    15
100
AcDbLine
 10
847.4884715083
 20
1127.9315071213
 30
0.0
 11
849.6218650262
 21
1127.9315071213
 31
0.0
  0
LINE
  5
343
330
1F
100
AcDbEntity
  8
0
  6
Continuous
 62
     8
370
    15
100
AcDbLine
 10
846.8086749226
 20
1127.4315071213
 30
0.0
 11
847.0558837406
 21
1127.4315071213
 31
0.0
  0
LINE
  5
344
330
1F
100
AcDbEntity
  8
0
  6
Continuous
 62
     8
370
    15
100
AcDbLine
 10
846.8086749226
 20
1122.3315071213
 30
0.0
 11
847.0558852965
 21
1122.3315071213
 31
0.0
  0
LINE
  5
345
330
1F
100
AcDbEntity
  8
0
  6
Continuous
 62
     8
370
    15
100
AcDbLine
 10
845.8314564226
 20
1127.4315071213
 30
0.0
 11
845.3218650262
 21
1127.4315071213
 31
0.0
  0
LINE
  5
346
330
1F
100
AcDbEntity
  8
0
  6
Continuous
 62
     8
370
    15
100
AcDbLine
 10
845.3218650262
 20
1122.3315071213
 30
0.0
 11
845.8314564226
 21
1122.3315071213
 31
0.0
  0
LINE
  5
347
330
1F
100
AcDbEntity
  8
0
  6
Continuous
 62
     8
370
    15
100
AcDbLine
 10
851.9152810828
 20
1133.0315071213
 30
0.0
 11
851.9152810828
 21
1130.2815071213
 31
0.0
  0
LINE
  5
348
330
1F
100
AcDbEntity
  8
0
  6
Continuous
 62
     8
370
    15
100
AcDbLine
 10
858.0566904059
 20
1130.2815071213
 30
0.0
 11
858.0566904059
 21
1133.0315071213
 31
0.0
  0
LINE
  5
349
330
1F
100
AcDbEntity
  8
0
  6
Continuous
 62
     8
370
    15
100
AcDbLine
 10
858.2441825239
 20
1133.0315071213
 30
0.0
 11
858.2441825239
 21
1130.2815071213
 31
0.0
  0
LINE
  5
34A
330
1F
100
AcDbEntity
  8
0
  6
Continuous
 62
     8
370
    15
100
AcDbLine
 10
858.2847903087
 20
1130.2815071213
 30
0.0
 11
858.2847903087
 21
1133.0315071213
 31
0.0
  0
LINE
  5
34B
330
1F
100
AcDbEntity
  8
0
  6
Continuous
 62
     8
370
    15
100
AcDbLine
 10
851.7536777481
 20
1133.0315071213
 30
0.0
 11
851.9152810828
 21
1133.0315071213
 31
0.0
  0
LINE
  5
34C
330
1F
100
AcDbEntity
  8
0
  6
Continuous
 62
     8
370
    15
100
AcDbLine
 10
858.2851701177
 20
1133.0315071213
 30
0.0
 11
858.2847903087
 21
1133.0315071213
 31
0.0
  0
LINE
  5
34D
330
1F
100
AcDbEntity
  8
0
  6
Continuous
 62
     8
370
    15
100
AcDbLine
 10
847.0558852965
 20
1126.7315071213
 30
0.0
 11
849.6218650262
 21
1126.7315071213
 31
0.0
  0
LINE
  5
34E
330
1F
100
AcDbEntity
  8
0
  6
Continuous
 62
     8
370
    15
100
AcDbLine
 10
849.6218650262
 20
1127.4315071213
 30
0.0
 11
847.0558852965
 21
1127.4315071213
 31
0.0
  0
LINE
  5
34F
330
1F
100
AcDbEntity
  8
0
  6
Continuous
 62
     8
370
    15
100
AcDbLine
 10
871.4218650262
 20
1128.3900790893
 30
0.0
 11
849.6218650262
 21
1128.3900790893
 31
0.0
  0
ENDSEC
  0
SECTION
  2
OBJECTS
  0
DICTIONARY
  5
C
330
0
100
AcDbDictionary
281
     1
  3
ACAD_GROUP
350
D
  3
ACAD_LAYOUT
350
1A
  3
ACAD_MLINESTYLE
350
17
  3
ACAD_PLOTSETTINGS
350
19
  3
ACAD_PLOTSTYLENAME
350
E
  0
DICTIONARY
  5
D
102
{ACAD_REACTORS
330
C
102
}
330
C
100
AcDbDictionary
281
     1
  0
DICTIONARY
  5
1A
102
{ACAD_REACTORS
330
C
102
}
330
C
100
AcDbDictionary
281
     1
  3
Layout1
350
1E
  3
Layout2
350
26
  3
Model
350
22
  0
DICTIONARY
  5
17
102
{ACAD_REACTORS
330
C
102
}
330
C
100
AcDbDictionary
281
     1
  3
Standard
350
18
  0
DICTIONARY
  5
19
102
{ACAD_REACTORS
330
C
102
}
330
C
100
AcDbDictionary
281
     1
  0
ACDBDICTIONARYWDFLT
  5
E
102
{ACAD_REACTORS
330
C
102
}
330
C
100
AcDbDictionary
281
     1
  3
Normal
350
F
100
AcDbDictionaryWithDefault
340
F
  0
LAYOUT
  5
1E
102
{ACAD_REACTORS
330
1A
102
}
330
1A
100
AcDbPlotSettings
  1

  2
none_device
  4

  6

 40
0.0
 41
0.0
 42
0.0
 43
0.0
 44
0.0
 45
0.0
 46
0.0
 47
0.0
 48
0.0
 49
0.0
140
0.0
141
0.0
142
1.0
143
1.0
 70
   688
 72
     0
 73
     0
 74
     5
  7

 75
    16
147
1.0
148
0.0
149
0.0
100
AcDbLayout
  1
Layout1
 70
     1
 71
     1
 10
0.0
 20
0.0
 11
420.0
 21
297.0
 12
0.0
 22
0.0
 32
0.0
 14
1.0000000000E+20
 24
1.0000000000E+20
 34
1.0000000000E+20
 15
-1.0000000000E+20
 25
-1.0000000000E+20
 35
-1.0000000000E+20
146
0.0
 13
0.0
 23
0.0
 33
0.0
 16
1.0
 26
0.0
 36
0.0
 17
0.0
 27
1.0
 37
0.0
 76
     0
330
1B
  0
LAYOUT
  5
26
102
{ACAD_REACTORS
330
1A
102
}
330
1A
100
AcDbPlotSettings
  1

  2
none_device
  4

  6

 40
0.0
 41
0.0
 42
0.0
 43
0.0
 44
0.0
 45
0.0
 46
0.0
 47
0.0
 48
0.0
 49
0.0
140
0.0
141
0.0
142
1.0
143
1.0
 70
   688
 72
     0
 73
     0
 74
     5
  7

 75
    16
147
1.0
148
0.0
149
0.0
100
AcDbLayout
  1
Layout2
 70
     1
 71
     2
 10
0.0
 20
0.0
 11
0.0
 21
0.0
 12
0.0
 22
0.0
 32
0.0
 14
0.0
 24
0.0
 34
0.0
 15
0.0
 25
0.0
 35
0.0
146
0.0
 13
0.0
 23
0.0
 33
0.0
 16
1.0
 26
0.0
 36
0.0
 17
0.0
 27
1.0
 37
0.0
 76
     0
330
23
  0
LAYOUT
  5
22
102
{ACAD_REACTORS
330
1A
102
}
330
1A
100
AcDbPlotSettings
  1

  2
none_device
  4

  6

 40
0.0
 41
0.0
 42
0.0
 43
0.0
 44
0.0
 45
0.0
 46
0.0
 47
0.0
 48
0.0
 49
0.0
140
0.0
141
0.0
142
1.0
143
1.0
 70
  1712
 72
     0
 73
     0
 74
     0
  7

 75
     0
147
1.0
148
0.0
149
0.0
100
AcDbLayout
  1
Model
 70
     1
 71
     0
 10
0.0
 20
0.0
 11
2159.0
 21
1397.0
 12
0.0
 22
0.0
 32
0.0
 14
0.0
 24
0.0
 34
0.0
 15
2159.0
 25
1397.0
 35
0.0
146
0.0
 13
0.0
 23
0.0
 33
0.0
 16
1.0
 26
0.0
 36
0.0
 17
0.0
 27
1.0
 37
0.0
 76
     0
330
1F
331
29
  0
MLINESTYLE
  5
18
102
{ACAD_REACTORS
330
17
102
}
330
17
100
AcDbMlineStyle
  2
Standard
 70
     0
  3

 62
   256
 51
90.0
 52
90.0
 71
     2
 49
0.5
 62
   256
  6
BYLAYER
 49
-0.5
 62
   256
  6
BYLAYER
  0
ACDBPLACEHOLDER
  5
F
102
{ACAD_REACTORS
330
E
102
}
330
E
  0
ENDSEC
  0
EOF
