  0
SECTION
  2
HEADER
  9
$ACADVER
  1
AC1015
  9
$ACADMAINTVER
 70
     6
  9
$DWGCODEPAGE
  3
ANSI_1252
  9
$INSBASE
 10
0.0
 20
0.0
 30
0.0
  9
$EXTMIN
 10
0.0
 20
0.0
 30
0.0
  9
$EXTMAX
 10
2159.0
 20
1397.0
 30
0.0
  9
$LIMMIN
 10
0.0
 20
0.0
  9
$LIMMAX
 10
2159.0
 20
1397.0
  9
$ORTHOMODE
 70
     0
  9
$REGENMODE
 70
     1
  9
$FILLMODE
 70
     1
  9
$QTEXTMODE
 70
     0
  9
$MIRRTEXT
 70
     1
  9
$LTSCALE
 40
5.0
  9
$ATTMODE
 70
     1
  9
$TEXTSIZE
 40
17.5
  9
$TRACEWID
 40
1.0
  9
$TEXTSTYLE
  7
Standard
  9
$CLAYER
  8
0
  9
$CELTYPE
  6
ByLayer
  9
$CECOLOR
 62
   256
  9
$CELTSCALE
 40
1.0
  9
$DISPSILH
 70
     0
  9
$DIMSCALE
 40
1.0
  9
$DIMASZ
 40
16.51
  9
$DIMEXO
 40
5.0
  9
$DIMDLI
 40
3.75
  9
$DIMRND
 40
0.0
  9
$DIMDLE
 40
0.0
  9
$DIMEXE
 40
5.0
  9
$DIMTP
 40
0.0
  9
$DIMTM
 40
0.0
  9
$DIMTXT
 40
17.5
  9
$DIMCEN
 40
2.5
  9
$DIMTSZ
 40
0.0
  9
$DIMTOL
 70
     0
  9
$DIMLIM
 70
     0
  9
$DIMTIH
 70
     1
  9
$DIMTOH
 70
     1
  9
$DIMSE1
 70
     0
  9
$DIMSE2
 70
     0
  9
$DIMTAD
 70
     1
  9
$DIMZIN
 70
     0
  9
$DIMBLK
  1

  9
$DIMASO
 70
     1
  9
$DIMSHO
 70
     1
  9
$DIMPOST
  1

  9
$DIMAPOST
  1

  9
$DIMALT
 70
     0
  9
$DIMALTD
 70
     3
  9
$DIMALTF
 40
0.0393700787
  9
$DIMLFAC
 40
1.0
  9
$DIMTOFL
 70
     1
  9
$DIMTVP
 40
0.0
  9
$DIMTIX
 70
     0
  9
$DIMSOXD
 70
     0
  9
$DIMSAH
 70
     0
  9
$DIMBLK1
  1

  9
$DIMBLK2
  1

  9
$DIMSTYLE
  2
ISO-25
  9
$DIMCLRD
 70
     0
  9
$DIMCLRE
 70
     0
  9
$DIMCLRT
 70
     0
  9
$DIMTFAC
 40
1.0
  9
$DIMGAP
 40
7.62
  9
$DIMJUST
 70
     0
  9
$DIMSD1
 70
     0
  9
$DIMSD2
 70
     0
  9
$DIMTOLJ
 70
     0
  9
$DIMTZIN
 70
     0
  9
$DIMALTZ
 70
     0
  9
$DIMALTTZ
 70
     0
  9
$DIMUPT
 70
     0
  9
$DIMDEC
 70
     3
  9
$DIMTDEC
 70
     3
  9
$DIMALTU
 70
     2
  9
$DIMALTTD
 70
     3
  9
$DIMTXSTY
  7
Standard
  9
$DIMAUNIT
 70
     0
  9
$DIMADEC
 70
     2
  9
$DIMALTRND
 40
0.0
  9
$DIMAZIN
 70
     0
  9
$DIMDSEP
 70
    44
  9
$DIMATFIT
 70
     3
  9
$DIMFRAC
 70
     0
  9
$DIMLDRBLK
  1

  9
$DIMLUNIT
 70
     2
  9
$DIMLWD
 70
    -2
  9
$DIMLWE
 70
    -2
  9
$DIMTMOVE
 70
     0
  9
$LUNITS
 70
     2
  9
$LUPREC
 70
     8
  9
$SKETCHINC
 40
1.0
  9
$FILLETRAD
 40
10.0
  9
$AUNITS
 70
     0
  9
$AUPREC
 70
     8
  9
$MENU
  1
.
  9
$ELEVATION
 40
0.0
  9
$PELEVATION
 40
0.0
  9
$THICKNESS
 40
0.0
  9
$LIMCHECK
 70
     0
  9
$CHAMFERA
 40
10.0
  9
$CHAMFERB
 40
10.0
  9
$CHAMFERC
 40
20.0
  9
$CHAMFERD
 40
0.0
  9
$SKPOLY
 70
     0
  9
$TDCREATE
 40
2456315.403240903
  9
$TDUCREATE
 40
2456315.403240903
  9
$TDUPDATE
 40
2456315.403242523
  9
$TDUUPDATE
 40
2456315.403242523
  9
$TDINDWG
 40
0.0000000116
  9
$TDUSRTIMER
 40
0.0000000116
  9
$USRTIMER
 70
     1
  9
$ANGBASE
 50
0.0
  9
$ANGDIR
 70
     0
  9
$PDMODE
 70
     0
  9
$PDSIZE
 40
-1.0
  9
$PLINEWID
 40
0.0
  9
$SPLFRAME
 70
     0
  9
$SPLINETYPE
 70
     6
  9
$SPLINESEGS
 70
     8
  9
$HANDSEED
  5
39B
  9
$SURFTAB1
 70
     6
  9
$SURFTAB2
 70
     6
  9
$SURFTYPE
 70
     6
  9
$SURFU
 70
     6
  9
$SURFV
 70
     6
  9
$UCSBASE
  2

  9
$UCSNAME
  2

  9
$UCSORG
 10
0.0
 20
0.0
 30
0.0
  9
$UCSXDIR
 10
1.0
 20
0.0
 30
0.0
  9
$UCSYDIR
 10
0.0
 20
1.0
 30
0.0
  9
$UCSORTHOREF
  2

  9
$UCSORTHOVIEW
 70
     0
  9
$UCSORGTOP
 10
0.0
 20
0.0
 30
0.0
  9
$UCSORGBOTTOM
 10
0.0
 20
0.0
 30
0.0
  9
$UCSORGLEFT
 10
0.0
 20
0.0
 30
0.0
  9
$UCSORGRIGHT
 10
0.0
 20
0.0
 30
0.0
  9
$UCSORGFRONT
 10
0.0
 20
0.0
 30
0.0
  9
$UCSORGBACK
 10
0.0
 20
0.0
 30
0.0
  9
$PUCSBASE
  2

  9
$PUCSNAME
  2

  9
$PUCSORG
 10
0.0
 20
0.0
 30
0.0
  9
$PUCSXDIR
 10
1.0
 20
0.0
 30
0.0
  9
$PUCSYDIR
 10
0.0
 20
1.0
 30
0.0
  9
$PUCSORTHOREF
  2

  9
$PUCSORTHOVIEW
 70
     0
  9
$PUCSORGTOP
 10
0.0
 20
0.0
 30
0.0
  9
$PUCSORGBOTTOM
 10
0.0
 20
0.0
 30
0.0
  9
$PUCSORGLEFT
 10
0.0
 20
0.0
 30
0.0
  9
$PUCSORGRIGHT
 10
0.0
 20
0.0
 30
0.0
  9
$PUCSORGFRONT
 10
0.0
 20
0.0
 30
0.0
  9
$PUCSORGBACK
 10
0.0
 20
0.0
 30
0.0
  9
$USERI1
 70
     0
  9
$USERI2
 70
     0
  9
$USERI3
 70
     0
  9
$USERI4
 70
     0
  9
$USERI5
 70
     0
  9
$USERR1
 40
0.0
  9
$USERR2
 40
0.0
  9
$USERR3
 40
0.0
  9
$USERR4
 40
0.0
  9
$USERR5
 40
0.0
  9
$WORLDVIEW
 70
     1
  9
$SHADEDGE
 70
     3
  9
$SHADEDIF
 70
    70
  9
$TILEMODE
 70
     1
  9
$MAXACTVP
 70
    64
  9
$PINSBASE
 10
0.0
 20
0.0
 30
0.0
  9
$PLIMCHECK
 70
     0
  9
$PEXTMIN
 10
1.0000000000E+20
 20
1.0000000000E+20
 30
1.0000000000E+20
  9
$PEXTMAX
 10
-1.0000000000E+20
 20
-1.0000000000E+20
 30
-1.0000000000E+20
  9
$PLIMMIN
 10
0.0
 20
0.0
  9
$PLIMMAX
 10
420.0
 20
297.0
  9
$UNITMODE
 70
     0
  9
$VISRETAIN
 70
     1
  9
$PLINEGEN
 70
     0
  9
$PSLTSCALE
 70
     1
  9
$TREEDEPTH
 70
  3020
  9
$CMLSTYLE
  2
Standard
  9
$CMLJUST
 70
     0
  9
$CMLSCALE
 40
20.0
  9
$PROXYGRAPHICS
 70
     1
  9
$MEASUREMENT
 70
     1
  9
$CELWEIGHT
370
    -1
  9
$ENDCAPS
280
     0
  9
$JOINSTYLE
280
     0
  9
$LWDISPLAY
290
     1
  9
$INSUNITS
 70
     4
  9
$HYPERLINKBASE
  1

  9
$STYLESHEET
  1

  9
$XEDIT
290
     1
  9
$CEPSNTYPE
380
     0
  9
$PSTYLEMODE
290
     1
  9
$FINGERPRINTGUID
  2
{9C24141F-3E18-4629-B6C9-21AD12EA0D67}
  9
$VERSIONGUID
  2
{FAEB1C32-E019-11D5-929B-00C0DF256EC4}
  9
$EXTNAMES
290
     1
  9
$PSVPSCALE
 40
0.0
  9
$OLESTARTUP
290
     0
  0
ENDSEC
  0
SECTION
  2
CLASSES
  0
CLASS
  1
ACDBDICTIONARYWDFLT
  2
AcDbDictionaryWithDefault
  3
ObjectDBX Classes
 90
        0
280
     0
281
     0
  0
CLASS
  1
VISUALSTYLE
  2
AcDbVisualStyle
  3
ObjectDBX Classes
 90
     4095
280
     0
281
     0
  0
CLASS
  1
MATERIAL
  2
AcDbMaterial
  3
ObjectDBX Classes
 90
     1153
280
     0
281
     0
  0
CLASS
  1
ACDBPLACEHOLDER
  2
AcDbPlaceHolder
  3
ObjectDBX Classes
 90
        0
280
     0
281
     0
  0
CLASS
  1
LAYOUT
  2
AcDbLayout
  3
ObjectDBX Classes
 90
        0
280
     0
281
     0
  0
ENDSEC
  0
SECTION
  2
TABLES
  0
TABLE
  2
VPORT
  5
8
330
0
100
AcDbSymbolTable
 70
     1
  0
VPORT
  5
29
330
8
100
AcDbSymbolTableRecord
100
AcDbViewportTableRecord
  2
*Active
 70
     0
 10
0.0
 20
0.0
 11
1.0
 21
1.0
 12
1079.5
 22
698.5
 13
0.0
 23
0.0
 14
10.0
 24
10.0
 15
10.0
 25
10.0
 16
0.0
 26
0.0
 36
1.0
 17
0.0
 27
0.0
 37
0.0
 40
1397.0
 41
1.5454545455
 42
50.0
 43
0.0
 44
0.0
 50
0.0
 51
0.0
 71
     0
 72
  2000
 73
     1
 74
     3
 75
     0
 76
     0
 77
     0
 78
     0
281
     0
 65
     1
110
0.0
120
0.0
130
0.0
111
1.0
121
0.0
131
0.0
112
0.0
122
1.0
132
0.0
 79
     0
146
0.0
  0
ENDTAB
  0
TABLE
  2
LTYPE
  5
5
330
0
100
AcDbSymbolTable
 70
     6
  0
LTYPE
  5
14
330
5
100
AcDbSymbolTableRecord
100
AcDbLinetypeTableRecord
  2
ByBlock
 70
     0
  3

 72
    65
 73
     0
 40
0.0
  0
LTYPE
  5
15
330
5
100
AcDbSymbolTableRecord
100
AcDbLinetypeTableRecord
  2
ByLayer
 70
     0
  3

 72
    65
 73
     0
 40
0.0
  0
LTYPE
  5
16
330
5
100
AcDbSymbolTableRecord
100
AcDbLinetypeTableRecord
  2
Continuous
 70
     0
  3
Solid line
 72
    65
 73
     0
 40
0.0
  0
LTYPE
  5
3F
330
5
100
AcDbSymbolTableRecord
100
AcDbLinetypeTableRecord
  2
HIDDEN
 70
     0
  3
Hidden __ __ __ __ __ __ __ __ __ __ __ __ __ __
 72
    65
 73
     2
 40
1.905
 49
1.27
 74
     0
 49
-0.635
 74
     0
  0
LTYPE
  5
40
330
5
100
AcDbSymbolTableRecord
100
AcDbLinetypeTableRecord
  2
PHANTOM
 70
     0
  3
Phantom ______  __  __  ______  __  __  ______
 72
    65
 73
     6
 40
12.7
 49
6.35
 74
     0
 49
-1.27
 74
     0
 49
1.27
 74
     0
 49
-1.27
 74
     0
 49
1.27
 74
     0
 49
-1.27
 74
     0
  0
LTYPE
  5
41
330
5
100
AcDbSymbolTableRecord
100
AcDbLinetypeTableRecord
  2
CENTER
 70
     0
  3
Center ____ _ ____ _ ____ _ ____ _ ____ _ ____
 72
    65
 73
     4
 40
10.16
 49
6.35
 74
     0
 49
-1.27
 74
     0
 49
1.27
 74
     0
 49
-1.27
 74
     0
  0
LTYPE
  5
42
330
5
100
AcDbSymbolTableRecord
100
AcDbLinetypeTableRecord
  2
CENTERX2
 70
     0
  3
Center (2x) ________  __  ________  __  _____
 72
    65
 73
     4
 40
20.32
 49
12.7
 74
     0
 49
-2.54
 74
     0
 49
2.54
 74
     0
 49
-2.54
 74
     0
  0
LTYPE
  5
43
330
5
100
AcDbSymbolTableRecord
100
AcDbLinetypeTableRecord
  2
DOT2
 70
     0
  3
Dot (.5x) ........................................
 72
    65
 73
     2
 40
0.635
 49
0.0
 74
     0
 49
-0.635
 74
     0
  0
ENDTAB
  0
TABLE
  2
LAYER
  5
2
330
0
100
AcDbSymbolTable
 70
     1
  0
LAYER
  5
10
330
2
100
AcDbSymbolTableRecord
100
AcDbLayerTableRecord
  2
0
 70
     0
 62
     7
  6
Continuous
370
    -3
390
F
  0
ENDTAB
  0
TABLE
  2
STYLE
  5
3
330
0
100
AcDbSymbolTable
 70
     1
  0
STYLE
  5
11
330
3
100
AcDbSymbolTableRecord
100
AcDbTextStyleTableRecord
  2
Standard
 70
     0
 40
0.0
 41
1.0
 50
0.0
 71
     0
 42
17.5
  3
txt
  4

  0
ENDTAB
  0
TABLE
  2
VIEW
  5
6
330
0
100
AcDbSymbolTable
 70
     0
  0
ENDTAB
  0
TABLE
  2
UCS
  5
7
330
0
100
AcDbSymbolTable
 70
     0
  0
ENDTAB
  0
TABLE
  2
APPID
  5
9
330
0
100
AcDbSymbolTable
 70
     1
  0
APPID
  5
12
330
9
100
AcDbSymbolTableRecord
100
AcDbRegAppTableRecord
  2
ACAD
 70
     0
  0
ENDTAB
  0
TABLE
  2
DIMSTYLE
  5
A
330
0
100
AcDbSymbolTable
 70
     1
100
AcDbDimStyleTable
  0
DIMSTYLE
105
27
330
A
100
AcDbSymbolTableRecord
100
AcDbDimStyleTableRecord
  2
ISO-25
 70
     0
 41
2.5
 42
0.625
 43
3.75
 44
1.25
 73
     0
 74
     0
 77
     1
 78
     8
140
2.5
141
2.5
143
0.0393700787
147
0.625
171
     3
172
     1
178
     0
271
     2
272
     2
274
     3
278
    44
283
     0
284
     8
340
11
  0
ENDTAB
  0
TABLE
  2
BLOCK_RECORD
  5
1
330
0
100
AcDbSymbolTable
 70
     1
  0
BLOCK_RECORD
  5
1F
330
1
100
AcDbSymbolTableRecord
100
AcDbBlockTableRecord
  2
*Model_Space
340
22
  0
BLOCK_RECORD
  5
1B
330
1
100
AcDbSymbolTableRecord
100
AcDbBlockTableRecord
  2
*Paper_Space
340
1E
  0
BLOCK_RECORD
  5
23
330
1
100
AcDbSymbolTableRecord
100
AcDbBlockTableRecord
  2
*Paper_Space0
340
26
  0
ENDTAB
  0
ENDSEC
  0
SECTION
  2
BLOCKS
  0
BLOCK
  5
20
330
1F
100
AcDbEntity
  8
0
100
AcDbBlockBegin
  2
*Model_Space
 70
     0
 10
0.0
 20
0.0
 30
0.0
  3
*Model_Space
  1

  0
ENDBLK
  5
21
330
1F
100
AcDbEntity
  8
0
100
AcDbBlockEnd
  0
BLOCK
  5
1C
330
1B
100
AcDbEntity
 67
     1
  8
0
100
AcDbBlockBegin
  2
*Paper_Space
 70
     0
 10
0.0
 20
0.0
 30
0.0
  3
*Paper_Space
  1

  0
ENDBLK
  5
1D
330
1B
100
AcDbEntity
 67
     1
  8
0
100
AcDbBlockEnd
  0
BLOCK
  5
24
330
23
100
AcDbEntity
  8
0
100
AcDbBlockBegin
  2
*Paper_Space0
 70
     0
 10
0.0
 20
0.0
 30
0.0
  3
*Paper_Space0
  1

  0
ENDBLK
  5
25
330
23
100
AcDbEntity
  8
0
100
AcDbBlockEnd
  0
ENDSEC
  0
SECTION
  2
ENTITIES
  0
LINE
  5
44
330
1F
100
AcDbEntity
  8
0
  6
CENTERX2
 62
     7
100
AcDbLine
 10
891.9718650262
 20
643.7558995192
 30
0.0
 11
891.9718650262
 21
645.7558995192
 31
0.0
  0
LINE
  5
45
330
1F
100
AcDbEntity
  8
0
  6
CENTERX2
 62
     7
100
AcDbLine
 10
891.9718650262
 20
643.7558995192
 30
0.0
 11
892.8479085726
 21
643.7558995192
 31
0.0
  0
ARC
  5
46
330
1F
100
AcDbEntity
  8
0
  6
Continuous
 62
     7
370
    15
100
AcDbCircle
 10
1209.3031264743
 20
964.9299646862
 30
0.0
 40
6.100000000000034
100
AcDbArc
 50
197.6561374613
 51
243.0592334546
  0
ARC
  5
47
330
1F
100
AcDbEntity
  8
0
  6
Continuous
 62
     7
370
    15
100
AcDbCircle
 10
1209.3031264743
 20
964.9299646862
 30
0.0
 40
6.100000000000169
100
AcDbArc
 50
143.0693934045
 51
188.2518110624
  0
LINE
  5
48
330
1F
100
AcDbEntity
  8
0
  6
Continuous
 62
     7
370
    15
100
AcDbLine
 10
1206.6095855247
 20
959.4800461014
 30
0.0
 11
1206.8882037114
 21
959.5446873387
 31
0.0
  0
LINE
  5
49
330
1F
100
AcDbEntity
  8
0
  6
Continuous
 62
     7
370
    15
100
AcDbLine
 10
1204.7633838068
 20
968.7013912877
 30
0.0
 11
1204.4847693454
 21
968.6367500504
 31
0.0
  0
ARC
  5
4A
330
1F
100
AcDbEntity
  8
0
  6
Continuous
 62
     7
370
    15
100
AcDbCircle
 10
834.6406035782
 20
1052.4299646862
 30
0.0
 40
6.100000000000048
100
AcDbArc
 50
343.6992794664
 51
36.9306065955
  0
ARC
  5
4B
330
1F
100
AcDbEntity
  8
0
  6
Continuous
 62
     7
370
    15
100
AcDbCircle
 10
834.6406035782
 20
1052.4299646862
 30
0.0
 40
6.100000000000159
100
AcDbArc
 50
296.9407665454
 51
325.7253918356
  0
LINE
  5
4C
330
1F
100
AcDbEntity
  8
0
  6
Continuous
 62
     7
370
    15
100
AcDbLine
 10
839.4589547228
 20
1056.1367560109
 30
0.0
 11
839.1803328108
 21
1056.2013972481
 31
0.0
  0
LINE
  5
4D
330
1F
100
AcDbEntity
  8
0
  6
Continuous
 62
     7
370
    15
100
AcDbLine
 10
837.0555166315
 20
1047.0446932992
 30
0.0
 11
837.3341385435
 21
1046.9800520619
 31
0.0
  0
ARC
  5
4E
330
1F
100
AcDbEntity
  8
0
  6
Continuous
 62
     7
370
    15
100
AcDbCircle
 10
1209.3031264743
 20
1052.4299646862
 30
0.0
 40
6.1
100
AcDbArc
 50
197.6561374613
 51
243.0592334546
  0
ARC
  5
4F
330
1F
100
AcDbEntity
  8
0
  6
Continuous
 62
     7
370
    15
100
AcDbCircle
 10
1209.3031264743
 20
1052.4299646862
 30
0.0
 40
6.100000000000076
100
AcDbArc
 50
143.0693934045
 51
188.2518110624
  0
LINE
  5
50
330
1F
100
AcDbEntity
  8
0
  6
Continuous
 62
     7
370
    15
100
AcDbLine
 10
1206.6095855247
 20
1046.9800520619
 30
0.0
 11
1206.8882037114
 21
1047.0446932992
 31
0.0
  0
LINE
  5
51
330
1F
100
AcDbEntity
  8
0
  6
Continuous
 62
     7
370
    15
100
AcDbLine
 10
1204.7633838068
 20
1056.2013972481
 30
0.0
 11
1204.4847693454
 21
1056.1367560109
 31
0.0
  0
ARC
  5
52
330
1F
100
AcDbEntity
  8
0
  6
Continuous
 62
     7
370
    15
100
AcDbCircle
 10
834.6406035782
 20
964.9299646862
 30
0.0
 40
6.100000000000048
100
AcDbArc
 50
343.6992794664
 51
36.9306065955
  0
ARC
  5
53
330
1F
100
AcDbEntity
  8
0
  6
Continuous
 62
     7
370
    15
100
AcDbCircle
 10
834.6406035782
 20
964.9299646862
 30
0.0
 40
6.100000000000095
100
AcDbArc
 50
296.9407665454
 51
325.7253918356
  0
LINE
  5
54
330
1F
100
AcDbEntity
  8
0
  6
Continuous
 62
     7
370
    15
100
AcDbLine
 10
839.4589547228
 20
968.6367500504
 30
0.0
 11
839.1803328108
 21
968.7013912877
 31
0.0
  0
LINE
  5
55
330
1F
100
AcDbEntity
  8
0
  6
Continuous
 62
     7
370
    15
100
AcDbLine
 10
837.0555166315
 20
959.5446873387
 30
0.0
 11
837.3341385435
 21
959.4800461014
 31
0.0
  0
LINE
  5
56
330
1F
100
AcDbEntity
  8
0
  6
Continuous
 62
     7
370
    15
100
AcDbLine
 10
835.3171769689
 20
1073.9598859032
 30
0.0
 11
1208.6265545498
 21
1073.9598859032
 31
0.0
  0
LINE
  5
57
330
1F
100
AcDbEntity
  8
0
  6
Continuous
 62
     7
370
    15
100
AcDbLine
 10
1220.5253627311
 20
1143.8799787243
 30
0.0
 11
823.4169606279
 21
1143.8799787243
 31
0.0
  0
SPLINE
  5
58
330
1F
100
AcDbEntity
  8
0
  6
Continuous
 62
     7
370
    15
100
AcDbSpline
210
0.0
220
0.0
230
1.0
 70
     8
 71
     3
 72
    13
 73
     9
 74
     0
 42
0.00000001
 43
0.00000001
 12
1.0
 22
0.0
 32
0.0
 13
1.0
 23
0.0
 33
0.0
 40
0.0
 40
0.0
 40
0.0
 40
0.0
 40
0.0016725407108175
 40
0.2002974542033079
 40
0.3873504610243455
 40
0.5952055279907149
 40
0.8332241996311517
 40
1.0
 40
1.0
 40
1.0
 40
1.0
 10
996.8916747878703
 20
1068.941264220098
 30
0.0
 10
996.8914193593669
 20
1068.940964052467
 30
0.0
 10
996.8608301613704
 20
1068.905017057558
 30
0.0
 10
996.977133245233
 20
1069.013924606756
 30
0.0
 10
997.3075853693986
 20
1069.155685555614
 30
0.0
 10
997.8765871992031
 20
1069.326213378609
 30
0.0
 10
998.5514837456601
 20
1069.431534568938
 30
0.0
 10
999.0262531964715
 20
1069.443655089831
 30
0.0
 10
999.2218587707195
 20
1069.448648758749
 30
0.0
  0
LINE
  5
59
330
1F
100
AcDbEntity
  8
0
  6
Continuous
 62
     7
370
    15
100
AcDbLine
 10
999.2218587707
 20
1069.4486487587
 30
0.0
 11
1000.2218607973
 21
1069.4486487587
 31
0.0
  0
SPLINE
  5
5A
330
1F
100
AcDbEntity
  8
0
  6
Continuous
 62
     7
370
    15
100
AcDbSpline
210
0.0
220
0.0
230
1.0
 70
     8
 71
     3
 72
    12
 73
     8
 74
     0
 42
0.00000001
 43
0.00000001
 12
1.0
 22
0.0
 32
0.0
 13
1.0
 23
0.0
 33
0.0
 40
0.0
 40
0.0
 40
0.0
 40
0.0
 40
0.1294456403059323
 40
0.3835308986295931
 40
0.6303433668479258
 40
0.8243367217733043
 40
0.9999999999999999
 40
0.9999999999999999
 40
0.9999999999999999
 40
0.9999999999999999
 10
1000.221860797277
 20
1069.448648758749
 30
0.0
 10
1000.37341244663
 20
1069.445657613926
 30
0.0
 10
1000.822440626548
 20
1069.436795233862
 30
0.0
 10
1001.532615471655
 20
1069.3362751261
 30
0.0
 10
1002.154502149815
 20
1069.156136944325
 30
0.0
 10
1002.50355639115
 20
1068.980575402754
 30
0.0
 10
1002.533960610544
 20
1068.955281029331
 30
0.0
 10
1002.548408896795
 20
1068.943260975698
 30
0.0
  0
SPLINE
  5
5B
330
1F
100
AcDbEntity
  8
0
  6
Continuous
 62
     7
370
    15
100
AcDbSpline
210
0.0
220
0.0
230
1.0
 70
     8
 71
     3
 72
    13
 73
     9
 74
     0
 42
0.00000001
 43
0.00000001
 12
1.0
 22
0.0
 32
0.0
 13
1.0
 23
0.0
 33
0.0
 40
0.0
 40
0.0
 40
0.0
 40
0.0
 40
0.0016725359921263
 40
0.2002968891098293
 40
0.3873514316668658
 40
0.5952027574658034
 40
0.833224670150947
 40
1.0
 40
1.0
 40
1.0
 40
1.0
 10
1007.891667277685
 20
1068.941264220098
 30
0.0
 10
1007.891411849243
 20
1068.940964052456
 30
0.0
 10
1007.860822658533
 20
1068.905017056296
 30
0.0
 10
1007.977121311427
 20
1069.013926058684
 30
0.0
 10
1008.307596041332
 20
1069.155682740654
 30
0.0
 10
1008.876581402904
 20
1069.326216773731
 30
0.0
 10
1009.551487975502
 20
1069.431533669785
 30
0.0
 10
1010.026261004052
 20
1069.443654861656
 30
0.0
 10
1010.221866161695
 20
1069.448648758749
 30
0.0
  0
LINE
  5
5C
330
1F
100
AcDbEntity
  8
0
  6
Continuous
 62
     7
370
    15
100
AcDbLine
 10
1010.2218661617
 20
1069.4486487587
 30
0.0
 11
1046.221864612
 21
1069.4486487587
 31
0.0
  0
SPLINE
  5
5D
330
1F
100
AcDbEntity
  8
0
  6
Continuous
 62
     7
370
    15
100
AcDbSpline
210
0.0
220
0.0
230
1.0
 70
     8
 71
     3
 72
    12
 73
     8
 74
     0
 42
0.00000001
 43
0.00000001
 12
1.0
 22
0.0
 32
0.0
 13
1.0
 23
0.0
 33
0.0
 40
0.0
 40
0.0
 40
0.0
 40
0.0
 40
0.1294436826274581
 40
0.3835292473163002
 40
0.6303435935367976
 40
0.8243362218278578
 40
1.0
 40
1.0
 40
1.0
 40
1.0
 10
1046.221864611975
 20
1069.448648758749
 30
0.0
 10
1046.373413832652
 20
1069.445657563687
 30
0.0
 10
1046.822439674298
 20
1069.436794938898
 30
0.0
 10
1047.532611013433
 20
1069.336274274772
 30
0.0
 10
1048.154508749925
 20
1069.156138277505
 30
0.0
 10
1048.503549002782
 20
1068.980574933438
 30
0.0
 10
1048.533960782521
 20
1068.955280906337
 30
0.0
 10
1048.548412711493
 20
1068.943260975698
 30
0.0
  0
SPLINE
  5
5E
330
1F
100
AcDbEntity
  8
0
  6
Continuous
 62
     7
370
    15
100
AcDbSpline
210
0.0
220
0.0
230
1.0
 70
     8
 71
     3
 72
    13
 73
     9
 74
     0
 42
0.00000001
 43
0.00000001
 12
1.0
 22
0.0
 32
0.0
 13
1.0
 23
0.0
 33
0.0
 40
0.0
 40
0.0
 40
0.0
 40
0.0
 40
0.0016723091772553
 40
0.2002972492903846
 40
0.3873510492520977
 40
0.5952066505538522
 40
0.8332247805953332
 40
0.9999999999999999
 40
0.9999999999999999
 40
0.9999999999999999
 40
0.9999999999999999
 10
1018.891674668661
 20
1063.441245623449
 30
0.0
 10
1018.891419240564
 20
1063.440955438981
 30
0.0
 10
1018.860825887435
 20
1063.406199215925
 30
0.0
 10
1018.97713562726
 20
1063.513376110936
 30
0.0
 10
1019.307584415638
 20
1063.655861133688
 30
0.0
 10
1019.87658539046
 20
1063.826167401576
 30
0.0
 10
1020.551483233436
 20
1063.931567030919
 30
0.0
 10
1021.02625306099
 20
1063.943651393844
 30
0.0
 10
1021.22185865151
 20
1063.948630162099
 30
0.0
  0
LINE
  5
5F
330
1F
100
AcDbEntity
  8
0
  6
Continuous
 62
     7
370
    15
100
AcDbLine
 10
1021.2218586515
 20
1063.9486301621
 30
0.0
 11
1033.221868069
 21
1063.9486301621
 31
0.0
  0
SPLINE
  5
60
330
1F
100
AcDbEntity
  8
0
  6
Continuous
 62
     7
370
    15
100
AcDbSpline
210
0.0
220
0.0
230
1.0
 70
     8
 71
     3
 72
    12
 73
     8
 74
     0
 42
0.00000001
 43
0.00000001
 12
1.0
 22
0.0
 32
0.0
 13
1.0
 23
0.0
 33
0.0
 40
0.0
 40
0.0
 40
0.0
 40
0.0
 40
0.1294415929545374
 40
0.3835293273114286
 40
0.6303442008259525
 40
0.8243364522231372
 40
1.0
 40
1.0
 40
1.0
 40
1.0
 10
1033.221868069044
 20
1063.948630162099
 30
0.0
 10
1033.373415167986
 20
1063.945652172464
 30
0.0
 10
1033.822442065653
 20
1063.936828529805
 30
0.0
 10
1034.532599106043
 20
1063.836227444079
 30
0.0
 10
1035.154517907412
 20
1063.656161736561
 30
0.0
 10
1035.503540279935
 20
1063.480583714057
 30
0.0
 10
1035.533960312833
 20
1063.455291333527
 30
0.0
 10
1035.548416168562
 20
1063.443272181371
 30
0.0
  0
SPLINE
  5
61
330
1F
100
AcDbEntity
  8
0
  6
Continuous
 62
     7
370
    15
100
AcDbSpline
210
0.0
220
0.0
230
1.0
 70
     8
 71
     3
 72
    15
 73
    11
 74
     0
 42
0.00000001
 43
0.00000001
 12
1.0
 22
0.0
 32
0.0
 13
1.0
 23
0.0
 33
0.0
 40
0.0
 40
0.0
 40
0.0
 40
0.0
 40
0.019919662366689
 40
0.1514566930552031
 40
0.2893293138906352
 40
0.4393018650698197
 40
0.6025827689598732
 40
0.7712565229318562
 40
0.9382809787850533
 40
1.0
 40
1.0
 40
1.0
 40
1.0
 10
1013.670188577047
 20
966.0091984947715
 30
0.0
 10
1013.690170639779
 20
965.9572771857792
 30
0.0
 10
1013.842101786308
 20
965.5624999242804
 30
0.0
 10
1014.359567623781
 20
964.9320071115022
 30
0.0
 10
1015.197500117864
 20
964.1405777484332
 30
0.0
 10
1016.281095805289
 20
963.4802737687728
 30
0.0
 10
1017.579720203685
 20
962.9533212524552
 30
0.0
 10
1019.057790738456
 20
962.5986883015516
 30
0.0
 10
1020.303722061468
 20
962.4613062635696
 30
0.0
 10
1021.026768090718
 20
962.4513200803606
 30
0.0
 10
1021.22185865151
 20
962.4486256321463
 30
0.0
  0
SPLINE
  5
62
330
1F
100
AcDbEntity
  8
0
  6
Continuous
 62
     7
370
    15
100
AcDbSpline
210
0.0
220
0.0
230
1.0
 70
     8
 71
     3
 72
    14
 73
    10
 74
     0
 42
0.00000001
 43
0.00000001
 12
1.0
 22
0.0
 32
0.0
 13
1.0
 23
0.0
 33
0.0
 40
0.0
 40
0.0
 40
0.0
 40
0.0
 40
0.0903750559999363
 40
0.2578905514100097
 40
0.4291835294965646
 40
0.6078707785070997
 40
0.7654505086593513
 40
0.9092569676798467
 40
1.0
 40
1.0
 40
1.0
 40
1.0
 10
1022.221860678068
 20
962.4486256321463
 30
0.0
 10
1022.506738957503
 20
962.4542361921824
 30
0.0
 10
1023.319655926188
 20
962.4702462560815
 30
0.0
 10
1024.652210122324
 20
962.6472163288578
 30
0.0
 10
1026.158417468014
 20
963.0482379947742
 30
0.0
 10
1027.492576109219
 20
963.6437495958943
 30
0.0
 10
1028.575921108244
 20
964.4136411841142
 30
0.0
 10
1029.340131196821
 20
965.1909854063424
 30
0.0
 10
1029.637448592203
 20
965.7710663949233
 30
0.0
 10
1029.752475411764
 20
965.9954894264731
 30
0.0
  0
LINE
  5
63
330
1F
100
AcDbEntity
  8
0
  6
Continuous
 62
     7
370
    15
100
AcDbLine
 10
1021.2218586515
 20
962.4486256321
 30
0.0
 11
1022.2218606781
 21
962.4486256321
 31
0.0
  0
SPLINE
  5
64
330
1F
100
AcDbEntity
  8
0
  6
Continuous
 62
     7
370
    15
100
AcDbSpline
210
0.0
220
0.0
230
1.0
 70
     8
 71
     3
 72
    15
 73
    11
 74
     0
 42
0.00000001
 43
0.00000001
 12
1.0
 22
0.0
 32
0.0
 13
1.0
 23
0.0
 33
0.0
 40
0.0
 40
0.0
 40
0.0
 40
0.0
 40
0.0199176227400751
 40
0.1514570112341336
 40
0.2893295135937047
 40
0.4393011802336134
 40
0.602583315985555
 40
0.771256062030531
 40
0.9382809950570735
 40
1.0
 40
1.0
 40
1.0
 40
1.0
 10
1002.670181186071
 20
960.5091798981223
 30
0.0
 10
1002.690168912013
 20
960.4572690005614
 30
0.0
 10
1002.842158999984
 20
960.0625296535195
 30
0.0
 10
1003.359553506111
 20
959.4319778280237
 30
0.0
 10
1004.197484438473
 20
958.6405542777193
 30
0.0
 10
1005.281121085083
 20
957.9803034497581
 30
0.0
 10
1006.579711544543
 20
957.4532768888208
 30
0.0
 10
1008.057809659667
 20
957.0987333781177
 30
0.0
 10
1009.303727017245
 20
956.9612594941681
 30
0.0
 10
1010.026775408202
 20
956.951318962368
 30
0.0
 10
1010.221866161695
 20
956.9486368378197
 30
0.0
  0
SPLINE
  5
65
330
1F
100
AcDbEntity
  8
0
  6
Continuous
 62
     7
370
    15
100
AcDbSpline
210
0.0
220
0.0
230
1.0
 70
     8
 71
     3
 72
    14
 73
    10
 74
     0
 42
0.00000001
 43
0.00000001
 12
1.0
 22
0.0
 32
0.0
 13
1.0
 23
0.0
 33
0.0
 40
0.0
 40
0.0
 40
0.0
 40
0.0
 40
0.0903733190294234
 40
0.2578882428181231
 40
0.4291827876139377
 40
0.6078698553559624
 40
0.7654478176792967
 40
0.9092563063774282
 40
1.0
 40
1.0
 40
1.0
 40
1.0
 10
1033.221868069044
 20
956.9486368378195
 30
0.0
 10
1033.506741299145
 20
956.9542490699919
 30
0.0
 10
1034.319652206098
 20
956.9702640698694
 30
0.0
 10
1035.652208867682
 20
957.1471787418262
 30
0.0
 10
1037.158426010427
 20
957.5482575717442
 30
0.0
 10
1038.49255585484
 20
958.1437672823256
 30
0.0
 10
1039.575924614411
 20
958.9136149826967
 30
0.0
 10
1040.340138084471
 20
959.690999731585
 30
0.0
 10
1040.637456189897
 20
960.2710791480806
 30
0.0
 10
1040.75248280274
 20
960.4955006321464
 30
0.0
  0
LINE
  5
66
330
1F
100
AcDbEntity
  8
0
  6
Continuous
 62
     7
370
    15
100
AcDbLine
 10
1010.2218661617
 20
956.9486368378
 30
0.0
 11
1033.221868069
 21
956.9486368378
 31
0.0
  0
ARC
  5
67
330
1F
100
AcDbEntity
  8
0
  6
Continuous
 62
     7
370
    15
100
AcDbCircle
 10
994.2218650262
 20
953.6035891223
 30
0.0
 40
2.000000000000114
100
AcDbArc
 50
180.0
 51
270.0
  0
LINE
  5
68
330
1F
100
AcDbEntity
  8
0
  6
Continuous
 62
     7
370
    15
100
AcDbLine
 10
994.2218635391
 20
951.6035903176
 30
0.0
 11
1051.2218672942
 21
951.6035903176
 31
0.0
  0
ARC
  5
69
330
1F
100
AcDbEntity
  8
0
  6
Continuous
 62
     7
370
    15
100
AcDbCircle
 10
1051.2218650262
 20
953.6035891223
 30
0.0
 40
2.000000000000227
100
AcDbArc
 50
270.0
 51
0.0
  0
LINE
  5
6A
330
1F
100
AcDbEntity
  8
0
  6
Continuous
 62
     7
370
    15
100
AcDbLine
 10
906.8605128835
 20
1107.4845481595
 30
0.0
 11
906.8605128835
 21
1107.5345564564
 31
0.0
  0
LINE
  5
6B
330
1F
100
AcDbEntity
  8
0
  6
Continuous
 62
     7
370
    15
100
AcDbLine
 10
876.3246361326
 20
1107.5345564564
 30
0.0
 11
876.3246361326
 21
1107.4845481595
 31
0.0
  0
LINE
  5
6C
330
1F
100
AcDbEntity
  8
0
  6
Continuous
 62
     7
370
    15
100
AcDbLine
 10
840.9925822328
 20
596.1058994686
 30
0.0
 11
840.9925822328
 21
596.6058995505
 31
0.0
  0
LINE
  5
6D
330
1F
100
AcDbEntity
  8
0
  6
Continuous
 62
     7
370
    15
100
AcDbLine
 10
832.9925660204
 20
596.6058995505
 30
0.0
 11
832.9925660204
 21
596.1058994686
 31
0.0
  0
LINE
  5
6E
330
1F
100
AcDbEntity
  8
0
  6
Continuous
 62
     7
370
    15
100
AcDbLine
 10
1210.9925758253
 20
596.1058994686
 30
0.0
 11
1210.9925758253
 21
596.6058995505
 31
0.0
  0
LINE
  5
6F
330
1F
100
AcDbEntity
  8
0
  6
Continuous
 62
     7
370
    15
100
AcDbLine
 10
1202.992574514
 20
596.6058995505
 30
0.0
 11
1202.992574514
 21
596.1058994686
 31
0.0
  0
LINE
  5
70
330
1F
100
AcDbEntity
  8
0
  6
Continuous
 62
     7
370
    15
100
AcDbLine
 10
1025.9925697158
 20
596.1058994686
 30
0.0
 11
1025.9925697158
 21
596.6058995505
 31
0.0
  0
LINE
  5
71
330
1F
100
AcDbEntity
  8
0
  6
Continuous
 62
     7
370
    15
100
AcDbLine
 10
1017.9925684045
 20
596.6058995505
 30
0.0
 11
1017.9925684045
 21
596.1058994686
 31
0.0
  0
SPLINE
  5
72
330
1F
100
AcDbEntity
  8
0
  6
Continuous
 62
     7
370
    15
100
AcDbSpline
210
0.0
220
0.0
230
1.0
 70
     8
 71
     3
 72
     9
 73
     5
 74
     0
 42
0.00000001
 43
0.00000001
 12
1.0
 22
0.0
 32
0.0
 13
1.0
 23
0.0
 33
0.0
 40
0.0
 40
0.0
 40
0.0
 40
0.0
 40
0.3326862484522897
 40
1.0
 40
1.0
 40
1.0
 40
1.0
 10
1033.588689954153
 20
691.4626423200164
 30
0.0
 10
1033.58924119854
 20
691.4846141137765
 30
0.0
 10
1033.590898148263
 20
691.5506577024802
 30
0.0
 10
1033.567650728584
 20
691.6130653534983
 30
0.0
 10
1033.552137405745
 20
691.6547108372246
 30
0.0
  0
SPLINE
  5
73
330
1F
100
AcDbEntity
  8
0
  6
Continuous
 62
     7
370
    15
100
AcDbSpline
210
0.0
220
0.0
230
1.0
 70
     8
 71
     3
 72
    11
 73
     7
 74
     0
 42
0.00000001
 43
0.00000001
 12
1.0
 22
0.0
 32
0.0
 13
1.0
 23
0.0
 33
0.0
 40
0.0
 40
0.0
 40
0.0
 40
0.0
 40
0.3402646160086497
 40
0.4922422098892953
 40
0.74682385387343
 40
1.0
 40
1.0
 40
1.0
 40
1.0
 10
1033.552137405745
 20
691.6547108372246
 30
0.0
 10
1033.519238940672
 20
691.7128223127537
 30
0.0
 10
1033.471646530568
 20
691.7968890061115
 30
0.0
 10
1033.357252303743
 20
691.8866833478457
 30
0.0
 10
1033.240937885537
 20
691.9456711215995
 30
0.0
 10
1033.142104111711
 20
691.9521291424974
 30
0.0
 10
1033.092824013105
 20
691.9553492148909
 30
0.0
  0
SPLINE
  5
74
330
1F
100
AcDbEntity
  8
0
  6
Continuous
 62
     7
370
    15
100
AcDbSpline
210
0.0
220
0.0
230
1.0
 70
     8
 71
     3
 72
    13
 73
     9
 74
     0
 42
0.00000001
 43
0.00000001
 12
1.0
 22
0.0
 32
0.0
 13
1.0
 23
0.0
 33
0.0
 40
0.0
 40
0.0
 40
0.0
 40
0.0
 40
0.0206389490960703
 40
0.2472603110684323
 40
0.4872367770337723
 40
0.714658635710205
 40
0.9314473444595175
 40
1.0
 40
1.0
 40
1.0
 40
1.0
 10
1009.492826850286
 20
691.9553492148909
 30
0.0
 10
1009.487499583535
 20
691.9561279196625
 30
0.0
 10
1009.423677456357
 20
691.9654570179216
 30
0.0
 10
1009.295892295558
 20
691.9257908527443
 30
0.0
 10
1009.140371346369
 20
691.8299375117421
 30
0.0
 10
1009.035765070935
 20
691.681252184975
 30
0.0
 10
1008.992082798121
 20
691.5503897661936
 30
0.0
 10
1008.995547400584
 20
691.4759333155948
 30
0.0
 10
1008.996379763952
 20
691.458045311788
 30
0.0
  0
LINE
  5
75
330
1F
100
AcDbEntity
  8
0
  6
Continuous
 62
     7
370
    15
100
AcDbLine
 10
1033.0925706934
 20
691.9577259501
 30
0.0
 11
1009.4925735305
 21
691.9577259501
 31
0.0
  0
ARC
  5
76
330
1F
100
AcDbEntity
  8
0
  6
Continuous
 62
     7
370
    15
100
AcDbCircle
 10
1198.2218650262
 20
324.4058995192
 30
0.0
 40
2.0
100
AcDbArc
 50
270.0
 51
0.0
  0
ARC
  5
77
330
1F
100
AcDbEntity
  8
0
  6
Continuous
 62
     7
370
    15
100
AcDbCircle
 10
1145.2218650262
 20
324.4058995192
 30
0.0
 40
2.0
100
AcDbArc
 50
180.0
 51
270.0
  0
LINE
  5
78
330
1F
100
AcDbEntity
  8
0
  6
Continuous
 62
     7
370
    15
100
AcDbLine
 10
1200.2218637775
 20
324.4059074601
 30
0.0
 11
1200.2218637775
 21
328.405885764
 31
0.0
  0
LINE
  5
79
330
1F
100
AcDbEntity
  8
0
  6
Continuous
 62
     7
370
    15
100
AcDbLine
 10
1143.2218656104
 20
328.405885764
 30
0.0
 11
1143.2218656104
 21
324.4059074601
 31
0.0
  0
LINE
  5
7A
330
1F
100
AcDbEntity
  8
0
  6
Continuous
 62
     7
370
    15
100
AcDbLine
 10
901.5218738626
 20
324.4059074601
 30
0.0
 11
901.5218738626
 21
328.405885764
 31
0.0
  0
LINE
  5
7B
330
1F
100
AcDbEntity
  8
0
  6
Continuous
 62
     7
370
    15
100
AcDbLine
 10
844.5218626569
 20
328.405885764
 30
0.0
 11
844.5218626569
 21
324.4059074601
 31
0.0
  0
ARC
  5
7C
330
1F
100
AcDbEntity
  8
0
  6
Continuous
 62
     7
370
    15
100
AcDbCircle
 10
899.5218650262
 20
324.4058995192
 30
0.0
 40
2.0
100
AcDbArc
 50
270.0
 51
0.0
  0
ARC
  5
7D
330
1F
100
AcDbEntity
  8
0
  6
Continuous
 62
     7
370
    15
100
AcDbCircle
 10
846.5218650262
 20
324.4058995192
 30
0.0
 40
2.000000000000114
100
AcDbArc
 50
180.0
 51
270.0
  0
LINE
  5
7E
330
1F
100
AcDbEntity
  8
0
  6
Continuous
 62
     7
370
    15
100
AcDbLine
 10
1200.0218641173
 20
328.405885764
 30
0.0
 11
1200.0218641173
 21
376.4058936318
 31
0.0
  0
LINE
  5
7F
330
1F
100
AcDbEntity
  8
0
  6
Continuous
 62
     7
370
    15
100
AcDbLine
 10
1143.4218652706
 20
376.4058936318
 30
0.0
 11
1143.4218652706
 21
328.405885764
 31
0.0
  0
LINE
  5
80
330
1F
100
AcDbEntity
  8
0
  6
Continuous
 62
     7
370
    15
100
AcDbLine
 10
901.3218704771
 20
328.405885764
 30
0.0
 11
901.3218704771
 21
376.4058936318
 31
0.0
  0
LINE
  5
81
330
1F
100
AcDbEntity
  8
0
  6
Continuous
 62
     7
370
    15
100
AcDbLine
 10
844.7218660425
 20
376.4058936318
 30
0.0
 11
844.7218660425
 21
328.405885764
 31
0.0
  0
ARC
  5
82
330
1F
100
AcDbEntity
  8
0
  6
Continuous
 62
     7
370
    15
100
AcDbCircle
 10
906.4218650262
 20
468.9058995192
 30
0.0
 40
1.5
100
AcDbArc
 50
90.0
 51
180.0
  0
ARC
  5
83
330
1F
100
AcDbEntity
  8
0
  6
Continuous
 62
     7
370
    15
100
AcDbCircle
 10
839.6218650262
 20
468.9058995192
 30
0.0
 40
1.5
100
AcDbArc
 50
0.0
 51
90.0
  0
LINE
  5
84
330
1F
100
AcDbEntity
  8
0
  6
Continuous
 62
     7
370
    15
100
AcDbLine
 10
904.9218718122
 20
382.4384648284
 30
0.0
 11
904.9218718122
 21
468.9059022745
 31
0.0
  0
LINE
  5
85
330
1F
100
AcDbEntity
  8
0
  6
Continuous
 62
     7
370
    15
100
AcDbLine
 10
841.1218647073
 20
468.9059022745
 30
0.0
 11
841.1218647073
 21
382.4384648284
 31
0.0
  0
ARC
  5
86
330
1F
100
AcDbEntity
  8
0
  6
Continuous
 62
     7
370
    15
100
AcDbCircle
 10
900.2218650262
 20
382.4384654648
 30
0.0
 40
4.700000000000122
100
AcDbArc
 50
350.5402980318
 51
0.0
  0
ARC
  5
87
330
1F
100
AcDbEntity
  8
0
  6
Continuous
 62
     7
370
    15
100
AcDbCircle
 10
845.8218650262
 20
382.4384654648
 30
0.0
 40
4.70000000000001
100
AcDbArc
 50
180.0
 51
189.4597019682
  0
LINE
  5
88
330
1F
100
AcDbEntity
  8
0
  6
Continuous
 62
     7
370
    15
100
AcDbLine
 10
841.1857906889
 20
381.6660035332
 30
0.0
 11
842.0622173856
 21
376.4058936318
 31
0.0
  0
LINE
  5
89
330
1F
100
AcDbEntity
  8
0
  6
Continuous
 62
     7
370
    15
100
AcDbLine
 10
903.9815191339
 20
376.4058936318
 30
0.0
 11
904.8579458307
 21
381.6660035332
 31
0.0
  0
ARC
  5
8A
330
1F
100
AcDbEntity
  8
0
  6
Continuous
 62
     7
370
    15
100
AcDbCircle
 10
1205.1218650262
 20
468.9058995192
 30
0.0
 40
1.500000000000057
100
AcDbArc
 50
90.0
 51
180.0
  0
ARC
  5
8B
330
1F
100
AcDbEntity
  8
0
  6
Continuous
 62
     7
370
    15
100
AcDbCircle
 10
1138.3218650262
 20
468.9058995192
 30
0.0
 40
1.500000000000057
100
AcDbArc
 50
0.0
 51
90.0
  0
LINE
  5
8C
330
1F
100
AcDbEntity
  8
0
  6
Continuous
 62
     7
370
    15
100
AcDbLine
 10
1203.6218654524
 20
382.4384648284
 30
0.0
 11
1203.6218654524
 21
468.9059022745
 31
0.0
  0
LINE
  5
8D
330
1F
100
AcDbEntity
  8
0
  6
Continuous
 62
     7
370
    15
100
AcDbLine
 10
1139.8218657981
 20
468.9059022745
 30
0.0
 11
1139.8218657981
 21
382.4384648284
 31
0.0
  0
ARC
  5
8E
330
1F
100
AcDbEntity
  8
0
  6
Continuous
 62
     7
370
    15
100
AcDbCircle
 10
1198.9218650262
 20
382.4384654648
 30
0.0
 40
4.700000000000045
100
AcDbArc
 50
350.5402980318
 51
0.0
  0
ARC
  5
8F
330
1F
100
AcDbEntity
  8
0
  6
Continuous
 62
     7
370
    15
100
AcDbCircle
 10
1144.5218650262
 20
382.4384654648
 30
0.0
 40
4.700000000000045
100
AcDbArc
 50
180.0
 51
189.4597019682
  0
LINE
  5
90
330
1F
100
AcDbEntity
  8
0
  6
Continuous
 62
     7
370
    15
100
AcDbLine
 10
1139.8857787411
 20
381.6660035332
 30
0.0
 11
1140.7622147511
 21
376.4058936318
 31
0.0
  0
LINE
  5
91
330
1F
100
AcDbEntity
  8
0
  6
Continuous
 62
     7
370
    15
100
AcDbLine
 10
1202.6815164994
 20
376.4058936318
 30
0.0
 11
1203.5579506467
 21
381.6660035332
 31
0.0
  0
ARC
  5
92
330
1F
100
AcDbEntity
  8
0
  6
Continuous
 62
     7
370
    15
100
AcDbCircle
 10
829.4718650262
 20
911.2058995192
 30
0.0
 40
3.699662146737382
100
AcDbArc
 50
352.232852224
 51
7.767147776
  0
LINE
  5
93
330
1F
100
AcDbEntity
  8
0
  6
Continuous
 62
     7
370
    15
100
AcDbLine
 10
825.8061532091
 20
911.705910035
 30
0.0
 11
833.1375841211
 21
911.705910035
 31
0.0
  0
ARC
  5
94
330
1F
100
AcDbEntity
  8
0
  6
Continuous
 62
     7
370
    15
100
AcDbCircle
 10
829.4718650262
 20
911.2058995192
 30
0.0
 40
3.699662146737014
100
AcDbArc
 50
172.232852224
 51
187.767147776
  0
LINE
  5
95
330
1F
100
AcDbEntity
  8
0
  6
Continuous
 62
     7
370
    15
100
AcDbLine
 10
833.1375841211
 20
910.7058931073
 30
0.0
 11
825.8061532091
 21
910.7058931073
 31
0.0
  0
CIRCLE
  5
96
330
1F
100
AcDbEntity
  8
0
  6
Continuous
 62
     7
370
    15
100
AcDbCircle
 10
829.4718650262
 20
911.2058995192
 30
0.0
 40
4.699999999999932
  0
ARC
  5
97
330
1F
100
AcDbEntity
  8
0
  6
Continuous
 62
     7
370
    15
100
AcDbCircle
 10
1214.9718650262
 20
789.2058995192
 30
0.0
 40
3.69966214673727
100
AcDbArc
 50
352.232852224
 51
7.767147776
  0
LINE
  5
98
330
1F
100
AcDbEntity
  8
0
  6
Continuous
 62
     7
370
    15
100
AcDbLine
 10
1211.3061446856
 20
789.7059012135
 30
0.0
 11
1218.6375830482
 21
789.7059012135
 31
0.0
  0
ARC
  5
99
330
1F
100
AcDbEntity
  8
0
  6
Continuous
 62
     7
370
    15
100
AcDbCircle
 10
1214.9718650262
 20
789.2058995192
 30
0.0
 40
3.699662146737029
100
AcDbArc
 50
172.232852224
 51
187.767147776
  0
LINE
  5
9A
330
1F
100
AcDbEntity
  8
0
  6
Continuous
 62
     7
370
    15
100
AcDbLine
 10
1218.6375830482
 20
788.7058991869
 30
0.0
 11
1211.3061446856
 21
788.7058991869
 31
0.0
  0
CIRCLE
  5
9B
330
1F
100
AcDbEntity
  8
0
  6
Continuous
 62
     7
370
    15
100
AcDbCircle
 10
1214.9718650262
 20
789.2058995192
 30
0.0
 40
4.700000000000045
  0
ARC
  5
9C
330
1F
100
AcDbEntity
  8
0
  6
Continuous
 62
     7
370
    15
100
AcDbCircle
 10
1177.3867240342
 20
957.5239695451
 30
0.0
 40
28.43395048818827
100
AcDbArc
 50
11.9464445544
 51
13.9613811745
  0
ARC
  5
9D
330
1F
100
AcDbEntity
  8
0
  6
Continuous
 62
     7
370
    15
100
AcDbCircle
 10
1200.6660358466
 20
982.1976396345
 30
0.0
 40
18.32855915331824
100
AcDbArc
 50
278.1559764335
 51
283.6155763827
  0
ARC
  5
9E
330
1F
100
AcDbEntity
  8
0
  6
Continuous
 62
     7
370
    15
100
AcDbCircle
 10
1231.8883750336
 20
970.1708729637
 30
0.0
 40
28.47334220550507
100
AcDbArc
 50
192.1269642575
 51
193.9605583919
  0
LWPOLYLINE
  5
9F
330
1F
100
AcDbEntity
  8
0
  6
Continuous
 62
     7
370
    15
100
AcDbPolyline
 90
        9
 70
   128
 43
0.0
 10
1205.2048381578
 20
963.4097207268
 10
1204.5882988881
 20
963.2793355664
 10
1204.0978569697
 20
963.1793189724
 10
1203.746323676
 20
963.1123233517
 10
1203.5428781222
 20
963.0800772389
 10
1203.4928362976
 20
963.083415099
 10
1203.5975095044
 20
963.1222773274
 10
1203.854155929
 20
963.1956208428
 10
1204.2560774993
 20
963.3015680989
  0
LWPOLYLINE
  5
A0
330
1F
100
AcDbEntity
  8
0
  6
Continuous
 62
     7
370
    15
100
AcDbPolyline
 90
        7
 70
   128
 43
0.0
 10
1206.1554018568
 20
964.1277480801
 10
1205.8339651834
 20
965.4152382096
 10
1205.4892975997
 20
966.5928173741
 10
1205.1493164312
 20
967.5650585373
 10
1204.8415664743
 20
968.2532239636
 10
1204.5909848224
 20
968.6015237053
 10
1204.4270087193
 20
968.5951460084
  0
LWPOLYLINE
  5
A1
330
1F
100
AcDbEntity
  8
0
  6
Continuous
 62
     7
370
    15
100
AcDbPolyline
 90
        7
 70
   128
 43
0.0
 10
1206.5394047807
 20
959.4919670304
 10
1206.6764917384
 20
959.5350015839
 10
1206.7581202994
 20
959.9211800774
 10
1206.7416433405
 20
960.6425452908
 10
1206.628401966
 20
961.6406548699
 10
1206.4275641154
 20
962.8346253117
 10
1206.1554018568
 20
964.1277480801
  0
LWPOLYLINE
  5
A2
330
1F
100
AcDbEntity
  8
0
  6
Continuous
 62
     7
370
    15
100
AcDbPolyline
 90
        7
 70
   128
 43
0.0
 10
1206.4340200435
 20
964.1923893174
 10
1206.1125833701
 20
965.4798794468
 10
1205.7679120611
 20
966.6574586113
 10
1205.4279308926
 20
967.6296997746
 10
1205.120184661
 20
968.3178652009
 10
1204.8695992838
 20
968.6661947449
 10
1204.7633838068
 20
968.7013912877
  0
LWPOLYLINE
  5
A3
330
1F
100
AcDbEntity
  8
0
  6
Continuous
 62
     7
370
    15
100
AcDbPolyline
 90
        7
 70
   128
 43
0.0
 10
1206.8882037114
 20
959.5446873387
 10
1206.9551061999
 20
959.5996428212
 10
1207.0367347609
 20
959.985851117
 10
1207.0202615272
 20
960.7072163304
 10
1206.9070164274
 20
961.7052961072
 10
1206.7061785768
 20
962.899266549
 10
1206.4340200435
 20
964.1923893174
  0
LINE
  5
A4
330
1F
100
AcDbEntity
  8
0
  6
Continuous
 62
     7
370
    15
100
AcDbLine
 10
1205.2048381578
 20
963.4097207268
 30
0.0
 11
1204.2560774993
 21
963.3015680989
 31
0.0
  0
ARC
  5
A5
330
1F
100
AcDbEntity
  8
0
  6
Continuous
 62
     7
370
    15
100
AcDbCircle
 10
843.4698986837
 20
1052.7295070601
 30
0.0
 40
4.06759306280621
100
AcDbArc
 50
151.0145485815
 51
158.4110439561
  0
ARC
  5
A6
330
1F
100
AcDbEntity
  8
0
  6
Continuous
 62
     7
370
    15
100
AcDbCircle
 10
835.5858291164
 20
1051.6153739895
 30
0.0
 40
4.86222131080966
100
AcDbArc
 50
327.3851419767
 51
32.4764648531
  0
ARC
  5
A7
330
1F
100
AcDbEntity
  8
0
  6
Continuous
 62
     7
370
    15
100
AcDbCircle
 10
835.7728859417
 20
1052.0775468577
 30
0.0
 40
4.90011103516527
100
AcDbArc
 50
332.7822505298
 51
32.3647518118
  0
LWPOLYLINE
  5
A8
330
1F
100
AcDbEntity
  8
0
  6
Continuous
 62
     7
370
    15
100
AcDbPolyline
 90
       11
 70
   128
 43
0.0
 10
839.0047673296
 20
1055.5593658169
 10
838.6833492826
 20
1054.7690678319
 10
838.3386854242
 20
1053.718655177
 10
837.9987005304
 20
1052.493243285
 10
837.6909319471
 20
1051.1920738896
 10
837.4403540205
 20
1049.9205876072
 10
837.2672323297
 20
1048.7818110665
 10
837.1856037687
 20
1047.8679526528
 10
837.202084453
 20
1047.2530711373
 10
837.3153332781
 20
1046.986996003
 10
837.4043230127
 20
1046.9919729908
  0
LWPOLYLINE
  5
A9
330
1F
100
AcDbEntity
  8
0
  6
Continuous
 62
     7
370
    15
100
AcDbPolyline
 90
        4
 70
   128
 43
0.0
 10
839.5167116235
 20
1056.0951221665
 10
839.4777897905
 20
1056.1297822674
 10
839.2769519399
 20
1056.0255337437
 10
839.0047673296
 20
1055.5593658169
  0
LWPOLYLINE
  5
AA
330
1F
100
AcDbEntity
  8
0
  6
Continuous
 62
     7
370
    15
100
AcDbPolyline
 90
       11
 70
   128
 43
0.0
 10
838.7261752199
 20
1055.6240070542
 10
838.4047273706
 20
1054.8337090691
 10
838.0600635122
 20
1053.7832964142
 10
837.7200786184
 20
1052.5578845223
 10
837.4123398374
 20
1051.2567449292
 10
837.1617321085
 20
1049.9852586468
 10
836.9886104177
 20
1048.8464523037
 10
836.9069818567
 20
1047.9325938901
 10
836.923462541
 20
1047.3177421769
 10
837.036711366
 20
1047.0516372403
 10
837.0555166315
 20
1047.0446932992
  0
LWPOLYLINE
  5
AB
330
1F
100
AcDbEntity
  8
0
  6
Continuous
 62
     7
370
    15
100
AcDbPolyline
 90
        3
 70
   128
 43
0.0
 10
839.1803328108
 20
1056.2013972481
 10
838.9983300279
 20
1056.090174981
 10
838.7261752199
 20
1055.6240070542
  0
LINE
  5
AC
330
1F
100
AcDbEntity
  8
0
  6
Continuous
 62
     7
370
    15
100
AcDbLine
 10
839.9118010114
 20
1054.7006118973
 30
0.0
 11
839.8072842668
 21
1054.0130425175
 31
0.0
  0
ARC
  5
AD
330
1F
100
AcDbEntity
  8
0
  6
Continuous
 62
     7
370
    15
100
AcDbCircle
 10
1214.4718650262
 20
911.2058995192
 30
0.0
 40
3.699662146737239
100
AcDbArc
 50
352.232852224
 51
7.767147776
  0
LINE
  5
AE
330
1F
100
AcDbEntity
  8
0
  6
Continuous
 62
     7
370
    15
100
AcDbLine
 10
1210.8061436723
 20
911.705910035
 30
0.0
 11
1218.1375857602
 21
911.705910035
 31
0.0
  0
ARC
  5
AF
330
1F
100
AcDbEntity
  8
0
  6
Continuous
 62
     7
370
    15
100
AcDbCircle
 10
1214.4718650262
 20
911.2058995192
 30
0.0
 40
3.699662146737029
100
AcDbArc
 50
172.232852224
 51
187.767147776
  0
LINE
  5
B0
330
1F
100
AcDbEntity
  8
0
  6
Continuous
 62
     7
370
    15
100
AcDbLine
 10
1218.1375857602
 20
910.7058931073
 30
0.0
 11
1210.8061436723
 21
910.7058931073
 31
0.0
  0
CIRCLE
  5
B1
330
1F
100
AcDbEntity
  8
0
  6
Continuous
 62
     7
370
    15
100
AcDbCircle
 10
1214.4718650262
 20
911.2058995192
 30
0.0
 40
4.699999999999818
  0
ARC
  5
B2
330
1F
100
AcDbEntity
  8
0
  6
Continuous
 62
     7
370
    15
100
AcDbCircle
 10
1177.3726758407
 20
1045.0207441246
 30
0.0
 40
28.44836330740577
100
AcDbArc
 50
11.9469550215
 51
13.9608707074
  0
ARC
  5
B3
330
1F
100
AcDbEntity
  8
0
  6
Continuous
 62
     7
370
    15
100
AcDbCircle
 10
1200.6668929513
 20
1069.693188755
 30
0.0
 40
18.32402579714977
100
AcDbArc
 50
278.1553005705
 51
283.6162522457
  0
ARC
  5
B4
330
1F
100
AcDbEntity
  8
0
  6
Continuous
 62
     7
370
    15
100
AcDbCircle
 10
1231.8687299457
 20
1057.6660972216
 30
0.0
 40
28.45313097943126
100
AcDbArc
 50
192.125860792
 51
193.9608159736
  0
LWPOLYLINE
  5
B5
330
1F
100
AcDbEntity
  8
0
  6
Continuous
 62
     7
370
    15
100
AcDbPolyline
 90
        9
 70
   128
 43
0.0
 10
1205.2048381578
 20
1050.9097266873
 10
1204.5882988881
 20
1050.7793415268
 10
1204.0978569697
 20
1050.6793249329
 10
1203.746323676
 20
1050.6123293122
 10
1203.5428781222
 20
1050.580053397
 10
1203.4928362976
 20
1050.5834210595
 10
1203.5975095044
 20
1050.6222832879
 10
1203.854155929
 20
1050.6956268033
 10
1204.2560774993
 20
1050.801544257
  0
LWPOLYLINE
  5
B6
330
1F
100
AcDbEntity
  8
0
  6
Continuous
 62
     7
370
    15
100
AcDbPolyline
 90
        7
 70
   128
 43
0.0
 10
1206.1554018568
 20
1051.6277540406
 10
1205.8339651834
 20
1052.91524417
 10
1205.4892975997
 20
1054.0927935322
 10
1205.1493164312
 20
1055.0650644978
 10
1204.8415664743
 20
1055.7532001217
 10
1204.5909848224
 20
1056.1015296658
 10
1204.4270087193
 20
1056.0951221665
  0
LWPOLYLINE
  5
B7
330
1F
100
AcDbEntity
  8
0
  6
Continuous
 62
     7
370
    15
100
AcDbPolyline
 90
        7
 70
   128
 43
0.0
 10
1206.5394047807
 20
1046.9919729908
 10
1206.6764917384
 20
1047.0349777421
 10
1206.7581202994
 20
1047.4211860379
 10
1206.7416433405
 20
1048.1425512513
 10
1206.628401966
 20
1049.1406608304
 10
1206.4275641154
 20
1050.3346312722
 10
1206.1554018568
 20
1051.6277540406
  0
LWPOLYLINE
  5
B8
330
1F
100
AcDbEntity
  8
0
  6
Continuous
 62
     7
370
    15
100
AcDbPolyline
 90
        7
 70
   128
 43
0.0
 10
1206.4340200435
 20
1051.6923952778
 10
1206.1125833701
 20
1052.9798854073
 10
1205.7679120611
 20
1054.1574645718
 10
1205.4279308926
 20
1055.1297057351
 10
1205.120184661
 20
1055.8178711613
 10
1204.8695992838
 20
1056.1662007054
 10
1204.7633838068
 20
1056.2013972481
  0
LWPOLYLINE
  5
B9
330
1F
100
AcDbEntity
  8
0
  6
Continuous
 62
     7
370
    15
100
AcDbPolyline
 90
        7
 70
   128
 43
0.0
 10
1206.8882037114
 20
1047.0446932992
 10
1206.9551061999
 20
1047.0996487816
 10
1207.0367347609
 20
1047.4858272751
 10
1207.0202615272
 20
1048.2072222909
 10
1206.9070164274
 20
1049.2053020676
 10
1206.7061785768
 20
1050.3992725094
 10
1206.4340200435
 20
1051.6923952778
  0
LINE
  5
BA
330
1F
100
AcDbEntity
  8
0
  6
Continuous
 62
     7
370
    15
100
AcDbLine
 10
1205.2048381578
 20
1050.9097266873
 30
0.0
 11
1204.2560774993
 21
1050.801544257
 31
0.0
  0
ARC
  5
BB
330
1F
100
AcDbEntity
  8
0
  6
Continuous
 62
     7
370
    15
100
AcDbCircle
 10
829.4718650262
 20
789.2058995192
 30
0.0
 40
3.699662146737254
100
AcDbArc
 50
352.232852224
 51
7.767147776
  0
LINE
  5
BC
330
1F
100
AcDbEntity
  8
0
  6
Continuous
 62
     7
370
    15
100
AcDbLine
 10
825.8061532091
 20
789.7059012135
 30
0.0
 11
833.1375841211
 21
789.7059012135
 31
0.0
  0
ARC
  5
BD
330
1F
100
AcDbEntity
  8
0
  6
Continuous
 62
     7
370
    15
100
AcDbCircle
 10
829.4718650262
 20
789.2058995192
 30
0.0
 40
3.699662146737029
100
AcDbArc
 50
172.232852224
 51
187.767147776
  0
LINE
  5
BE
330
1F
100
AcDbEntity
  8
0
  6
Continuous
 62
     7
370
    15
100
AcDbLine
 10
833.1375841211
 20
788.7058991869
 30
0.0
 11
825.8061532091
 21
788.7058991869
 31
0.0
  0
CIRCLE
  5
BF
330
1F
100
AcDbEntity
  8
0
  6
Continuous
 62
     7
370
    15
100
AcDbCircle
 10
829.4718650262
 20
789.2058995192
 30
0.0
 40
4.700000000000045
  0
ARC
  5
C0
330
1F
100
AcDbEntity
  8
0
  6
Continuous
 62
     7
370
    15
100
AcDbCircle
 10
843.4698986837
 20
965.2295010997
 30
0.0
 40
4.067593062828332
100
AcDbArc
 50
151.0145485815
 51
158.4110439561
  0
ARC
  5
C1
330
1F
100
AcDbEntity
  8
0
  6
Continuous
 62
     7
370
    15
100
AcDbCircle
 10
835.5858291164
 20
964.1153680291
 30
0.0
 40
4.862221310809564
100
AcDbArc
 50
327.3851419767
 51
32.4764648531
  0
ARC
  5
C2
330
1F
100
AcDbEntity
  8
0
  6
Continuous
 62
     7
370
    15
100
AcDbCircle
 10
835.7730238315
 20
964.5775608262
 30
0.0
 40
4.899983897748675
100
AcDbArc
 50
332.781615749
 51
32.3654180852
  0
LWPOLYLINE
  5
C3
330
1F
100
AcDbEntity
  8
0
  6
Continuous
 62
     7
370
    15
100
AcDbPolyline
 90
       11
 70
   128
 43
0.0
 10
839.0047673296
 20
968.0593598565
 10
838.6833492826
 20
967.2690618714
 10
838.3386854242
 20
966.2186492165
 10
837.9987005304
 20
964.9932373246
 10
837.6909319471
 20
963.6920679291
 10
837.4403540205
 20
962.4206114491
 10
837.2672323297
 20
961.281805106
 10
837.1856037687
 20
960.3679466923
 10
837.202084453
 20
959.7530651768
 10
837.3153332781
 20
959.4869900425
 10
837.4043230127
 20
959.4919670304
  0
LWPOLYLINE
  5
C4
330
1F
100
AcDbEntity
  8
0
  6
Continuous
 62
     7
370
    15
100
AcDbPolyline
 90
        4
 70
   128
 43
0.0
 10
839.5167116235
 20
968.5951460084
 10
839.4777897905
 20
968.6298061093
 10
839.2769519399
 20
968.5255277833
 10
839.0047673296
 20
968.0593598565
  0
LWPOLYLINE
  5
C5
330
1F
100
AcDbEntity
  8
0
  6
Continuous
 62
     7
370
    15
100
AcDbPolyline
 90
       11
 70
   128
 43
0.0
 10
838.7261752199
 20
968.124030896
 10
838.4047273706
 20
967.333732911
 10
838.0600635122
 20
966.2833202561
 10
837.7200786184
 20
965.0578785618
 10
837.4123398374
 20
963.7567389687
 10
837.1617321085
 20
962.4852526864
 10
836.9886104177
 20
961.3464463433
 10
836.9069818567
 20
960.4326177319
 10
836.923462541
 20
959.8177362164
 10
837.036711366
 20
959.5516312798
 10
837.0555166315
 20
959.5446873387
  0
LWPOLYLINE
  5
C6
330
1F
100
AcDbEntity
  8
0
  6
Continuous
 62
     7
370
    15
100
AcDbPolyline
 90
        3
 70
   128
 43
0.0
 10
839.1803328108
 20
968.7013912877
 10
838.9983300279
 20
968.5901988228
 10
838.7261752199
 20
968.124030896
  0
LINE
  5
C7
330
1F
100
AcDbEntity
  8
0
  6
Continuous
 62
     7
370
    15
100
AcDbLine
 10
839.9118010114
 20
967.2006059369
 30
0.0
 11
839.8072842668
 21
966.5130663594
 31
0.0
  0
LINE
  5
C8
330
1F
100
AcDbEntity
  8
0
  6
Continuous
 62
     7
370
    15
100
AcDbLine
 10
824.0925792764
 20
1081.4537692746
 30
0.0
 11
1219.8511559676
 21
1081.4537692746
 31
0.0
  0
LINE
  5
C9
330
1F
100
AcDbEntity
  8
0
  6
Continuous
 62
     7
370
    15
100
AcDbLine
 10
1221.1011547755
 20
1081.4537692746
 30
0.0
 11
1219.8511559676
 21
1081.4537692746
 31
0.0
  0
SPLINE
  5
CA
330
1F
100
AcDbEntity
  8
0
  6
Continuous
 62
     7
370
    15
100
AcDbSpline
210
0.0
220
0.0
230
1.0
 70
     8
 71
     3
 72
    12
 73
     8
 74
     0
 42
0.00000001
 43
0.00000001
 12
1.0
 22
0.0
 32
0.0
 13
1.0
 23
0.0
 33
0.0
 40
0.0
 40
0.0
 40
0.0
 40
0.0
 40
0.2288077646143296
 40
0.4682270694904632
 40
0.7076692807509805
 40
0.9471086338869584
 40
1.0
 40
1.0
 40
1.0
 40
1.0
 10
1221.101154775492
 20
1081.453769274572
 30
0.0
 10
1220.980424074597
 20
1081.22824998523
 30
0.0
 10
1220.733363480422
 20
1080.766752377664
 30
0.0
 10
1220.359612006086
 20
1079.985036373932
 30
0.0
 10
1219.98067301882
 20
1079.265908219678
 30
0.0
 10
1219.699184183212
 20
1078.846111110209
 30
0.0
 10
1219.545607356061
 20
1078.682945407133
 30
0.0
 10
1219.517820716969
 20
1078.653423853735
 30
0.0
  0
LINE
  5
CB
330
1F
100
AcDbEntity
  8
0
  6
Continuous
 62
     7
370
    15
100
AcDbLine
 10
824.4259182523
 20
1078.6534238537
 30
0.0
 11
1219.517820717
 21
1078.6534238537
 31
0.0
  0
SPLINE
  5
CC
330
1F
100
AcDbEntity
  8
0
  6
Continuous
 62
     7
370
    15
100
AcDbSpline
210
0.0
220
0.0
230
1.0
 70
     8
 71
     3
 72
    12
 73
     8
 74
     0
 42
0.00000001
 43
0.00000001
 12
1.0
 22
0.0
 32
0.0
 13
1.0
 23
0.0
 33
0.0
 40
0.0
 40
0.0
 40
0.0
 40
0.0
 40
0.2288037143658843
 40
0.4682287723907705
 40
0.7076698202194014
 40
0.9471069219487845
 40
1.0
 40
1.0
 40
1.0
 40
1.0
 10
824.4259182523402
 20
1078.653423853735
 30
0.0
 10
824.3051886072947
 20
1078.798520418917
 30
0.0
 10
824.0581249018494
 20
1079.09544910638
 30
0.0
 10
823.6843497360255
 20
1079.788516164906
 30
0.0
 10
823.30542802907
 20
1080.562481394084
 30
0.0
 10
823.023911220086
 20
1081.129571558831
 30
0.0
 10
822.8703629002654
 20
1081.404097606474
 30
0.0
 10
822.8425804685268
 20
1081.453769274572
 30
0.0
  0
LINE
  5
CD
330
1F
100
AcDbEntity
  8
0
  6
Continuous
 62
     7
370
    15
100
AcDbLine
 10
822.8425804685
 20
1081.4537692746
 30
0.0
 11
824.0925792764
 21
1081.4537692746
 31
0.0
  0
LINE
  5
CE
330
1F
100
AcDbEntity
  8
0
  6
Continuous
 62
     7
370
    15
100
AcDbLine
 10
1221.1011547755
 20
1081.0537625035
 30
0.0
 11
1221.1011547755
 21
1081.4537692746
 31
0.0
  0
SPLINE
  5
CF
330
1F
100
AcDbEntity
  8
0
  6
Continuous
 62
     7
370
    15
100
AcDbSpline
210
0.0
220
0.0
230
1.0
 70
     8
 71
     3
 72
     9
 73
     5
 74
     0
 42
0.00000001
 43
0.00000001
 12
1.0
 22
0.0
 32
0.0
 13
1.0
 23
0.0
 33
0.0
 40
0.0
 40
0.0
 40
0.0
 40
0.0
 40
0.8337321686590763
 40
1.0
 40
1.0
 40
1.0
 40
1.0
 10
1221.101154775492
 20
1081.053762503484
 30
0.0
 10
1220.955442743685
 20
1080.885730033478
 30
0.0
 10
1220.780671951236
 20
1080.684187528194
 30
0.0
 10
1220.605894872923
 20
1080.47019871224
 30
0.0
 10
1220.576835067144
 20
1080.43461925588
 30
0.0
  0
LINE
  5
D0
330
1F
100
AcDbEntity
  8
0
  6
Continuous
 62
     7
370
    15
100
AcDbLine
 10
822.8425804685
 20
1081.0537625035
 30
0.0
 11
822.8425804685
 21
1081.4537692746
 31
0.0
  0
SPLINE
  5
D1
330
1F
100
AcDbEntity
  8
0
  6
Continuous
 62
     7
370
    15
100
AcDbSpline
210
0.0
220
0.0
230
1.0
 70
     8
 71
     3
 72
     9
 73
     5
 74
     0
 42
0.00000001
 43
0.00000001
 12
1.0
 22
0.0
 32
0.0
 13
1.0
 23
0.0
 33
0.0
 40
0.0
 40
0.0
 40
0.0
 40
0.0
 40
0.4871796227498346
 40
0.9999999999999999
 40
0.9999999999999999
 40
0.9999999999999999
 40
0.9999999999999999
 10
823.3711246560725
 20
1080.427109070638
 30
0.0
 10
823.2851040973595
 20
1080.534662277382
 30
0.0
 10
823.1085356312412
 20
1080.755429324528
 30
0.0
 10
822.9327347452181
 20
1080.952632629985
 30
0.0
 10
822.8425804685268
 20
1081.053762503484
 30
0.0
  0
LINE
  5
D2
330
1F
100
AcDbEntity
  8
0
  6
Continuous
 62
     7
370
    15
100
AcDbLine
 10
1209.171866269
 20
1073.4430540284
 30
0.0
 11
1219.9218657027
 21
1078.8180518826
 31
0.0
  0
LINE
  5
D3
330
1F
100
AcDbEntity
  8
0
  6
Continuous
 62
     7
370
    15
100
AcDbLine
 10
1209.171866269
 20
1073.5137749394
 30
0.0
 11
1209.171866269
 21
1073.4430540284
 31
0.0
  0
ELLIPSE
  5
D4
330
1F
100
AcDbEntity
  8
0
  6
Continuous
 62
     7
370
    15
100
AcDbEllipse
 10
1219.9218650262
 20
1080.5934150063
 30
0.0
 11
1.082531754731008
 21
1.082531754731008
 31
0.0
210
0.0
220
0.0
230
1.0
 40
0.5773502692
 41
4.459060478290351
 42
4.936552839444585
  0
LINE
  5
D5
330
1F
100
AcDbEntity
  8
0
  6
Continuous
 62
     7
370
    15
100
AcDbLine
 10
1220.7718651901
 20
1080.224691697
 30
0.0
 11
1220.7718651901
 21
1079.4028628548
 31
0.0
  0
ELLIPSE
  5
D6
330
1F
100
AcDbEntity
  8
0
  6
Continuous
 62
     7
370
    15
100
AcDbEllipse
 10
1219.9218650262
 20
1080.5934150063
 30
0.0
 11
1.775352077758498
 21
1.775352077758498
 31
0.0
210
0.0
220
0.0
230
1.0
 40
0.5773502692
 41
4.188790204786414
 42
4.616330928715936
  0
ARC
  5
D7
330
1F
100
AcDbEntity
  8
0
  6
Continuous
 62
     7
370
    15
100
AcDbCircle
 10
1220.1900459799
 20
1081.0884725062
 30
0.0
 40
1.783197546569427
100
AcDbArc
 50
289.0430569662
 51
357.7484709984
  0
LINE
  5
D8
330
1F
100
AcDbEntity
  8
0
  6
Continuous
 62
     7
370
    15
100
AcDbLine
 10
1221.971866877
 20
1081.0184169491
 30
0.0
 11
1221.971866877
 21
1081.013410159
 31
0.0
  0
LINE
  5
D9
330
1F
100
AcDbEntity
  8
0
  6
Continuous
 62
     7
370
    15
100
AcDbLine
 10
1221.971866877
 20
1081.013410159
 30
0.0
 11
1221.971866877
 21
931.0123313149
 31
0.0
  0
ARC
  5
DA
330
1F
100
AcDbEntity
  8
0
  6
Continuous
 62
     7
370
    15
100
AcDbCircle
 10
1220.2658798799
 20
931.05127841
 30
0.0
 40
1.706431513525835
100
AcDbArc
 50
302.0678748078
 51
358.6921842815
  0
ARC
  5
DB
330
1F
100
AcDbEntity
  8
0
  6
Continuous
 62
     7
370
    15
100
AcDbCircle
 10
1219.9350872533
 20
931.4978034672
 30
0.0
 40
2.260864959421467
100
AcDbArc
 50
269.6649320615
 51
303.1639896038
  0
LINE
  5
DC
330
1F
100
AcDbEntity
  8
0
  6
Continuous
 62
     7
370
    15
100
AcDbLine
 10
1219.9218657027
 20
1078.8180518826
 30
0.0
 11
1219.9218657027
 21
929.2369771679
 31
0.0
  0
ARC
  5
DD
330
1F
100
AcDbEntity
  8
0
  6
Continuous
 62
     7
370
    15
100
AcDbCircle
 10
1220.149149738
 20
1081.0361631377
 30
0.0
 40
1.022868727373895
100
AcDbArc
 50
307.5022893346
 51
359.0059010552
  0
LINE
  5
DE
330
1F
100
AcDbEntity
  8
0
  6
Continuous
 62
     7
370
    15
100
AcDbLine
 10
1221.1718645106
 20
1081.0184169491
 30
0.0
 11
1221.971866877
 21
1081.0184169491
 31
0.0
  0
LINE
  5
DF
330
1F
100
AcDbEntity
  8
0
  6
Continuous
 62
     7
370
    15
100
AcDbLine
 10
823.1718663286
 20
1080.224691697
 30
0.0
 11
823.1718663286
 21
1079.4028628548
 31
0.0
  0
ELLIPSE
  5
E0
330
1F
100
AcDbEntity
  8
0
  6
Continuous
 62
     7
370
    15
100
AcDbEllipse
 10
824.0218650262
 20
1080.5934150063
 30
0.0
 11
-1.082531754731008
 21
1.082531754731008
 31
0.0
210
0.0
220
0.0
230
1.0
 40
0.5773502692
 41
1.346632467734343
 42
1.829787535332837
  0
LINE
  5
E1
330
1F
100
AcDbEntity
  8
0
  6
Continuous
 62
     7
370
    15
100
AcDbLine
 10
834.7718540739
 20
1073.4430540284
 30
0.0
 11
834.7718540739
 21
1073.5137749394
 31
0.0
  0
LINE
  5
E2
330
1F
100
AcDbEntity
  8
0
  6
Continuous
 62
     7
370
    15
100
AcDbLine
 10
824.0218583654
 20
1078.8180518826
 30
0.0
 11
834.7718540739
 21
1073.4430540284
 31
0.0
  0
ELLIPSE
  5
E3
330
1F
100
AcDbEntity
  8
0
  6
Continuous
 62
     7
370
    15
100
AcDbEllipse
 10
824.0218650262
 20
1080.5934150063
 30
0.0
 11
-1.775352077758612
 21
1.775352077758498
 31
0.0
210
0.0
220
0.0
230
1.0
 40
0.5773502692
 41
1.666854378463291
 42
2.094395102393112
  0
LINE
  5
E4
330
1F
100
AcDbEntity
  8
0
  6
Continuous
 62
     7
370
    15
100
AcDbLine
 10
824.0218583654
 20
929.2369771679
 30
0.0
 11
824.0218583654
 21
1078.8180518826
 31
0.0
  0
ARC
  5
E5
330
1F
100
AcDbEntity
  8
0
  6
Continuous
 62
     7
370
    15
100
AcDbCircle
 10
824.0086402614
 20
931.4978151667
 30
0.0
 40
2.26087663856171
100
AcDbArc
 50
236.8360994722
 51
270.3349788625
  0
ARC
  5
E6
330
1F
100
AcDbEntity
  8
0
  6
Continuous
 62
     7
370
    15
100
AcDbCircle
 10
823.6777893648
 20
931.0512246588
 30
0.0
 40
1.706356856753175
100
AcDbArc
 50
181.30606763
 51
237.9327269309
  0
LINE
  5
E7
330
1F
100
AcDbEntity
  8
0
  6
Continuous
 62
     7
370
    15
100
AcDbLine
 10
821.9718758176
 20
931.0123313149
 30
0.0
 11
821.9718758176
 21
1081.013410159
 31
0.0
  0
LINE
  5
E8
330
1F
100
AcDbEntity
  8
0
  6
Continuous
 62
     7
370
    15
100
AcDbLine
 10
821.9718758176
 20
1081.013410159
 30
0.0
 11
821.9718758176
 21
1081.0184169491
 31
0.0
  0
ARC
  5
E9
330
1F
100
AcDbEntity
  8
0
  6
Continuous
 62
     7
370
    15
100
AcDbCircle
 10
823.7536379505
 20
1081.0884248329
 30
0.0
 40
1.783136955487374
100
AcDbArc
 50
182.2500725267
 51
250.9578886511
  0
LINE
  5
EA
330
1F
100
AcDbEntity
  8
0
  6
Continuous
 62
     7
370
    15
100
AcDbLine
 10
822.7718595575
 20
1081.0184169491
 30
0.0
 11
821.9718758176
 21
1081.0184169491
 31
0.0
  0
ARC
  5
EB
330
1F
100
AcDbEntity
  8
0
  6
Continuous
 62
     7
370
    15
100
AcDbCircle
 10
823.7945819077
 20
1081.0361728018
 30
0.0
 40
1.022876471506466
100
AcDbArc
 50
180.9946328277
 51
232.4980345797
  0
SPLINE
  5
EC
330
1F
100
AcDbEntity
  8
0
  6
Continuous
 62
     7
370
    15
100
AcDbSpline
210
0.0
220
0.0
230
1.0
 70
     8
 71
     3
 72
    12
 73
     8
 74
     0
 42
0.00000001
 43
0.00000001
 12
1.0
 22
0.0
 32
0.0
 13
1.0
 23
0.0
 33
0.0
 40
0.0
 40
0.0
 40
0.0
 40
0.0
 40
0.2301004440627873
 40
0.460276969304293
 40
0.6904624358369945
 40
0.9206456214406302
 40
0.9999999999999999
 40
0.9999999999999999
 40
0.9999999999999999
 40
0.9999999999999999
 10
1219.851155967585
 20
1142.854957648138
 30
0.0
 10
1220.098155737369
 20
1142.759528392108
 30
0.0
 10
1220.592236945765
 20
1142.568638327001
 30
0.0
 10
1221.238253705558
 20
1142.119180381678
 30
0.0
 10
1221.702196595686
 20
1141.578182263399
 30
0.0
 10
1221.885286744174
 20
1141.102450551129
 30
0.0
 10
1221.897915782129
 20
1140.826773136859
 30
0.0
 10
1221.901153416506
 20
1140.756099291662
 30
0.0
  0
LINE
  5
ED
330
1F
100
AcDbEntity
  8
0
  6
Continuous
 62
     7
370
    15
100
AcDbLine
 10
1221.9011534165
 20
1081.5026450833
 30
0.0
 11
1221.9011534165
 21
1140.7560992917
 31
0.0
  0
SPLINE
  5
EE
330
1F
100
AcDbEntity
  8
0
  6
Continuous
 62
     7
370
    15
100
AcDbSpline
210
0.0
220
0.0
230
1.0
 70
     8
 71
     3
 72
    12
 73
     8
 74
     0
 42
0.00000001
 43
0.00000001
 12
1.0
 22
0.0
 32
0.0
 13
1.0
 23
0.0
 33
0.0
 40
0.0
 40
0.0
 40
0.0
 40
0.0
 40
0.2300991230116816
 40
0.4602802751590953
 40
0.6904630603826216
 40
0.9206447467925418
 40
1.0
 40
1.0
 40
1.0
 40
1.0
 10
1221.901153416506
 20
1081.502645083288
 30
0.0
 10
1221.875092217966
 20
1081.543756593555
 30
0.0
 10
1221.822960530206
 20
1081.625994270129
 30
0.0
 10
1221.418493046674
 20
1081.701698845116
 30
0.0
 10
1220.830778855124
 20
1081.686551157217
 30
0.0
 10
1220.266677841182
 20
1081.584447881577
 30
0.0
 10
1219.935945130497
 20
1081.480434849605
 30
0.0
 10
1219.851155967585
 20
1081.453769274572
 30
0.0
  0
LINE
  5
EF
330
1F
100
AcDbEntity
  8
0
  6
Continuous
 62
     7
370
    15
100
AcDbLine
 10
1219.8511559676
 20
1081.4537692746
 30
0.0
 11
1219.8511559676
 21
1142.8549576481
 31
0.0
  0
LINE
  5
F0
330
1F
100
AcDbEntity
  8
0
  6
Continuous
 62
     7
370
    15
100
AcDbLine
 10
1221.1011547755
 20
1081.5026450833
 30
0.0
 11
1221.9011534165
 21
1081.5026450833
 31
0.0
  0
SPLINE
  5
F1
330
1F
100
AcDbEntity
  8
0
  6
Continuous
 62
     7
370
    15
100
AcDbSpline
210
0.0
220
0.0
230
1.0
 70
     8
 71
     3
 72
     9
 73
     5
 74
     0
 42
0.00000001
 43
0.00000001
 12
1.0
 22
0.0
 32
0.0
 13
1.0
 23
0.0
 33
0.0
 40
0.0
 40
0.0
 40
0.0
 40
0.0
 40
0.9390654868712168
 40
1.0
 40
1.0
 40
1.0
 40
1.0
 10
1221.101154775492
 20
1081.502645083288
 30
0.0
 10
1221.096749710402
 20
1081.498669589689
 30
0.0
 10
1221.092058807424
 20
1081.494436132434
 30
0.0
 10
1220.99087522375
 20
1081.469728922724
 30
0.0
 10
1220.984709651342
 20
1081.46822340093
 30
0.0
  0
SPLINE
  5
F2
330
1F
100
AcDbEntity
  8
0
  6
Continuous
 62
     7
370
    15
100
AcDbSpline
210
0.0
220
0.0
230
1.0
 70
     8
 71
     3
 72
    12
 73
     8
 74
     0
 42
0.00000001
 43
0.00000001
 12
1.0
 22
0.0
 32
0.0
 13
1.0
 23
0.0
 33
0.0
 40
0.0
 40
0.0
 40
0.0
 40
0.0
 40
0.2300984016324709
 40
0.4602837062626638
 40
0.6904627076119284
 40
0.9206446628373904
 40
1.0
 40
1.0
 40
1.0
 40
1.0
 10
824.0925792764338
 20
1081.453769274572
 30
0.0
 10
823.8455768616393
 20
1081.523123512497
 30
0.0
 10
823.3514787447865
 20
1081.661858181884
 30
0.0
 10
822.7054755662712
 20
1081.706925351305
 30
0.0
 10
822.241542459347
 20
1081.660175596049
 30
0.0
 10
822.0584530003897
 20
1081.571806503261
 30
0.0
 10
822.0458085531288
 20
1081.516757790456
 30
0.0
 10
822.0425669263515
 20
1081.502645083288
 30
0.0
  0
SPLINE
  5
F3
330
1F
100
AcDbEntity
  8
0
  6
Continuous
 62
     7
370
    15
100
AcDbSpline
210
0.0
220
0.0
230
1.0
 70
     8
 71
     3
 72
     9
 73
     5
 74
     0
 42
0.00000001
 43
0.00000001
 12
1.0
 22
0.0
 32
0.0
 13
1.0
 23
0.0
 33
0.0
 40
0.0
 40
0.0
 40
0.0
 40
0.0
 40
0.123371401157451
 40
1.0
 40
1.0
 40
1.0
 40
1.0
 10
822.9635778974208
 20
1081.46697170339
 30
0.0
 10
822.9513383962305
 20
1081.469888285196
 30
0.0
 10
822.8521298189149
 20
1081.493528948903
 30
0.0
 10
822.8470412518996
 20
1081.498386667894
 30
0.0
 10
822.8425804685268
 20
1081.502645083288
 30
0.0
  0
LINE
  5
F4
330
1F
100
AcDbEntity
  8
0
  6
Continuous
 62
     7
370
    15
100
AcDbLine
 10
822.8425804685
 20
1081.5026450833
 30
0.0
 11
822.0425669264
 21
1081.5026450833
 31
0.0
  0
LINE
  5
F5
330
1F
100
AcDbEntity
  8
0
  6
Continuous
 62
     7
370
    15
100
AcDbLine
 10
822.0425669264
 20
1140.7560992917
 30
0.0
 11
822.0425669264
 21
1081.5026450833
 31
0.0
  0
SPLINE
  5
F6
330
1F
100
AcDbEntity
  8
0
  6
Continuous
 62
     7
370
    15
100
AcDbSpline
210
0.0
220
0.0
230
1.0
 70
     8
 71
     3
 72
    12
 73
     8
 74
     0
 42
0.00000001
 43
0.00000001
 12
1.0
 22
0.0
 32
0.0
 13
1.0
 23
0.0
 33
0.0
 40
0.0
 40
0.0
 40
0.0
 40
0.0
 40
0.2301008140125191
 40
0.4602849208374303
 40
0.6904615913381772
 40
0.9206513272986286
 40
0.9999999999999999
 40
0.9999999999999999
 40
0.9999999999999999
 40
0.9999999999999999
 10
822.0425669263515
 20
1140.756099291662
 30
0.0
 10
822.0686413386592
 20
1140.961987656762
 30
0.0
 10
822.1207996017947
 20
1141.373838915255
 30
0.0
 10
822.5252000180384
 20
1141.944169405091
 30
0.0
 10
823.1130003404257
 20
1142.423161097357
 30
0.0
 10
823.677034462316
 20
1142.708496838788
 30
0.0
 10
824.0077913494794
 20
1142.825073727119
 30
0.0
 10
824.0925792764339
 20
1142.854957648138
 30
0.0
  0
LINE
  5
F7
330
1F
100
AcDbEntity
  8
0
  6
Continuous
 62
     7
370
    15
100
AcDbLine
 10
824.0925792764
 20
1142.8549576481
 30
0.0
 11
824.0925792764
 21
1081.4537692746
 31
0.0
  0
LINE
  5
F8
330
1F
100
AcDbEntity
  8
0
  6
Continuous
 62
     7
370
    15
100
AcDbLine
 10
824.0925792764
 20
1142.8549576481
 30
0.0
 11
1219.8511559676
 21
1142.8549576481
 31
0.0
  0
LINE
  5
F9
330
1F
100
AcDbEntity
  8
0
  6
Continuous
 62
     7
370
    15
100
AcDbLine
 10
1219.9218657027
 20
929.2369771679
 30
0.0
 11
1210.959245653
 21
929.2369771679
 31
0.0
  0
LINE
  5
FA
330
1F
100
AcDbEntity
  8
0
  6
Continuous
 62
     7
370
    15
100
AcDbLine
 10
1210.959245653
 20
1073.4430540284
 30
0.0
 11
1210.959245653
 21
929.2369771679
 31
0.0
  0
LINE
  5
FB
330
1F
100
AcDbEntity
  8
0
  6
Continuous
 62
     7
370
    15
100
AcDbLine
 10
1210.959245653
 20
1073.4430540284
 30
0.0
 11
1209.171866269
 21
1073.4430540284
 31
0.0
  0
LINE
  5
FC
330
1F
100
AcDbEntity
  8
0
  6
Continuous
 62
     7
370
    15
100
AcDbLine
 10
832.984489591
 20
929.2369771679
 30
0.0
 11
824.0218583654
 21
929.2369771679
 31
0.0
  0
LINE
  5
FD
330
1F
100
AcDbEntity
  8
0
  6
Continuous
 62
     7
370
    15
100
AcDbLine
 10
834.7718540739
 20
1073.4430540284
 30
0.0
 11
832.984489591
 21
1073.4430540284
 31
0.0
  0
LINE
  5
FE
330
1F
100
AcDbEntity
  8
0
  6
Continuous
 62
     7
370
    15
100
AcDbLine
 10
832.984489591
 20
929.2369771679
 30
0.0
 11
832.984489591
 21
1073.4430540284
 31
0.0
  0
LINE
  5
FF
330
1F
100
AcDbEntity
  8
0
  6
Continuous
 62
     7
370
    15
100
AcDbLine
 10
824.7425679277
 20
1078.5284329136
 30
0.0
 11
835.242581756
 21
1073.2784259995
 31
0.0
  0
LINE
  5
100
330
1F
100
AcDbEntity
  8
0
  6
Continuous
 62
     7
370
    15
100
AcDbLine
 10
824.4259182523
 20
1078.6534238537
 30
0.0
 11
824.7425679277
 21
1078.5284329136
 31
0.0
  0
LINE
  5
101
330
1F
100
AcDbEntity
  8
0
  6
Continuous
 62
     7
370
    15
100
AcDbLine
 10
1219.2011561404
 20
1078.5284329136
 30
0.0
 11
1219.517820717
 21
1078.6534238537
 31
0.0
  0
LINE
  5
102
330
1F
100
AcDbEntity
  8
0
  6
Continuous
 62
     7
370
    15
100
AcDbLine
 10
1208.701153488
 20
1073.2784259995
 30
0.0
 11
1219.2011561404
 21
1078.5284329136
 31
0.0
  0
LINE
  5
103
330
1F
100
AcDbEntity
  8
0
  6
Continuous
 62
     7
370
    15
100
AcDbLine
 10
1208.701153488
 20
1073.2784259995
 30
0.0
 11
1208.701153488
 21
1074.2680121144
 31
0.0
  0
LINE
  5
104
330
1F
100
AcDbEntity
  8
0
  6
Continuous
 62
     7
370
    15
100
AcDbLine
 10
835.242581756
 20
1074.2680121144
 30
0.0
 11
1208.701153488
 21
1074.2680121144
 31
0.0
  0
LINE
  5
105
330
1F
100
AcDbEntity
  8
0
  6
Continuous
 62
     7
370
    15
100
AcDbLine
 10
835.242581756
 20
1074.2680121144
 30
0.0
 11
835.242581756
 21
1073.2784259995
 31
0.0
  0
LINE
  5
106
330
1F
100
AcDbEntity
  8
0
  6
Continuous
 62
     7
370
    15
100
AcDbLine
 10
1221.1718645106
 20
1081.013410159
 30
0.0
 11
1221.1718645106
 21
1081.5026450833
 31
0.0
  0
LINE
  5
107
330
1F
100
AcDbEntity
  8
0
  6
Continuous
 62
     7
370
    15
100
AcDbLine
 10
1221.9011534165
 20
1085.4020405491
 30
0.0
 11
1221.971866877
 21
1085.4020405491
 31
0.0
  0
LINE
  5
108
330
1F
100
AcDbEntity
  8
0
  6
Continuous
 62
     7
370
    15
100
AcDbLine
 10
1221.971866877
 20
1081.0184169491
 30
0.0
 11
1221.971866877
 21
1085.4020405491
 31
0.0
  0
LINE
  5
109
330
1F
100
AcDbEntity
  8
0
  6
Continuous
 62
     7
370
    15
100
AcDbLine
 10
822.7718595575
 20
1081.5026450833
 30
0.0
 11
822.7718595575
 21
1081.013410159
 31
0.0
  0
LINE
  5
10A
330
1F
100
AcDbEntity
  8
0
  6
Continuous
 62
     7
370
    15
100
AcDbLine
 10
821.9718758176
 20
1085.4020405491
 30
0.0
 11
821.9718758176
 21
1081.0184169491
 31
0.0
  0
LINE
  5
10B
330
1F
100
AcDbEntity
  8
0
  6
Continuous
 62
     7
370
    15
100
AcDbLine
 10
822.0425669264
 20
1085.4020405491
 30
0.0
 11
821.9718758176
 21
1085.4020405491
 31
0.0
  0
SPLINE
  5
10C
330
1F
100
AcDbEntity
  8
0
  6
Continuous
 62
     7
370
    15
100
AcDbSpline
210
0.0
220
0.0
230
1.0
 70
     8
 71
     3
 72
     9
 73
     5
 74
     0
 42
0.00000001
 43
0.00000001
 12
1.0
 22
0.0
 32
0.0
 13
1.0
 23
0.0
 33
0.0
 40
0.0
 40
0.0
 40
0.0
 40
0.0
 40
0.3751693264712526
 40
1.0
 40
1.0
 40
1.0
 40
1.0
 10
835.3171769689235
 20
1073.98936040006
 30
0.0
 10
835.3078489876286
 20
1073.985279435439
 30
0.0
 10
835.2829855975892
 20
1073.974401774786
 30
0.0
 10
835.2581191039537
 20
1074.155103890017
 30
0.0
 10
835.2425817559871
 20
1074.268012114385
 30
0.0
  0
SPLINE
  5
10D
330
1F
100
AcDbEntity
  8
0
  6
Continuous
 62
     7
370
    15
100
AcDbSpline
210
0.0
220
0.0
230
1.0
 70
     8
 71
     3
 72
     9
 73
     5
 74
     0
 42
0.00000001
 43
0.00000001
 12
1.0
 22
0.0
 32
0.0
 13
1.0
 23
0.0
 33
0.0
 40
0.0
 40
0.0
 40
0.0
 40
0.0
 40
0.6248305532581079
 40
1.0
 40
1.0
 40
1.0
 40
1.0
 10
1208.701153488031
 20
1074.268012114385
 30
0.0
 10
1208.685616783684
 20
1074.155103893506
 30
0.0
 10
1208.660751315332
 20
1073.974401749076
 30
0.0
 10
1208.635884004901
 20
1073.985279427474
 30
0.0
 10
1208.626554549804
 20
1073.98936040006
 30
0.0
  0
ARC
  5
10E
330
1F
100
AcDbEntity
  8
0
  6
Continuous
 62
     7
370
    15
100
AcDbCircle
 10
1210.8744461965
 20
931.2571924375
 30
0.0
 40
2.021994234248345
100
AcDbArc
 50
200.3861741191
 51
272.4036054483
  0
ARC
  5
10F
330
1F
100
AcDbEntity
  8
0
  6
Continuous
 62
     7
370
    15
100
AcDbCircle
 10
833.069273772
 20
931.2572261564
 30
0.0
 40
2.022027282875158
100
AcDbArc
 50
267.5968670849
 51
339.613154595
  0
LINE
  5
110
330
1F
100
AcDbEntity
  8
0
  6
Continuous
 62
     7
370
    15
100
AcDbLine
 10
1208.9790973972
 20
930.5528391083
 30
0.0
 11
1208.4102679204
 21
932.3913145741
 31
0.0
  0
LINE
  5
111
330
1F
100
AcDbEntity
  8
0
  6
Continuous
 62
     7
370
    15
100
AcDbLine
 10
835.5334524225
 20
932.3913145741
 30
0.0
 11
834.9646452974
 21
930.5528391083
 31
0.0
  0
LINE
  5
112
330
1F
100
AcDbEntity
  8
0
  6
Continuous
 62
     7
370
    15
100
AcDbLine
 10
1221.9011534165
 20
1126.035957404
 30
0.0
 11
1221.971866877
 21
1126.035957404
 31
0.0
  0
LINE
  5
113
330
1F
100
AcDbEntity
  8
0
  6
Continuous
 62
     7
370
    15
100
AcDbLine
 10
1221.971866877
 20
1085.4020405491
 30
0.0
 11
1221.971866877
 21
1126.035957404
 31
0.0
  0
LINE
  5
114
330
1F
100
AcDbEntity
  8
0
  6
Continuous
 62
     7
370
    15
100
AcDbLine
 10
822.0425669264
 20
1126.035957404
 30
0.0
 11
821.9718758176
 21
1126.035957404
 31
0.0
  0
LINE
  5
115
330
1F
100
AcDbEntity
  8
0
  6
Continuous
 62
     7
370
    15
100
AcDbLine
 10
821.9718758176
 20
1126.035957404
 30
0.0
 11
821.9718758176
 21
1085.4020405491
 31
0.0
  0
LINE
  5
116
330
1F
100
AcDbEntity
  8
0
  6
Continuous
 62
     7
370
    15
100
AcDbLine
 10
1221.1011547755
 20
1142.454950877
 30
0.0
 11
1220.7012262355
 21
1142.454950877
 31
0.0
  0
LINE
  5
117
330
1F
100
AcDbEntity
  8
0
  6
Continuous
 62
     7
370
    15
100
AcDbLine
 10
1221.1011547755
 20
1142.8549576481
 30
0.0
 11
1219.8511559676
 21
1142.8549576481
 31
0.0
  0
LINE
  5
118
330
1F
100
AcDbEntity
  8
0
  6
Continuous
 62
     7
370
    15
100
AcDbLine
 10
1221.1011547755
 20
1142.454950877
 30
0.0
 11
1221.1011547755
 21
1142.8549576481
 31
0.0
  0
LINE
  5
119
330
1F
100
AcDbEntity
  8
0
  6
Continuous
 62
     7
370
    15
100
AcDbLine
 10
822.8425804685
 20
1142.8549576481
 30
0.0
 11
824.0925792764
 21
1142.8549576481
 31
0.0
  0
SPLINE
  5
11A
330
1F
100
AcDbEntity
  8
0
  6
Continuous
 62
     7
370
    15
100
AcDbSpline
210
0.0
220
0.0
230
1.0
 70
     8
 71
     3
 72
    12
 73
     8
 74
     0
 42
0.00000001
 43
0.00000001
 12
1.0
 22
0.0
 32
0.0
 13
1.0
 23
0.0
 33
0.0
 40
0.0
 40
0.0
 40
0.0
 40
0.0
 40
0.2384277242309438
 40
0.4539514574678542
 40
0.6473851100264233
 40
0.8199261551062559
 40
1.0
 40
1.0
 40
1.0
 40
1.0
 10
822.8425804685268
 20
1142.854957648138
 30
0.0
 10
822.8630083509584
 20
1143.001368376906
 30
0.0
 10
822.9019017599894
 20
1143.280125236781
 30
0.0
 10
822.9896700054268
 20
1143.575642546507
 30
0.0
 10
823.0979536168019
 20
1143.757697606327
 30
0.0
 10
823.2299670915883
 20
1143.870013666429
 30
0.0
 10
823.3537480182686
 20
1143.857947628031
 30
0.0
 10
823.4169606279048
 20
1143.851785727361
 30
0.0
  0
SPLINE
  5
11B
330
1F
100
AcDbEntity
  8
0
  6
Continuous
 62
     7
370
    15
100
AcDbSpline
210
0.0
220
0.0
230
1.0
 70
     8
 71
     3
 72
    12
 73
     8
 74
     0
 42
0.00000001
 43
0.00000001
 12
1.0
 22
0.0
 32
0.0
 13
1.0
 23
0.0
 33
0.0
 40
0.0
 40
0.0
 40
0.0
 40
0.0
 40
0.1910310913724735
 40
0.3933575718256072
 40
0.5945537741493666
 40
0.7962367599801415
 40
1.0
 40
1.0
 40
1.0
 40
1.0
 10
1220.525362731091
 20
1143.852560587743
 30
0.0
 10
1220.591988952943
 20
1143.857475037638
 30
0.0
 10
1220.729180907715
 20
1143.867594521664
 30
0.0
 10
1220.875747984353
 20
1143.73416171541
 30
0.0
 10
1220.993102132603
 20
1143.52674423633
 30
0.0
 10
1221.071857412607
 20
1143.233721840981
 30
0.0
 10
1221.091355640843
 20
1142.981643498344
 30
0.0
 10
1221.101154775492
 20
1142.854957648138
 30
0.0
  0
LINE
  5
11C
330
1F
100
AcDbEntity
  8
0
  6
Continuous
 62
     7
370
    15
100
AcDbLine
 10
822.8425804685
 20
1142.454950877
 30
0.0
 11
822.8425804685
 21
1142.8549576481
 31
0.0
  0
SPLINE
  5
11D
330
1F
100
AcDbEntity
  8
0
  6
Continuous
 62
     7
370
    15
100
AcDbSpline
210
0.0
220
0.0
230
1.0
 70
     8
 71
     3
 72
    11
 73
     7
 74
     0
 42
0.00000001
 43
0.00000001
 12
1.0
 22
0.0
 32
0.0
 13
1.0
 23
0.0
 33
0.0
 40
0.0
 40
0.0
 40
0.0
 40
0.0
 40
0.2427433706606889
 40
0.5978223856973224
 40
0.9026623630883823
 40
1.0
 40
1.0
 40
1.0
 40
1.0
 10
823.0407659124049
 20
1143.640785284856
 30
0.0
 10
822.8953042370789
 20
1143.61902147386
 30
0.0
 10
822.5370648110783
 20
1143.56542209697
 30
0.0
 10
822.149990918334
 20
1143.168114485549
 30
0.0
 10
821.9841817621548
 20
1142.736078051555
 30
0.0
 10
821.9742738056078
 20
1142.481274525989
 30
0.0
 10
821.9718758176479
 20
1142.419605322698
 30
0.0
  0
LINE
  5
11E
330
1F
100
AcDbEntity
  8
0
  6
Continuous
 62
     7
370
    15
100
AcDbLine
 10
821.9718758176
 20
1142.4196053227
 30
0.0
 11
821.9718758176
 21
1142.4145985325
 31
0.0
  0
SPLINE
  5
11F
330
1F
100
AcDbEntity
  8
0
  6
Continuous
 62
     7
370
    15
100
AcDbSpline
210
0.0
220
0.0
230
1.0
 70
     8
 71
     3
 72
     9
 73
     5
 74
     0
 42
0.00000001
 43
0.00000001
 12
1.0
 22
0.0
 32
0.0
 13
1.0
 23
0.0
 33
0.0
 40
0.0
 40
0.0
 40
0.0
 40
0.0
 40
0.5486040065772059
 40
1.0
 40
1.0
 40
1.0
 40
1.0
 10
822.8425804685268
 20
1142.695813246587
 30
0.0
 10
822.8186733286065
 20
1142.651922950195
 30
0.0
 10
822.7750951927678
 20
1142.57191934857
 30
0.0
 10
822.7728658664629
 20
1142.466976227215
 30
0.0
 10
822.7718595575006
 20
1142.419605322698
 30
0.0
  0
LINE
  5
120
330
1F
100
AcDbEntity
  8
0
  6
Continuous
 62
     7
370
    15
100
AcDbLine
 10
822.7718595575
 20
1142.4196053227
 30
0.0
 11
821.9718758176
 21
1142.4196053227
 31
0.0
  0
LINE
  5
121
330
1F
100
AcDbEntity
  8
0
  6
Continuous
 62
     7
370
    15
100
AcDbLine
 10
822.7718595575
 20
1142.4196053227
 30
0.0
 11
822.7718595575
 21
1142.4145985325
 31
0.0
  0
SPLINE
  5
122
330
1F
100
AcDbEntity
  8
0
  6
Continuous
 62
     7
370
    15
100
AcDbSpline
210
0.0
220
0.0
230
1.0
 70
     8
 71
     3
 72
     9
 73
     5
 74
     0
 42
0.00000001
 43
0.00000001
 12
1.0
 22
0.0
 32
0.0
 13
1.0
 23
0.0
 33
0.0
 40
0.0
 40
0.0
 40
0.0
 40
0.0
 40
0.9737427892649603
 40
0.9999999999999999
 40
0.9999999999999999
 40
0.9999999999999999
 40
0.9999999999999999
 10
1221.171864510647
 20
1142.419605322698
 30
0.0
 10
1221.167055793875
 20
1142.537660189015
 30
0.0
 10
1221.162117408888
 20
1142.658898433465
 30
0.0
 10
1221.102714529416
 20
1142.736453785036
 30
0.0
 10
1221.101154775492
 20
1142.738490172246
 30
0.0
  0
SPLINE
  5
123
330
1F
100
AcDbEntity
  8
0
  6
Continuous
 62
     7
370
    15
100
AcDbSpline
210
0.0
220
0.0
230
1.0
 70
     8
 71
     3
 72
    11
 73
     7
 74
     0
 42
0.00000001
 43
0.00000001
 12
1.0
 22
0.0
 32
0.0
 13
1.0
 23
0.0
 33
0.0
 40
0.0
 40
0.0
 40
0.0
 40
0.0
 40
0.2846757115496388
 40
0.5699081877033336
 40
0.863289317349022
 40
1.0
 40
1.0
 40
1.0
 40
1.0
 10
1221.971866876951
 20
1142.419605322698
 30
0.0
 10
1221.951998515771
 20
1142.599154065465
 30
0.0
 10
1221.912222935161
 20
1142.95860270981
 30
0.0
 10
1221.60165744897
 20
1143.374274318104
 30
0.0
 10
1221.248148944105
 20
1143.620496225521
 30
0.0
 10
1220.988447224427
 20
1143.649233963982
 30
0.0
 10
1220.905897409788
 20
1143.658368655065
 30
0.0
  0
LINE
  5
124
330
1F
100
AcDbEntity
  8
0
  6
Continuous
 62
     7
370
    15
100
AcDbLine
 10
1221.1718645106
 20
1142.4196053227
 30
0.0
 11
1221.971866877
 21
1142.4196053227
 31
0.0
  0
LINE
  5
125
330
1F
100
AcDbEntity
  8
0
  6
Continuous
 62
     7
370
    15
100
AcDbLine
 10
1221.971866877
 20
1142.4145985325
 30
0.0
 11
1221.971866877
 21
1142.4196053227
 31
0.0
  0
LINE
  5
126
330
1F
100
AcDbEntity
  8
0
  6
Continuous
 62
     7
370
    15
100
AcDbLine
 10
1221.1718645106
 20
1142.4196053227
 30
0.0
 11
1221.1718645106
 21
1142.4145985325
 31
0.0
  0
LINE
  5
127
330
1F
100
AcDbEntity
  8
0
  6
Continuous
 62
     7
370
    15
100
AcDbLine
 10
1221.1718645106
 20
1142.4145985325
 30
0.0
 11
1221.971866877
 21
1142.4145985325
 31
0.0
  0
LINE
  5
128
330
1F
100
AcDbEntity
  8
0
  6
Continuous
 62
     7
370
    15
100
AcDbLine
 10
822.7718595575
 20
1142.4145985325
 30
0.0
 11
821.9718758176
 21
1142.4145985325
 31
0.0
  0
LINE
  5
129
330
1F
100
AcDbEntity
  8
0
  6
Continuous
 62
     7
370
    15
100
AcDbLine
 10
1221.971866877
 20
1126.035957404
 30
0.0
 11
1221.971866877
 21
1142.4145985325
 31
0.0
  0
LINE
  5
12A
330
1F
100
AcDbEntity
  8
0
  6
Continuous
 62
     7
370
    15
100
AcDbLine
 10
1221.1718645106
 20
1142.1289134701
 30
0.0
 11
1221.1718645106
 21
1142.4145985325
 31
0.0
  0
LINE
  5
12B
330
1F
100
AcDbEntity
  8
0
  6
Continuous
 62
     7
370
    15
100
AcDbLine
 10
822.7718595575
 20
1142.4145985325
 30
0.0
 11
822.7718595575
 21
1142.1061444958
 31
0.0
  0
LINE
  5
12C
330
1F
100
AcDbEntity
  8
0
  6
Continuous
 62
     7
370
    15
100
AcDbLine
 10
821.9718758176
 20
1142.4145985325
 30
0.0
 11
821.9718758176
 21
1126.035957404
 31
0.0
  0
LINE
  5
12D
330
1F
100
AcDbEntity
  8
0
  6
Continuous
 62
     7
370
    15
100
AcDbLine
 10
1221.971866877
 20
929.2369771679
 30
0.0
 11
1221.1718645106
 21
929.2369771679
 31
0.0
  0
LINE
  5
12E
330
1F
100
AcDbEntity
  8
0
  6
Continuous
 62
     7
370
    15
100
AcDbLine
 10
1221.971866877
 20
931.0123313149
 30
0.0
 11
1221.971866877
 21
929.2369771679
 31
0.0
  0
LINE
  5
12F
330
1F
100
AcDbEntity
  8
0
  6
Continuous
 62
     7
370
    15
100
AcDbLine
 10
1221.1718645106
 20
929.6052146634
 30
0.0
 11
1221.1718645106
 21
929.2369771679
 31
0.0
  0
LINE
  5
130
330
1F
100
AcDbEntity
  8
0
  6
Continuous
 62
     7
370
    15
100
AcDbLine
 10
1221.971866877
 20
929.2369771679
 30
0.0
 11
1221.971866877
 21
929.0058899601
 31
0.0
  0
LINE
  5
131
330
1F
100
AcDbEntity
  8
0
  6
Continuous
 62
     7
370
    15
100
AcDbLine
 10
1221.1718645106
 20
929.2369771679
 30
0.0
 11
1221.1718645106
 21
929.0058899601
 31
0.0
  0
LINE
  5
132
330
1F
100
AcDbEntity
  8
0
  6
Continuous
 62
     7
370
    15
100
AcDbLine
 10
1221.971866877
 20
929.0058899601
 30
0.0
 11
1221.1718645106
 21
929.0058899601
 31
0.0
  0
LINE
  5
133
330
1F
100
AcDbEntity
  8
0
  6
Continuous
 62
     7
370
    15
100
AcDbLine
 10
1209.171866269
 20
929.0058899601
 30
0.0
 11
1219.9218657027
 21
929.0058899601
 31
0.0
  0
LINE
  5
134
330
1F
100
AcDbEntity
  8
0
  6
Continuous
 62
     7
370
    15
100
AcDbLine
 10
1219.9218657027
 20
929.0058899601
 30
0.0
 11
1219.9218657027
 21
774.2529947241
 31
0.0
  0
LINE
  5
135
330
1F
100
AcDbEntity
  8
0
  6
Continuous
 62
     7
370
    15
100
AcDbLine
 10
1210.1717826139
 20
774.2537844857
 30
0.0
 11
1219.9218657027
 21
774.2529947241
 31
0.0
  0
ARC
  5
136
330
1F
100
AcDbEntity
  8
0
  6
Continuous
 62
     7
370
    15
100
AcDbCircle
 10
1210.1718650262
 20
775.2537896021
 30
0.0
 40
1.000000000000084
100
AcDbArc
 50
182.7449495568
 51
269.9953605577
  0
LINE
  5
137
330
1F
100
AcDbEntity
  8
0
  6
Continuous
 62
     7
370
    15
100
AcDbLine
 10
1209.171866269
 20
928.1058896264
 30
0.0
 11
1209.171866269
 21
929.0058899601
 31
0.0
  0
LINE
  5
138
330
1F
100
AcDbEntity
  8
0
  6
Continuous
 62
     7
370
    15
100
AcDbLine
 10
1221.971866877
 20
929.0058899601
 30
0.0
 11
1221.971866877
 21
774.2528308114
 31
0.0
  0
LWPOLYLINE
  5
139
330
1F
100
AcDbEntity
  8
0
  6
Continuous
 62
     7
370
    15
100
AcDbPolyline
 90
        9
 70
   128
 43
0.0
 10
1221.971866877
 20
774.2528308114
 10
1221.9324756573
 20
774.2528308114
 10
1221.8158181916
 20
774.2528457125
 10
1221.6263760041
 20
774.2528606137
 10
1221.3714357625
 20
774.2528755148
 10
1221.0607838045
 20
774.2529053172
 10
1220.7063671361
 20
774.2529351195
 10
1220.3218016933
 20
774.2529649218
 10
1219.9218657027
 20
774.2529947241
  0
LINE
  5
13A
330
1F
100
AcDbEntity
  8
0
  6
Continuous
 62
     7
370
    15
100
AcDbLine
 10
1219.9218657027
 20
929.0058899601
 30
0.0
 11
1221.1718645106
 21
929.0058899601
 31
0.0
  0
LINE
  5
13B
330
1F
100
AcDbEntity
  8
0
  6
Continuous
 62
     7
370
    15
100
AcDbLine
 10
821.9718758176
 20
929.2369771679
 30
0.0
 11
822.7718595575
 21
929.2369771679
 31
0.0
  0
LINE
  5
13C
330
1F
100
AcDbEntity
  8
0
  6
Continuous
 62
     7
370
    15
100
AcDbLine
 10
822.7718595575
 20
929.2369771679
 30
0.0
 11
822.7718595575
 21
929.6052146634
 31
0.0
  0
LINE
  5
13D
330
1F
100
AcDbEntity
  8
0
  6
Continuous
 62
     7
370
    15
100
AcDbLine
 10
821.9718758176
 20
929.2369771679
 30
0.0
 11
821.9718758176
 21
931.0123313149
 31
0.0
  0
LINE
  5
13E
330
1F
100
AcDbEntity
  8
0
  6
Continuous
 62
     7
370
    15
100
AcDbLine
 10
824.0218583654
 20
929.0058899601
 30
0.0
 11
824.0218583654
 21
774.2563176831
 31
0.0
  0
LINE
  5
13F
330
1F
100
AcDbEntity
  8
0
  6
Continuous
 62
     7
370
    15
100
AcDbLine
 10
824.0218583654
 20
929.0058899601
 30
0.0
 11
834.7718540739
 21
929.0058899601
 31
0.0
  0
ARC
  5
140
330
1F
100
AcDbEntity
  8
0
  6
Continuous
 62
     7
370
    15
100
AcDbCircle
 10
833.7718650262
 20
775.2563159734
 30
0.0
 40
1.000000000000114
100
AcDbArc
 50
270.0
 51
357.1101248135
  0
LINE
  5
141
330
1F
100
AcDbEntity
  8
0
  6
Continuous
 62
     7
370
    15
100
AcDbLine
 10
834.7718540739
 20
929.0058899601
 30
0.0
 11
834.7718540739
 21
928.1058896264
 31
0.0
  0
LINE
  5
142
330
1F
100
AcDbEntity
  8
0
  6
Continuous
 62
     7
370
    15
100
AcDbLine
 10
833.7718669485
 20
774.2563176831
 30
0.0
 11
824.0218583654
 21
774.2563176831
 31
0.0
  0
LINE
  5
143
330
1F
100
AcDbEntity
  8
0
  6
Continuous
 62
     7
370
    15
100
AcDbLine
 10
821.9718758176
 20
929.0058899601
 30
0.0
 11
822.7718595575
 21
929.0058899601
 31
0.0
  0
LINE
  5
144
330
1F
100
AcDbEntity
  8
0
  6
Continuous
 62
     7
370
    15
100
AcDbLine
 10
821.9718758176
 20
929.0058899601
 30
0.0
 11
821.9718758176
 21
929.2369771679
 31
0.0
  0
LINE
  5
145
330
1F
100
AcDbEntity
  8
0
  6
Continuous
 62
     7
370
    15
100
AcDbLine
 10
822.7718595575
 20
929.0058899601
 30
0.0
 11
822.7718595575
 21
929.2369771679
 31
0.0
  0
LINE
  5
146
330
1F
100
AcDbEntity
  8
0
  6
Continuous
 62
     7
370
    15
100
AcDbLine
 10
822.7718595575
 20
929.0058899601
 30
0.0
 11
824.0218583654
 21
929.0058899601
 31
0.0
  0
LINE
  5
147
330
1F
100
AcDbEntity
  8
0
  6
Continuous
 62
     7
370
    15
100
AcDbLine
 10
821.9718758176
 20
774.2563176831
 30
0.0
 11
821.9718758176
 21
929.0058899601
 31
0.0
  0
LINE
  5
148
330
1F
100
AcDbEntity
  8
0
  6
Continuous
 62
     7
370
    15
100
AcDbLine
 10
824.0218583654
 20
774.2563176831
 30
0.0
 11
821.9718758176
 21
774.2563176831
 31
0.0
  0
LINE
  5
149
330
1F
100
AcDbEntity
  8
0
  6
Continuous
 62
     7
370
    15
100
AcDbLine
 10
836.1425820898
 20
774.2563176831
 30
0.0
 11
833.7718669485
 21
774.2563176831
 31
0.0
  0
LINE
  5
14A
330
1F
100
AcDbEntity
  8
0
  6
Continuous
 62
     7
370
    15
100
AcDbLine
 10
1210.1717826139
 20
774.2537844857
 30
0.0
 11
1207.8011531542
 21
774.2539782008
 31
0.0
  0
LINE
  5
14B
330
1F
100
AcDbEntity
  8
0
  6
Continuous
 62
     7
370
    15
100
AcDbLine
 10
994.2218635391
 20
1072.6035822114
 30
0.0
 11
1051.2218672942
 21
1072.6035822114
 31
0.0
  0
LINE
  5
14C
330
1F
100
AcDbEntity
  8
0
  6
Continuous
 62
     7
370
    15
100
AcDbLine
 10
1051.2218672942
 20
1072.6035822114
 30
0.0
 11
1051.2218672942
 21
1069.8715437134
 31
0.0
  0
LINE
  5
14D
330
1F
100
AcDbEntity
  8
0
  6
Continuous
 62
     7
370
    15
100
AcDbLine
 10
1051.2218672942
 20
1069.8715437134
 30
0.0
 11
994.2218635391
 21
1069.8715437134
 31
0.0
  0
LINE
  5
14E
330
1F
100
AcDbEntity
  8
0
  6
Continuous
 62
     7
370
    15
100
AcDbLine
 10
994.2218635391
 20
1069.8715437134
 30
0.0
 11
994.2218635391
 21
1072.6035822114
 31
0.0
  0
LWPOLYLINE
  5
14F
330
1F
100
AcDbEntity
  8
0
  6
Continuous
 62
     7
370
    15
100
AcDbPolyline
 90
        9
 70
   128
 43
0.0
 10
992.221859486
 20
1071.603595086
 10
992.2602895807
 20
1071.7986810883
 10
992.3741046499
 20
1071.9862867077
 10
992.5589237522
 20
1072.1591699799
 10
992.8076539348
 20
1072.3106849869
 10
993.1107286523
 20
1072.4350500783
 10
993.4564951967
 20
1072.52746708
 10
993.8316915344
 20
1072.5843597134
 10
994.2218635391
 20
1072.6035822114
  0
ARC
  5
150
330
1F
100
AcDbEntity
  8
0
  6
Continuous
 62
     7
370
    15
100
AcDbCircle
 10
994.0968615559
 20
1071.7479341389
 30
0.0
 40
1.880549527290564
100
AcDbArc
 50
184.4019899422
 51
273.8113171847
  0
ARC
  5
151
330
1F
100
AcDbEntity
  8
0
  6
Continuous
 62
     7
370
    15
100
AcDbCircle
 10
1051.3468731739
 20
1071.7479215741
 30
0.0
 40
1.880537249255119
100
AcDbArc
 50
266.1885389116
 51
355.5983652157
  0
LWPOLYLINE
  5
152
330
1F
100
AcDbEntity
  8
0
  6
Continuous
 62
     7
370
    15
100
AcDbPolyline
 90
        9
 70
   128
 43
0.0
 10
1051.2218672942
 20
1072.6035822114
 10
1051.6120467495
 20
1072.5843597134
 10
1051.987228186
 20
1072.52746708
 10
1052.3330021809
 20
1072.4350500783
 10
1052.6360768984
 20
1072.3106849869
 10
1052.8848070811
 20
1072.1591699799
 10
1053.0696261834
 20
1071.9862867077
 10
1053.183433802
 20
1071.7986810883
 10
1053.2218638967
 20
1071.603595086
  0
LINE
  5
153
330
1F
100
AcDbEntity
  8
0
  6
Continuous
 62
     7
370
    15
100
AcDbLine
 10
992.221859486
 20
1071.603595086
 30
0.0
 11
992.221859486
 21
1073.7649191102
 31
0.0
  0
LINE
  5
154
330
1F
100
AcDbEntity
  8
0
  6
Continuous
 62
     7
370
    15
100
AcDbLine
 10
1053.2218638967
 20
1073.7649191102
 30
0.0
 11
1053.2218638967
 21
1071.603595086
 31
0.0
  0
LINE
  5
155
330
1F
100
AcDbEntity
  8
0
  6
Continuous
 62
     7
370
    15
100
AcDbLine
 10
1051.2218672942
 20
951.8715429982
 30
0.0
 11
1051.2218672942
 21
1069.8715437134
 31
0.0
  0
LINE
  5
156
330
1F
100
AcDbEntity
  8
0
  6
Continuous
 62
     7
370
    15
100
AcDbLine
 10
994.2218635391
 20
951.8715429982
 30
0.0
 11
1051.2218672942
 21
951.8715429982
 31
0.0
  0
LINE
  5
157
330
1F
100
AcDbEntity
  8
0
  6
Continuous
 62
     7
370
    15
100
AcDbLine
 10
994.2218635391
 20
1069.8715437134
 30
0.0
 11
994.2218635391
 21
951.8715429982
 31
0.0
  0
LWPOLYLINE
  5
158
330
1F
100
AcDbEntity
  8
0
  6
Continuous
 62
     7
370
    15
100
AcDbPolyline
 90
        9
 70
   128
 43
0.0
 10
1005.2638176988
 20
1067.3715460976
 10
1005.3590957235
 20
1067.8551781853
 10
1005.6412343095
 20
1068.3202136239
 10
1006.0994003128
 20
1068.7488008221
 10
1006.7159954618
 20
1069.1244590958
 10
1007.4673269104
 20
1069.4327641209
 10
1008.3245013069
 20
1069.6618545731
 10
1009.2546019863
 20
1069.8029387673
 10
1010.2218661617
 20
1069.8505628785
  0
LINE
  5
159
330
1F
100
AcDbEntity
  8
0
  6
Continuous
 62
     7
370
    15
100
AcDbLine
 10
1005.2638176988
 20
959.8715294083
 30
0.0
 11
1005.2638176988
 21
1067.3715460976
 31
0.0
  0
LWPOLYLINE
  5
15A
330
1F
100
AcDbEntity
  8
0
  6
Continuous
 62
     7
370
    15
100
AcDbPolyline
 90
        9
 70
   128
 43
0.0
 10
1010.2218661617
 20
957.3925126275
 10
1009.2546019863
 20
957.440166541
 10
1008.3245013069
 20
957.5812209328
 10
1007.4673269104
 20
957.810311385
 10
1006.7159954618
 20
958.1186164101
 10
1006.0994003128
 20
958.4942746838
 10
1005.6412343095
 20
958.9228618821
 10
1005.3590957235
 20
959.3878973206
 10
1005.2638176988
 20
959.8715294083
  0
LINE
  5
15B
330
1F
100
AcDbEntity
  8
0
  6
Continuous
 62
     7
370
    15
100
AcDbLine
 10
1033.221868069
 20
957.3925126275
 30
0.0
 11
1010.2218661617
 21
957.3925126275
 31
0.0
  0
LWPOLYLINE
  5
15C
330
1F
100
AcDbEntity
  8
0
  6
Continuous
 62
     7
370
    15
100
AcDbPolyline
 90
        9
 70
   128
 43
0.0
 10
1038.1799016308
 20
959.8715294083
 10
1038.0846385072
 20
959.3878973206
 10
1037.8024999212
 20
958.9228618821
 10
1037.3443190168
 20
958.4942746838
 10
1036.7277238678
 20
958.1186164101
 10
1035.9764073204
 20
957.810311385
 10
1035.1192180227
 20
957.5812209328
 10
1034.1891322445
 20
957.440166541
 10
1033.221868069
 20
957.3925126275
  0
LINE
  5
15D
330
1F
100
AcDbEntity
  8
0
  6
Continuous
 62
     7
370
    15
100
AcDbLine
 10
1038.1799016308
 20
1061.871527501
 30
0.0
 11
1038.1799016308
 21
959.8715294083
 31
0.0
  0
LWPOLYLINE
  5
15E
330
1F
100
AcDbEntity
  8
0
  6
Continuous
 62
     7
370
    15
100
AcDbPolyline
 90
        9
 70
   128
 43
0.0
 10
1033.221868069
 20
1064.3505442818
 10
1034.1891322445
 20
1064.3029201706
 10
1035.1192180227
 20
1064.1618657788
 10
1035.9764073204
 20
1063.9327753266
 10
1036.7277238678
 20
1063.6244703015
 10
1037.3443190168
 20
1063.2488120278
 10
1037.8024999212
 20
1062.8202248295
 10
1038.0846385072
 20
1062.3551595887
 10
1038.1799016308
 20
1061.871527501
  0
LINE
  5
15F
330
1F
100
AcDbEntity
  8
0
  6
Continuous
 62
     7
370
    15
100
AcDbLine
 10
1021.2218586515
 20
1064.3505442818
 30
0.0
 11
1033.221868069
 21
1064.3505442818
 31
0.0
  0
LWPOLYLINE
  5
160
330
1F
100
AcDbEntity
  8
0
  6
Continuous
 62
     7
370
    15
100
AcDbPolyline
 90
        9
 70
   128
 43
0.0
 10
1016.2638250898
 20
1061.871527501
 10
1016.3590882133
 20
1062.3551595887
 10
1016.6412267994
 20
1062.8202248295
 10
1017.0994077037
 20
1063.2488120278
 10
1017.7160028528
 20
1063.6244703015
 10
1018.4673194002
 20
1063.9327753266
 10
1019.3245086979
 20
1064.1618657788
 10
1020.2545944761
 20
1064.3029201706
 10
1021.2218586515
 20
1064.3505442818
  0
LINE
  5
161
330
1F
100
AcDbEntity
  8
0
  6
Continuous
 62
     7
370
    15
100
AcDbLine
 10
1016.2638250898
 20
965.371548005
 30
0.0
 11
1016.2638250898
 21
1061.871527501
 31
0.0
  0
LWPOLYLINE
  5
162
330
1F
100
AcDbEntity
  8
0
  6
Continuous
 62
     7
370
    15
100
AcDbPolyline
 90
        9
 70
   128
 43
0.0
 10
1021.2218586515
 20
962.8925312241
 10
1020.2545944761
 20
962.9401553353
 10
1019.3245086979
 20
963.0812097271
 10
1018.4673194002
 20
963.3103001793
 10
1017.7160028528
 20
963.6186052044
 10
1017.0994077037
 20
963.9942634781
 10
1016.6412267994
 20
964.4228506764
 10
1016.3590882133
 20
964.8879159173
 10
1016.2638250898
 20
965.371548005
  0
LINE
  5
163
330
1F
100
AcDbEntity
  8
0
  6
Continuous
 62
     7
370
    15
100
AcDbLine
 10
1022.2218606781
 20
962.8925312241
 30
0.0
 11
1021.2218586515
 21
962.8925312241
 31
0.0
  0
LWPOLYLINE
  5
164
330
1F
100
AcDbEntity
  8
0
  6
Continuous
 62
     7
370
    15
100
AcDbPolyline
 90
        9
 70
   128
 43
0.0
 10
1027.1799091409
 20
965.371548005
 10
1027.0846311163
 20
964.8879159173
 10
1026.8024925302
 20
964.4228506764
 10
1026.344326527
 20
963.9942634781
 10
1025.727731378
 20
963.6186052044
 10
1024.9763999294
 20
963.3103001793
 10
1024.1192255329
 20
963.0812097271
 10
1023.1891248535
 20
962.9401553353
 10
1022.2218606781
 20
962.8925312241
  0
LINE
  5
165
330
1F
100
AcDbEntity
  8
0
  6
Continuous
 62
     7
370
    15
100
AcDbLine
 10
1027.1799091409
 20
1058.8925171574
 30
0.0
 11
1027.1799091409
 21
965.371548005
 31
0.0
  0
LINE
  5
166
330
1F
100
AcDbEntity
  8
0
  6
Continuous
 62
     7
370
    15
100
AcDbLine
 10
1027.2638324808
 20
1058.8925171574
 30
0.0
 11
1027.1799091409
 21
1058.8925171574
 31
0.0
  0
LINE
  5
167
330
1F
100
AcDbEntity
  8
0
  6
Continuous
 62
     7
370
    15
100
AcDbLine
 10
1027.2638324808
 20
965.371548005
 30
0.0
 11
1027.2638324808
 21
1058.8925171574
 31
0.0
  0
LWPOLYLINE
  5
168
330
1F
100
AcDbEntity
  8
0
  6
Continuous
 62
     7
370
    15
100
AcDbPolyline
 90
        9
 70
   128
 43
0.0
 10
1022.2218606781
 20
962.8505695542
 10
1023.2055012296
 20
962.8989983281
 10
1024.1513375353
 20
963.042466708
 10
1025.0230256628
 20
963.2754314621
 10
1025.7870678018
 20
963.5889220913
 10
1026.4141086649
 20
963.970958062
 10
1026.8800232719
 20
964.4067872246
 10
1027.1669451307
 20
964.8797202786
 10
1027.2638324808
 20
965.371548005
  0
LINE
  5
169
330
1F
100
AcDbEntity
  8
0
  6
Continuous
 62
     7
370
    15
100
AcDbLine
 10
1021.2218586515
 20
962.8505695542
 30
0.0
 11
1022.2218606781
 21
962.8505695542
 31
0.0
  0
LWPOLYLINE
  5
16A
330
1F
100
AcDbEntity
  8
0
  6
Continuous
 62
     7
370
    15
100
AcDbPolyline
 90
        9
 70
   128
 43
0.0
 10
1016.17990175
 20
965.371548005
 10
1016.2767891
 20
964.8797202786
 10
1016.5636960577
 20
964.4067872246
 10
1017.0296255659
 20
963.970958062
 10
1017.6566664289
 20
963.5889220913
 10
1018.420708568
 20
963.2754314621
 10
1019.2923966955
 20
963.042466708
 10
1020.2382330011
 20
962.8989983281
 10
1021.2218586515
 20
962.8505695542
  0
LINE
  5
16B
330
1F
100
AcDbEntity
  8
0
  6
Continuous
 62
     7
370
    15
100
AcDbLine
 10
1016.17990175
 20
1061.871527501
 30
0.0
 11
1016.17990175
 21
965.371548005
 31
0.0
  0
LWPOLYLINE
  5
16C
330
1F
100
AcDbEntity
  8
0
  6
Continuous
 62
     7
370
    15
100
AcDbPolyline
 90
        9
 70
   128
 43
0.0
 10
1021.2218586515
 20
1064.3925059517
 10
1020.2382330011
 20
1064.3440771779
 10
1019.2923966955
 20
1064.2006087979
 10
1018.420708568
 20
1063.9676440438
 10
1017.6566664289
 20
1063.6541534146
 10
1017.0296255659
 20
1063.2721174439
 10
1016.5636960577
 20
1062.8362882813
 10
1016.2767891
 20
1062.3633552273
 10
1016.17990175
 20
1061.871527501
  0
LINE
  5
16D
330
1F
100
AcDbEntity
  8
0
  6
Continuous
 62
     7
370
    15
100
AcDbLine
 10
1033.221868069
 20
1064.3925059517
 30
0.0
 11
1021.2218586515
 21
1064.3925059517
 31
0.0
  0
LWPOLYLINE
  5
16E
330
1F
100
AcDbEntity
  8
0
  6
Continuous
 62
     7
370
    15
100
AcDbPolyline
 90
        9
 70
   128
 43
0.0
 10
1038.2638249706
 20
1061.871527501
 10
1038.1669525217
 20
1062.3633552273
 10
1037.8800306629
 20
1062.8362882813
 10
1037.4141011547
 20
1063.2721174439
 10
1036.7870751928
 20
1063.6541534146
 10
1036.0230330537
 20
1063.9676440438
 10
1035.1513449262
 20
1064.2006087979
 10
1034.2055086206
 20
1064.3440771779
 10
1033.221868069
 20
1064.3925059517
  0
LINE
  5
16F
330
1F
100
AcDbEntity
  8
0
  6
Continuous
 62
     7
370
    15
100
AcDbLine
 10
1038.2638249706
 20
959.8715294083
 30
0.0
 11
1038.2638249706
 21
1061.871527501
 31
0.0
  0
LWPOLYLINE
  5
170
330
1F
100
AcDbEntity
  8
0
  6
Continuous
 62
     7
370
    15
100
AcDbPolyline
 90
        9
 70
   128
 43
0.0
 10
1033.221868069
 20
957.3505509575
 10
1034.2055086206
 20
957.3990095337
 10
1035.1513449262
 20
957.5424481114
 10
1036.0230330537
 20
957.7754128655
 10
1036.7870751928
 20
958.088933297
 10
1037.4141011547
 20
958.4709692677
 10
1037.8800306629
 20
958.9067984303
 10
1038.1669525217
 20
959.3797314843
 10
1038.2638249706
 20
959.8715294083
  0
LINE
  5
171
330
1F
100
AcDbEntity
  8
0
  6
Continuous
 62
     7
370
    15
100
AcDbLine
 10
1010.2218661617
 20
957.3505509575
 30
0.0
 11
1033.221868069
 21
957.3505509575
 31
0.0
  0
LWPOLYLINE
  5
172
330
1F
100
AcDbEntity
  8
0
  6
Continuous
 62
     7
370
    15
100
AcDbPolyline
 90
        9
 70
   128
 43
0.0
 10
1005.1799092601
 20
959.8715294083
 10
1005.2767817091
 20
959.3797314843
 10
1005.5637035679
 20
958.9067984303
 10
1006.0296330761
 20
958.4709692677
 10
1006.6566590379
 20
958.088933297
 10
1007.420701177
 20
957.7754128655
 10
1008.2923893045
 20
957.5424481114
 10
1009.2382256101
 20
957.3990095337
 10
1010.2218661617
 20
957.3505509575
  0
LINE
  5
173
330
1F
100
AcDbEntity
  8
0
  6
Continuous
 62
     7
370
    15
100
AcDbLine
 10
1005.1799092601
 20
1067.3715460976
 30
0.0
 11
1005.1799092601
 21
959.8715294083
 31
0.0
  0
LWPOLYLINE
  5
174
330
1F
100
AcDbEntity
  8
0
  6
Continuous
 62
     7
370
    15
100
AcDbPolyline
 90
        9
 70
   128
 43
0.0
 10
1000.2218607973
 20
1069.8505628785
 10
1001.1891249727
 20
1069.8029387673
 10
1002.1192256521
 20
1069.6618545731
 10
1002.9764000486
 20
1069.4327641209
 10
1003.7277314972
 20
1069.1244590958
 10
1004.3443266462
 20
1068.7488008221
 10
1004.8024926494
 20
1068.3202136239
 10
1005.0846312355
 20
1067.8551781853
 10
1005.1799092601
 20
1067.3715460976
  0
LINE
  5
175
330
1F
100
AcDbEntity
  8
0
  6
Continuous
 62
     7
370
    15
100
AcDbLine
 10
999.2218587707
 20
1069.8505628785
 30
0.0
 11
1000.2218607973
 21
1069.8505628785
 31
0.0
  0
LWPOLYLINE
  5
176
330
1F
100
AcDbEntity
  8
0
  6
Continuous
 62
     7
370
    15
100
AcDbPolyline
 90
        9
 70
   128
 43
0.0
 10
994.263825209
 20
1067.3715460976
 10
994.3590883325
 20
1067.8551781853
 10
994.6412269186
 20
1068.3202136239
 10
995.099407823
 20
1068.7488008221
 10
995.716002972
 20
1069.1244590958
 10
996.4673195194
 20
1069.4327641209
 10
997.3245088171
 20
1069.6618545731
 10
998.2545945953
 20
1069.8029387673
 10
999.2218587707
 20
1069.8505628785
  0
LINE
  5
177
330
1F
100
AcDbEntity
  8
0
  6
Continuous
 62
     7
370
    15
100
AcDbLine
 10
994.263825209
 20
954.371540614
 30
0.0
 11
994.263825209
 21
1067.3715460976
 31
0.0
  0
LWPOLYLINE
  5
178
330
1F
100
AcDbEntity
  8
0
  6
Continuous
 62
     7
370
    15
100
AcDbPolyline
 90
        9
 70
   128
 43
0.0
 10
999.2218587707
 20
951.8925238331
 10
998.2545945953
 20
951.9401479443
 10
997.3245088171
 20
952.0812321385
 10
996.4673195194
 20
952.3103225907
 10
995.716002972
 20
952.6185978135
 10
995.099407823
 20
952.9942560872
 10
994.6412269186
 20
953.4228730877
 10
994.3590883325
 20
953.8879085263
 10
994.263825209
 20
954.371540614
  0
LINE
  5
179
330
1F
100
AcDbEntity
  8
0
  6
Continuous
 62
     7
370
    15
100
AcDbLine
 10
1046.221864612
 20
951.8925238331
 30
0.0
 11
999.2218587707
 21
951.8925238331
 31
0.0
  0
LWPOLYLINE
  5
17A
330
1F
100
AcDbEntity
  8
0
  6
Continuous
 62
     7
370
    15
100
AcDbPolyline
 90
        9
 70
   128
 43
0.0
 10
1051.1799056243
 20
954.371540614
 10
1051.0846350502
 20
953.8879085263
 10
1050.8024964641
 20
953.4228730877
 10
1050.3443230103
 20
952.9942560872
 10
1049.7277278613
 20
952.6185978135
 10
1048.9764038633
 20
952.3103225907
 10
1048.1192220162
 20
952.0812321385
 10
1047.1891287874
 20
951.9401479443
 10
1046.221864612
 20
951.8925238331
  0
LINE
  5
17B
330
1F
100
AcDbEntity
  8
0
  6
Continuous
 62
     7
370
    15
100
AcDbLine
 10
1051.1799056243
 20
1067.3715460976
 30
0.0
 11
1051.1799056243
 21
954.371540614
 31
0.0
  0
LWPOLYLINE
  5
17C
330
1F
100
AcDbEntity
  8
0
  6
Continuous
 62
     7
370
    15
100
AcDbPolyline
 90
        9
 70
   128
 43
0.0
 10
1046.221864612
 20
1069.8505628785
 10
1047.1891287874
 20
1069.8029387673
 10
1048.1192220162
 20
1069.6618545731
 10
1048.9764038633
 20
1069.4327641209
 10
1049.7277278613
 20
1069.1244590958
 10
1050.3443230103
 20
1068.7488008221
 10
1050.8024964641
 20
1068.3202136239
 10
1051.0846350502
 20
1067.8551781853
 10
1051.1799056243
 20
1067.3715460976
  0
LINE
  5
17D
330
1F
100
AcDbEntity
  8
0
  6
Continuous
 62
     7
370
    15
100
AcDbLine
 10
1010.2218661617
 20
1069.8505628785
 30
0.0
 11
1046.221864612
 21
1069.8505628785
 31
0.0
  0
ARC
  5
17E
330
1F
100
AcDbEntity
  8
0
  6
Continuous
 62
     7
370
    15
100
AcDbCircle
 10
994.0968615559
 20
953.7479334236
 30
0.0
 40
1.880549527290905
100
AcDbArc
 50
184.4019899422
 51
273.8113171847
  0
LINE
  5
17F
330
1F
100
AcDbEntity
  8
0
  6
Continuous
 62
     7
370
    15
100
AcDbLine
 10
992.221859486
 20
953.6035943707
 30
0.0
 11
992.221859486
 21
1071.603595086
 31
0.0
  0
LINE
  5
180
330
1F
100
AcDbEntity
  8
0
  6
Continuous
 62
     7
370
    15
100
AcDbLine
 10
1053.2218638967
 20
1071.603595086
 30
0.0
 11
1053.2218638967
 21
953.6035943707
 31
0.0
  0
ARC
  5
181
330
1F
100
AcDbEntity
  8
0
  6
Continuous
 62
     7
370
    15
100
AcDbCircle
 10
1051.3468731739
 20
953.7479208588
 30
0.0
 40
1.880537249255516
100
AcDbArc
 50
266.1885389116
 51
355.5983652157
  0
ARC
  5
182
330
1F
100
AcDbEntity
  8
0
  6
Continuous
 62
     7
370
    15
100
AcDbCircle
 10
994.3613542358
 20
1070.3979989268
 30
0.0
 40
3.028023883395431
100
AcDbArc
 50
268.1542522595
 51
332.4042310636
  0
ARC
  5
183
330
1F
100
AcDbEntity
  8
0
  6
Continuous
 62
     7
370
    15
100
AcDbCircle
 10
1005.0823802333
 20
1070.3979989268
 30
0.0
 40
3.028023883395431
100
AcDbArc
 50
207.5957689364
 51
271.8457477405
  0
ARC
  5
184
330
1F
100
AcDbEntity
  8
0
  6
Continuous
 62
     7
370
    15
100
AcDbCircle
 10
1005.3613467257
 20
1070.3979989268
 30
0.0
 40
3.02802388339533
100
AcDbArc
 50
268.1542522595
 51
332.4042310636
  0
ARC
  5
185
330
1F
100
AcDbEntity
  8
0
  6
Continuous
 62
     7
370
    15
100
AcDbCircle
 10
1051.0823765974
 20
1070.3979989268
 30
0.0
 40
3.028023883395431
100
AcDbArc
 50
207.5957689364
 51
271.8457477405
  0
ARC
  5
186
330
1F
100
AcDbEntity
  8
0
  6
Continuous
 62
     7
370
    15
100
AcDbCircle
 10
1005.0824351119
 20
962.898050484
 30
0.0
 40
3.028090327427899
100
AcDbArc
 50
207.5959325917
 51
271.8446683057
  0
LINE
  5
187
330
1F
100
AcDbEntity
  8
0
  6
Continuous
 62
     7
370
    15
100
AcDbLine
 10
1002.3988310407
 20
1068.9953256329
 30
0.0
 11
1002.3988310407
 21
961.4953387459
 31
0.0
  0
LINE
  5
188
330
1F
100
AcDbEntity
  8
0
  6
Continuous
 62
     7
370
    15
100
AcDbLine
 10
1008.0448959182
 20
961.4953387459
 30
0.0
 11
1008.0448959182
 21
1068.9953256329
 31
0.0
  0
ARC
  5
189
330
1F
100
AcDbEntity
  8
0
  6
Continuous
 62
     7
370
    15
100
AcDbCircle
 10
1005.361291847
 20
962.898050484
 30
0.0
 40
3.0280903274279
100
AcDbArc
 50
268.1553316943
 51
332.4040674083
  0
LINE
  5
18A
330
1F
100
AcDbEntity
  8
0
  6
Continuous
 62
     7
370
    15
100
AcDbLine
 10
997.0449034284
 20
955.9953499516
 30
0.0
 11
997.0449034284
 21
1068.9953256329
 31
0.0
  0
ARC
  5
18B
330
1F
100
AcDbEntity
  8
0
  6
Continuous
 62
     7
370
    15
100
AcDbCircle
 10
994.3613431437
 20
957.397986697
 30
0.0
 40
3.028016783513078
100
AcDbArc
 50
268.1544579228
 51
332.4049411798
  0
ARC
  5
18C
330
1F
100
AcDbEntity
  8
0
  6
Continuous
 62
     7
370
    15
100
AcDbCircle
 10
1051.0823876895
 20
957.397986697
 30
0.0
 40
3.028016783513078
100
AcDbArc
 50
207.5950588202
 51
271.8455420772
  0
LINE
  5
18D
330
1F
100
AcDbEntity
  8
0
  6
Continuous
 62
     7
370
    15
100
AcDbLine
 10
1048.3988274048
 20
1068.9953256329
 30
0.0
 11
1048.3988274048
 21
955.9953499516
 31
0.0
  0
LINE
  5
18E
330
1F
100
AcDbEntity
  8
0
  6
Continuous
 62
     7
370
    15
100
AcDbLine
 10
1030.9719268392
 20
1061.0848355969
 30
0.0
 11
1030.9719268392
 21
967.5365973195
 31
0.0
  0
SPLINE
  5
18F
330
1F
100
AcDbEntity
  8
0
  6
Continuous
 62
     7
370
    15
100
AcDbSpline
210
0.0
220
0.0
230
1.0
 70
     8
 71
     3
 72
    12
 73
     8
 74
     0
 42
0.00000001
 43
0.00000001
 12
1.0
 22
0.0
 32
0.0
 13
1.0
 23
0.0
 33
0.0
 40
0.0
 40
0.0
 40
0.0
 40
0.0
 40
0.141338602597593
 40
0.3562440678644401
 40
0.5711959575488199
 40
0.785582878331949
 40
1.0
 40
1.0
 40
1.0
 40
1.0
 10
1027.318475038877
 20
1062.911568947652
 30
0.0
 10
1027.587954705203
 20
1062.902621313822
 30
0.0
 10
1028.267178433005
 20
1062.880068795153
 30
0.0
 10
1029.29484907168
 20
1062.660459559728
 30
0.0
 10
1030.221220061853
 20
1062.246971328157
 30
0.0
 10
1030.850468558819
 20
1061.699977121009
 30
0.0
 10
1030.931359373835
 20
1061.289892399093
 30
0.0
 10
1030.971807629934
 20
1061.084835596899
 30
0.0
  0
LINE
  5
190
330
1F
100
AcDbEntity
  8
0
  6
Continuous
 62
     7
370
    15
100
AcDbLine
 10
1027.125370891
 20
1062.9116285523
 30
0.0
 11
1027.3184750389
 21
1062.9116285523
 31
0.0
  0
SPLINE
  5
191
330
1F
100
AcDbEntity
  8
0
  6
Continuous
 62
     7
370
    15
100
AcDbSpline
210
0.0
220
0.0
230
1.0
 70
     8
 71
     3
 72
    12
 73
     8
 74
     0
 42
0.00000001
 43
0.00000001
 12
1.0
 22
0.0
 32
0.0
 13
1.0
 23
0.0
 33
0.0
 40
0.0
 40
0.0
 40
0.0
 40
0.0
 40
0.141341249539991
 40
0.3562445486403952
 40
0.5711974507451496
 40
0.785583907660176
 40
1.0
 40
1.0
 40
1.0
 40
1.0
 10
1023.47191909062
 20
1061.084895201543
 30
0.0
 10
1023.489814491398
 20
1061.219643882587
 30
0.0
 10
1023.534919080424
 20
1061.559272145492
 30
0.0
 10
1023.974120568549
 20
1062.073092777291
 30
0.0
 10
1024.80110931876
 20
1062.536300167608
 30
0.0
 10
1025.895127652356
 20
1062.850881524749
 30
0.0
 10
1026.715270917501
 20
1062.891338874654
 30
0.0
 10
1027.125370890966
 20
1062.911568947652
 30
0.0
  0
LINE
  5
192
330
1F
100
AcDbEntity
  8
0
  6
Continuous
 62
     7
370
    15
100
AcDbLine
 10
1023.4717998813
 20
967.5365973195
 30
0.0
 11
1023.4717998813
 21
1061.0848952015
 31
0.0
  0
LWPOLYLINE
  5
193
330
1F
100
AcDbEntity
  8
0
  6
Continuous
 62
     7
370
    15
100
AcDbPolyline
 90
        9
 70
   128
 43
0.0
 10
1022.2218606781
 20
966.911642619
 10
1022.465718181
 20
966.9236529549
 10
1022.7002028536
 20
966.9592071255
 10
1022.9162994932
 20
967.0169640263
 10
1023.1057081531
 20
967.0946884831
 10
1023.2611570667
 20
967.1894002636
 10
1023.3766559671
 20
967.2974336823
 10
1023.4477941106
 20
967.4146760186
 10
1023.4717998813
 20
967.5365973195
  0
LINE
  5
194
330
1F
100
AcDbEntity
  8
0
  6
Continuous
 62
     7
370
    15
100
AcDbLine
 10
1021.2218586515
 20
966.911642619
 30
0.0
 11
1022.2218606781
 21
966.911642619
 31
0.0
  0
LWPOLYLINE
  5
195
330
1F
100
AcDbEntity
  8
0
  6
Continuous
 62
     7
370
    15
100
AcDbPolyline
 90
        9
 70
   128
 43
0.0
 10
1019.9719194482
 20
967.5365973195
 10
1019.9959401201
 20
967.4146760186
 10
1020.0670633625
 20
967.2974336823
 10
1020.182577164
 20
967.1894002636
 10
1020.3380260776
 20
967.0946884831
 10
1020.5274347376
 20
967.0169640263
 10
1020.7435313772
 20
966.9592071255
 10
1020.9780160497
 20
966.9236529549
 10
1021.2218586515
 20
966.911642619
  0
LWPOLYLINE
  5
196
330
1F
100
AcDbEntity
  8
0
  6
Continuous
 62
     7
370
    15
100
AcDbPolyline
 90
        9
 70
   128
 43
0.0
 10
1033.221868069
 20
961.4116240223
 10
1033.4657106708
 20
961.4236343583
 10
1033.7001953434
 20
961.4592183312
 10
1033.916291983
 20
961.5169454297
 10
1034.1057006429
 20
961.5946698864
 10
1034.2611495565
 20
961.689381667
 10
1034.3766633581
 20
961.797444888
 10
1034.4477866005
 20
961.9146872242
 10
1034.4718072723
 20
962.0366085251
  0
LINE
  5
197
330
1F
100
AcDbEntity
  8
0
  6
Continuous
 62
     7
370
    15
100
AcDbLine
 10
1010.2218661617
 20
961.4116240223
 30
0.0
 11
1033.221868069
 21
961.4116240223
 31
0.0
  0
LWPOLYLINE
  5
198
330
1F
100
AcDbEntity
  8
0
  6
Continuous
 62
     7
370
    15
100
AcDbPolyline
 90
        9
 70
   128
 43
0.0
 10
1008.9719269584
 20
962.0366085251
 10
1008.9959476303
 20
961.9146872242
 10
1009.0670708727
 20
961.797444888
 10
1009.1825846742
 20
961.689381667
 10
1009.3380186866
 20
961.5946698864
 10
1009.5274422477
 20
961.5169454297
 10
1009.7435388874
 20
961.4592183312
 10
1009.9780086588
 20
961.4236343583
 10
1010.2218661617
 20
961.4116240223
  0
LWPOLYLINE
  5
199
330
1F
100
AcDbEntity
  8
0
  6
Continuous
 62
     7
370
    15
100
AcDbPolyline
 90
        9
 70
   128
 43
0.0
 10
1046.221864612
 20
955.911635228
 10
1046.4657146643
 20
955.9236455639
 10
1046.7001993369
 20
955.9591997345
 10
1046.9162959765
 20
956.0169566353
 10
1047.1057046364
 20
956.0946810921
 10
1047.26115355
 20
956.1893928727
 10
1047.376659901
 20
956.2974262913
 10
1047.447790594
 20
956.4146686276
 10
1047.4718038152
 20
956.5365899285
  0
LINE
  5
19A
330
1F
100
AcDbEntity
  8
0
  6
Continuous
 62
     7
370
    15
100
AcDbLine
 10
999.2218587707
 20
955.911635228
 30
0.0
 11
1046.221864612
 21
955.911635228
 31
0.0
  0
LWPOLYLINE
  5
19B
330
1F
100
AcDbEntity
  8
0
  6
Continuous
 62
     7
370
    15
100
AcDbPolyline
 90
        9
 70
   128
 43
0.0
 10
997.9719195675
 20
956.5365899285
 10
997.9959402393
 20
956.4146686276
 10
998.0670634817
 20
956.2974262913
 10
998.1825772833
 20
956.1893928727
 10
998.3380261968
 20
956.0946810921
 10
998.5274348568
 20
956.0169566353
 10
998.7435314964
 20
955.9591997345
 10
998.9780161689
 20
955.9236455639
 10
999.2218587707
 20
955.911635228
  0
LINE
  5
19C
330
1F
100
AcDbEntity
  8
0
  6
Continuous
 62
     7
370
    15
100
AcDbLine
 10
1041.9719267796
 20
1064.0366066178
 30
0.0
 11
1041.9719267796
 21
962.0366085251
 31
0.0
  0
LWPOLYLINE
  5
19D
330
1F
100
AcDbEntity
  8
0
  6
Continuous
 62
     7
370
    15
100
AcDbPolyline
 90
        9
 70
   128
 43
0.0
 10
1033.221868069
 20
1068.4116173466
 10
1034.9289152931
 20
1068.3275747975
 10
1036.5703676056
 20
1068.0786061963
 10
1038.08313349
 20
1067.6743078908
 10
1039.4090984176
 20
1067.1302068909
 10
1040.497270615
 20
1066.4672244271
 10
1041.305867226
 20
1065.7108414849
 10
1041.8037969779
 20
1064.8901153286
 10
1041.9719267796
 20
1064.0366066178
  0
LINE
  5
19E
330
1F
100
AcDbEntity
  8
0
  6
Continuous
 62
     7
370
    15
100
AcDbLine
 10
1021.2218586515
 20
1068.4116173466
 30
0.0
 11
1033.221868069
 21
1068.4116173466
 31
0.0
  0
LWPOLYLINE
  5
19F
330
1F
100
AcDbEntity
  8
0
  6
Continuous
 62
     7
370
    15
100
AcDbPolyline
 90
        9
 70
   128
 43
0.0
 10
1012.4718073915
 20
1064.0366066178
 10
1012.6399371933
 20
1064.8901153286
 10
1013.1378594946
 20
1065.7108414849
 10
1013.9464561056
 20
1066.4672244271
 10
1015.0346432041
 20
1067.1302068909
 10
1016.3605932306
 20
1067.6743078908
 10
1017.873359115
 20
1068.0786061963
 10
1019.5148114275
 20
1068.3275747975
 10
1021.2218586515
 20
1068.4116173466
  0
LINE
  5
1A0
330
1F
100
AcDbEntity
  8
0
  6
Continuous
 62
     7
370
    15
100
AcDbLine
 10
1012.4718073915
 20
967.5365973195
 30
0.0
 11
1012.4718073915
 21
1064.0366066178
 31
0.0
  0
ARC
  5
1A1
330
1F
100
AcDbEntity
  8
0
  6
Continuous
 62
     7
370
    15
100
AcDbCircle
 10
997.9393619913
 20
955.5278536155
 30
0.0
 40
1.009261584029843
100
AcDbArc
 50
88.1513857055
 51
152.4058007234
  0
ARC
  5
1A2
330
1F
100
AcDbEntity
  8
0
  6
Continuous
 62
     7
370
    15
100
AcDbCircle
 10
1001.5042574071
 20
961.0277017668
 30
0.0
 40
1.009428714769159
100
AcDbArc
 50
27.5982487698
 51
91.8426194769
  0
ARC
  5
1A3
330
1F
100
AcDbEntity
  8
0
  6
Continuous
 62
     7
370
    15
100
AcDbCircle
 10
1008.9394695519
 20
961.0277017668
 30
0.0
 40
1.009428714769155
100
AcDbArc
 50
88.1573805231
 51
152.4017512302
  0
ARC
  5
1A4
330
1F
100
AcDbEntity
  8
0
  6
Continuous
 62
     7
370
    15
100
AcDbCircle
 10
1047.5043530447
 20
955.5278270064
 30
0.0
 40
1.009287910028231
100
AcDbArc
 50
27.5951226095
 51
91.8480919803
  0
ARC
  5
1A5
330
1F
100
AcDbEntity
  8
0
  6
Continuous
 62
     7
370
    15
100
AcDbCircle
 10
1016.0824562006
 20
1064.8980975576
 30
0.0
 40
3.028138362530969
100
AcDbArc
 50
207.5965032669
 51
271.8440976305
  0
LWPOLYLINE
  5
1A6
330
1F
100
AcDbEntity
  8
0
  6
Continuous
 62
     7
370
    15
100
AcDbPolyline
 90
        9
 70
   128
 43
0.0
 10
1021.2218586515
 20
1067.4068618496
 10
1019.6956668209
 20
1067.3317003926
 10
1018.2281259607
 20
1067.1091068467
 10
1016.8756220649
 20
1066.7476344784
 10
1015.690145285
 20
1066.2612009724
 10
1014.7172484707
 20
1065.6684625824
 10
1013.9943186353
 20
1064.9922180851
 10
1013.5491464447
 20
1064.2584253033
 10
1013.3988235305
 20
1063.4953368386
  0
LINE
  5
1A7
330
1F
100
AcDbEntity
  8
0
  6
Continuous
 62
     7
370
    15
100
AcDbLine
 10
1021.2218586515
 20
1067.4068618496
 30
0.0
 11
1021.2218586515
 21
1064.3925059517
 31
0.0
  0
LINE
  5
1A8
330
1F
100
AcDbEntity
  8
0
  6
Continuous
 62
     7
370
    15
100
AcDbLine
 10
1033.221868069
 20
1067.4068618496
 30
0.0
 11
1021.2218586515
 21
1067.4068618496
 31
0.0
  0
LINE
  5
1A9
330
1F
100
AcDbEntity
  8
0
  6
Continuous
 62
     7
370
    15
100
AcDbLine
 10
1033.221868069
 20
1067.4068618496
 30
0.0
 11
1033.221868069
 21
1064.3925059517
 31
0.0
  0
LWPOLYLINE
  5
1AA
330
1F
100
AcDbEntity
  8
0
  6
Continuous
 62
     7
370
    15
100
AcDbPolyline
 90
        9
 70
   128
 43
0.0
 10
1041.04490319
 20
1063.4953368386
 10
1040.8945802759
 20
1064.2584253033
 10
1040.4494080852
 20
1064.9922180851
 10
1039.7264782499
 20
1065.6684625824
 10
1038.7535814356
 20
1066.2612009724
 10
1037.5681046556
 20
1066.7476344784
 10
1036.215615661
 20
1067.1091068467
 10
1034.7480598997
 20
1067.3317003926
 10
1033.221868069
 20
1067.4068618496
  0
ARC
  5
1AB
330
1F
100
AcDbEntity
  8
0
  6
Continuous
 62
     7
370
    15
100
AcDbCircle
 10
1038.3612705199
 20
1064.8980975576
 30
0.0
 40
3.028138362530969
100
AcDbArc
 50
268.1559023695
 51
332.4034967331
  0
ARC
  5
1AC
330
1F
100
AcDbEntity
  8
0
  6
Continuous
 62
     7
370
    15
100
AcDbCircle
 10
1012.5042814969
 20
1063.0277530865
 30
0.0
 40
1.009376052420779
100
AcDbArc
 50
27.5964021717
 51
91.8436640207
  0
LINE
  5
1AD
330
1F
100
AcDbEntity
  8
0
  6
Continuous
 62
     7
370
    15
100
AcDbLine
 10
1021.2218586515
 20
1067.4068618496
 30
0.0
 11
1021.2218586515
 21
1068.4116173466
 31
0.0
  0
LINE
  5
1AE
330
1F
100
AcDbEntity
  8
0
  6
Continuous
 62
     7
370
    15
100
AcDbLine
 10
1033.221868069
 20
1067.4068618496
 30
0.0
 11
1033.221868069
 21
1068.4116173466
 31
0.0
  0
ARC
  5
1AF
330
1F
100
AcDbEntity
  8
0
  6
Continuous
 62
     7
370
    15
100
AcDbCircle
 10
1041.9394531065
 20
1063.0277400326
 30
0.0
 40
1.009389085593724
100
AcDbArc
 50
88.1563843447
 51
152.4031484333
  0
ARC
  5
1B0
330
1F
100
AcDbEntity
  8
0
  6
Continuous
 62
     7
370
    15
100
AcDbCircle
 10
1016.3612706391
 20
1064.8980975576
 30
0.0
 40
3.028138362530969
100
AcDbArc
 50
268.1559023695
 51
332.4034967331
  0
ARC
  5
1B1
330
1F
100
AcDbEntity
  8
0
  6
Continuous
 62
     7
370
    15
100
AcDbCircle
 10
1038.0824560814
 20
1064.8980975576
 30
0.0
 40
3.028138362531196
100
AcDbArc
 50
207.5965032669
 51
271.8440976305
  0
ARC
  5
1B2
330
1F
100
AcDbEntity
  8
0
  6
Continuous
 62
     7
370
    15
100
AcDbCircle
 10
1016.0823727231
 20
968.3980008342
 30
0.0
 40
3.028023883395277
100
AcDbArc
 50
207.5957689364
 51
271.8457477405
  0
LINE
  5
1B3
330
1F
100
AcDbEntity
  8
0
  6
Continuous
 62
     7
370
    15
100
AcDbLine
 10
1013.3988235305
 20
1063.4953368386
 30
0.0
 11
1013.3988235305
 21
966.9953275403
 31
0.0
  0
LINE
  5
1B4
330
1F
100
AcDbEntity
  8
0
  6
Continuous
 62
     7
370
    15
100
AcDbLine
 10
1019.0449033092
 20
966.9953275403
 30
0.0
 11
1019.0449033092
 21
1063.4953368386
 31
0.0
  0
ARC
  5
1B5
330
1F
100
AcDbEntity
  8
0
  6
Continuous
 62
     7
370
    15
100
AcDbCircle
 10
1016.3613541166
 20
968.3980008342
 30
0.0
 40
3.028023883395378
100
AcDbArc
 50
268.1542522595
 51
332.4042310636
  0
LINE
  5
1B6
330
1F
100
AcDbEntity
  8
0
  6
Continuous
 62
     7
370
    15
100
AcDbLine
 10
1041.04490319
 20
961.4953387459
 30
0.0
 11
1041.04490319
 21
1063.4953368386
 31
0.0
  0
ARC
  5
1B7
330
1F
100
AcDbEntity
  8
0
  6
Continuous
 62
     7
370
    15
100
AcDbCircle
 10
1038.3612991188
 20
962.898050484
 30
0.0
 40
3.028090327427786
100
AcDbArc
 50
268.1553316943
 51
332.4040674083
  0
ARC
  5
1B8
330
1F
100
AcDbEntity
  8
0
  6
Continuous
 62
     7
370
    15
100
AcDbCircle
 10
1038.0824274825
 20
962.898050484
 30
0.0
 40
3.028090327428054
100
AcDbArc
 50
207.5959325917
 51
271.8446683057
  0
LINE
  5
1B9
330
1F
100
AcDbEntity
  8
0
  6
Continuous
 62
     7
370
    15
100
AcDbLine
 10
1035.3988234113
 20
1063.4953368386
 30
0.0
 11
1035.3988234113
 21
961.4953387459
 31
0.0
  0
ARC
  5
1BA
330
1F
100
AcDbEntity
  8
0
  6
Continuous
 62
     7
370
    15
100
AcDbCircle
 10
1012.5043381163
 20
966.5278407584
 30
0.0
 40
1.009280955686485
100
AcDbArc
 50
27.5930125088
 51
91.8470536837
  0
ARC
  5
1BB
330
1F
100
AcDbEntity
  8
0
  6
Continuous
 62
     7
370
    15
100
AcDbCircle
 10
1019.9393887235
 20
966.5278407584
 30
0.0
 40
1.009280955686475
100
AcDbArc
 50
88.1529463164
 51
152.4069874912
  0
ARC
  5
1BC
330
1F
100
AcDbEntity
  8
0
  6
Continuous
 62
     7
370
    15
100
AcDbCircle
 10
1034.5042813777
 20
961.0277549938
 30
0.0
 40
1.009376052419978
100
AcDbArc
 50
27.5964021717
 51
91.8436640207
  0
ARC
  5
1BD
330
1F
100
AcDbEntity
  8
0
  6
Continuous
 62
     7
370
    15
100
AcDbCircle
 10
1041.9394531065
 20
961.02774194
 30
0.0
 40
1.009389085593928
100
AcDbArc
 50
88.1563843447
 51
152.4031484333
  0
SPLINE
  5
1BE
330
1F
100
AcDbEntity
  8
0
  6
Continuous
 62
     7
370
    15
100
AcDbSpline
210
0.0
220
0.0
230
1.0
 70
    24
 71
     3
 72
    11
 73
     7
 74
     0
 42
0.00000001
 43
0.00000001
 12
1.0
 22
0.0
 32
0.0
 13
1.0
 23
0.0
 33
0.0
 40
0.0
 40
0.0
 40
0.0
 40
0.0
 40
0.2499922424301079
 40
0.4999913649815195
 40
0.7499870906014862
 40
1.0
 40
1.0
 40
1.0
 40
1.0
 10
1027.125370890966
 20
1062.911628552297
 30
0.0
 10
1027.125370890966
 20
1062.854803367158
 30
0.0
 10
1027.125370890966
 20
1062.741151432975
 30
0.0
 10
1027.125370890966
 20
1062.489885023731
 30
0.0
 10
1027.125370890966
 20
1062.204351188379
 30
0.0
 10
1027.125370890966
 20
1062.006014836863
 30
0.0
 10
1027.125370890966
 20
1061.906843252996
 30
0.0
  0
SPLINE
  5
1BF
330
1F
100
AcDbEntity
  8
0
  6
Continuous
 62
     7
370
    15
100
AcDbSpline
210
0.0
220
0.0
230
1.0
 70
     8
 71
     3
 72
    14
 73
    10
 74
     0
 42
0.00000001
 43
0.00000001
 12
1.0
 22
0.0
 32
0.0
 13
1.0
 23
0.0
 33
0.0
 40
0.0
 40
0.0
 40
0.0
 40
0.0
 40
0.0000139677105711
 40
0.214229983676717
 40
0.4287787717980221
 40
0.6439544110263454
 40
0.8588568484853087
 40
0.9999874096758337
 40
1.0
 40
1.0
 40
1.0
 40
1.0
 10
1027.125341088644
 20
1061.906664439062
 30
0.0
 10
1027.125321220433
 20
1061.906664439093
 30
0.0
 10
1026.820592211311
 20
1061.906664929083
 30
0.0
 10
1026.20567781388
 20
1061.861557292347
 30
0.0
 10
1025.388309770664
 20
1061.642003080973
 30
0.0
 10
1024.766438648475
 20
1061.294589042601
 30
0.0
 10
1024.45408277295
 20
1060.893413625419
 30
0.0
 10
1024.398994184862
 20
1060.654852621244
 30
0.0
 10
1024.398994834237
 20
1060.543486344878
 30
0.0
 10
1024.398994834295
 20
1060.543476410726
 30
0.0
  0
SPLINE
  5
1C0
330
1F
100
AcDbEntity
  8
0
  6
Continuous
 62
     7
370
    15
100
AcDbSpline
210
0.0
220
0.0
230
1.0
 70
     8
 71
     3
 72
    11
 73
     7
 74
     0
 42
0.00000001
 43
0.00000001
 12
1.0
 22
0.0
 32
0.0
 13
1.0
 23
0.0
 33
0.0
 40
0.0
 40
0.0
 40
0.0
 40
0.0
 40
0.2500034426924648
 40
0.4999899599937004
 40
0.7500012355483799
 40
1.0
 40
1.0
 40
1.0
 40
1.0
 10
1023.47191909062
 20
1061.084895201543
 30
0.0
 10
1023.57086914049
 20
1061.077527816062
 30
0.0
 10
1023.768762541249
 20
1061.062793543874
 30
0.0
 10
1024.03822711422
 20
1060.946215241031
 30
0.0
 10
1024.263993289939
 20
1060.773519978957
 30
0.0
 10
1024.353925530843
 20
1060.620136452616
 30
0.0
 10
1024.398890526167
 20
1060.543446608404
 30
0.0
  0
SPLINE
  5
1C1
330
1F
100
AcDbEntity
  8
0
  6
Continuous
 62
     7
370
    15
100
AcDbSpline
210
0.0
220
0.0
230
1.0
 70
     8
 71
     3
 72
    11
 73
     7
 74
     0
 42
0.00000001
 43
0.00000001
 12
1.0
 22
0.0
 32
0.0
 13
1.0
 23
0.0
 33
0.0
 40
0.0
 40
0.0
 40
0.0
 40
0.0
 40
0.2499989441649756
 40
0.5000018625628772
 40
0.7500052299719467
 40
1.0
 40
1.0
 40
1.0
 40
1.0
 10
1030.971926839224
 20
1061.084835596899
 30
0.0
 10
1030.872982073904
 20
1061.07749009216
 30
0.0
 10
1030.67509097034
 20
1061.062798965911
 30
0.0
 10
1030.405631396789
 20
1060.946243411976
 30
0.0
 10
1030.179842227397
 20
1060.773609352933
 30
0.0
 10
1030.089877426177
 20
1060.620265985417
 30
0.0
 10
1030.044895799032
 20
1060.543595620016
 30
0.0
  0
SPLINE
  5
1C2
330
1F
100
AcDbEntity
  8
0
  6
Continuous
 62
     7
370
    15
100
AcDbSpline
210
0.0
220
0.0
230
1.0
 70
     8
 71
     3
 72
    14
 73
    10
 74
     0
 42
0.00000001
 43
0.00000001
 12
1.0
 22
0.0
 32
0.0
 13
1.0
 23
0.0
 33
0.0
 40
0.0
 40
0.0
 40
0.0
 40
0.0
 40
0.000012590316114
 40
0.2142284388886524
 40
0.4287801063780286
 40
0.643952817416115
 40
0.8588553913363448
 40
0.9999860322983621
 40
1.0
 40
1.0
 40
1.0
 40
1.0
 10
1030.044731886259
 20
1060.543476410726
 30
0.0
 10
1030.044731886318
 20
1060.543486344862
 30
0.0
 10
1030.044732885669
 20
1060.712518990298
 30
0.0
 10
1029.942609627636
 20
1061.001351375827
 30
0.0
 10
1029.492650608438
 20
1061.426127166935
 30
0.0
 10
1028.794487280683
 20
1061.732971824285
 30
0.0
 10
1028.026894842357
 20
1061.882766918288
 30
0.0
 10
1027.519175194635
 20
1061.906664751888
 30
0.0
 10
1027.318405500123
 20
1061.906664439093
 30
0.0
 10
1027.31838563191
 20
1061.906664439062
 30
0.0
  0
SPLINE
  5
1C3
330
1F
100
AcDbEntity
  8
0
  6
Continuous
 62
     7
370
    15
100
AcDbSpline
210
0.0
220
0.0
230
1.0
 70
     8
 71
     3
 72
    11
 73
     7
 74
     0
 42
0.00000001
 43
0.00000001
 12
1.0
 22
0.0
 32
0.0
 13
1.0
 23
0.0
 33
0.0
 40
0.0
 40
0.0
 40
0.0
 40
0.0
 40
0.2499899545531777
 40
0.5000032999008628
 40
0.7500005370417484
 40
1.0
 40
1.0
 40
1.0
 40
1.0
 10
1027.318475038877
 20
1062.911568947652
 30
0.0
 10
1027.318471845402
 20
1062.854735259833
 30
0.0
 10
1027.318465458152
 20
1062.74106256644
 30
0.0
 10
1027.318423950127
 20
1062.489735407738
 30
0.0
 10
1027.318420755757
 20
1062.204176459242
 30
0.0
 10
1027.318397339894
 20
1062.005835406771
 30
0.0
 10
1027.31838563191
 20
1061.906664439062
 30
0.0
  0
SPLINE
  5
1C4
330
1F
100
AcDbEntity
  8
0
  6
Continuous
 62
     7
370
    15
100
AcDbSpline
210
0.0
220
0.0
230
1.0
 70
     8
 71
     3
 72
    12
 73
     8
 74
     0
 42
0.00000001
 43
0.00000001
 12
1.0
 22
0.0
 32
0.0
 13
1.0
 23
0.0
 33
0.0
 40
0.0
 40
0.0
 40
0.0
 40
0.0
 40
0.1838336519134497
 40
0.343889585564266
 40
0.5918846733567795
 40
0.8968443784487518
 40
1.0
 40
1.0
 40
1.0
 40
1.0
 10
1027.263832480779
 20
1058.892517157415
 30
0.0
 10
1027.268069936478
 20
1059.013274210409
 30
0.0
 10
1027.275996759824
 20
1059.239169156604
 30
0.0
 10
1027.289001655349
 20
1059.768010365431
 30
0.0
 10
1027.303583657422
 20
1060.518049060119
 30
0.0
 10
1027.313444177042
 20
1061.30490382763
 30
0.0
 10
1027.317364839247
 20
1061.785322708688
 30
0.0
 10
1027.318355829588
 20
1061.906753846029
 30
0.0
  0
SPLINE
  5
1C5
330
1F
100
AcDbEntity
  8
0
  6
Continuous
 62
     7
370
    15
100
AcDbSpline
210
0.0
220
0.0
230
1.0
 70
     8
 71
     3
 72
    12
 73
     8
 74
     0
 42
0.00000001
 43
0.00000001
 12
1.0
 22
0.0
 32
0.0
 13
1.0
 23
0.0
 33
0.0
 40
0.0
 40
0.0
 40
0.0
 40
0.0
 40
0.1838366137614506
 40
0.3438969975532726
 40
0.5918865707751154
 40
0.8968505647556484
 40
1.0
 40
1.0
 40
1.0
 40
1.0
 10
1027.263832480779
 20
1058.892517157415
 30
0.0
 10
1027.481659231338
 20
1058.906474690564
 30
0.0
 10
1027.889140439629
 20
1058.932584580454
 30
0.0
 10
1028.559112401905
 20
1059.132963583715
 30
0.0
 10
1029.284547174973
 20
1059.527598785513
 30
0.0
 10
1029.797122893158
 20
1060.063081710378
 30
0.0
 10
1029.994882782608
 20
1060.446578547122
 30
0.0
 10
1030.04486599671
 20
1060.543506213049
 30
0.0
  0
SPLINE
  5
1C6
330
1F
100
AcDbEntity
  8
0
  6
Continuous
 62
     7
370
    15
100
AcDbSpline
210
0.0
220
0.0
230
1.0
 70
     8
 71
     3
 72
    12
 73
     8
 74
     0
 42
0.00000001
 43
0.00000001
 12
1.0
 22
0.0
 32
0.0
 13
1.0
 23
0.0
 33
0.0
 40
0.0
 40
0.0
 40
0.0
 40
0.0
 40
0.1838319826258181
 40
0.3438916794806728
 40
0.5918882982993195
 40
0.8968480795782473
 40
1.0
 40
1.0
 40
1.0
 40
1.0
 10
1027.179909140936
 20
1058.892517157415
 30
0.0
 10
1026.962087344177
 20
1058.906474742411
 30
0.0
 10
1026.554611439033
 20
1058.932584983281
 30
0.0
 10
1025.884637137541
 20
1059.132970361597
 30
0.0
 10
1025.159180951596
 20
1059.52757995431
 30
0.0
 10
1024.646625585931
 20
1060.063095350087
 30
0.0
 10
1024.448849458093
 20
1060.446579107419
 30
0.0
 10
1024.398860723844
 20
1060.543506213048
 30
0.0
  0
SPLINE
  5
1C7
330
1F
100
AcDbEntity
  8
0
  6
Continuous
 62
     7
370
    15
100
AcDbSpline
210
0.0
220
0.0
230
1.0
 70
     8
 71
     3
 72
    12
 73
     8
 74
     0
 42
0.00000001
 43
0.00000001
 12
1.0
 22
0.0
 32
0.0
 13
1.0
 23
0.0
 33
0.0
 40
0.0
 40
0.0
 40
0.0
 40
0.0
 40
0.1838386428187284
 40
0.3439006603923794
 40
0.5918851393596414
 40
0.8968528478071136
 40
1.0
 40
1.0
 40
1.0
 40
1.0
 10
1027.179909140936
 20
1058.892517157415
 30
0.0
 10
1027.175665287495
 20
1059.013271369517
 30
0.0
 10
1027.167726456037
 20
1059.239162143351
 30
0.0
 10
1027.154727158614
 20
1059.768032303027
 30
0.0
 10
1027.140141599901
 20
1060.518067264277
 30
0.0
 10
1027.130283070385
 20
1061.30491438722
 30
0.0
 10
1027.126361923559
 20
1061.785332686828
 30
0.0
 10
1027.125370890966
 20
1061.906753846029
 30
0.0
  0
LINE
  5
1C8
330
1F
100
AcDbEntity
  8
0
  6
Continuous
 62
     7
370
    15
100
AcDbLine
 10
1027.3183558296
 20
1061.906843253
 30
0.0
 11
1027.125370891
 21
1061.906843253
 31
0.0
  0
LINE
  5
1C9
330
1F
100
AcDbEntity
  8
0
  6
Continuous
 62
     7
370
    15
100
AcDbLine
 10
1030.044895799
 20
966.9953275403
 30
0.0
 11
1030.044895799
 21
1060.54359562
 31
0.0
  0
ARC
  5
1CA
330
1F
100
AcDbEntity
  8
0
  6
Continuous
 62
     7
370
    15
100
AcDbCircle
 10
1027.3613477257
 20
968.3979998121
 30
0.0
 40
3.028022418009857
100
AcDbArc
 50
268.1545122801
 51
332.404238392
  0
ARC
  5
1CB
330
1F
100
AcDbEntity
  8
0
  6
Continuous
 62
     7
370
    15
100
AcDbCircle
 10
1027.0823801141
 20
968.3980008342
 30
0.0
 40
3.028023883395199
100
AcDbArc
 50
207.5957689364
 51
271.8457477405
  0
LINE
  5
1CC
330
1F
100
AcDbEntity
  8
0
  6
Continuous
 62
     7
370
    15
100
AcDbLine
 10
1024.3988309215
 20
1060.54359562
 30
0.0
 11
1024.3988309215
 21
966.9953275403
 31
0.0
  0
ARC
  5
1CD
330
1F
100
AcDbEntity
  8
0
  6
Continuous
 62
     7
370
    15
100
AcDbCircle
 10
1030.9394128067
 20
966.5277875442
 30
0.0
 40
1.009333604399943
100
AcDbArc
 50
88.153990741
 51
152.4051410124
  0
ARC
  5
1CE
330
1F
100
AcDbEntity
  8
0
  6
Continuous
 62
     7
370
    15
100
AcDbCircle
 10
1023.5043139138
 20
966.5277875442
 30
0.0
 40
1.009333604400345
100
AcDbArc
 50
27.5948589876
 51
91.8460092591
  0
LWPOLYLINE
  5
1CF
330
1F
100
AcDbEntity
  8
0
  6
Continuous
 62
     7
370
    15
100
AcDbPolyline
 90
        9
 70
   128
 43
0.0
 10
1021.2218586515
 20
965.9068573197
 10
1020.7971606563
 20
965.92777855
 10
1020.3887794326
 20
965.9897077759
 10
1020.0124059032
 20
966.090290614
 10
1019.6825239967
 20
966.2256527623
 10
1019.411784799
 20
966.3906086167
 10
1019.2106042217
 20
966.5787804802
 10
1019.0867308687
 20
966.7829859932
 10
1019.0449033092
 20
966.9953275403
  0
LINE
  5
1D0
330
1F
100
AcDbEntity
  8
0
  6
Continuous
 62
     7
370
    15
100
AcDbLine
 10
1021.2218586515
 20
962.8925312241
 30
0.0
 11
1021.2218586515
 21
965.9068573197
 31
0.0
  0
LINE
  5
1D1
330
1F
100
AcDbEntity
  8
0
  6
Continuous
 62
     7
370
    15
100
AcDbLine
 10
1022.2218606781
 20
962.8925312241
 30
0.0
 11
1022.2218606781
 21
965.9068573197
 31
0.0
  0
LWPOLYLINE
  5
1D2
330
1F
100
AcDbEntity
  8
0
  6
Continuous
 62
     7
370
    15
100
AcDbPolyline
 90
        9
 70
   128
 43
0.0
 10
1024.3988309215
 20
966.9953275403
 10
1024.3570033621
 20
966.7829859932
 10
1024.2331151079
 20
966.5787804802
 10
1024.0319494318
 20
966.3906086167
 10
1023.761210234
 20
966.2256527623
 10
1023.4313283275
 20
966.090290614
 10
1023.0549547981
 20
965.9897077759
 10
1022.6465735744
 20
965.92777855
 10
1022.2218606781
 20
965.9068573197
  0
LINE
  5
1D3
330
1F
100
AcDbEntity
  8
0
  6
Continuous
 62
     7
370
    15
100
AcDbLine
 10
1029.8012916158
 20
966.0268116673
 30
0.0
 11
1029.84484771
 21
966.1163974484
 31
0.0
  0
LINE
  5
1D4
330
1F
100
AcDbEntity
  8
0
  6
Continuous
 62
     7
370
    15
100
AcDbLine
 10
1021.2218586515
 20
966.911642619
 30
0.0
 11
1021.2218586515
 21
965.9068573197
 31
0.0
  0
LINE
  5
1D5
330
1F
100
AcDbEntity
  8
0
  6
Continuous
 62
     7
370
    15
100
AcDbLine
 10
1022.2218606781
 20
966.911642619
 30
0.0
 11
1022.2218606781
 21
965.9068573197
 31
0.0
  0
LINE
  5
1D6
330
1F
100
AcDbEntity
  8
0
  6
Continuous
 62
     7
370
    15
100
AcDbLine
 10
1022.2218606781
 20
965.9068573197
 30
0.0
 11
1021.2218586515
 21
965.9068573197
 31
0.0
  0
LWPOLYLINE
  5
1D7
330
1F
100
AcDbEntity
  8
0
  6
Continuous
 62
     7
370
    15
100
AcDbPolyline
 90
        9
 70
   128
 43
0.0
 10
1010.2218661617
 20
960.406838723
 10
1009.7971532653
 20
960.4277599534
 10
1009.3887720417
 20
960.4897189816
 10
1009.0124134134
 20
960.5903018197
 10
1008.6825166057
 20
960.7256639679
 10
1008.411777408
 20
960.8906198224
 10
1008.2106117319
 20
961.0787916859
 10
1008.0867234777
 20
961.2829971989
 10
1008.0448959182
 20
961.4953387459
  0
LINE
  5
1D8
330
1F
100
AcDbEntity
  8
0
  6
Continuous
 62
     7
370
    15
100
AcDbLine
 10
1010.2218661617
 20
957.3925126275
 30
0.0
 11
1010.2218661617
 21
960.406838723
 31
0.0
  0
LINE
  5
1D9
330
1F
100
AcDbEntity
  8
0
  6
Continuous
 62
     7
370
    15
100
AcDbLine
 10
1040.8012990068
 20
960.526822873
 30
0.0
 11
1040.8448401998
 21
960.6164086541
 31
0.0
  0
LINE
  5
1DA
330
1F
100
AcDbEntity
  8
0
  6
Continuous
 62
     7
370
    15
100
AcDbLine
 10
1033.221868069
 20
957.3925126275
 30
0.0
 11
1033.221868069
 21
960.406838723
 31
0.0
  0
LWPOLYLINE
  5
1DB
330
1F
100
AcDbEntity
  8
0
  6
Continuous
 62
     7
370
    15
100
AcDbPolyline
 90
        9
 70
   128
 43
0.0
 10
1035.3988234113
 20
961.4953387459
 10
1035.3569958519
 20
961.2829971989
 10
1035.2331224989
 20
961.0787916859
 10
1035.0319419216
 20
960.8906198224
 10
1034.761217625
 20
960.7256639679
 10
1034.4313208173
 20
960.5903018197
 10
1034.0549472879
 20
960.4897189816
 10
1033.6465660642
 20
960.4277599534
 10
1033.221868069
 20
960.406838723
  0
LINE
  5
1DC
330
1F
100
AcDbEntity
  8
0
  6
Continuous
 62
     7
370
    15
100
AcDbLine
 10
1010.2218661617
 20
961.4116240223
 30
0.0
 11
1010.2218661617
 21
960.406838723
 31
0.0
  0
LINE
  5
1DD
330
1F
100
AcDbEntity
  8
0
  6
Continuous
 62
     7
370
    15
100
AcDbLine
 10
1033.221868069
 20
961.4116240223
 30
0.0
 11
1033.221868069
 21
960.406838723
 31
0.0
  0
LINE
  5
1DE
330
1F
100
AcDbEntity
  8
0
  6
Continuous
 62
     7
370
    15
100
AcDbLine
 10
1033.221868069
 20
960.406838723
 30
0.0
 11
1010.2218661617
 21
960.406838723
 31
0.0
  0
LWPOLYLINE
  5
1DF
330
1F
100
AcDbEntity
  8
0
  6
Continuous
 62
     7
370
    15
100
AcDbPolyline
 90
        9
 70
   128
 43
0.0
 10
999.2218587707
 20
954.9068499287
 10
998.7971607755
 20
954.927771159
 10
998.3887795519
 20
954.989700385
 10
998.0124060224
 20
955.090283223
 10
997.6825241159
 20
955.2256751736
 10
997.4117849182
 20
955.3906012257
 10
997.2106043409
 20
955.5788028916
 10
997.0867309879
 20
955.7829786023
 10
997.0449034284
 20
955.9953499516
  0
LINE
  5
1E0
330
1F
100
AcDbEntity
  8
0
  6
Continuous
 62
     7
370
    15
100
AcDbLine
 10
999.2218587707
 20
954.9068499287
 30
0.0
 11
999.2218587707
 21
951.8925238331
 31
0.0
  0
LINE
  5
1E1
330
1F
100
AcDbEntity
  8
0
  6
Continuous
 62
     7
370
    15
100
AcDbLine
 10
1046.221864612
 20
954.9068499287
 30
0.0
 11
1046.221864612
 21
951.8925238331
 31
0.0
  0
LWPOLYLINE
  5
1E2
330
1F
100
AcDbEntity
  8
0
  6
Continuous
 62
     7
370
    15
100
AcDbPolyline
 90
        9
 70
   128
 43
0.0
 10
1048.3988274048
 20
955.9953499516
 10
1048.3569998454
 20
955.7829786023
 10
1048.2331190418
 20
955.5788028916
 10
1048.0319459151
 20
955.3906012257
 10
1047.7612141679
 20
955.2256751736
 10
1047.4313248109
 20
955.090283223
 10
1047.0549512814
 20
954.989700385
 10
1046.6465700577
 20
954.927771159
 10
1046.221864612
 20
954.9068499287
  0
LINE
  5
1E3
330
1F
100
AcDbEntity
  8
0
  6
Continuous
 62
     7
370
    15
100
AcDbLine
 10
999.2218587707
 20
954.9068499287
 30
0.0
 11
999.2218587707
 21
955.911635228
 31
0.0
  0
LINE
  5
1E4
330
1F
100
AcDbEntity
  8
0
  6
Continuous
 62
     7
370
    15
100
AcDbLine
 10
1046.221864612
 20
954.9068499287
 30
0.0
 11
1046.221864612
 21
955.911635228
 31
0.0
  0
LINE
  5
1E5
330
1F
100
AcDbEntity
  8
0
  6
Continuous
 62
     7
370
    15
100
AcDbLine
 10
1046.221864612
 20
954.9068499287
 30
0.0
 11
999.2218587707
 21
954.9068499287
 31
0.0
  0
LINE
  5
1E6
330
1F
100
AcDbEntity
  8
0
  6
Continuous
 62
     7
370
    15
100
AcDbLine
 10
836.3769177507
 20
1073.7649191102
 30
0.0
 11
1207.5668174933
 21
1073.7649191102
 31
0.0
  0
LINE
  5
1E7
330
1F
100
AcDbEntity
  8
0
  6
Continuous
 62
     7
370
    15
100
AcDbLine
 10
1207.5668174933
 20
1073.9598859032
 30
0.0
 11
1207.5668174933
 21
1073.7649191102
 31
0.0
  0
LINE
  5
1E8
330
1F
100
AcDbEntity
  8
0
  6
Continuous
 62
     7
370
    15
100
AcDbLine
 10
836.3769177507
 20
1073.9598859032
 30
0.0
 11
836.3769177507
 21
1073.7649191102
 31
0.0
  0
LINE
  5
1E9
330
1F
100
AcDbEntity
  8
0
  6
Continuous
 62
     7
370
    15
100
AcDbLine
 10
846.2005678724
 20
963.0964983185
 30
0.0
 11
846.2518278669
 21
963.3134294232
 31
0.0
  0
LINE
  5
1EA
330
1F
100
AcDbEntity
  8
0
  6
Continuous
 62
     7
370
    15
100
AcDbLine
 10
846.2005678724
 20
963.0964983185
 30
0.0
 11
836.3061968397
 21
931.117444106
 31
0.0
  0
LINE
  5
1EB
330
1F
100
AcDbEntity
  8
0
  6
Continuous
 62
     7
370
    15
100
AcDbLine
 10
836.3061968397
 20
931.117444106
 30
0.0
 11
836.3061968397
 21
1073.7295437535
 31
0.0
  0
LINE
  5
1EC
330
1F
100
AcDbEntity
  8
0
  6
Continuous
 62
     7
370
    15
100
AcDbLine
 10
836.3769177507
 20
1073.9227522095
 30
0.0
 11
836.3061968397
 21
1073.7295437535
 31
0.0
  0
LINE
  5
1ED
330
1F
100
AcDbEntity
  8
0
  6
Continuous
 62
     7
370
    15
100
AcDbLine
 10
835.5334524225
 20
1073.9088643273
 30
0.0
 11
836.3061968397
 21
1073.7295437535
 31
0.0
  0
LINE
  5
1EE
330
1F
100
AcDbEntity
  8
0
  6
Continuous
 62
     7
370
    15
100
AcDbLine
 10
835.5521384786
 20
1073.9598859032
 30
0.0
 11
835.5334524225
 21
1073.9088643273
 31
0.0
  0
LINE
  5
1EF
330
1F
100
AcDbEntity
  8
0
  6
Continuous
 62
     7
370
    15
100
AcDbLine
 10
1208.3915930401
 20
1073.9598859032
 30
0.0
 11
1208.4102679204
 21
1073.9088643273
 31
0.0
  0
LINE
  5
1F0
330
1F
100
AcDbEntity
  8
0
  6
Continuous
 62
     7
370
    15
100
AcDbLine
 10
1208.4102679204
 20
1073.9088643273
 30
0.0
 11
1207.6375272285
 21
1073.7295437535
 31
0.0
  0
LINE
  5
1F1
330
1F
100
AcDbEntity
  8
0
  6
Continuous
 62
     7
370
    15
100
AcDbLine
 10
1207.5668174933
 20
1073.9227522095
 30
0.0
 11
1207.6375272285
 21
1073.7295437535
 31
0.0
  0
LINE
  5
1F2
330
1F
100
AcDbEntity
  8
0
  6
Continuous
 62
     7
370
    15
100
AcDbLine
 10
1197.7431748222
 20
963.0964983185
 30
0.0
 11
1207.6375272285
 21
931.117444106
 31
0.0
  0
LINE
  5
1F3
330
1F
100
AcDbEntity
  8
0
  6
Continuous
 62
     7
370
    15
100
AcDbLine
 10
1197.691892476
 20
963.3134294232
 30
0.0
 11
1197.7431748222
 21
963.0964983185
 31
0.0
  0
LINE
  5
1F4
330
1F
100
AcDbEntity
  8
0
  6
Continuous
 62
     7
370
    15
100
AcDbLine
 10
1207.6375272285
 20
1073.7295437535
 30
0.0
 11
1207.6375272285
 21
931.117444106
 31
0.0
  0
LINE
  5
1F5
330
1F
100
AcDbEntity
  8
0
  6
Continuous
 62
     7
370
    15
100
AcDbLine
 10
835.5334524225
 20
931.2967348774
 30
0.0
 11
836.3061968397
 21
931.117444106
 31
0.0
  0
LINE
  5
1F6
330
1F
100
AcDbEntity
  8
0
  6
Continuous
 62
     7
370
    15
100
AcDbLine
 10
835.5334524225
 20
931.2967348774
 30
0.0
 11
835.5334524225
 21
1073.9088643273
 31
0.0
  0
LINE
  5
1F7
330
1F
100
AcDbEntity
  8
0
  6
Continuous
 62
     7
370
    15
100
AcDbLine
 10
1208.4102679204
 20
931.2967348774
 30
0.0
 11
1207.6375272285
 21
931.117444106
 31
0.0
  0
LINE
  5
1F8
330
1F
100
AcDbEntity
  8
0
  6
Continuous
 62
     7
370
    15
100
AcDbLine
 10
1208.4102679204
 20
1073.9088643273
 30
0.0
 11
1208.4102679204
 21
931.2967348774
 31
0.0
  0
SPLINE
  5
1F9
330
1F
100
AcDbEntity
  8
0
  6
Continuous
 62
     7
370
    15
100
AcDbSpline
210
0.0
220
0.0
230
1.0
 70
     8
 71
     3
 72
    11
 73
     7
 74
     0
 42
0.00000001
 43
0.00000001
 12
1.0
 22
0.0
 32
0.0
 13
1.0
 23
0.0
 33
0.0
 40
0.0
 40
0.0
 40
0.0
 40
0.0
 40
0.2499997129511368
 40
0.4999936404450965
 40
0.749995271293023
 40
1.0
 40
1.0
 40
1.0
 40
1.0
 10
847.4592391561183
 20
964.6542359074149
 30
0.0
 10
847.3227671059475
 20
964.5981332493176
 30
0.0
 10
847.0498261638221
 20
964.4859292314425
 30
0.0
 10
846.6861388001462
 20
964.1750165495854
 30
0.0
 10
846.3953754647085
 20
963.7818130029008
 30
0.0
 10
846.2996772638089
 20
963.4695579279686
 30
0.0
 10
846.2518278669032
 20
963.3134294231925
 30
0.0
  0
SPLINE
  5
1FA
330
1F
100
AcDbEntity
  8
0
  6
Continuous
 62
     7
370
    15
100
AcDbSpline
210
0.0
220
0.0
230
1.0
 70
     8
 71
     3
 72
    11
 73
     7
 74
     0
 42
0.00000001
 43
0.00000001
 12
1.0
 22
0.0
 32
0.0
 13
1.0
 23
0.0
 33
0.0
 40
0.0
 40
0.0
 40
0.0
 40
0.0
 40
0.250001682603919
 40
0.5000034385219558
 40
0.7499983506876016
 40
1.0
 40
1.0
 40
1.0
 40
1.0
 10
1197.691892475954
 20
963.3134294231925
 30
0.0
 10
1197.644049188154
 20
963.4695583450556
 30
0.0
 10
1197.548362598523
 20
963.7818162345676
 30
0.0
 10
1197.257593307734
 20
964.1750168239563
 30
0.0
 10
1196.893903313675
 20
964.4859297840037
 30
0.0
 10
1196.620958938497
 20
964.5981333623197
 30
0.0
 10
1196.484484912029
 20
964.6542359074149
 30
0.0
  0
ARC
  5
1FB
330
1F
100
AcDbEntity
  8
0
  6
Continuous
 62
     7
370
    15
100
AcDbCircle
 10
839.4718650262
 20
773.2058995192
 30
0.0
 40
2.000000000000081
100
AcDbArc
 50
30.0
 51
90.0
  0
LINE
  5
1FC
330
1F
100
AcDbEntity
  8
0
  6
Continuous
 62
     7
370
    15
100
AcDbLine
 10
826.4718774866
 20
775.2058941802
 30
0.0
 11
839.4718591283
 21
775.2058941802
 31
0.0
  0
ARC
  5
1FD
330
1F
100
AcDbEntity
  8
0
  6
Continuous
 62
     7
370
    15
100
AcDbCircle
 10
826.4718650262
 20
777.2058995192
 30
0.0
 40
2.0
100
AcDbArc
 50
180.0
 51
270.0
  0
LINE
  5
1FE
330
1F
100
AcDbEntity
  8
0
  6
Continuous
 62
     7
370
    15
100
AcDbLine
 10
824.4718734335
 20
926.1058855732
 30
0.0
 11
824.4718734335
 21
777.2058982333
 31
0.0
  0
ARC
  5
1FF
330
1F
100
AcDbEntity
  8
0
  6
Continuous
 62
     7
370
    15
100
AcDbCircle
 10
826.4718650262
 20
926.1058995192
 30
0.0
 40
2.000000000000114
100
AcDbArc
 50
90.0
 51
180.0
  0
LINE
  5
200
330
1F
100
AcDbEntity
  8
0
  6
Continuous
 62
     7
370
    15
100
AcDbLine
 10
826.4718774866
 20
928.1058896264
 30
0.0
 11
835.171860845
 21
928.1058896264
 31
0.0
  0
LINE
  5
201
330
1F
100
AcDbEntity
  8
0
  6
Continuous
 62
     7
370
    15
100
AcDbLine
 10
835.171860845
 20
928.1058896264
 30
0.0
 11
835.171860845
 21
929.6059001168
 31
0.0
  0
LINE
  5
202
330
1F
100
AcDbEntity
  8
0
  6
Continuous
 62
     7
370
    15
100
AcDbLine
 10
1208.7718632232
 20
929.6059001168
 30
0.0
 11
835.171860845
 21
929.6059001168
 31
0.0
  0
LINE
  5
203
330
1F
100
AcDbEntity
  8
0
  6
Continuous
 62
     7
370
    15
100
AcDbLine
 10
1208.7718632232
 20
929.6059001168
 30
0.0
 11
1208.7718632232
 21
928.1058896264
 31
0.0
  0
LINE
  5
204
330
1F
100
AcDbEntity
  8
0
  6
Continuous
 62
     7
370
    15
100
AcDbLine
 10
1208.7718632232
 20
928.1058896264
 30
0.0
 11
1217.471865208
 21
928.1058896264
 31
0.0
  0
ARC
  5
205
330
1F
100
AcDbEntity
  8
0
  6
Continuous
 62
     7
370
    15
100
AcDbCircle
 10
1217.4718650262
 20
926.1058995192
 30
0.0
 40
2.000000000000114
100
AcDbArc
 50
0.0
 51
90.0
  0
LINE
  5
206
330
1F
100
AcDbEntity
  8
0
  6
Continuous
 62
     7
370
    15
100
AcDbLine
 10
1219.4718655358
 20
777.2058982333
 30
0.0
 11
1219.4718655358
 21
787.8494400462
 31
0.0
  0
LINE
  5
207
330
1F
100
AcDbEntity
  8
0
  6
Continuous
 62
     7
370
    15
100
AcDbLine
 10
1219.4718655358
 20
790.5623603543
 30
0.0
 11
1219.4718655358
 21
926.1058855732
 31
0.0
  0
ARC
  5
208
330
1F
100
AcDbEntity
  8
0
  6
Continuous
 62
     7
370
    15
100
AcDbCircle
 10
1217.4718650262
 20
777.2058995192
 30
0.0
 40
2.0
100
AcDbArc
 50
270.0
 51
0.0
  0
LINE
  5
209
330
1F
100
AcDbEntity
  8
0
  6
Continuous
 62
     7
370
    15
100
AcDbLine
 10
1204.4718649398
 20
775.2058941802
 30
0.0
 11
1217.471865208
 21
775.2058941802
 31
0.0
  0
ARC
  5
20A
330
1F
100
AcDbEntity
  8
0
  6
Continuous
 62
     7
370
    15
100
AcDbCircle
 10
1204.4718650262
 20
773.2058995192
 30
0.0
 40
2.0
100
AcDbArc
 50
90.0
 51
150.0
  0
SPLINE
  5
20B
330
1F
100
AcDbEntity
  8
0
  6
Continuous
 62
     7
370
    15
100
AcDbSpline
210
0.0
220
0.0
230
1.0
 70
     8
 71
     3
 72
    10
 73
     6
 74
     0
 42
0.00000001
 43
0.00000001
 12
1.0
 22
0.0
 32
0.0
 13
1.0
 23
0.0
 33
0.0
 40
0.0
 40
0.0
 40
0.0
 40
0.0
 40
0.3186728212019083
 40
0.6539192809957823
 40
1.0
 40
1.0
 40
1.0
 40
1.0
 10
835.1718608449611
 20
929.6059001167807
 30
0.0
 10
835.1812664785435
 20
929.7197925284199
 30
0.0
 10
835.200566916925
 20
929.9535007048784
 30
0.0
 10
835.2301199156051
 20
930.302877951308
 30
0.0
 10
835.2502420792898
 20
930.5204005844511
 30
0.0
 10
835.2604631494197
 20
930.6308913906608
 30
0.0
  0
LINE
  5
20C
330
1F
100
AcDbEntity
  8
0
  6
Continuous
 62
     7
370
    15
100
AcDbLine
 10
835.2604631494
 20
930.6308913907
 30
0.0
 11
1208.6832795452
 21
930.6308913907
 31
0.0
  0
SPLINE
  5
20D
330
1F
100
AcDbEntity
  8
0
  6
Continuous
 62
     7
370
    15
100
AcDbSpline
210
0.0
220
0.0
230
1.0
 70
     8
 71
     3
 72
    10
 73
     6
 74
     0
 42
0.00000001
 43
0.00000001
 12
1.0
 22
0.0
 32
0.0
 13
1.0
 23
0.0
 33
0.0
 40
0.0
 40
0.0
 40
0.0
 40
0.0
 40
0.3186664057090235
 40
0.6539065163396217
 40
1.0
 40
1.0
 40
1.0
 40
1.0
 10
1208.683279545179
 20
930.6308913906608
 30
0.0
 10
1208.692688096445
 20
930.5294000796595
 30
0.0
 10
1208.711994533747
 20
930.3211389375166
 30
0.0
 10
1208.741524907754
 20
929.9731837939513
 30
0.0
 10
1208.761643623663
 20
929.7296212937396
 30
0.0
 10
1208.771863223187
 20
929.6059001167807
 30
0.0
  0
LINE
  5
20E
330
1F
100
AcDbEntity
  8
0
  6
Continuous
 62
     7
370
    15
100
AcDbLine
 10
835.2604631494
 20
930.6308913907
 30
0.0
 11
835.5334524225
 21
931.5065134247
 31
0.0
  0
LINE
  5
20F
330
1F
100
AcDbEntity
  8
0
  6
Continuous
 62
     7
370
    15
100
AcDbLine
 10
846.1598579
 20
962.9649210652
 30
0.0
 11
846.2383572172
 21
962.9466820439
 31
0.0
  0
LINE
  5
210
330
1F
100
AcDbEntity
  8
0
  6
Continuous
 62
     7
370
    15
100
AcDbLine
 10
1197.7053743015
 20
962.9466820439
 30
0.0
 11
1197.7838847946
 21
962.9649210652
 31
0.0
  0
LINE
  5
211
330
1F
100
AcDbEntity
  8
0
  6
Continuous
 62
     7
370
    15
100
AcDbLine
 10
1208.4102679204
 20
931.5065134247
 30
0.0
 11
1208.6832795452
 21
930.6308913907
 31
0.0
  0
SPLINE
  5
212
330
1F
100
AcDbEntity
  8
0
  6
Continuous
 62
     7
370
    15
100
AcDbSpline
210
0.0
220
0.0
230
1.0
 70
     8
 71
     3
 72
    11
 73
     7
 74
     0
 42
0.00000001
 43
0.00000001
 12
1.0
 22
0.0
 32
0.0
 13
1.0
 23
0.0
 33
0.0
 40
0.0
 40
0.0
 40
0.0
 40
0.0
 40
0.2530340349665445
 40
0.5062269929170332
 40
0.7594199515298243
 40
1.0
 40
1.0
 40
1.0
 40
1.0
 10
846.238357217184
 20
962.9466820438895
 30
0.0
 10
846.3413471780095
 20
963.0998971465159
 30
0.0
 10
846.5473917845237
 20
963.4064235815162
 30
0.0
 10
846.8564357588124
 20
963.9152677186313
 30
0.0
 10
847.1605392109445
 20
964.3677013785771
 30
0.0
 10
847.3613826186606
 20
964.5603648595383
 30
0.0
 10
847.4592391561182
 20
964.6542359074149
 30
0.0
  0
SPLINE
  5
213
330
1F
100
AcDbEntity
  8
0
  6
Continuous
 62
     7
370
    15
100
AcDbSpline
210
0.0
220
0.0
230
1.0
 70
     8
 71
     3
 72
    11
 73
     7
 74
     0
 42
0.00000001
 43
0.00000001
 12
1.0
 22
0.0
 32
0.0
 13
1.0
 23
0.0
 33
0.0
 40
0.0
 40
0.0
 40
0.0
 40
0.0
 40
0.2530290418404147
 40
0.5062141566815637
 40
0.7594048043935144
 40
1.0
 40
1.0
 40
1.0
 40
1.0
 10
1196.484484912029
 20
964.6542359074149
 30
0.0
 10
1196.58746843127
 20
964.5546523420213
 30
0.0
 10
1196.793498991895
 20
964.3554237862462
 30
0.0
 10
1197.102583680777
 20
963.8907403836619
 30
0.0
 10
1197.406662187658
 20
963.3897978440119
 30
0.0
 10
1197.607511345311
 20
963.0918540008927
 30
0.0
 10
1197.705374301544
 20
962.9466820438895
 30
0.0
  0
SPLINE
  5
214
330
1F
100
AcDbEntity
  8
0
  6
Continuous
 62
     7
370
    15
100
AcDbSpline
210
0.0
220
0.0
230
1.0
 70
     8
 71
     3
 72
     9
 73
     5
 74
     0
 42
0.00000001
 43
0.00000001
 12
1.0
 22
0.0
 32
0.0
 13
1.0
 23
0.0
 33
0.0
 40
0.0
 40
0.0
 40
0.0
 40
0.0
 40
0.476687933988654
 40
1.0
 40
1.0
 40
1.0
 40
1.0
 10
846.6452781270656
 20
963.571219511846
 30
0.0
 10
846.6966490526374
 20
963.7082057006337
 30
0.0
 10
846.80441541698
 20
963.9955764919213
 30
0.0
 10
846.9121599196902
 20
964.2529810335166
 30
0.0
 10
846.9685439180049
 20
964.3876839359795
 30
0.0
  0
SPLINE
  5
215
330
1F
100
AcDbEntity
  8
0
  6
Continuous
 62
     7
370
    15
100
AcDbSpline
210
0.0
220
0.0
230
1.0
 70
     8
 71
     3
 72
     9
 73
     5
 74
     0
 42
0.00000001
 43
0.00000001
 12
1.0
 22
0.0
 32
0.0
 13
1.0
 23
0.0
 33
0.0
 40
0.0
 40
0.0
 40
0.0
 40
0.0
 40
0.2166825540316927
 40
1.0
 40
1.0
 40
1.0
 40
1.0
 10
1196.975664437881
 20
964.3872965057883
 30
0.0
 10
1196.998944828416
 20
964.3346301472999
 30
0.0
 10
1197.106384906544
 20
964.0915724691049
 30
0.0
 10
1197.213837144347
 20
963.8000004171164
 30
0.0
 10
1197.298006356827
 20
963.5716069420371
 30
0.0
  0
LINE
  5
216
330
1F
100
AcDbEntity
  8
0
  6
Continuous
 62
     7
370
    15
100
AcDbLine
 10
874.092561395
 20
1103.1543899258
 30
0.0
 11
874.092561395
 21
1103.1043816289
 31
0.0
  0
LINE
  5
217
330
1F
100
AcDbEntity
  8
0
  6
Continuous
 62
     7
370
    15
100
AcDbLine
 10
874.092561395
 20
1103.1543899258
 30
0.0
 11
909.0925876211
 21
1103.1543899258
 31
0.0
  0
LINE
  5
218
330
1F
100
AcDbEntity
  8
0
  6
Continuous
 62
     7
370
    15
100
AcDbLine
 10
909.0925876211
 20
1103.1543899258
 30
0.0
 11
909.0925876211
 21
1103.1043816289
 31
0.0
  0
LINE
  5
219
330
1F
100
AcDbEntity
  8
0
  6
Continuous
 62
     7
370
    15
100
AcDbLine
 10
874.092561395
 20
1103.1043816289
 30
0.0
 11
909.0925876211
 21
1103.1043816289
 31
0.0
  0
ARC
  5
21A
330
1F
100
AcDbEntity
  8
0
  6
Continuous
 62
     7
370
    15
100
AcDbCircle
 10
877.2621305262
 20
1107.5566788074
 30
0.0
 40
0.9402651585359579
100
AcDbArc
 50
184.3996589016
 51
273.8108517464
  0
LINE
  5
21B
330
1F
100
AcDbEntity
  8
0
  6
Continuous
 62
     7
370
    15
100
AcDbLine
 10
877.324623258
 20
1106.6184926709
 30
0.0
 11
905.8605257581
 21
1106.6184926709
 31
0.0
  0
ARC
  5
21C
330
1F
100
AcDbEntity
  8
0
  6
Continuous
 62
     7
370
    15
100
AcDbCircle
 10
905.923033951
 20
1107.5566609555
 30
0.0
 40
0.9402483737646726
100
AcDbArc
 50
266.188135891
 51
355.601353461
  0
LINE
  5
21D
330
1F
100
AcDbEntity
  8
0
  6
Continuous
 62
     7
370
    15
100
AcDbLine
 10
874.092561395
 20
1133.4653187474
 30
0.0
 11
874.092561395
 21
1103.1543899258
 31
0.0
  0
LINE
  5
21E
330
1F
100
AcDbEntity
  8
0
  6
Continuous
 62
     7
370
    15
100
AcDbLine
 10
909.0925876211
 20
1133.4653187474
 30
0.0
 11
874.092561395
 21
1133.4653187474
 31
0.0
  0
LINE
  5
21F
330
1F
100
AcDbEntity
  8
0
  6
Continuous
 62
     7
370
    15
100
AcDbLine
 10
909.0925876211
 20
1103.1543899258
 30
0.0
 11
909.0925876211
 21
1133.4653187474
 31
0.0
  0
LINE
  5
220
330
1F
100
AcDbEntity
  8
0
  6
Continuous
 62
     7
370
    15
100
AcDbLine
 10
879.0566746305
 20
1108.4005523404
 30
0.0
 11
904.1284743856
 21
1108.4005523404
 31
0.0
  0
LINE
  5
221
330
1F
100
AcDbEntity
  8
0
  6
Continuous
 62
     7
370
    15
100
AcDbLine
 10
904.1284743856
 20
1108.4005523404
 30
0.0
 11
891.5925745081
 21
1127.2043872555
 31
0.0
  0
LINE
  5
222
330
1F
100
AcDbEntity
  8
0
  6
Continuous
 62
     7
370
    15
100
AcDbLine
 10
891.5925745081
 20
1127.2043872555
 30
0.0
 11
879.0566746305
 21
1108.4005523404
 31
0.0
  0
LINE
  5
223
330
1F
100
AcDbEntity
  8
0
  6
Continuous
 62
     7
370
    15
100
AcDbLine
 10
877.324623258
 20
1106.6685009678
 30
0.0
 11
905.8605257581
 21
1106.6685009678
 31
0.0
  0
ARC
  5
224
330
1F
100
AcDbEntity
  8
0
  6
Continuous
 62
     7
370
    15
100
AcDbCircle
 10
877.2212288564
 20
1107.5377609304
 30
0.0
 40
0.875387505470966
100
AcDbArc
 50
150.5975468098
 51
276.7831949255
  0
LINE
  5
225
330
1F
100
AcDbEntity
  8
0
  6
Continuous
 62
     7
370
    15
100
AcDbLine
 10
890.7265488218
 20
1129.3694663724
 30
0.0
 11
876.4585975717
 21
1107.9675245961
 31
0.0
  0
ARC
  5
226
330
1F
100
AcDbEntity
  8
0
  6
Continuous
 62
     7
370
    15
100
AcDbCircle
 10
891.5925745081
 20
1128.7328245771
 30
0.0
 40
1.074854997099397
100
AcDbArc
 50
36.320736357
 51
143.679263643
  0
LINE
  5
227
330
1F
100
AcDbEntity
  8
0
  6
Continuous
 62
     7
370
    15
100
AcDbLine
 10
906.7265514444
 20
1107.9675245961
 30
0.0
 11
892.4586001943
 21
1129.3694663724
 31
0.0
  0
ARC
  5
228
330
1F
100
AcDbEntity
  8
0
  6
Continuous
 62
     7
370
    15
100
AcDbCircle
 10
905.9639201597
 20
1107.5377609304
 30
0.0
 40
0.875387505470966
100
AcDbArc
 50
263.2168050745
 51
29.4024531902
  0
LINE
  5
229
330
1F
100
AcDbEntity
  8
0
  6
Continuous
 62
     7
370
    15
100
AcDbLine
 10
877.324623258
 20
1106.6685009678
 30
0.0
 11
877.324623258
 21
1106.6184926709
 31
0.0
  0
LINE
  5
22A
330
1F
100
AcDbEntity
  8
0
  6
Continuous
 62
     7
370
    15
100
AcDbLine
 10
905.8605257581
 20
1106.6685009678
 30
0.0
 11
905.8605257581
 21
1106.6184926709
 31
0.0
  0
LINE
  5
22B
330
1F
100
AcDbEntity
  8
0
  6
Continuous
 62
     7
370
    15
100
AcDbLine
 10
891.5925745081
 20
1127.2043872555
 30
0.0
 11
891.5925745081
 21
1127.1543789586
 31
0.0
  0
LINE
  5
22C
330
1F
100
AcDbEntity
  8
0
  6
Continuous
 62
     7
370
    15
100
AcDbLine
 10
904.0951553892
 20
1108.4005523404
 30
0.0
 11
891.5925745081
 21
1127.1543789586
 31
0.0
  0
LINE
  5
22D
330
1F
100
AcDbEntity
  8
0
  6
Continuous
 62
     7
370
    15
100
AcDbLine
 10
891.5925745081
 20
1127.1543789586
 30
0.0
 11
879.0900234293
 21
1108.4005523404
 31
0.0
  0
LINE
  5
22E
330
1F
100
AcDbEntity
  8
0
  6
Continuous
 62
     7
370
    15
100
AcDbLine
 10
885.5925623487
 20
1110.0825954159
 30
0.0
 11
897.5925866674
 21
1110.0825954159
 31
0.0
  0
LINE
  5
22F
330
1F
100
AcDbEntity
  8
0
  6
Continuous
 62
     7
370
    15
100
AcDbLine
 10
897.5925866674
 20
1110.0825954159
 30
0.0
 11
897.5925866674
 21
1110.9486509045
 31
0.0
  0
LINE
  5
230
330
1F
100
AcDbEntity
  8
0
  6
Continuous
 62
     7
370
    15
100
AcDbLine
 10
897.5925866674
 20
1110.9486509045
 30
0.0
 11
885.5925623487
 21
1110.9486509045
 31
0.0
  0
LINE
  5
231
330
1F
100
AcDbEntity
  8
0
  6
Continuous
 62
     7
370
    15
100
AcDbLine
 10
885.5925623487
 20
1110.9486509045
 30
0.0
 11
885.5925623487
 21
1110.0825954159
 31
0.0
  0
LINE
  5
232
330
1F
100
AcDbEntity
  8
0
  6
Continuous
 62
     7
370
    15
100
AcDbLine
 10
894.7715584348
 20
1121.0294056614
 30
0.0
 11
894.0471533846
 21
1121.6264057835
 31
0.0
  0
SPLINE
  5
233
330
1F
100
AcDbEntity
  8
0
  6
Continuous
 62
     7
370
    15
100
AcDbSpline
210
0.0
220
0.0
230
1.0
 70
     8
 71
     3
 72
    16
 73
    12
 74
     0
 42
0.00000001
 43
0.00000001
 12
1.0
 22
0.0
 32
0.0
 13
1.0
 23
0.0
 33
0.0
 40
0.0
 40
0.0
 40
0.0
 40
0.0
 40
0.1748443638258578
 40
0.3268363723081891
 40
0.4652193562495875
 40
0.593590957699372
 40
0.7092174691003225
 40
0.8069172665116063
 40
0.8641075336034231
 40
0.9241590999157164
 40
0.9999999999999999
 40
0.9999999999999999
 40
0.9999999999999999
 40
0.9999999999999999
 10
894.0471533845576
 20
1121.626405783514
 30
0.0
 10
893.610027576346
 20
1121.152424403835
 30
0.0
 10
892.7929087955515
 20
1120.266411544823
 30
0.0
 10
892.485924575451
 20
1118.637135464442
 30
0.0
 10
892.7645028181894
 20
1117.217439519033
 30
0.0
 10
893.2525778936057
 20
1115.979335744291
 30
0.0
 10
893.6978718661414
 20
1114.879129153147
 30
0.0
 10
893.9132810918322
 20
1113.96358208439
 30
0.0
 10
893.8475061771044
 20
1113.224283436185
 30
0.0
 10
893.574245799654
 20
1112.595691818808
 30
0.0
 10
893.2296682741219
 20
1112.236258649932
 30
0.0
 10
893.0373612950954
 20
1112.035660811285
 30
0.0
  0
LINE
  5
234
330
1F
100
AcDbEntity
  8
0
  6
Continuous
 62
     7
370
    15
100
AcDbLine
 10
893.0373612951
 20
1112.0356608113
 30
0.0
 11
893.7715415071
 21
1111.4476609906
 31
0.0
  0
SPLINE
  5
235
330
1F
100
AcDbEntity
  8
0
  6
Continuous
 62
     7
370
    15
100
AcDbSpline
210
0.0
220
0.0
230
1.0
 70
     8
 71
     3
 72
    17
 73
    13
 74
     0
 42
0.00000001
 43
0.00000001
 12
1.0
 22
0.0
 32
0.0
 13
1.0
 23
0.0
 33
0.0
 40
0.0
 40
0.0
 40
0.0
 40
0.0
 40
0.0970860891895263
 40
0.180405797986375
 40
0.2583453906210698
 40
0.3758107344625542
 40
0.4973746806285239
 40
0.6189526525181491
 40
0.7367471872674043
 40
0.8154932291277961
 40
0.900412599894338
 40
1.0
 40
1.0
 40
1.0
 40
1.0
 10
893.7715415071162
 20
1111.447660990576
 30
0.0
 10
894.0163899083083
 20
1111.70530842493
 30
0.0
 10
894.4713682844225
 20
1112.184070020767
 30
0.0
 10
894.8319779316249
 20
1113.026809604759
 30
0.0
 10
894.9242064341364
 20
1113.984589489124
 30
0.0
 10
894.6832375598971
 20
1115.059274738343
 30
0.0
 10
894.2147301455187
 20
1116.221714627599
 30
0.0
 10
893.7522452722257
 20
1117.387491499486
 30
0.0
 10
893.5302690753663
 20
1118.470294375581
 30
0.0
 10
893.6500400325968
 20
1119.435654616485
 30
0.0
 10
894.0412093243101
 20
1120.285945159408
 30
0.0
 10
894.5155392112225
 20
1120.768790323142
 30
0.0
 10
894.7715584348354
 20
1121.029405661443
 30
0.0
  0
LINE
  5
236
330
1F
100
AcDbEntity
  8
0
  6
Continuous
 62
     7
370
    15
100
AcDbLine
 10
890.1473108839
 20
1121.0294056614
 30
0.0
 11
889.4229058336
 21
1121.6264057835
 31
0.0
  0
SPLINE
  5
237
330
1F
100
AcDbEntity
  8
0
  6
Continuous
 62
     7
370
    15
100
AcDbSpline
210
0.0
220
0.0
230
1.0
 70
     8
 71
     3
 72
    16
 73
    12
 74
     0
 42
0.00000001
 43
0.00000001
 12
1.0
 22
0.0
 32
0.0
 13
1.0
 23
0.0
 33
0.0
 40
0.0
 40
0.0
 40
0.0
 40
0.0
 40
0.1748442188660471
 40
0.3268365570799464
 40
0.4652197840660875
 40
0.5935905239060353
 40
0.7092177101820465
 40
0.8069174265924687
 40
0.8641076462690293
 40
0.9241591627938229
 40
1.0
 40
1.0
 40
1.0
 40
1.0
 10
889.4229058335933
 20
1121.626405783514
 30
0.0
 10
888.9857858694528
 20
1121.152424009347
 30
0.0
 10
888.168676873587
 20
1120.266409177448
 30
0.0
 10
887.8616216588399
 20
1118.63713457131
 30
0.0
 10
888.1402804870563
 20
1117.217448011103
 30
0.0
 10
888.628279499101
 20
1115.979325035116
 30
0.0
 10
889.0736344186162
 20
1114.879134607093
 30
0.0
 10
889.2890320820159
 20
1113.963581697062
 30
0.0
 10
889.2232589405006
 20
1113.224283519649
 30
0.0
 10
888.9499981435528
 20
1112.595691790894
 30
0.0
 10
888.6054206854984
 20
1112.236258639934
 30
0.0
 10
888.4131137441309
 20
1112.035660811285
 30
0.0
  0
LINE
  5
238
330
1F
100
AcDbEntity
  8
0
  6
Continuous
 62
     7
370
    15
100
AcDbLine
 10
888.4131137441
 20
1112.0356608113
 30
0.0
 11
889.1472939562
 21
1111.4476609906
 31
0.0
  0
SPLINE
  5
239
330
1F
100
AcDbEntity
  8
0
  6
Continuous
 62
     7
370
    15
100
AcDbSpline
210
0.0
220
0.0
230
1.0
 70
     8
 71
     3
 72
    17
 73
    13
 74
     0
 42
0.00000001
 43
0.00000001
 12
1.0
 22
0.0
 32
0.0
 13
1.0
 23
0.0
 33
0.0
 40
0.0
 40
0.0
 40
0.0
 40
0.0
 40
0.0970846381853268
 40
0.1804052575652453
 40
0.2583448743575266
 40
0.3758106567649617
 40
0.4973738714180053
 40
0.6189518809910503
 40
0.7367464522510384
 40
0.8154922340932745
 40
0.9004125690269551
 40
1.0
 40
1.0
 40
1.0
 40
1.0
 10
889.1472939561519
 20
1111.447660990575
 30
0.0
 10
889.3921265208786
 20
1111.705311122048
 30
0.0
 10
889.8470809063042
 20
1112.184083451008
 30
0.0
 10
890.2077371622853
 20
1113.026802991203
 30
0.0
 10
890.2999636494275
 20
1113.984593580042
 30
0.0
 10
890.0589407958616
 20
1115.059266161541
 30
0.0
 10
889.5904961968707
 20
1116.221720222751
 30
0.0
 10
889.1279880674899
 20
1117.387491502313
 30
0.0
 10
888.906041745895
 20
1118.470290824314
 30
0.0
 10
889.0257444309524
 20
1119.435662571599
 30
0.0
 10
889.4169736687024
 20
1120.285938567048
 30
0.0
 10
889.8912966752484
 20
1120.768788872575
 30
0.0
 10
890.147310883871
 20
1121.029405661443
 30
0.0
  0
LINE
  5
23A
330
1F
100
AcDbEntity
  8
0
  6
Continuous
 62
     7
370
    15
100
AcDbLine
 10
892.5925616335
 20
1121.0294056614
 30
0.0
 11
891.8681565832
 21
1121.6264057835
 31
0.0
  0
SPLINE
  5
23B
330
1F
100
AcDbEntity
  8
0
  6
Continuous
 62
     7
370
    15
100
AcDbSpline
210
0.0
220
0.0
230
1.0
 70
     8
 71
     3
 72
    16
 73
    12
 74
     0
 42
0.00000001
 43
0.00000001
 12
1.0
 22
0.0
 32
0.0
 13
1.0
 23
0.0
 33
0.0
 40
0.0
 40
0.0
 40
0.0
 40
0.0
 40
0.1748430748486102
 40
0.3268356237886405
 40
0.4652190426328867
 40
0.5935899604493671
 40
0.7092173070339168
 40
0.8069171588977668
 40
0.8641074578643355
 40
0.9241590576461136
 40
1.0
 40
1.0
 40
1.0
 40
1.0
 10
891.8681565831813
 20
1121.626405783514
 30
0.0
 10
891.4310491834616
 20
1121.15242259868
 30
0.0
 10
890.6139606612326
 20
1120.266401862573
 30
0.0
 10
890.3069012664515
 20
1118.637135130817
 30
0.0
 10
890.5855612632672
 20
1117.217447878202
 30
0.0
 10
891.0735599988614
 20
1115.979325066015
 30
0.0
 10
891.5189149817985
 20
1114.879134600414
 30
0.0
 10
891.7343126323921
 20
1113.963581697971
 30
0.0
 10
891.6685394927416
 20
1113.224283519453
 30
0.0
 10
891.3952786953528
 20
1112.59569179096
 30
0.0
 10
891.0507012373691
 20
1112.236258639957
 30
0.0
 10
890.8583942960413
 20
1112.035660811285
 30
0.0
  0
LINE
  5
23C
330
1F
100
AcDbEntity
  8
0
  6
Continuous
 62
     7
370
    15
100
AcDbLine
 10
890.858394296
 20
1112.0356608113
 30
0.0
 11
891.5925745081
 21
1111.4476609906
 31
0.0
  0
SPLINE
  5
23D
330
1F
100
AcDbEntity
  8
0
  6
Continuous
 62
     7
370
    15
100
AcDbSpline
210
0.0
220
0.0
230
1.0
 70
     8
 71
     3
 72
    17
 73
    13
 74
     0
 42
0.00000001
 43
0.00000001
 12
1.0
 22
0.0
 32
0.0
 13
1.0
 23
0.0
 33
0.0
 40
0.0
 40
0.0
 40
0.0
 40
0.0
 40
0.0970848109547979
 40
0.1804046938505968
 40
0.2583446775525209
 40
0.3758106689992178
 40
0.4973740999832144
 40
0.6189530828066525
 40
0.7367475003982213
 40
0.8154934223745438
 40
0.900413908430396
 40
1.0
 40
1.0
 40
1.0
 40
1.0
 10
891.5925745080623
 20
1111.447660990575
 30
0.0
 10
891.837412086052
 20
1111.705309775497
 30
0.0
 10
892.2923735559872
 20
1112.184077254236
 30
0.0
 10
892.6529692941389
 20
1113.026810274192
 30
0.0
 10
892.745264800473
 20
1113.984590540526
 30
0.0
 10
892.5042114397162
 20
1115.059266122901
 30
0.0
 10
892.0357907924878
 20
1116.221725579019
 30
0.0
 10
891.5732179032427
 20
1117.387483776208
 30
0.0
 10
891.3513312744689
 20
1118.470293127997
 30
0.0
 10
891.4710220830957
 20
1119.435662842648
 30
0.0
 10
891.8622564649164
 20
1120.285931200669
 30
0.0
 10
892.3365598239287
 20
1120.76878747675
 30
0.0
 10
892.592561633459
 20
1121.029405661443
 30
0.0
  0
LINE
  5
23E
330
1F
100
AcDbEntity
  8
0
  6
Continuous
 62
     7
370
    15
100
AcDbLine
 10
897.5925866674
 20
1110.9436441144
 30
0.0
 11
885.5925623487
 21
1110.9436441144
 31
0.0
  0
SPLINE
  5
23F
330
1F
100
AcDbEntity
  8
0
  6
Continuous
 62
     7
370
    15
100
AcDbSpline
210
0.0
220
0.0
230
1.0
 70
     8
 71
     3
 72
    13
 73
     9
 74
     0
 42
0.00000001
 43
0.00000001
 12
1.0
 22
0.0
 32
0.0
 13
1.0
 23
0.0
 33
0.0
 40
0.0
 40
0.0
 40
0.0
 40
0.0
 40
0.0473550223449519
 40
0.2730146278160697
 40
0.5065482601247348
 40
0.7401091253128073
 40
0.9664014301755101
 40
0.9999999999999999
 40
0.9999999999999999
 40
0.9999999999999999
 40
0.9999999999999999
 10
894.8507730077419
 20
1113.590745993474
 30
0.0
 10
894.8615948512054
 20
1113.67461037879
 30
0.0
 10
894.9239857322394
 20
1114.158111448159
 30
0.0
 10
894.6678206860724
 20
1115.055073598922
 30
0.0
 10
894.2140241336343
 20
1116.216812444371
 30
0.0
 10
893.7704583355469
 20
1117.38126963058
 30
0.0
 10
893.5281039007003
 20
1118.259739914783
 30
0.0
 10
893.5968093720635
 20
1118.71879216913
 30
0.0
 10
893.6056915830287
 20
1118.778138228277
 30
0.0
  0
SPLINE
  5
240
330
1F
100
AcDbEntity
  8
0
  6
Continuous
 62
     7
370
    15
100
AcDbSpline
210
0.0
220
0.0
230
1.0
 70
     8
 71
     3
 72
    13
 73
     9
 74
     0
 42
0.00000001
 43
0.00000001
 12
1.0
 22
0.0
 32
0.0
 13
1.0
 23
0.0
 33
0.0
 40
0.0
 40
0.0
 40
0.0
 40
0.0
 40
0.0473550199283129
 40
0.2730153864590477
 40
0.5065475291738497
 40
0.7401098364873703
 40
0.9664014318901247
 40
1.0
 40
1.0
 40
1.0
 40
1.0
 10
892.6718060086879
 20
1113.590745993475
 30
0.0
 10
892.682628177561
 20
1113.67461043519
 30
0.0
 10
892.7450211112291
 20
1114.158113197933
 30
0.0
 10
892.4887986457913
 20
1115.055064268466
 30
0.0
 10
892.0350826204692
 20
1116.216823909032
 30
0.0
 10
891.5914357744003
 20
1117.381260578999
 30
0.0
 10
891.349138603064
 20
1118.259741394028
 30
0.0
 10
891.417842546666
 20
1118.71879219735
 30
0.0
 10
891.4267245839748
 20
1118.778138228277
 30
0.0
  0
SPLINE
  5
241
330
1F
100
AcDbEntity
  8
0
  6
Continuous
 62
     7
370
    15
100
AcDbSpline
210
0.0
220
0.0
230
1.0
 70
     8
 71
     3
 72
    13
 73
     9
 74
     0
 42
0.00000001
 43
0.00000001
 12
1.0
 22
0.0
 32
0.0
 13
1.0
 23
0.0
 33
0.0
 40
0.0
 40
0.0
 40
0.0
 40
0.0
 40
0.0473550557350284
 40
0.2730155928951187
 40
0.5065479121913896
 40
0.740108942063476
 40
0.966401406485123
 40
1.0
 40
1.0
 40
1.0
 40
1.0
 10
890.2265254567775
 20
1113.590745993474
 30
0.0
 10
890.2373476035987
 20
1113.674610430004
 30
0.0
 10
890.2997404101305
 20
1114.158113162848
 30
0.0
 10
890.0435217886605
 20
1115.055065137365
 30
0.0
 10
889.5897892649909
 20
1116.216818235615
 30
0.0
 10
889.1462070900208
 20
1117.3812687333
 30
0.0
 10
888.9038564514173
 20
1118.259739939478
 30
0.0
 10
888.9725618327396
 20
1118.718792171958
 30
0.0
 10
888.9814440320644
 20
1118.778138228277
 30
0.0
  0
SPLINE
  5
242
330
1F
100
AcDbEntity
  8
0
  6
Continuous
 62
     7
370
    15
100
AcDbSpline
210
0.0
220
0.0
230
1.0
 70
     8
 71
     3
 72
    10
 73
     6
 74
     0
 42
0.00000001
 43
0.00000001
 12
1.0
 22
0.0
 32
0.0
 13
1.0
 23
0.0
 33
0.0
 40
0.0
 40
0.0
 40
0.0
 40
0.0
 40
0.5142170695852012
 40
0.9612253888238839
 40
1.0
 40
1.0
 40
1.0
 40
1.0
 10
894.0471533845576
 20
1121.621398993352
 30
0.0
 10
893.6217553581275
 20
1121.148829533121
 30
0.0
 10
892.8265593066042
 20
1120.265455973538
 30
0.0
 10
892.4970974165668
 20
1119.061994919968
 30
0.0
 10
892.5965999908573
 20
1118.504138441945
 30
0.0
 10
892.6045421670589
 20
1118.459611006597
 30
0.0
  0
SPLINE
  5
243
330
1F
100
AcDbEntity
  8
0
  6
Continuous
 62
     7
370
    15
100
AcDbSpline
210
0.0
220
0.0
230
1.0
 70
     8
 71
     3
 72
    11
 73
     7
 74
     0
 42
0.00000001
 43
0.00000001
 12
1.0
 22
0.0
 32
0.0
 13
1.0
 23
0.0
 33
0.0
 40
0.0
 40
0.0
 40
0.0
 40
0.0
 40
0.0361039554708513
 40
0.3216051969506369
 40
0.6213919727759476
 40
1.0
 40
1.0
 40
1.0
 40
1.0
 10
893.863690287939
 20
1113.891213007787
 30
0.0
 10
893.8686857079177
 20
1113.866862310206
 30
0.0
 10
893.9131836861902
 20
1113.649952257291
 30
0.0
 10
893.8353342475123
 20
1113.218152517114
 30
0.0
 10
893.5783174394386
 20
1112.59106213876
 30
0.0
 10
893.2311264703234
 20
1112.231386702041
 30
0.0
 10
893.0373612950954
 20
1112.030654021123
 30
0.0
  0
LINE
  5
244
330
1F
100
AcDbEntity
  8
0
  6
Continuous
 62
     7
370
    15
100
AcDbLine
 10
894.7715584348
 20
1121.0243988713
 30
0.0
 11
894.0471533846
 21
1121.6213989934
 31
0.0
  0
SPLINE
  5
245
330
1F
100
AcDbEntity
  8
0
  6
Continuous
 62
     7
370
    15
100
AcDbSpline
210
0.0
220
0.0
230
1.0
 70
     8
 71
     3
 72
    10
 73
     6
 74
     0
 42
0.00000001
 43
0.00000001
 12
1.0
 22
0.0
 32
0.0
 13
1.0
 23
0.0
 33
0.0
 40
0.0
 40
0.0
 40
0.0
 40
0.0
 40
0.5142143995810738
 40
0.9612252826925012
 40
1.0
 40
1.0
 40
1.0
 40
1.0
 10
891.8681565831813
 20
1121.621398993352
 30
0.0
 10
891.4427759663491
 20
1121.148827257946
 30
0.0
 10
890.6476084175611
 20
1120.265444956072
 30
0.0
 10
890.3180996771129
 20
1119.061996596127
 30
0.0
 10
890.4176031404334
 20
1118.504138452069
 30
0.0
 10
890.4255453656825
 20
1118.459611006597
 30
0.0
  0
SPLINE
  5
246
330
1F
100
AcDbEntity
  8
0
  6
Continuous
 62
     7
370
    15
100
AcDbSpline
210
0.0
220
0.0
230
1.0
 70
     8
 71
     3
 72
    11
 73
     7
 74
     0
 42
0.00000001
 43
0.00000001
 12
1.0
 22
0.0
 32
0.0
 13
1.0
 23
0.0
 33
0.0
 40
0.0
 40
0.0
 40
0.0
 40
0.0
 40
0.0361059278926808
 40
0.321606585150875
 40
0.6213927475220854
 40
1.0
 40
1.0
 40
1.0
 40
1.0
 10
891.6846934865627
 20
1113.891213007787
 30
0.0
 10
891.6896994917156
 20
1113.866862400751
 30
0.0
 10
891.7342895165799
 20
1113.649964067642
 30
0.0
 10
891.6563352294069
 20
1113.218147933783
 30
0.0
 10
891.3993611490054
 20
1112.591063671633
 30
0.0
 10
891.0521633069922
 20
1112.231387251101
 30
0.0
 10
890.8583942960414
 20
1112.030654021123
 30
0.0
  0
LINE
  5
247
330
1F
100
AcDbEntity
  8
0
  6
Continuous
 62
     7
370
    15
100
AcDbLine
 10
892.5925616335
 20
1121.0243988713
 30
0.0
 11
891.8681565832
 21
1121.6213989934
 31
0.0
  0
SPLINE
  5
248
330
1F
100
AcDbEntity
  8
0
  6
Continuous
 62
     7
370
    15
100
AcDbSpline
210
0.0
220
0.0
230
1.0
 70
     8
 71
     3
 72
    10
 73
     6
 74
     0
 42
0.00000001
 43
0.00000001
 12
1.0
 22
0.0
 32
0.0
 13
1.0
 23
0.0
 33
0.0
 40
0.0
 40
0.0
 40
0.0
 40
0.0
 40
0.5142163803570602
 40
0.9612254407952296
 40
1.0
 40
1.0
 40
1.0
 40
1.0
 10
889.4229058335933
 20
1121.621398993352
 30
0.0
 10
888.9975127020721
 20
1121.148828732014
 30
0.0
 10
888.2023246917759
 20
1120.265452443133
 30
0.0
 10
887.8728191909152
 20
1119.061996558597
 30
0.0
 10
887.9723225933802
 20
1118.504138449294
 30
0.0
 10
887.9802648137721
 20
1118.459611006597
 30
0.0
  0
SPLINE
  5
249
330
1F
100
AcDbEntity
  8
0
  6
Continuous
 62
     7
370
    15
100
AcDbSpline
210
0.0
220
0.0
230
1.0
 70
     8
 71
     3
 72
    11
 73
     7
 74
     0
 42
0.00000001
 43
0.00000001
 12
1.0
 22
0.0
 32
0.0
 13
1.0
 23
0.0
 33
0.0
 40
0.0
 40
0.0
 40
0.0
 40
0.0
 40
0.0361059278926808
 40
0.321606585150875
 40
0.6213927475220854
 40
1.0
 40
1.0
 40
1.0
 40
1.0
 10
889.2394129346523
 20
1113.891213007787
 30
0.0
 10
889.2444189398052
 20
1113.866862400751
 30
0.0
 10
889.2890089646695
 20
1113.649964067642
 30
0.0
 10
889.2110546774965
 20
1113.218147933783
 30
0.0
 10
888.954080597095
 20
1112.591063671633
 30
0.0
 10
888.6068827550818
 20
1112.231387251101
 30
0.0
 10
888.413113744131
 20
1112.030654021123
 30
0.0
  0
LINE
  5
24A
330
1F
100
AcDbEntity
  8
0
  6
Continuous
 62
     7
370
    15
100
AcDbLine
 10
890.1473108839
 20
1121.0243988713
 30
0.0
 11
889.4229058336
 21
1121.6213989934
 31
0.0
  0
LINE
  5
24B
330
1F
100
AcDbEntity
  8
0
  6
Continuous
 62
     7
370
    15
100
AcDbLine
 10
894.0471533846
 20
1121.6213989934
 30
0.0
 11
894.0471533846
 21
1121.6264057835
 31
0.0
  0
LINE
  5
24C
330
1F
100
AcDbEntity
  8
0
  6
Continuous
 62
     7
370
    15
100
AcDbLine
 10
891.8681565832
 20
1121.6213989934
 30
0.0
 11
891.8681565832
 21
1121.6264057835
 31
0.0
  0
LINE
  5
24D
330
1F
100
AcDbEntity
  8
0
  6
Continuous
 62
     7
370
    15
100
AcDbLine
 10
889.4229058336
 20
1121.6213989934
 30
0.0
 11
889.4229058336
 21
1121.6264057835
 31
0.0
  0
LINE
  5
24E
330
1F
100
AcDbEntity
  8
0
  6
Continuous
 62
     7
370
    15
100
AcDbLine
 10
1220.7511525761
 20
729.7301132163
 30
0.0
 11
823.1925789426
 21
729.7301132163
 31
0.0
  0
LINE
  5
24F
330
1F
100
AcDbEntity
  8
0
  6
Continuous
 62
     7
370
    15
100
AcDbLine
 10
823.1925789426
 20
729.7301132163
 30
0.0
 11
823.1925789426
 21
774.2058921536
 31
0.0
  0
LINE
  5
250
330
1F
100
AcDbEntity
  8
0
  6
Continuous
 62
     7
370
    15
100
AcDbLine
 10
823.1925789426
 20
774.2058921536
 30
0.0
 11
1220.7511525761
 21
774.2058921536
 31
0.0
  0
LINE
  5
251
330
1F
100
AcDbEntity
  8
0
  6
Continuous
 62
     7
370
    15
100
AcDbLine
 10
1220.7511525761
 20
774.2058921536
 30
0.0
 11
1220.7511525761
 21
729.7301132163
 31
0.0
  0
LINE
  5
252
330
1F
100
AcDbEntity
  8
0
  6
Continuous
 62
     7
370
    15
100
AcDbLine
 10
1221.9511542629
 20
772.9058850487
 30
0.0
 11
1220.7511525761
 21
772.9058850487
 31
0.0
  0
LINE
  5
253
330
1F
100
AcDbEntity
  8
0
  6
Continuous
 62
     7
370
    15
100
AcDbLine
 10
1221.9511542629
 20
772.9058850487
 30
0.0
 11
1221.9511542629
 21
730.9222806176
 31
0.0
  0
LINE
  5
254
330
1F
100
AcDbEntity
  8
0
  6
Continuous
 62
     7
370
    15
100
AcDbLine
 10
1221.9511542629
 20
730.9222806176
 30
0.0
 11
1220.7511525761
 21
730.9222806176
 31
0.0
  0
LINE
  5
255
330
1F
100
AcDbEntity
  8
0
  6
Continuous
 62
     7
370
    15
100
AcDbLine
 10
821.9925884317
 20
730.9222806176
 30
0.0
 11
823.1925789426
 21
730.9222806176
 31
0.0
  0
LINE
  5
256
330
1F
100
AcDbEntity
  8
0
  6
Continuous
 62
     7
370
    15
100
AcDbLine
 10
821.9925884317
 20
772.9058850487
 30
0.0
 11
823.1925789426
 21
772.9058850487
 31
0.0
  0
LINE
  5
257
330
1F
100
AcDbEntity
  8
0
  6
Continuous
 62
     7
370
    15
100
AcDbLine
 10
821.9925884317
 20
730.9222806176
 30
0.0
 11
821.9925884317
 21
772.9058850487
 31
0.0
  0
LINE
  5
258
330
1F
100
AcDbEntity
  8
0
  6
Continuous
 62
     7
370
    15
100
AcDbLine
 10
1176.0011540885
 20
719.6878630599
 30
0.0
 11
1191.492575423
 21
719.6878630599
 31
0.0
  0
LINE
  5
259
330
1F
100
AcDbEntity
  8
0
  6
Continuous
 62
     7
370
    15
100
AcDbLine
 10
1206.4925741564
 20
719.6878630599
 30
0.0
 11
1220.7511525761
 21
719.6878630599
 31
0.0
  0
LWPOLYLINE
  5
25A
330
1F
100
AcDbEntity
  8
0
  6
Continuous
 62
     7
370
    15
100
AcDbPolyline
 90
        9
 70
   128
 43
0.0
 10
1174.0011542264
 20
720.485373207
 10
1174.0395838554
 20
720.3297901829
 10
1174.1533951993
 20
720.1801825245
 10
1174.338215233
 20
720.04230208
 10
1174.586940759
 20
719.9214536627
 10
1174.8900136139
 20
719.8222715338
 10
1175.2357876088
 20
719.7485703906
 10
1175.6109737019
 20
719.7031963547
 10
1176.0011540885
 20
719.6878630599
  0
LINE
  5
25B
330
1F
100
AcDbEntity
  8
0
  6
Continuous
 62
     7
370
    15
100
AcDbLine
 10
1174.0011542264
 20
722.0803636988
 30
0.0
 11
1174.0011542264
 21
720.485373207
 31
0.0
  0
LWPOLYLINE
  5
25C
330
1F
100
AcDbEntity
  8
0
  6
Continuous
 62
     7
370
    15
100
AcDbPolyline
 90
        9
 70
   128
 43
0.0
 10
1172.0011543642
 20
722.8778589448
 10
1172.3913352165
 20
722.862540551
 10
1172.7665213096
 20
722.817151614
 10
1173.1122948389
 20
722.7434653719
 10
1173.4153676938
 20
722.644283243
 10
1173.6640936855
 20
722.5234348258
 10
1173.8489132534
 20
722.3855543812
 10
1173.962725063
 20
722.2359467228
 10
1174.0011542264
 20
722.0803636988
  0
LINE
  5
25D
330
1F
100
AcDbEntity
  8
0
  6
Continuous
 62
     7
370
    15
100
AcDbLine
 10
872.0011536192
 20
722.8778589448
 30
0.0
 11
1172.0011543642
 21
722.8778589448
 31
0.0
  0
LWPOLYLINE
  5
25E
330
1F
100
AcDbEntity
  8
0
  6
Continuous
 62
     7
370
    15
100
AcDbPolyline
 90
        9
 70
   128
 43
0.0
 10
870.001149566
 20
722.0803636988
 10
870.0395945619
 20
722.2359467228
 10
870.1534096311
 20
722.3855543812
 10
870.3382138323
 20
722.5234348258
 10
870.5869440149
 20
722.644283243
 10
870.8900038313
 20
722.7434653719
 10
871.2358001779
 20
722.817151614
 10
871.6109816145
 20
722.862540551
 10
872.0011536192
 20
722.8778589448
  0
LINE
  5
25F
330
1F
100
AcDbEntity
  8
0
  6
Continuous
 62
     7
370
    15
100
AcDbLine
 10
870.001149566
 20
720.485373207
 30
0.0
 11
870.001149566
 21
722.0803636988
 31
0.0
  0
LWPOLYLINE
  5
260
330
1F
100
AcDbEntity
  8
0
  6
Continuous
 62
     7
370
    15
100
AcDbPolyline
 90
        9
 70
   128
 43
0.0
 10
868.0011455129
 20
719.6878630599
 10
868.39134732
 20
719.7031963547
 10
868.7665287565
 20
719.7485703906
 10
869.1122953008
 20
719.8222715338
 10
869.4153551172
 20
719.9214536627
 10
869.6640852998
 20
720.04230208
 10
869.8489193033
 20
720.1801825245
 10
869.9627343725
 20
720.3297901829
 10
870.001149566
 20
720.485373207
  0
LINE
  5
261
330
1F
100
AcDbEntity
  8
0
  6
Continuous
 62
     7
370
    15
100
AcDbLine
 10
823.1925789426
 20
719.6878630599
 30
0.0
 11
837.4925676893
 21
719.6878630599
 31
0.0
  0
LINE
  5
262
330
1F
100
AcDbEntity
  8
0
  6
Continuous
 62
     7
370
    15
100
AcDbLine
 10
852.4925831865
 20
719.6878630599
 30
0.0
 11
868.0011455129
 21
719.6878630599
 31
0.0
  0
LINE
  5
263
330
1F
100
AcDbEntity
  8
0
  6
Continuous
 62
     7
370
    15
100
AcDbLine
 10
823.1925789426
 20
729.7301132163
 30
0.0
 11
823.1925789426
 21
719.6878630599
 31
0.0
  0
LINE
  5
264
330
1F
100
AcDbEntity
  8
0
  6
Continuous
 62
     7
370
    15
100
AcDbLine
 10
1220.7511525761
 20
719.6878630599
 30
0.0
 11
1220.7511525761
 21
729.7301132163
 31
0.0
  0
LINE
  5
265
330
1F
100
AcDbEntity
  8
0
  6
Continuous
 62
     7
370
    15
100
AcDbLine
 10
841.8565217565
 20
721.8011457404
 30
0.0
 11
841.9028047632
 21
721.6935146531
 31
0.0
  0
LINE
  5
266
330
1F
100
AcDbEntity
  8
0
  6
Continuous
 62
     7
370
    15
100
AcDbLine
 10
1221.9511542629
 20
719.2058999022
 30
0.0
 11
1220.7511525761
 21
719.2058999022
 31
0.0
  0
LINE
  5
267
330
1F
100
AcDbEntity
  8
0
  6
Continuous
 62
     7
370
    15
100
AcDbLine
 10
1220.7511525761
 20
719.6878630599
 30
0.0
 11
1220.7511525761
 21
719.2058999022
 31
0.0
  0
LINE
  5
268
330
1F
100
AcDbEntity
  8
0
  6
Continuous
 62
     7
370
    15
100
AcDbLine
 10
1221.9511542629
 20
730.9222806176
 30
0.0
 11
1221.9511542629
 21
719.2058999022
 31
0.0
  0
LINE
  5
269
330
1F
100
AcDbEntity
  8
0
  6
Continuous
 62
     7
370
    15
100
AcDbLine
 10
821.9925884317
 20
719.2058999022
 30
0.0
 11
823.1925789426
 21
719.2058999022
 31
0.0
  0
LINE
  5
26A
330
1F
100
AcDbEntity
  8
0
  6
Continuous
 62
     7
370
    15
100
AcDbLine
 10
823.1925789426
 20
719.2058999022
 30
0.0
 11
823.1925789426
 21
719.6878630599
 31
0.0
  0
LINE
  5
26B
330
1F
100
AcDbEntity
  8
0
  6
Continuous
 62
     7
370
    15
100
AcDbLine
 10
821.9925884317
 20
719.2058999022
 30
0.0
 11
821.9925884317
 21
730.9222806176
 31
0.0
  0
SPLINE
  5
26C
330
1F
100
AcDbEntity
  8
0
  6
Continuous
 62
     7
370
    15
100
AcDbSpline
210
0.0
220
0.0
230
1.0
 70
     8
 71
     3
 72
     9
 73
     5
 74
     0
 42
0.00000001
 43
0.00000001
 12
1.0
 22
0.0
 32
0.0
 13
1.0
 23
0.0
 33
0.0
 40
0.0
 40
0.0
 40
0.0
 40
0.0
 40
0.5544523341668575
 40
1.0
 40
1.0
 40
1.0
 40
1.0
 10
1221.500584126583
 20
772.9058850487265
 30
0.0
 10
1221.40278402248
 20
773.0912332850443
 30
0.0
 10
1221.226393559178
 20
773.4255239443056
 30
0.0
 10
1220.897631668906
 20
773.6074412179711
 30
0.0
 10
1220.75115257608
 20
773.6884940346274
 30
0.0
  0
SPLINE
  5
26D
330
1F
100
AcDbEntity
  8
0
  6
Continuous
 62
     7
370
    15
100
AcDbSpline
210
0.0
220
0.0
230
1.0
 70
     8
 71
     3
 72
     9
 73
     5
 74
     0
 42
0.00000001
 43
0.00000001
 12
1.0
 22
0.0
 32
0.0
 13
1.0
 23
0.0
 33
0.0
 40
0.0
 40
0.0
 40
0.0
 40
0.0
 40
0.4455436086551078
 40
1.0
 40
1.0
 40
1.0
 40
1.0
 10
823.1925789426479
 20
773.6884940346274
 30
0.0
 10
823.0461017934597
 20
773.6074406271332
 30
0.0
 10
822.7173412718346
 20
773.4255203707994
 30
0.0
 10
822.5409443450395
 20
773.091232882925
 30
0.0
 10
822.4431399415645
 20
772.9058850487265
 30
0.0
  0
ARC
  5
26E
330
1F
100
AcDbEntity
  8
0
  6
Continuous
 62
     7
370
    15
100
AcDbCircle
 10
845.0068779766
 20
727.964699379
 30
0.0
 40
6.209848449137528
100
AcDbArc
 50
246.3776393795
 51
292.576997122
  0
ARC
  5
26F
330
1F
100
AcDbEntity
  8
0
  6
Continuous
 62
     7
370
    15
100
AcDbCircle
 10
1199.0017025983
 20
727.9784668551
 30
0.0
 40
6.222676881499783
100
AcDbArc
 50
246.8928356236
 51
293.0104819134
  0
LINE
  5
270
330
1F
100
AcDbEntity
  8
0
  6
Continuous
 62
     7
370
    15
100
AcDbLine
 10
1221.971866877
 20
736.6058964213
 30
0.0
 11
1221.9511542629
 21
736.6058964213
 31
0.0
  0
LINE
  5
271
330
1F
100
AcDbEntity
  8
0
  6
Continuous
 62
     7
370
    15
100
AcDbLine
 10
1221.971866877
 20
736.6058964213
 30
0.0
 11
1221.971866877
 21
771.5059060534
 31
0.0
  0
LINE
  5
272
330
1F
100
AcDbEntity
  8
0
  6
Continuous
 62
     7
370
    15
100
AcDbLine
 10
821.9718758176
 20
736.6058964213
 30
0.0
 11
821.9925884317
 21
736.6058964213
 31
0.0
  0
LINE
  5
273
330
1F
100
AcDbEntity
  8
0
  6
Continuous
 62
     7
370
    15
100
AcDbLine
 10
821.9718758176
 20
771.5059060534
 30
0.0
 11
821.9718758176
 21
736.6058964213
 31
0.0
  0
LINE
  5
274
330
1F
100
AcDbEntity
  8
0
  6
Continuous
 62
     7
370
    15
100
AcDbLine
 10
1207.8011531542
 20
775.2058941802
 30
0.0
 11
1207.8011531542
 21
774.2058921536
 31
0.0
  0
LINE
  5
275
330
1F
100
AcDbEntity
  8
0
  6
Continuous
 62
     7
370
    15
100
AcDbLine
 10
836.1425820898
 20
774.2058921536
 30
0.0
 11
836.1425820898
 21
775.2058941802
 31
0.0
  0
LINE
  5
276
330
1F
100
AcDbEntity
  8
0
  6
Continuous
 62
     7
370
    15
100
AcDbLine
 10
824.3218783449
 20
594.0558992257
 30
0.0
 11
824.3218783449
 21
473.1558997115
 31
0.0
  0
LINE
  5
277
330
1F
100
AcDbEntity
  8
0
  6
Continuous
 62
     7
370
    15
100
AcDbLine
 10
824.3218783449
 20
473.1558997115
 30
0.0
 11
822.2718659948
 21
473.1558997115
 31
0.0
  0
LINE
  5
278
330
1F
100
AcDbEntity
  8
0
  6
Continuous
 62
     7
370
    15
100
AcDbLine
 10
822.2718659948
 20
594.0558992257
 30
0.0
 11
822.2718659948
 21
473.1558997115
 31
0.0
  0
LINE
  5
279
330
1F
100
AcDbEntity
  8
0
  6
Continuous
 62
     7
370
    15
100
AcDbLine
 10
822.2718659948
 20
594.0558992257
 30
0.0
 11
824.3218783449
 21
594.0558992257
 31
0.0
  0
LINE
  5
27A
330
1F
100
AcDbEntity
  8
0
  6
Continuous
 62
     7
370
    15
100
AcDbLine
 10
1222.2718645047
 20
473.1558997115
 30
0.0
 11
1222.2718645047
 21
594.0558992257
 31
0.0
  0
LINE
  5
27B
330
1F
100
AcDbEntity
  8
0
  6
Continuous
 62
     7
370
    15
100
AcDbLine
 10
1222.2718645047
 20
473.1558997115
 30
0.0
 11
1220.2218633305
 21
473.1558997115
 31
0.0
  0
LINE
  5
27C
330
1F
100
AcDbEntity
  8
0
  6
Continuous
 62
     7
370
    15
100
AcDbLine
 10
1220.2218633305
 20
473.1558997115
 30
0.0
 11
1220.2218633305
 21
594.0558992257
 31
0.0
  0
LINE
  5
27D
330
1F
100
AcDbEntity
  8
0
  6
Continuous
 62
     7
370
    15
100
AcDbLine
 10
1220.2218633305
 20
594.0558992257
 30
0.0
 11
1222.2718645047
 21
594.0558992257
 31
0.0
  0
LINE
  5
27E
330
1F
100
AcDbEntity
  8
0
  6
Continuous
 62
     7
370
    15
100
AcDbLine
 10
824.3218783449
 20
473.1558997115
 30
0.0
 11
1220.2218633305
 21
473.1558997115
 31
0.0
  0
LINE
  5
27F
330
1F
100
AcDbEntity
  8
0
  6
Continuous
 62
     7
370
    15
100
AcDbLine
 10
824.3218783449
 20
594.0558992257
 30
0.0
 11
1220.2218633305
 21
594.0558992257
 31
0.0
  0
LWPOLYLINE
  5
280
330
1F
100
AcDbEntity
  8
0
  6
Continuous
 62
     7
370
    15
100
AcDbPolyline
 90
       10
 70
   128
 43
0.0
 10
824.3925694536
 20
596.1058994686
 10
824.39149657
 20
596.0747551104
 10
824.3883077215
 20
595.9822691908
 10
824.3830923151
 20
595.83125151
 10
824.3760291647
 20
595.6262906944
 10
824.3673268865
 20
595.373614498
 10
824.3572238992
 20
595.0808998128
 10
824.3460480283
 20
594.7570407694
 10
824.3341569017
 20
594.4118786534
 10
824.3218783449
 20
594.0558992257
  0
LINE
  5
281
330
1F
100
AcDbEntity
  8
0
  6
Continuous
 62
     7
370
    15
100
AcDbLine
 10
824.3925694536
 20
596.1058994686
 30
0.0
 11
1220.1511535953
 21
596.1058994686
 31
0.0
  0
LWPOLYLINE
  5
282
330
1F
100
AcDbEntity
  8
0
  6
Continuous
 62
     7
370
    15
100
AcDbPolyline
 90
        9
 70
   128
 43
0.0
 10
1220.2218633305
 20
594.0558992257
 10
1220.2080685805
 20
594.4558342849
 10
1220.194806547
 20
594.8404006591
 10
1220.1825801443
 20
595.1948182588
 10
1220.1718662094
 20
595.5054683541
 10
1220.163070799
 20
595.760412321
 10
1220.1565366398
 20
595.9498526459
 10
1220.1525133263
 20
596.0665091803
 10
1220.1511535953
 20
596.1058994686
  0
LINE
  5
283
330
1F
100
AcDbEntity
  8
0
  6
Continuous
 62
     7
370
    15
100
AcDbLine
 10
1220.2218633305
 20
473.1558997115
 30
0.0
 11
1220.2218633305
 21
471.1059022625
 31
0.0
  0
LINE
  5
284
330
1F
100
AcDbEntity
  8
0
  6
Continuous
 62
     7
370
    15
100
AcDbLine
 10
824.3218783449
 20
471.1059022625
 30
0.0
 11
1220.2218633305
 21
471.1059022625
 31
0.0
  0
LINE
  5
285
330
1F
100
AcDbEntity
  8
0
  6
Continuous
 62
     7
370
    15
100
AcDbLine
 10
824.3218783449
 20
471.1059022625
 30
0.0
 11
824.3218783449
 21
473.1558997115
 31
0.0
  0
SPLINE
  5
286
330
1F
100
AcDbEntity
  8
0
  6
Continuous
 62
     7
370
    15
100
AcDbSpline
210
0.0
220
0.0
230
1.0
 70
     8
 71
     3
 72
    11
 73
     7
 74
     0
 42
0.00000001
 43
0.00000001
 12
1.0
 22
0.0
 32
0.0
 13
1.0
 23
0.0
 33
0.0
 40
0.0
 40
0.0
 40
0.0
 40
0.0
 40
0.2499988594106216
 40
0.4999973778319671
 40
0.7499964614401042
 40
1.0
 40
1.0
 40
1.0
 40
1.0
 10
822.2718659948024
 20
594.0558992256913
 30
0.0
 10
822.3026799886114
 20
594.324525254976
 30
0.0
 10
822.3643079342004
 20
594.8617769471493
 30
0.0
 10
822.8383674531184
 20
595.539395090064
 30
0.0
 10
823.5159894041086
 20
596.0134583628944
 30
0.0
 10
824.0532471023297
 20
596.075085583655
 30
0.0
 10
824.3218783448848
 20
596.1058994685802
 30
0.0
  0
LINE
  5
287
330
1F
100
AcDbEntity
  8
0
  6
Continuous
 62
     7
370
    15
100
AcDbLine
 10
824.3218783449
 20
595.3058998962
 30
0.0
 11
824.3218783449
 21
596.1058994686
 31
0.0
  0
SPLINE
  5
288
330
1F
100
AcDbEntity
  8
0
  6
Continuous
 62
     7
370
    15
100
AcDbSpline
210
0.0
220
0.0
230
1.0
 70
     8
 71
     3
 72
    11
 73
     7
 74
     0
 42
0.00000001
 43
0.00000001
 12
1.0
 22
0.0
 32
0.0
 13
1.0
 23
0.0
 33
0.0
 40
0.0
 40
0.0
 40
0.0
 40
0.0
 40
0.2499960221047151
 40
0.4999934248391679
 40
0.7500003431327047
 40
1.0
 40
1.0
 40
1.0
 40
1.0
 10
823.0718795369777
 20
594.0558992256913
 30
0.0
 10
823.0906605345278
 20
594.2196954177529
 30
0.0
 10
823.1282226333487
 20
594.547288706458
 30
0.0
 10
823.4172871227835
 20
594.9604780691794
 30
0.0
 10
823.8304841826924
 20
595.2495262963498
 30
0.0
 10
824.1580818766842
 20
595.287108878212
 30
0.0
 10
824.3218783448848
 20
595.3058998962435
 30
0.0
  0
SPLINE
  5
289
330
1F
100
AcDbEntity
  8
0
  6
Continuous
 62
     7
370
    15
100
AcDbSpline
210
0.0
220
0.0
230
1.0
 70
     8
 71
     3
 72
    11
 73
     7
 74
     0
 42
0.00000001
 43
0.00000001
 12
1.0
 22
0.0
 32
0.0
 13
1.0
 23
0.0
 33
0.0
 40
0.0
 40
0.0
 40
0.0
 40
0.0
 40
0.2499999526982897
 40
0.500000016075342
 40
0.7500001608213419
 40
1.0
 40
1.0
 40
1.0
 40
1.0
 10
1220.221863330475
 20
596.1058994685802
 30
0.0
 10
1220.490489446446
 20
596.0750848177611
 30
0.0
 10
1221.027741797312
 20
596.0134555024806
 30
0.0
 10
1221.705358903104
 20
595.5393940529435
 30
0.0
 10
1222.179423275951
 20
594.861778179417
 30
0.0
 10
1222.241050774329
 20
594.3245254341552
 30
0.0
 10
1222.271864504686
 20
594.0558992256913
 30
0.0
  0
LINE
  5
28A
330
1F
100
AcDbEntity
  8
0
  6
Continuous
 62
     7
370
    15
100
AcDbLine
 10
1220.2218633305
 20
595.3058998962
 30
0.0
 11
1220.2218633305
 21
596.1058994686
 31
0.0
  0
SPLINE
  5
28B
330
1F
100
AcDbEntity
  8
0
  6
Continuous
 62
     7
370
    15
100
AcDbSpline
210
0.0
220
0.0
230
1.0
 70
     8
 71
     3
 72
    11
 73
     7
 74
     0
 42
0.00000001
 43
0.00000001
 12
1.0
 22
0.0
 32
0.0
 13
1.0
 23
0.0
 33
0.0
 40
0.0
 40
0.0
 40
0.0
 40
0.0
 40
0.2500012124505601
 40
0.5000001725481436
 40
0.7500001903282844
 40
1.0
 40
1.0
 40
1.0
 40
1.0
 10
1220.221863330475
 20
595.3058998962435
 30
0.0
 10
1220.385660640934
 20
595.287110334234
 30
0.0
 10
1220.713253786143
 20
595.2495313794968
 30
0.0
 10
1221.126435042434
 20
594.9604689975827
 30
0.0
 10
1221.41549653982
 20
594.5472882806862
 30
0.0
 10
1221.453076094269
 20
594.2196955319064
 30
0.0
 10
1221.471865863672
 20
594.0558992256913
 30
0.0
  0
SPLINE
  5
28C
330
1F
100
AcDbEntity
  8
0
  6
Continuous
 62
     7
370
    15
100
AcDbSpline
210
0.0
220
0.0
230
1.0
 70
     8
 71
     3
 72
    11
 73
     7
 74
     0
 42
0.00000001
 43
0.00000001
 12
1.0
 22
0.0
 32
0.0
 13
1.0
 23
0.0
 33
0.0
 40
0.0
 40
0.0
 40
0.0
 40
0.0
 40
0.2500033659410254
 40
0.5000024849683068
 40
0.7500011930168671
 40
1.0
 40
1.0
 40
1.0
 40
1.0
 10
824.3218783448848
 20
471.1059022625479
 30
0.0
 10
824.0532470596032
 20
471.1367156211219
 30
0.0
 10
823.5159890523943
 20
471.1983418148301
 30
0.0
 10
822.83836728041
 20
471.6724023263556
 30
0.0
 10
822.3643081129886
 20
472.3500219860908
 30
0.0
 10
822.3026800382626
 20
472.8872737675744
 30
0.0
 10
822.2718659948024
 20
473.1558997114692
 30
0.0
  0
SPLINE
  5
28D
330
1F
100
AcDbEntity
  8
0
  6
Continuous
 62
     7
370
    15
100
AcDbSpline
210
0.0
220
0.0
230
1.0
 70
     8
 71
     3
 72
    11
 73
     7
 74
     0
 42
0.00000001
 43
0.00000001
 12
1.0
 22
0.0
 32
0.0
 13
1.0
 23
0.0
 33
0.0
 40
0.0
 40
0.0
 40
0.0
 40
0.0
 40
0.2499994287564279
 40
0.5000064007206211
 40
0.750002794475844
 40
1.0
 40
1.0
 40
1.0
 40
1.0
 10
824.3218783448848
 20
471.905900903562
 30
0.0
 10
824.1580818065896
 20
471.9246922656031
 30
0.0
 10
823.830483787783
 20
471.9622755566754
 30
0.0
 10
823.4172880983417
 20
472.2513185623611
 30
0.0
 10
823.1282216083723
 20
472.6645087835438
 30
0.0
 10
823.0906602477703
 20
472.9921025582047
 30
0.0
 10
823.0718795369777
 20
473.1558997114692
 30
0.0
  0
SPLINE
  5
28E
330
1F
100
AcDbEntity
  8
0
  6
Continuous
 62
     7
370
    15
100
AcDbSpline
210
0.0
220
0.0
230
1.0
 70
     8
 71
     3
 72
    11
 73
     7
 74
     0
 42
0.00000001
 43
0.00000001
 12
1.0
 22
0.0
 32
0.0
 13
1.0
 23
0.0
 33
0.0
 40
0.0
 40
0.0
 40
0.0
 40
0.0
 40
0.2499997853193608
 40
0.500000117315909
 40
0.7500002146806393
 40
1.0
 40
1.0
 40
1.0
 40
1.0
 10
1222.271864504686
 20
473.1558997114692
 30
0.0
 10
1222.241050724778
 20
472.8872735886572
 30
0.0
 10
1222.179423097582
 20
472.3500207556257
 30
0.0
 10
1221.705359076032
 20
471.672403361959
 30
0.0
 10
1221.027742137212
 20
471.1983446710409
 30
0.0
 10
1220.490489487622
 20
471.1367163858917
 30
0.0
 10
1220.221863330475
 20
471.1059022625479
 30
0.0
  0
SPLINE
  5
28F
330
1F
100
AcDbEntity
  8
0
  6
Continuous
 62
     7
370
    15
100
AcDbSpline
210
0.0
220
0.0
230
1.0
 70
     8
 71
     3
 72
    11
 73
     7
 74
     0
 42
0.00000001
 43
0.00000001
 12
1.0
 22
0.0
 32
0.0
 13
1.0
 23
0.0
 33
0.0
 40
0.0
 40
0.0
 40
0.0
 40
0.0
 40
0.2500009782410169
 40
0.4999999767894209
 40
0.7499990217589831
 40
1.0
 40
1.0
 40
1.0
 40
1.0
 10
1221.471865863672
 20
473.1558997114692
 30
0.0
 10
1221.453076382639
 20
472.992102444499
 30
0.0
 10
1221.415497569363
 20
472.6645092076269
 30
0.0
 10
1221.126434025499
 20
472.2513275983417
 30
0.0
 10
1220.713254225049
 20
471.9622704934935
 30
0.0
 10
1220.385660717551
 20
471.924690815307
 30
0.0
 10
1220.221863330475
 20
471.905900903562
 30
0.0
  0
LINE
  5
290
330
1F
100
AcDbEntity
  8
0
  6
Continuous
 62
     7
370
    15
100
AcDbLine
 10
1220.1787505459
 20
595.3058998962
 30
0.0
 11
1220.2218633305
 21
595.3058998962
 31
0.0
  0
LINE
  5
291
330
1F
100
AcDbEntity
  8
0
  6
Continuous
 62
     7
370
    15
100
AcDbLine
 10
1220.1511535953
 20
596.1058994686
 30
0.0
 11
1220.2218633305
 21
596.1058994686
 31
0.0
  0
LINE
  5
292
330
1F
100
AcDbEntity
  8
0
  6
Continuous
 62
     7
370
    15
100
AcDbLine
 10
824.3218783449
 20
595.3058998962
 30
0.0
 11
824.3649725031
 21
595.3058998962
 31
0.0
  0
LINE
  5
293
330
1F
100
AcDbEntity
  8
0
  6
Continuous
 62
     7
370
    15
100
AcDbLine
 10
824.3218783449
 20
596.1058994686
 30
0.0
 11
824.3925694536
 21
596.1058994686
 31
0.0
  0
LINE
  5
294
330
1F
100
AcDbEntity
  8
0
  6
Continuous
 62
     7
370
    15
100
AcDbLine
 10
1220.2218633305
 20
595.2988283639
 30
0.0
 11
1220.1789926897
 21
595.2988283639
 31
0.0
  0
LINE
  5
295
330
1F
100
AcDbEntity
  8
0
  6
Continuous
 62
     7
370
    15
100
AcDbLine
 10
824.3218783449
 20
595.2988283639
 30
0.0
 11
824.3647340845
 21
595.2988283639
 31
0.0
  0
LWPOLYLINE
  5
296
330
1F
100
AcDbEntity
  8
0
  6
Continuous
 62
     7
370
    15
100
AcDbPolyline
 90
        9
 70
   128
 43
0.0
 10
1009.4925735305
 20
664.6022263845
 10
1009.3950305294
 20
664.5992610534
 10
1009.3012277197
 20
664.5904693683
 10
1009.2147860836
 20
664.5761866053
 10
1009.1390285801
 20
664.556971558
 10
1009.0768460344
 20
664.5335618337
 10
1009.0306375335
 20
664.5068515023
 10
1009.0021763157
 20
664.4778612932
 10
1008.9925799678
 20
664.4477236947
  0
LINE
  5
297
330
1F
100
AcDbEntity
  8
0
  6
Continuous
 62
     7
370
    15
100
AcDbLine
 10
1009.4925735305
 20
664.6022263845
 30
0.0
 11
1009.4925735305
 21
663.9721903881
 31
0.0
  0
ARC
  5
298
330
1F
100
AcDbEntity
  8
0
  6
Continuous
 62
     7
370
    15
100
AcDbCircle
 10
1009.4806441649
 20
664.4602700556
 30
0.0
 40
0.4882254311764637
100
AcDbArc
 50
181.4725424535
 51
271.4001120962
  0
LINE
  5
299
330
1F
100
AcDbEntity
  8
0
  6
Continuous
 62
     7
370
    15
100
AcDbLine
 10
1033.0925706934
 20
664.6022263845
 30
0.0
 11
1033.0925706934
 21
663.9721903881
 31
0.0
  0
LWPOLYLINE
  5
29A
330
1F
100
AcDbEntity
  8
0
  6
Continuous
 62
     7
370
    15
100
AcDbPolyline
 90
        9
 70
   128
 43
0.0
 10
1033.0925706934
 20
664.6022263845
 10
1033.1901136945
 20
664.5992610534
 10
1033.2839165043
 20
664.5904693683
 10
1033.3703581403
 20
664.5761866053
 10
1033.446130545
 20
664.556971558
 10
1033.5083130907
 20
664.5335618337
 10
1033.5545215915
 20
664.5068515023
 10
1033.5829679083
 20
664.4778612932
 10
1033.5925791572
 20
664.4477236947
  0
ARC
  5
29B
330
1F
100
AcDbEntity
  8
0
  6
Continuous
 62
     7
370
    15
100
AcDbCircle
 10
1033.1045083425
 20
664.4602766398
 30
0.0
 40
0.4882322158366805
100
AcDbArc
 50
268.598934969
 51
358.5267050845
  0
LINE
  5
29C
330
1F
100
AcDbEntity
  8
0
  6
Continuous
 62
     7
370
    15
100
AcDbLine
 10
1033.0925706934
 20
664.6022263845
 30
0.0
 11
1009.4925735305
 21
664.6022263845
 31
0.0
  0
LINE
  5
29D
330
1F
100
AcDbEntity
  8
0
  6
Continuous
 62
     7
370
    15
100
AcDbLine
 10
1033.0925706934
 20
663.9721903881
 30
0.0
 11
1009.4925735305
 21
663.9721903881
 31
0.0
  0
LINE
  5
29E
330
1F
100
AcDbEntity
  8
0
  6
Continuous
 62
     7
370
    15
100
AcDbLine
 10
1030.5925730776
 20
689.234590896
 30
0.0
 11
1030.5925730776
 21
666.9798705658
 31
0.0
  0
LINE
  5
29F
330
1F
100
AcDbEntity
  8
0
  6
Continuous
 62
     7
370
    15
100
AcDbLine
 10
1011.9925711464
 20
689.234590896
 30
0.0
 11
1030.5925730776
 21
689.234590896
 31
0.0
  0
LINE
  5
2A0
330
1F
100
AcDbEntity
  8
0
  6
Continuous
 62
     7
370
    15
100
AcDbLine
 10
1011.9925711464
 20
666.9798705658
 30
0.0
 11
1011.9925711464
 21
689.234590896
 31
0.0
  0
LINE
  5
2A1
330
1F
100
AcDbEntity
  8
0
  6
Continuous
 62
     7
370
    15
100
AcDbLine
 10
1030.5925730776
 20
666.9798705658
 30
0.0
 11
1011.9925711464
 21
666.9798705658
 31
0.0
  0
LINE
  5
2A2
330
1F
100
AcDbEntity
  8
0
  6
Continuous
 62
     7
370
    15
100
AcDbLine
 10
1009.4925735305
 20
691.6122350772
 30
0.0
 11
1033.0925706934
 21
691.6122350772
 31
0.0
  0
LINE
  5
2A3
330
1F
100
AcDbEntity
  8
0
  6
Continuous
 62
     7
370
    15
100
AcDbLine
 10
1033.0925706934
 20
691.6122350772
 30
0.0
 11
1033.0925706934
 21
664.6022263845
 31
0.0
  0
LINE
  5
2A4
330
1F
100
AcDbEntity
  8
0
  6
Continuous
 62
     7
370
    15
100
AcDbLine
 10
1009.4925735305
 20
664.6022263845
 30
0.0
 11
1009.4925735305
 21
691.6122350772
 31
0.0
  0
LINE
  5
2A5
330
1F
100
AcDbEntity
  8
0
  6
Continuous
 62
     7
370
    15
100
AcDbLine
 10
1008.9925799678
 20
664.4477236947
 30
0.0
 11
1008.9925799678
 21
691.4577249368
 31
0.0
  0
LWPOLYLINE
  5
2A6
330
1F
100
AcDbEntity
  8
0
  6
Continuous
 62
     7
370
    15
100
AcDbPolyline
 90
        9
 70
   128
 43
0.0
 10
1008.9925799678
 20
691.4577249368
 10
1009.0021763157
 20
691.4878699859
 10
1009.0306375335
 20
691.5168527444
 10
1009.0768460344
 20
691.5435630759
 10
1009.1390285801
 20
691.5669802507
 10
1009.2147860836
 20
691.5861952981
 10
1009.3012277197
 20
691.6004706105
 10
1009.3950305294
 20
691.6092622956
 10
1009.4925735305
 20
691.6122350772
  0
LWPOLYLINE
  5
2A7
330
1F
100
AcDbEntity
  8
0
  6
Continuous
 62
     7
370
    15
100
AcDbPolyline
 90
        9
 70
   128
 43
0.0
 10
1033.0925706934
 20
691.6122350772
 10
1033.1901136945
 20
691.6092622956
 10
1033.2839165043
 20
691.6004706105
 10
1033.3703581403
 20
691.5861952981
 10
1033.446130545
 20
691.5669802507
 10
1033.5083130907
 20
691.5435630759
 10
1033.5545215915
 20
691.5168527444
 10
1033.5829679083
 20
691.4878699859
 10
1033.5925791572
 20
691.4577249368
  0
LINE
  5
2A8
330
1F
100
AcDbEntity
  8
0
  6
Continuous
 62
     7
370
    15
100
AcDbLine
 10
1033.5925791572
 20
691.4577249368
 30
0.0
 11
1033.5925791572
 21
664.4477236947
 31
0.0
  0
LINE
  5
2A9
330
1F
100
AcDbEntity
  8
0
  6
Continuous
 62
     7
370
    15
100
AcDbLine
 10
1033.0925706934
 20
663.9721903881
 30
0.0
 11
1033.0925706934
 21
663.5859224876
 31
0.0
  0
LINE
  5
2AA
330
1F
100
AcDbEntity
  8
0
  6
Continuous
 62
     7
370
    15
100
AcDbLine
 10
1033.5925791572
 20
664.4477236947
 30
0.0
 11
1033.5925791572
 21
664.0614483436
 31
0.0
  0
ARC
  5
2AB
330
1F
100
AcDbEntity
  8
0
  6
Continuous
 62
     7
370
    15
100
AcDbCircle
 10
1033.1045198313
 20
664.0739968558
 30
0.0
 40
0.4882206169486611
100
AcDbArc
 50
268.5975529979
 51
358.5271904771
  0
LINE
  5
2AC
330
1F
100
AcDbEntity
  8
0
  6
Continuous
 62
     7
370
    15
100
AcDbLine
 10
1009.4925735305
 20
663.9721903881
 30
0.0
 11
1009.4925735305
 21
663.5859224876
 31
0.0
  0
LINE
  5
2AD
330
1F
100
AcDbEntity
  8
0
  6
Continuous
 62
     7
370
    15
100
AcDbLine
 10
1009.4925735305
 20
663.5859224876
 30
0.0
 11
1033.0925706934
 21
663.5859224876
 31
0.0
  0
LINE
  5
2AE
330
1F
100
AcDbEntity
  8
0
  6
Continuous
 62
     7
370
    15
100
AcDbLine
 10
1008.9925799678
 20
664.4477236947
 30
0.0
 11
1008.9925799678
 21
664.0614483436
 31
0.0
  0
ARC
  5
2AF
330
1F
100
AcDbEntity
  8
0
  6
Continuous
 62
     7
370
    15
100
AcDbCircle
 10
1009.4806326763
 20
664.0739902721
 30
0.0
 40
0.4882138324895502
100
AcDbArc
 50
181.4720570829
 51
271.4014940466
  0
LINE
  5
2B0
330
1F
100
AcDbEntity
  8
0
  6
Continuous
 62
     7
370
    15
100
AcDbLine
 10
1011.9925711464
 20
688.6938128551
 30
0.0
 11
1012.5557605337
 21
688.6938128551
 31
0.0
  0
LINE
  5
2B1
330
1F
100
AcDbEntity
  8
0
  6
Continuous
 62
     7
370
    15
100
AcDbLine
 10
1029.8988942217
 20
688.6938128551
 30
0.0
 11
1030.5925730776
 21
688.6938128551
 31
0.0
  0
LINE
  5
2B2
330
1F
100
AcDbEntity
  8
0
  6
Continuous
 62
     7
370
    15
100
AcDbLine
 10
1012.6925829958
 20
673.8175216993
 30
0.0
 11
1012.6925829958
 21
667.2716353019
 31
0.0
  0
SPLINE
  5
2B3
330
1F
100
AcDbEntity
  8
0
  6
Continuous
 62
     7
370
    15
100
AcDbSpline
210
0.0
220
0.0
230
1.0
 70
     8
 71
     3
 72
    12
 73
     8
 74
     0
 42
0.00000001
 43
0.00000001
 12
1.0
 22
0.0
 32
0.0
 13
1.0
 23
0.0
 33
0.0
 40
0.0
 40
0.0
 40
0.0
 40
0.0
 40
0.2967632051019767
 40
0.568732993676348
 40
0.7601596903694631
 40
0.9523855064964675
 40
1.0
 40
1.0
 40
1.0
 40
1.0
 10
1012.192574531904
 20
667.8366351803336
 30
0.0
 10
1012.201217201673
 20
667.7555773983921
 30
0.0
 10
1012.217780479621
 20
667.6002338982827
 30
0.0
 10
1012.338597862921
 20
667.4191639360832
 30
0.0
 10
1012.48916067461
 20
667.3096651432605
 30
0.0
 10
1012.610521848657
 20
667.2739629147986
 30
0.0
 10
1012.678990250354
 20
667.272020851609
 30
0.0
 10
1012.692582995764
 20
667.2716353019271
 30
0.0
  0
SPLINE
  5
2B4
330
1F
100
AcDbEntity
  8
0
  6
Continuous
 62
     7
370
    15
100
AcDbSpline
210
0.0
220
0.0
230
1.0
 70
    24
 71
     3
 72
     9
 73
     5
 74
     0
 42
0.00000001
 43
0.00000001
 12
1.0
 22
0.0
 32
0.0
 13
1.0
 23
0.0
 33
0.0
 40
0.0
 40
0.0
 40
0.0
 40
0.0
 40
0.5000005840441915
 40
1.0
 40
1.0
 40
1.0
 40
1.0
 10
1012.192574531904
 20
667.8366351803336
 30
0.0
 10
1012.192574531904
 20
668.766141638877
 30
0.0
 10
1012.192574531904
 20
670.6251523844749
 30
0.0
 10
1012.192574531904
 20
672.8218901535795
 30
0.0
 10
1012.192574531904
 20
673.9202577551398
 30
0.0
  0
ARC
  5
2B5
330
1F
100
AcDbEntity
  8
0
  6
Continuous
 62
     7
370
    15
100
AcDbCircle
 10
1012.5728470887
 20
674.502895622
 30
0.0
 40
0.6957543397749164
100
AcDbArc
 50
236.8685621157
 51
279.9096545221
  0
SPLINE
  5
2B6
330
1F
100
AcDbEntity
  8
0
  6
Continuous
 62
     7
370
    15
100
AcDbSpline
210
0.0
220
0.0
230
1.0
 70
    24
 71
     3
 72
     9
 73
     5
 74
     0
 42
0.00000001
 43
0.00000001
 12
1.0
 22
0.0
 32
0.0
 13
1.0
 23
0.0
 33
0.0
 40
0.0
 40
0.0
 40
0.0
 40
0.0
 40
0.4999994159558085
 40
1.0
 40
1.0
 40
1.0
 40
1.0
 10
1030.392569692007
 20
673.9202577551398
 30
0.0
 10
1030.392569692007
 20
672.8218901535795
 30
0.0
 10
1030.392569692007
 20
670.6251523844749
 30
0.0
 10
1030.392569692007
 20
668.766141638877
 30
0.0
 10
1030.392569692007
 20
667.8366351803336
 30
0.0
  0
SPLINE
  5
2B7
330
1F
100
AcDbEntity
  8
0
  6
Continuous
 62
     7
370
    15
100
AcDbSpline
210
0.0
220
0.0
230
1.0
 70
     8
 71
     3
 72
    12
 73
     8
 74
     0
 42
0.00000001
 43
0.00000001
 12
1.0
 22
0.0
 32
0.0
 13
1.0
 23
0.0
 33
0.0
 40
0.0
 40
0.0
 40
0.0
 40
0.0
 40
0.173793995106783
 40
0.347200066218516
 40
0.5304837483759446
 40
0.7404238869727638
 40
0.9999999999999999
 40
0.9999999999999999
 40
0.9999999999999999
 40
0.9999999999999999
 10
1029.892576129309
 20
667.2716353019271
 30
0.0
 10
1029.942495596997
 20
667.2765841227445
 30
0.0
 10
1030.042223107585
 20
667.2864707181614
 30
0.0
 10
1030.176502896528
 20
667.3618816095185
 30
0.0
 10
1030.287560369511
 20
667.475673369469
 30
0.0
 10
1030.374022388601
 20
667.6374549753689
 30
0.0
 10
1030.385966362774
 20
667.7657217736056
 30
0.0
 10
1030.392569692007
 20
667.8366351803336
 30
0.0
  0
LINE
  5
2B8
330
1F
100
AcDbEntity
  8
0
  6
Continuous
 62
     7
370
    15
100
AcDbLine
 10
1029.8925761293
 20
667.2716353019
 30
0.0
 11
1029.8925761293
 21
673.8175216993
 31
0.0
  0
ARC
  5
2B9
330
1F
100
AcDbEntity
  8
0
  6
Continuous
 62
     7
370
    15
100
AcDbCircle
 10
1030.0123131259
 20
674.5028351645
 30
0.0
 40
0.695694971928387
100
AcDbArc
 50
260.0894001997
 51
303.1330564415
  0
LINE
  5
2BA
330
1F
100
AcDbEntity
  8
0
  6
Continuous
 62
     7
370
    15
100
AcDbLine
 10
1029.8925761293
 20
673.8175216993
 30
0.0
 11
1012.6925829958
 21
673.8175216993
 31
0.0
  0
LINE
  5
2BB
330
1F
100
AcDbEntity
  8
0
  6
Continuous
 62
     7
370
    15
100
AcDbLine
 10
1029.8925761293
 20
667.2716353019
 30
0.0
 11
1012.6925829958
 21
667.2716353019
 31
0.0
  0
LINE
  5
2BC
330
1F
100
AcDbEntity
  8
0
  6
Continuous
 62
     7
370
    15
100
AcDbLine
 10
1029.8925761293
 20
674.2510858854
 30
0.0
 11
1029.8925761293
 21
673.8175216993
 31
0.0
  0
LWPOLYLINE
  5
2BD
330
1F
100
AcDbEntity
  8
0
  6
Continuous
 62
     7
370
    15
100
AcDbPolyline
 90
        9
 70
   128
 43
0.0
 10
1029.8925761293
 20
674.2510858854
 10
1029.9901191305
 20
674.2447305401
 10
1030.0839219402
 20
674.225902923
 10
1030.1703635763
 20
674.1953331908
 10
1030.246135981
 20
674.1541910847
 10
1030.3083036255
 20
674.1040561279
 10
1030.3545121263
 20
674.0468580206
 10
1030.3829733442
 20
673.9847946843
 10
1030.392569692
 20
673.9202577551
  0
LWPOLYLINE
  5
2BE
330
1F
100
AcDbEntity
  8
0
  6
Continuous
 62
     7
370
    15
100
AcDbPolyline
 90
        9
 70
   128
 43
0.0
 10
1012.1925745319
 20
673.9202577551
 10
1012.2021857809
 20
673.9847946843
 10
1012.2306320976
 20
674.0468580206
 10
1012.2768405985
 20
674.1040561279
 10
1012.3390231441
 20
674.1541910847
 10
1012.4147955488
 20
674.1953331908
 10
1012.5012371849
 20
674.225902923
 10
1012.5950250934
 20
674.2447305401
 10
1012.6925829958
 20
674.2510858854
  0
LINE
  5
2BF
330
1F
100
AcDbEntity
  8
0
  6
Continuous
 62
     7
370
    15
100
AcDbLine
 10
1012.6925829958
 20
674.2510858854
 30
0.0
 11
1012.6925829958
 21
673.8175216993
 31
0.0
  0
LINE
  5
2C0
330
1F
100
AcDbEntity
  8
0
  6
Continuous
 62
     7
370
    15
100
AcDbLine
 10
1012.6925829958
 20
674.2510858854
 30
0.0
 11
1029.8925761293
 21
674.2510858854
 31
0.0
  0
SPLINE
  5
2C1
330
1F
100
AcDbEntity
  8
0
  6
Continuous
 62
     7
370
    15
100
AcDbSpline
210
0.0
220
0.0
230
1.0
 70
     8
 71
     3
 72
    17
 73
    13
 74
     0
 42
0.00000001
 43
0.00000001
 12
1.0
 22
0.0
 32
0.0
 13
1.0
 23
0.0
 33
0.0
 40
0.0
 40
0.0
 40
0.0
 40
0.0
 40
0.3618716699030387
 40
0.5641149889344104
 40
0.7019730884547498
 40
0.7961513880690411
 40
0.8607963487436667
 40
0.9055272300747168
 40
0.9500539459096101
 40
0.9689908302781468
 40
0.9881251244392887
 40
1.0
 40
1.0
 40
1.0
 40
1.0
 10
1012.192574531904
 20
686.2836543401274
 30
0.0
 10
1012.200052527139
 20
686.6010590398014
 30
0.0
 10
1012.211709834274
 20
687.0958552991833
 30
0.0
 10
1012.283554965562
 20
687.7080770817195
 30
0.0
 10
1012.348835989005
 20
688.0839383927502
 30
0.0
 10
1012.409833159404
 20
688.3376607734253
 30
0.0
 10
1012.464204838735
 20
688.5087802578112
 30
0.0
 10
1012.516612001137
 20
688.634069884683
 30
0.0
 10
1012.564425966979
 20
688.7185625120284
 30
0.0
 10
1012.614226911436
 20
688.7731368421395
 30
0.0
 10
1012.65290411128
 20
688.8002042808247
 30
0.0
 10
1012.681595650411
 20
688.8035142565057
 30
0.0
 10
1012.692582995764
 20
688.8047818025145
 30
0.0
  0
LINE
  5
2C2
330
1F
100
AcDbEntity
  8
0
  6
Continuous
 62
     7
370
    15
100
AcDbLine
 10
1012.6925829958
 20
688.8047818025
 30
0.0
 11
1012.6925829958
 21
674.2510858854
 31
0.0
  0
SPLINE
  5
2C3
330
1F
100
AcDbEntity
  8
0
  6
Continuous
 62
     7
370
    15
100
AcDbSpline
210
0.0
220
0.0
230
1.0
 70
    24
 71
     3
 72
     9
 73
     5
 74
     0
 42
0.00000001
 43
0.00000001
 12
1.0
 22
0.0
 32
0.0
 13
1.0
 23
0.0
 33
0.0
 40
0.0
 40
0.0
 40
0.0
 40
0.0
 40
0.4999991542496576
 40
1.0
 40
1.0
 40
1.0
 40
1.0
 10
1012.192574531904
 20
686.2836543401274
 30
0.0
 10
1012.192574531904
 20
684.1111472406078
 30
0.0
 10
1012.192574531904
 20
679.7661256919614
 30
0.0
 10
1012.192574531904
 20
675.8688825981435
 30
0.0
 10
1012.192574531904
 20
673.9202577551398
 30
0.0
  0
LINE
  5
2C4
330
1F
100
AcDbEntity
  8
0
  6
Continuous
 62
     7
370
    15
100
AcDbLine
 10
1029.8925761293
 20
688.8047818025
 30
0.0
 11
1029.8925761293
 21
674.2510858854
 31
0.0
  0
SPLINE
  5
2C5
330
1F
100
AcDbEntity
  8
0
  6
Continuous
 62
     7
370
    15
100
AcDbSpline
210
0.0
220
0.0
230
1.0
 70
     8
 71
     3
 72
    13
 73
     9
 74
     0
 42
0.00000001
 43
0.00000001
 12
1.0
 22
0.0
 32
0.0
 13
1.0
 23
0.0
 33
0.0
 40
0.0
 40
0.0
 40
0.0
 40
0.0
 40
0.0115079631664693
 40
0.0265087510434015
 40
0.05387081659838
 40
0.145334202243483
 40
0.5761105138759745
 40
1.0
 40
1.0
 40
1.0
 40
1.0
 10
1029.892576129309
 20
688.8047818025145
 30
0.0
 10
1029.903212558433
 20
688.8036156529198
 30
0.0
 10
1029.927713718853
 20
688.8009294113289
 30
0.0
 10
1029.970692470763
 20
688.7746263533118
 30
0.0
 10
1030.050627945639
 20
688.6841909092167
 30
0.0
 10
1030.236972235822
 20
688.2285900115936
 30
0.0
 10
1030.355787746279
 20
687.4027236642916
 30
0.0
 10
1030.380375084335
 20
686.6546681920412
 30
0.0
 10
1030.392569692007
 20
686.2836543401274
 30
0.0
  0
SPLINE
  5
2C6
330
1F
100
AcDbEntity
  8
0
  6
Continuous
 62
     7
370
    15
100
AcDbSpline
210
0.0
220
0.0
230
1.0
 70
    24
 71
     3
 72
     9
 73
     5
 74
     0
 42
0.00000001
 43
0.00000001
 12
1.0
 22
0.0
 32
0.0
 13
1.0
 23
0.0
 33
0.0
 40
0.0
 40
0.0
 40
0.0
 40
0.0
 40
0.4999991542496576
 40
1.0
 40
1.0
 40
1.0
 40
1.0
 10
1030.392569692007
 20
686.2836543401274
 30
0.0
 10
1030.392569692007
 20
684.1111472406078
 30
0.0
 10
1030.392569692007
 20
679.7661256919614
 30
0.0
 10
1030.392569692007
 20
675.8688825981435
 30
0.0
 10
1030.392569692007
 20
673.9202577551398
 30
0.0
  0
LINE
  5
2C7
330
1F
100
AcDbEntity
  8
0
  6
Continuous
 62
     7
370
    15
100
AcDbLine
 10
1012.6925829958
 20
688.8047818025
 30
0.0
 11
1029.8925761293
 21
688.8047818025
 31
0.0
  0
LWPOLYLINE
  5
2C8
330
1F
100
AcDbEntity
  8
0
  6
Continuous
 62
     7
370
    15
100
AcDbPolyline
 90
       28
 70
   128
 43
0.0
 10
978.6425803016
 20
677.9347199877
 10
978.4633193325
 20
679.393253096
 10
977.9352370809
 20
680.7731602272
 10
977.0867649625
 20
682.0000473341
 10
975.9636793445
 20
683.0077681621
 10
974.6265087436
 20
683.7420005282
 10
973.1473300766
 20
684.1631594976
 10
971.6059092592
 20
684.2485431512
 10
970.0853351663
 20
683.9935470303
 10
968.6675790857
 20
683.411917456
 10
967.4290690731
 20
682.5350139221
 10
966.4365772318
 20
681.4101029118
 10
965.7436136316
 20
680.0978321513
 10
965.3875354837
 20
678.6689523538
 10
965.3875354837
 20
677.2004876216
 10
965.7436136316
 20
675.7716003736
 10
966.4365772318
 20
674.4593370636
 10
967.4290690731
 20
673.3344260534
 10
968.6675790857
 20
672.4575150689
 10
970.0853351663
 20
671.8758929451
 10
971.6059092592
 20
671.6208893736
 10
973.1473300766
 20
671.7062730273
 10
974.6265087436
 20
672.1274394473
 10
975.9636793445
 20
672.8616718133
 10
977.0867649625
 20
673.8693926414
 10
977.9352370809
 20
675.0962797483
 10
978.4633193325
 20
676.4761794289
 10
978.6425803016
 20
677.9347199877
  0
LWPOLYLINE
  5
2C9
330
1F
100
AcDbEntity
  8
0
  6
Continuous
 62
     7
370
    15
100
AcDbPolyline
 90
       30
 70
   128
 43
0.0
 10
979.7925774168
 20
676.8531564554
 10
979.6102170061
 20
678.4478638252
 10
979.0716592382
 20
679.9679983338
 10
978.2021019767
 20
681.3424888929
 10
977.0421955894
 20
682.5070593437
 10
975.6461654018
 20
683.4072608431
 10
974.0792934011
 20
684.0010050615
 10
972.4148634981
 20
684.2605236848
 10
970.7306746553
 20
684.1736722668
 10
969.1054944109
 20
683.7445337256
 10
967.6153186868
 20
682.9931575736
 10
966.3298104118
 20
681.9546807488
 10
965.3090957712
 20
680.6776586851
 10
964.6008882831
 20
679.2218152364
 10
964.2382983278
 20
677.6552114566
 10
964.2382983278
 20
676.0511089047
 10
964.6008882831
 20
674.4845051249
 10
965.3090957712
 20
673.0286542257
 10
966.3298104118
 20
671.7516396125
 10
967.6153186868
 20
670.7131627878
 10
969.1054944109
 20
669.9617866357
 10
970.7306746553
 20
669.5326406439
 10
972.4148634981
 20
669.4457966765
 10
974.0792934011
 20
669.7053152998
 10
975.6461654018
 20
670.2990520676
 10
977.0421955894
 20
671.1992610177
 10
978.2021019767
 20
672.3638314684
 10
979.0716592382
 20
673.7383220275
 10
979.6102170061
 20
675.2584565362
 10
979.7925774168
 20
676.8531564554
  0
LWPOLYLINE
  5
2CA
330
1F
100
AcDbEntity
  8
0
  6
Continuous
 62
     7
370
    15
100
AcDbPolyline
 90
       28
 70
   128
 43
0.0
 10
1078.6425743412
 20
677.9347199877
 10
1078.4633208226
 20
679.393253096
 10
1077.9352311205
 20
680.7731602272
 10
1077.0867739032
 20
682.0000473341
 10
1075.9636808346
 20
683.0077681621
 10
1074.6265027832
 20
683.7420005282
 10
1073.1473390173
 20
684.1631594976
 10
1071.6059107493
 20
684.2485431512
 10
1070.0853366564
 20
683.9935470303
 10
1068.6675731252
 20
683.411917456
 10
1067.4290705632
 20
682.5350139221
 10
1066.4365787219
 20
681.4101029118
 10
1065.7436225723
 20
680.0978321513
 10
1065.3875369738
 20
678.6689523538
 10
1065.3875369738
 20
677.2004876216
 10
1065.7436225723
 20
675.7716003736
 10
1066.4365787219
 20
674.4593370636
 10
1067.4290705632
 20
673.3344260534
 10
1068.6675731252
 20
672.4575150689
 10
1070.0853366564
 20
671.8758929451
 10
1071.6059107493
 20
671.6208893736
 10
1073.1473390173
 20
671.7062730273
 10
1074.6265027832
 20
672.1274394473
 10
1075.9636808346
 20
672.8616718133
 10
1077.0867739032
 20
673.8693926414
 10
1077.9352311205
 20
675.0962797483
 10
1078.4633208226
 20
676.4761794289
 10
1078.6425743412
 20
677.9347199877
  0
LWPOLYLINE
  5
2CB
330
1F
100
AcDbEntity
  8
0
  6
Continuous
 62
     7
370
    15
100
AcDbPolyline
 90
       30
 70
   128
 43
0.0
 10
1079.7925789069
 20
676.8531564554
 10
1079.6102184962
 20
678.4478638252
 10
1079.0716607283
 20
679.9679983338
 10
1078.2021034669
 20
681.3424888929
 10
1077.042189629
 20
682.5070593437
 10
1075.6461594413
 20
683.4072608431
 10
1074.0792948912
 20
684.0010050615
 10
1072.4148575376
 20
684.2605236848
 10
1070.7306761454
 20
684.1736722668
 10
1069.105495901
 20
683.7445337256
 10
1067.615320177
 20
682.9931575736
 10
1066.3298119019
 20
681.9546807488
 10
1065.3090898107
 20
680.6776586851
 10
1064.6008823227
 20
679.2218152364
 10
1064.2382998179
 20
677.6552114566
 10
1064.2382998179
 20
676.0511089047
 10
1064.6008823227
 20
674.4845051249
 10
1065.3090898107
 20
673.0286542257
 10
1066.3298119019
 20
671.7516396125
 10
1067.615320177
 20
670.7131627878
 10
1069.105495901
 20
669.9617866357
 10
1070.7306761454
 20
669.5326406439
 10
1072.4148575376
 20
669.4457966765
 10
1074.0792948912
 20
669.7053152998
 10
1075.6461594413
 20
670.2990520676
 10
1077.042189629
 20
671.1992610177
 10
1078.2021034669
 20
672.3638314684
 10
1079.0716607283
 20
673.7383220275
 10
1079.6102184962
 20
675.2584565362
 10
1079.7925789069
 20
676.8531564554
  0
LINE
  5
2CC
330
1F
100
AcDbEntity
  8
0
  6
Continuous
 62
     7
370
    15
100
AcDbLine
 10
1221.9925757657
 20
629.2290043016
 30
0.0
 11
821.9925884317
 21
629.2290043016
 31
0.0
  0
LINE
  5
2CD
330
1F
100
AcDbEntity
  8
0
  6
Continuous
 62
     7
370
    15
100
AcDbLine
 10
1221.9925757657
 20
612.1382180532
 30
0.0
 11
1221.9925757657
 21
629.2290043016
 31
0.0
  0
LINE
  5
2CE
330
1F
100
AcDbEntity
  8
0
  6
Continuous
 62
     7
370
    15
100
AcDbLine
 10
1221.9925757657
 20
612.1382180532
 30
0.0
 11
821.9925884317
 21
612.1382180532
 31
0.0
  0
LINE
  5
2CF
330
1F
100
AcDbEntity
  8
0
  6
Continuous
 62
     7
370
    15
100
AcDbLine
 10
821.9925884317
 20
612.1382180532
 30
0.0
 11
821.9925884317
 21
629.2290043016
 31
0.0
  0
LINE
  5
2D0
330
1F
100
AcDbEntity
  8
0
  6
Continuous
 62
     7
370
    15
100
AcDbLine
 10
1221.9925757657
 20
597.3381845211
 30
0.0
 11
821.9925884317
 21
597.3381845211
 31
0.0
  0
LINE
  5
2D1
330
1F
100
AcDbEntity
  8
0
  6
Continuous
 62
     7
370
    15
100
AcDbLine
 10
821.9925884317
 20
597.3381845211
 30
0.0
 11
821.9925884317
 21
612.1382180532
 31
0.0
  0
LINE
  5
2D2
330
1F
100
AcDbEntity
  8
0
  6
Continuous
 62
     7
370
    15
100
AcDbLine
 10
1221.9925757657
 20
597.3381845211
 30
0.0
 11
1221.9925757657
 21
612.1382180532
 31
0.0
  0
LINE
  5
2D3
330
1F
100
AcDbEntity
  8
0
  6
Continuous
 62
     7
370
    15
100
AcDbLine
 10
1221.9925757657
 20
636.3083671709
 30
0.0
 11
821.9925884317
 21
636.3083671709
 31
0.0
  0
LINE
  5
2D4
330
1F
100
AcDbEntity
  8
0
  6
Continuous
 62
     7
370
    15
100
AcDbLine
 10
1221.9925757657
 20
629.2290043016
 30
0.0
 11
1221.9925757657
 21
636.3083671709
 31
0.0
  0
LINE
  5
2D5
330
1F
100
AcDbEntity
  8
0
  6
Continuous
 62
     7
370
    15
100
AcDbLine
 10
821.9925884317
 20
629.2290043016
 30
0.0
 11
821.9925884317
 21
636.3083671709
 31
0.0
  0
LINE
  5
2D6
330
1F
100
AcDbEntity
  8
0
  6
Continuous
 62
     7
370
    15
100
AcDbLine
 10
1221.9925757657
 20
596.6058995505
 30
0.0
 11
821.9925884317
 21
596.6058995505
 31
0.0
  0
LINE
  5
2D7
330
1F
100
AcDbEntity
  8
0
  6
Continuous
 62
     7
370
    15
100
AcDbLine
 10
1221.9925757657
 20
596.6058995505
 30
0.0
 11
1221.9925757657
 21
597.3381845211
 31
0.0
  0
LINE
  5
2D8
330
1F
100
AcDbEntity
  8
0
  6
Continuous
 62
     7
370
    15
100
AcDbLine
 10
821.9925884317
 20
596.6058995505
 30
0.0
 11
821.9925884317
 21
597.3381845211
 31
0.0
  0
LINE
  5
2D9
330
1F
100
AcDbEntity
  8
0
  6
Continuous
 62
     7
370
    15
100
AcDbLine
 10
1221.9925757657
 20
642.6151234587
 30
0.0
 11
821.9925884317
 21
642.6151234587
 31
0.0
  0
LINE
  5
2DA
330
1F
100
AcDbEntity
  8
0
  6
Continuous
 62
     7
370
    15
100
AcDbLine
 10
821.9925884317
 20
636.3083671709
 30
0.0
 11
821.9925884317
 21
642.6151234587
 31
0.0
  0
LINE
  5
2DB
330
1F
100
AcDbEntity
  8
0
  6
Continuous
 62
     7
370
    15
100
AcDbLine
 10
1221.9925757657
 20
636.3083671709
 30
0.0
 11
1221.9925757657
 21
642.6151234587
 31
0.0
  0
SPLINE
  5
2DC
330
1F
100
AcDbEntity
  8
0
  6
Continuous
 62
     7
370
    15
100
AcDbSpline
210
0.0
220
0.0
230
1.0
 70
     8
 71
     3
 72
    11
 73
     7
 74
     0
 42
0.00000001
 43
0.00000001
 12
1.0
 22
0.0
 32
0.0
 13
1.0
 23
0.0
 33
0.0
 40
0.0
 40
0.0
 40
0.0
 40
0.0
 40
0.279629613936759
 40
0.5593435875687404
 40
0.77959798845595
 40
1.0
 40
1.0
 40
1.0
 40
1.0
 10
1026.888725550047
 20
700.6450880249533
 30
0.0
 10
1026.804966925676
 20
699.9422123743536
 30
0.0
 10
1026.637424408323
 20
698.5362490270305
 30
0.0
 10
1025.280792717993
 20
696.9778274326549
 30
0.0
 10
1023.638726007893
 20
696.020897618872
 30
0.0
 10
1022.47788407772
 20
695.926828797683
 30
0.0
 10
1021.897268683782
 20
695.8797786315474
 30
0.0
  0
SPLINE
  5
2DD
330
1F
100
AcDbEntity
  8
0
  6
Continuous
 62
     7
370
    15
100
AcDbSpline
210
0.0
220
0.0
230
1.0
 70
     8
 71
     3
 72
    11
 73
     7
 74
     0
 42
0.00000001
 43
0.00000001
 12
1.0
 22
0.0
 32
0.0
 13
1.0
 23
0.0
 33
0.0
 40
0.0
 40
0.0
 40
0.0
 40
0.0
 40
0.2797665153416558
 40
0.5593587106790945
 40
0.7795720338843624
 40
1.0
 40
1.0
 40
1.0
 40
1.0
 10
1021.820944936148
 20
705.4031405528578
 30
0.0
 10
1022.567324871182
 20
705.3286640022346
 30
0.0
 10
1024.059619678614
 20
705.1797573066583
 30
0.0
 10
1025.72871080998
 20
703.894157553947
 30
0.0
 10
1026.741742675215
 20
702.3160117594597
 30
0.0
 10
1026.839715350455
 20
701.2022434474792
 30
0.0
 10
1026.888725550047
 20
700.6450880249533
 30
0.0
  0
SPLINE
  5
2DE
330
1F
100
AcDbEntity
  8
0
  6
Continuous
 62
     7
370
    15
100
AcDbSpline
210
0.0
220
0.0
230
1.0
 70
     8
 71
     3
 72
    11
 73
     7
 74
     0
 42
0.00000001
 43
0.00000001
 12
1.0
 22
0.0
 32
0.0
 13
1.0
 23
0.0
 33
0.0
 40
0.0
 40
0.0
 40
0.0
 40
0.0
 40
0.2797311170247721
 40
0.559326648497749
 40
0.7796809173439557
 40
1.0
 40
1.0
 40
1.0
 40
1.0
 10
1016.875264437071
 20
700.6015393813643
 30
0.0
 10
1016.963245284138
 20
701.300504513889
 30
0.0
 10
1017.139164333993
 20
702.69809599084
 30
0.0
 10
1018.442742397861
 20
704.2902451510837
 30
0.0
 10
1020.088370313273
 20
705.23887071355
 30
0.0
 10
1021.243450804871
 20
705.3483868545792
 30
0.0
 10
1021.820944936148
 20
705.4031405528578
 30
0.0
  0
SPLINE
  5
2DF
330
1F
100
AcDbEntity
  8
0
  6
Continuous
 62
     7
370
    15
100
AcDbSpline
210
0.0
220
0.0
230
1.0
 70
     8
 71
     3
 72
    11
 73
     7
 74
     0
 42
0.00000001
 43
0.00000001
 12
1.0
 22
0.0
 32
0.0
 13
1.0
 23
0.0
 33
0.0
 40
0.0
 40
0.0
 40
0.0
 40
0.0
 40
0.2796635634624939
 40
0.5593540299615061
 40
0.7796368745956941
 40
1.0
 40
1.0
 40
1.0
 40
1.0
 10
1021.897268683782
 20
695.8797786315474
 30
0.0
 10
1021.159214367626
 20
695.9574624674577
 30
0.0
 10
1019.683034736067
 20
696.1128376122973
 30
0.0
 10
1018.04102063728
 20
697.393332171514
 30
0.0
 10
1017.029035060274
 20
698.9484786341208
 30
0.0
 10
1016.926527536714
 20
700.0504522098606
 30
0.0
 10
1016.875264437071
 20
700.6015393813643
 30
0.0
  0
LINE
  5
2E0
330
1F
100
AcDbEntity
  8
0
  6
Continuous
 62
     7
370
    15
100
AcDbLine
 10
1010.7925806354
 20
663.5859224876
 30
0.0
 11
1033.0925706934
 21
663.5859224876
 31
0.0
  0
LINE
  5
2E1
330
1F
100
AcDbEntity
  8
0
  6
Continuous
 62
     7
370
    15
100
AcDbLine
 10
1022.3685328077
 20
658.3788830718
 30
0.0
 11
1022.3685328077
 21
649.3200723012
 31
0.0
  0
LINE
  5
2E2
330
1F
100
AcDbEntity
  8
0
  6
Continuous
 62
     7
370
    15
100
AcDbLine
 10
1021.5137276958
 20
658.3788830718
 30
0.0
 11
1022.3685328077
 21
658.3788830718
 31
0.0
  0
LINE
  5
2E3
330
1F
100
AcDbEntity
  8
0
  6
Continuous
 62
     7
370
    15
100
AcDbLine
 10
1021.5137276958
 20
649.3200723012
 30
0.0
 11
1021.5137276958
 21
658.3788830718
 31
0.0
  0
LINE
  5
2E4
330
1F
100
AcDbEntity
  8
0
  6
Continuous
 62
     7
370
    15
100
AcDbLine
 10
1022.3685328077
 20
649.3200723012
 30
0.0
 11
1021.5137276958
 21
649.3200723012
 31
0.0
  0
LINE
  5
2E5
330
1F
100
AcDbEntity
  8
0
  6
Continuous
 62
     7
370
    15
100
AcDbLine
 10
836.9925741266
 20
716.5971685132
 30
0.0
 11
837.4925676893
 21
716.5971685132
 31
0.0
  0
LINE
  5
2E6
330
1F
100
AcDbEntity
  8
0
  6
Continuous
 62
     7
370
    15
100
AcDbLine
 10
837.4925676893
 20
716.5971685132
 30
0.0
 11
852.4925831865
 21
716.5971685132
 31
0.0
  0
LINE
  5
2E7
330
1F
100
AcDbEntity
  8
0
  6
Continuous
 62
     7
370
    15
100
AcDbLine
 10
852.4925831865
 20
716.5971685132
 30
0.0
 11
852.9925767492
 21
716.5971685132
 31
0.0
  0
LINE
  5
2E8
330
1F
100
AcDbEntity
  8
0
  6
Continuous
 62
     7
370
    15
100
AcDbLine
 10
852.9925767492
 20
716.5971685132
 30
0.0
 11
852.9925767492
 21
718.3407831868
 31
0.0
  0
LINE
  5
2E9
330
1F
100
AcDbEntity
  8
0
  6
Continuous
 62
     7
370
    15
100
AcDbLine
 10
871.9925705503
 20
718.3407831868
 30
0.0
 11
852.9925767492
 21
718.3407831868
 31
0.0
  0
LINE
  5
2EA
330
1F
100
AcDbEntity
  8
0
  6
Continuous
 62
     7
370
    15
100
AcDbLine
 10
871.9925705503
 20
717.4770522793
 30
0.0
 11
871.9925705503
 21
718.3407831868
 31
0.0
  0
LINE
  5
2EB
330
1F
100
AcDbEntity
  8
0
  6
Continuous
 62
     7
370
    15
100
AcDbLine
 10
872.492564113
 20
717.4770522793
 30
0.0
 11
871.9925705503
 21
717.4770522793
 31
0.0
  0
LINE
  5
2EC
330
1F
100
AcDbEntity
  8
0
  6
Continuous
 62
     7
370
    15
100
AcDbLine
 10
1171.49257587
 20
717.4770522793
 30
0.0
 11
872.492564113
 21
717.4770522793
 31
0.0
  0
LINE
  5
2ED
330
1F
100
AcDbEntity
  8
0
  6
Continuous
 62
     7
370
    15
100
AcDbLine
 10
1171.9925754863
 20
717.4770522793
 30
0.0
 11
1171.49257587
 21
717.4770522793
 31
0.0
  0
LINE
  5
2EE
330
1F
100
AcDbEntity
  8
0
  6
Continuous
 62
     7
370
    15
100
AcDbLine
 10
1171.9925754863
 20
718.3407831868
 30
0.0
 11
1171.9925754863
 21
717.4770522793
 31
0.0
  0
LINE
  5
2EF
330
1F
100
AcDbEntity
  8
0
  6
Continuous
 62
     7
370
    15
100
AcDbLine
 10
1190.9925762724
 20
718.3407831868
 30
0.0
 11
1171.9925754863
 21
718.3407831868
 31
0.0
  0
LINE
  5
2F0
330
1F
100
AcDbEntity
  8
0
  6
Continuous
 62
     7
370
    15
100
AcDbLine
 10
1190.9925762724
 20
718.3407831868
 30
0.0
 11
1190.9925762724
 21
716.5971685132
 31
0.0
  0
LINE
  5
2F1
330
1F
100
AcDbEntity
  8
0
  6
Continuous
 62
     7
370
    15
100
AcDbLine
 10
1190.9925762724
 20
716.5971685132
 30
0.0
 11
1191.492575423
 21
716.5971685132
 31
0.0
  0
LINE
  5
2F2
330
1F
100
AcDbEntity
  8
0
  6
Continuous
 62
     7
370
    15
100
AcDbLine
 10
1191.492575423
 20
716.5971685132
 30
0.0
 11
1206.4925741564
 21
716.5971685132
 31
0.0
  0
LINE
  5
2F3
330
1F
100
AcDbEntity
  8
0
  6
Continuous
 62
     7
370
    15
100
AcDbLine
 10
1206.4925741564
 20
716.5971685132
 30
0.0
 11
1206.9925751697
 21
716.5971685132
 31
0.0
  0
LINE
  5
2F4
330
1F
100
AcDbEntity
  8
0
  6
Continuous
 62
     7
370
    15
100
AcDbLine
 10
1206.9925751697
 20
716.5971685132
 30
0.0
 11
1206.9925751697
 21
717.4770522793
 31
0.0
  0
LINE
  5
2F5
330
1F
100
AcDbEntity
  8
0
  6
Continuous
 62
     7
370
    15
100
AcDbLine
 10
1221.9925757657
 20
717.4770522793
 30
0.0
 11
1206.9925751697
 21
717.4770522793
 31
0.0
  0
LINE
  5
2F6
330
1F
100
AcDbEntity
  8
0
  6
Continuous
 62
     7
370
    15
100
AcDbLine
 10
821.9925884317
 20
642.6151234587
 30
0.0
 11
821.9925884317
 21
717.4770522793
 31
0.0
  0
LINE
  5
2F7
330
1F
100
AcDbEntity
  8
0
  6
Continuous
 62
     7
370
    15
100
AcDbLine
 10
836.9925741266
 20
717.4770522793
 30
0.0
 11
821.9925884317
 21
717.4770522793
 31
0.0
  0
LINE
  5
2F8
330
1F
100
AcDbEntity
  8
0
  6
Continuous
 62
     7
370
    15
100
AcDbLine
 10
836.9925741266
 20
717.4770522793
 30
0.0
 11
836.9925741266
 21
716.5971685132
 31
0.0
  0
LINE
  5
2F9
330
1F
100
AcDbEntity
  8
0
  6
Continuous
 62
     7
370
    15
100
AcDbLine
 10
1221.9925757657
 20
642.6151234587
 30
0.0
 11
1221.9925757657
 21
717.4770522793
 31
0.0
  0
LINE
  5
2FA
330
1F
100
AcDbEntity
  8
0
  6
Continuous
 62
     7
370
    15
100
AcDbLine
 10
1021.5137276958
 20
658.347985514
 30
0.0
 11
1022.3685328077
 21
658.347985514
 31
0.0
  0
LWPOLYLINE
  5
2FB
330
1F
100
AcDbEntity
  8
0
  6
Continuous
 62
     7
370
    15
100
AcDbPolyline
 90
        9
 70
   128
 43
0.0
 10
1191.492575423
 20
721.8163002213
 10
1191.5886487971
 20
722.2130585393
 10
1191.8731771569
 20
722.5945580681
 10
1192.3352267753
 20
722.9461658677
 10
1192.957041056
 20
723.2543367823
 10
1193.7147241245
 20
723.5072541913
 10
1194.5791591118
 20
723.6951876362
 10
1195.5171238791
 20
723.8109100541
 10
1196.4925762426
 20
723.8499957999
  0
LINE
  5
2FC
330
1F
100
AcDbEntity
  8
0
  6
Continuous
 62
     7
370
    15
100
AcDbLine
 10
1196.4925762426
 20
723.8499957999
 30
0.0
 11
1201.4925751995
 21
723.8499957999
 31
0.0
  0
LWPOLYLINE
  5
2FD
330
1F
100
AcDbEntity
  8
0
  6
Continuous
 62
     7
370
    15
100
AcDbPolyline
 90
        9
 70
   128
 43
0.0
 10
1201.4925751995
 20
723.8499957999
 10
1202.468027563
 20
723.8109100541
 10
1203.4059923302
 20
723.6951876362
 10
1204.2704273175
 20
723.5072541913
 10
1205.028110386
 20
723.2543367823
 10
1205.6499246668
 20
722.9461658677
 10
1206.1119724225
 20
722.5945580681
 10
1206.3965026449
 20
722.2130585393
 10
1206.4925741564
 20
721.8163002213
  0
LINE
  5
2FE
330
1F
100
AcDbEntity
  8
0
  6
Continuous
 62
     7
370
    15
100
AcDbLine
 10
1206.4925741564
 20
721.8163002213
 30
0.0
 11
1206.4925741564
 21
718.1253720006
 31
0.0
  0
LINE
  5
2FF
330
1F
100
AcDbEntity
  8
0
  6
Continuous
 62
     7
370
    15
100
AcDbLine
 10
1206.4925741564
 20
718.1253720006
 30
0.0
 11
1191.492575423
 21
718.1253720006
 31
0.0
  0
LINE
  5
300
330
1F
100
AcDbEntity
  8
0
  6
Continuous
 62
     7
370
    15
100
AcDbLine
 10
1191.492575423
 20
718.1253720006
 30
0.0
 11
1191.492575423
 21
721.8163002213
 31
0.0
  0
LWPOLYLINE
  5
301
330
1F
100
AcDbEntity
  8
0
  6
Continuous
 62
     7
370
    15
100
AcDbPolyline
 90
       19
 70
   128
 43
0.0
 10
1198.9925738584
 20
720.1080162009
 10
1197.8981096457
 20
720.1865006169
 10
1196.9356548201
 20
720.4125214299
 10
1196.2212950151
 20
720.7587946137
 10
1195.8411906074
 20
721.1835522135
 10
1195.8411906074
 20
721.6355789383
 10
1196.2212950151
 20
722.0603514393
 10
1196.9356548201
 20
722.4066246232
 10
1197.8981096457
 20
722.632630535
 10
1198.9925738584
 20
722.7111298522
 10
1200.0870417963
 20
722.632630535
 10
1201.049496622
 20
722.4066246232
 10
1201.7638582896
 20
722.0603514393
 10
1202.1439608346
 20
721.6355789383
 10
1202.1439608346
 20
721.1835522135
 10
1201.7638582896
 20
720.7587946137
 10
1201.049496622
 20
720.4125214299
 10
1200.0870417963
 20
720.1865006169
 10
1198.9925738584
 20
720.1080162009
  0
LINE
  5
302
330
1F
100
AcDbEntity
  8
0
  6
Continuous
 62
     7
370
    15
100
AcDbLine
 10
1196.4925762426
 20
724.5808232506
 30
0.0
 11
1196.4925762426
 21
723.8499957999
 31
0.0
  0
LINE
  5
303
330
1F
100
AcDbEntity
  8
0
  6
Continuous
 62
     7
370
    15
100
AcDbLine
 10
1196.4925762426
 20
724.5808232506
 30
0.0
 11
1201.4925751995
 21
724.5808232506
 31
0.0
  0
LINE
  5
304
330
1F
100
AcDbEntity
  8
0
  6
Continuous
 62
     7
370
    15
100
AcDbLine
 10
1201.4925751995
 20
724.5808232506
 30
0.0
 11
1201.4925751995
 21
723.8499957999
 31
0.0
  0
LINE
  5
305
330
1F
100
AcDbEntity
  8
0
  6
Continuous
 62
     7
370
    15
100
AcDbLine
 10
1191.492575423
 20
722.5429106434
 30
0.0
 11
1191.492575423
 21
721.8163002213
 31
0.0
  0
LWPOLYLINE
  5
306
330
1F
100
AcDbEntity
  8
0
  6
Continuous
 62
     7
370
    15
100
AcDbPolyline
 90
        9
 70
   128
 43
0.0
 10
1191.492575423
 20
722.5471425732
 10
1191.5886487971
 20
722.9439008912
 10
1191.8731771569
 20
723.32540042
 10
1192.3352267753
 20
723.6769933184
 10
1192.957041056
 20
723.9851791342
 10
1193.7147241245
 20
724.238081642
 10
1194.5791591118
 20
724.426015087
 10
1195.5171238791
 20
724.541752406
 10
1196.4925762426
 20
724.5808232506
  0
LINE
  5
307
330
1F
100
AcDbEntity
  8
0
  6
Continuous
 62
     7
370
    15
100
AcDbLine
 10
847.4925879549
 20
724.5808232506
 30
0.0
 11
847.4925879549
 21
723.8499957999
 31
0.0
  0
LWPOLYLINE
  5
308
330
1F
100
AcDbEntity
  8
0
  6
Continuous
 62
     7
370
    15
100
AcDbPolyline
 90
        9
 70
   128
 43
0.0
 10
847.4925879549
 20
724.5808232506
 10
848.4680179666
 20
724.541752406
 10
849.4059864591
 20
724.426015087
 10
850.2704326223
 20
724.238081642
 10
851.0280970644
 20
723.9851791342
 10
851.649922521
 20
723.6769933184
 10
852.1119777273
 20
723.32540042
 10
852.3965004991
 20
722.9439008912
 10
852.4925831865
 20
722.5471425732
  0
LINE
  5
309
330
1F
100
AcDbEntity
  8
0
  6
Continuous
 62
     7
370
    15
100
AcDbLine
 10
852.4925831865
 20
722.5429106434
 30
0.0
 11
852.4925831865
 21
721.8163002213
 31
0.0
  0
LWPOLYLINE
  5
30A
330
1F
100
AcDbEntity
  8
0
  6
Continuous
 62
     7
370
    15
100
AcDbPolyline
 90
        9
 70
   128
 43
0.0
 10
847.4925879549
 20
723.8499957999
 10
848.4680179666
 20
723.8109100541
 10
849.4059864591
 20
723.6951876362
 10
850.2704326223
 20
723.5072541913
 10
851.0280970644
 20
723.2543367823
 10
851.649922521
 20
722.9461658677
 10
852.1119777273
 20
722.5945580681
 10
852.3965004991
 20
722.2130585393
 10
852.4925831865
 20
721.8163002213
  0
LWPOLYLINE
  5
30B
330
1F
100
AcDbEntity
  8
0
  6
Continuous
 62
     7
370
    15
100
AcDbPolyline
 90
        9
 70
   128
 43
0.0
 10
1201.4925751995
 20
724.5808232506
 10
1202.468027563
 20
724.541752406
 10
1203.4059923302
 20
724.426015087
 10
1204.2704273175
 20
724.238081642
 10
1205.028110386
 20
723.9851791342
 10
1205.6499246668
 20
723.6769933184
 10
1206.1119724225
 20
723.32540042
 10
1206.3965026449
 20
722.9439008912
 10
1206.4925741564
 20
722.5471425732
  0
LINE
  5
30C
330
1F
100
AcDbEntity
  8
0
  6
Continuous
 62
     7
370
    15
100
AcDbLine
 10
1206.4925741564
 20
722.5429106434
 30
0.0
 11
1206.4925741564
 21
721.8163002213
 31
0.0
  0
LWPOLYLINE
  5
30D
330
1F
100
AcDbEntity
  8
0
  6
Continuous
 62
     7
370
    15
100
AcDbPolyline
 90
        9
 70
   128
 43
0.0
 10
837.4925676893
 20
721.8163002213
 10
837.5886503767
 20
722.2130585393
 10
837.8731731485
 20
722.5945580681
 10
838.3352283548
 20
722.9461658677
 10
838.9570538114
 20
723.2543367823
 10
839.7147182535
 20
723.5072541913
 10
840.5791644167
 20
723.6951876362
 10
841.5171329092
 20
723.8109100541
 10
842.4925629209
 20
723.8499957999
  0
LINE
  5
30E
330
1F
100
AcDbEntity
  8
0
  6
Continuous
 62
     7
370
    15
100
AcDbLine
 10
842.4925629209
 20
723.8499957999
 30
0.0
 11
847.4925879549
 21
723.8499957999
 31
0.0
  0
LINE
  5
30F
330
1F
100
AcDbEntity
  8
0
  6
Continuous
 62
     7
370
    15
100
AcDbLine
 10
852.4925831865
 20
721.8163002213
 30
0.0
 11
852.4925831865
 21
718.1253720006
 31
0.0
  0
LINE
  5
310
330
1F
100
AcDbEntity
  8
0
  6
Continuous
 62
     7
370
    15
100
AcDbLine
 10
852.4925831865
 20
718.1253720006
 30
0.0
 11
837.4925676893
 21
718.1253720006
 31
0.0
  0
LINE
  5
311
330
1F
100
AcDbEntity
  8
0
  6
Continuous
 62
     7
370
    15
100
AcDbLine
 10
837.4925676893
 20
718.1253720006
 30
0.0
 11
837.4925676893
 21
721.8163002213
 31
0.0
  0
LWPOLYLINE
  5
312
330
1F
100
AcDbEntity
  8
0
  6
Continuous
 62
     7
370
    15
100
AcDbPolyline
 90
       19
 70
   128
 43
0.0
 10
844.9082497667
 20
720.1080162009
 10
843.8137892793
 20
720.1865006169
 10
842.8513530801
 20
720.4125214299
 10
842.1369914125
 20
720.7587946137
 10
841.7568925928
 20
721.1835522135
 10
841.7568925928
 20
721.6355789383
 10
842.1369914125
 20
722.0603514393
 10
842.8513530801
 20
722.4066246232
 10
843.8137892793
 20
722.632630535
 10
844.9082497667
 20
722.7111298522
 10
846.0027400564
 20
722.632630535
 10
846.9651762556
 20
722.4066246232
 10
847.6795379232
 20
722.0603514393
 10
848.0596367429
 20
721.6355789383
 10
848.0596367429
 20
721.1835522135
 10
847.6795379232
 20
720.7587946137
 10
846.9651762556
 20
720.4125214299
 10
846.0027400564
 20
720.1865006169
 10
844.9082497667
 20
720.1080162009
  0
LINE
  5
313
330
1F
100
AcDbEntity
  8
0
  6
Continuous
 62
     7
370
    15
100
AcDbLine
 10
842.4925629209
 20
724.5808232506
 30
0.0
 11
842.4925629209
 21
723.8499957999
 31
0.0
  0
LINE
  5
314
330
1F
100
AcDbEntity
  8
0
  6
Continuous
 62
     7
370
    15
100
AcDbLine
 10
842.4925629209
 20
724.5808232506
 30
0.0
 11
847.4925879549
 21
724.5808232506
 31
0.0
  0
LINE
  5
315
330
1F
100
AcDbEntity
  8
0
  6
Continuous
 62
     7
370
    15
100
AcDbLine
 10
837.4925676893
 20
722.5429106434
 30
0.0
 11
837.4925676893
 21
721.8163002213
 31
0.0
  0
LWPOLYLINE
  5
316
330
1F
100
AcDbEntity
  8
0
  6
Continuous
 62
     7
370
    15
100
AcDbPolyline
 90
        9
 70
   128
 43
0.0
 10
837.4925676893
 20
722.5471425732
 10
837.5886503767
 20
722.9439008912
 10
837.8731731485
 20
723.32540042
 10
838.3352283548
 20
723.6769933184
 10
838.9570538114
 20
723.9851791342
 10
839.7147182535
 20
724.238081642
 10
840.5791644167
 20
724.426015087
 10
841.5171329092
 20
724.541752406
 10
842.4925629209
 20
724.5808232506
  0
ARC
  5
317
330
1F
100
AcDbEntity
  8
0
  6
Continuous
 62
     7
370
    15
100
AcDbCircle
 10
844.442348227
 20
724.8164634056
 30
0.0
 40
4.004812498950618
100
AcDbArc
 50
229.4160506596
 51
276.6806559566
  0
ARC
  5
318
330
1F
100
AcDbEntity
  8
0
  6
Continuous
 62
     7
370
    15
100
AcDbCircle
 10
845.3741724926
 20
724.816476841
 30
0.0
 40
4.004828307872042
100
AcDbArc
 50
263.3190653597
 51
310.5839179092
  0
ARC
  5
319
330
1F
100
AcDbEntity
  8
0
  6
Continuous
 62
     7
370
    15
100
AcDbCircle
 10
1198.5266559842
 20
724.8164512873
 30
0.0
 40
4.004802363277181
100
AcDbArc
 50
229.4159534424
 51
276.680908232
  0
ARC
  5
31A
330
1F
100
AcDbEntity
  8
0
  6
Continuous
 62
     7
370
    15
100
AcDbCircle
 10
1199.4584963667
 20
724.8164464514
 30
0.0
 40
4.004798099377339
100
AcDbArc
 50
263.3190178692
 51
310.5840816922
  0
SPLINE
  5
31B
330
1F
100
AcDbEntity
  8
0
  6
Continuous
 62
     7
370
    15
100
AcDbSpline
210
0.0
220
0.0
230
1.0
 70
     8
 71
     3
 72
    11
 73
     7
 74
     0
 42
0.00000001
 43
0.00000001
 12
1.0
 22
0.0
 32
0.0
 13
1.0
 23
0.0
 33
0.0
 40
0.0
 40
0.0
 40
0.0
 40
0.0
 40
0.2797666423996192
 40
0.5593587334683665
 40
0.7795709648504395
 40
1.0
 40
1.0
 40
1.0
 40
1.0
 10
1021.820944936148
 20
705.3722429951224
 30
0.0
 10
1022.567324879683
 20
705.2977661830595
 30
0.0
 10
1024.059619087174
 20
705.148859026327
 30
0.0
 10
1025.728707223071
 20
703.8632657072741
 30
0.0
 10
1026.741746156886
 20
702.2851047116478
 30
0.0
 10
1026.839716351269
 20
701.171344545658
 30
0.0
 10
1026.888725550047
 20
700.6141904672179
 30
0.0
  0
SPLINE
  5
31C
330
1F
100
AcDbEntity
  8
0
  6
Continuous
 62
     7
370
    15
100
AcDbSpline
210
0.0
220
0.0
230
1.0
 70
     8
 71
     3
 72
    11
 73
     7
 74
     0
 42
0.00000001
 43
0.00000001
 12
1.0
 22
0.0
 32
0.0
 13
1.0
 23
0.0
 33
0.0
 40
0.0
 40
0.0
 40
0.0
 40
0.0
 40
0.2797318587411833
 40
0.5593265184622084
 40
0.7796806726511192
 40
1.0
 40
1.0
 40
1.0
 40
1.0
 10
1016.875264437071
 20
700.5706343730484
 30
0.0
 10
1016.963244404391
 20
701.2696025171143
 30
0.0
 10
1017.139161187831
 20
702.6671959850011
 30
0.0
 10
1018.442744590557
 20
704.2593410166063
 30
0.0
 10
1020.088371721477
 20
705.2079643902223
 30
0.0
 10
1021.243450960257
 20
705.3174863453635
 30
0.0
 10
1021.820944936148
 20
705.3722429951224
 30
0.0
  0
SPLINE
  5
31D
330
1F
100
AcDbEntity
  8
0
  6
Continuous
 62
     7
370
    15
100
AcDbSpline
210
0.0
220
0.0
230
1.0
 70
     8
 71
     3
 72
    11
 73
     7
 74
     0
 42
0.00000001
 43
0.00000001
 12
1.0
 22
0.0
 32
0.0
 13
1.0
 23
0.0
 33
0.0
 40
0.0
 40
0.0
 40
0.0
 40
0.0
 40
0.279415608714194
 40
0.55907752898552
 40
0.7794767625944784
 40
1.0
 40
1.0
 40
1.0
 40
1.0
 10
1017.730069548956
 20
700.574262805799
 30
0.0
 10
1017.802939246963
 20
700.0033937776024
 30
0.0
 10
1017.948742879362
 20
698.8611524864763
 30
0.0
 10
1019.0999226374
 20
697.6301066466499
 30
0.0
 10
1020.449391803166
 20
696.8883051785488
 30
0.0
 10
1021.391656605907
 20
696.8147642039416
 30
0.0
 10
1021.862921507231
 20
696.7779833754096
 30
0.0
  0
SPLINE
  5
31E
330
1F
100
AcDbEntity
  8
0
  6
Continuous
 62
     7
370
    15
100
AcDbSpline
210
0.0
220
0.0
230
1.0
 70
     8
 71
     3
 72
    11
 73
     7
 74
     0
 42
0.00000001
 43
0.00000001
 12
1.0
 22
0.0
 32
0.0
 13
1.0
 23
0.0
 33
0.0
 40
0.0
 40
0.0
 40
0.0
 40
0.0
 40
0.2798287373644367
 40
0.5593886580975255
 40
0.7796537299390749
 40
1.0
 40
1.0
 40
1.0
 40
1.0
 10
1021.862921507231
 20
696.7779833754096
 30
0.0
 10
1022.467850981524
 20
696.8435487445006
 30
0.0
 10
1023.677128806439
 20
696.9746164975089
 30
0.0
 10
1025.078448748899
 20
697.966654522944
 30
0.0
 10
1025.902561893164
 20
699.2580746895771
 30
0.0
 10
1025.990128877391
 20
700.1633032619369
 30
0.0
 10
1026.033920438162
 20
700.616000958303
 30
0.0
  0
LINE
  5
31F
330
1F
100
AcDbEntity
  8
0
  6
Continuous
 62
     7
370
    15
100
AcDbLine
 10
1021.8629215072
 20
696.7779833754
 30
0.0
 11
1021.8629215072
 21
696.8088883837
 31
0.0
  0
LINE
  5
320
330
1F
100
AcDbEntity
  8
0
  6
Continuous
 62
     7
370
    15
100
AcDbLine
 10
1017.730069549
 20
700.5742628058
 30
0.0
 11
1017.730069549
 21
700.6051678141
 31
0.0
  0
SPLINE
  5
321
330
1F
100
AcDbEntity
  8
0
  6
Continuous
 62
     7
370
    15
100
AcDbSpline
210
0.0
220
0.0
230
1.0
 70
     8
 71
     3
 72
    11
 73
     7
 74
     0
 42
0.00000001
 43
0.00000001
 12
1.0
 22
0.0
 32
0.0
 13
1.0
 23
0.0
 33
0.0
 40
0.0
 40
0.0
 40
0.0
 40
0.0
 40
0.279415551681073
 40
0.5590768810300881
 40
0.7794763268335013
 40
1.0
 40
1.0
 40
1.0
 40
1.0
 10
1017.730069548956
 20
700.6051678141151
 30
0.0
 10
1017.802938904272
 20
700.0342950549243
 30
0.0
 10
1017.948741711768
 20
698.8920473892049
 30
0.0
 10
1019.099924938598
 20
697.6610121222016
 30
0.0
 10
1020.449392424244
 20
696.9192096487546
 30
0.0
 10
1021.391656653861
 20
696.8456690452721
 30
0.0
 10
1021.862921507231
 20
696.8088883837256
 30
0.0
  0
SPLINE
  5
322
330
1F
100
AcDbEntity
  8
0
  6
Continuous
 62
     7
370
    15
100
AcDbSpline
210
0.0
220
0.0
230
1.0
 70
     8
 71
     3
 72
    11
 73
     7
 74
     0
 42
0.00000001
 43
0.00000001
 12
1.0
 22
0.0
 32
0.0
 13
1.0
 23
0.0
 33
0.0
 40
0.0
 40
0.0
 40
0.0
 40
0.0
 40
0.279628497124017
 40
0.5593491896622115
 40
0.7796302431359518
 40
1.0
 40
1.0
 40
1.0
 40
1.0
 10
1021.862921507231
 20
704.4740382512603
 30
0.0
 10
1021.261643611401
 20
704.3997700410417
 30
0.0
 10
1020.058889574336
 20
704.2512091338716
 30
0.0
 10
1018.683082016227
 20
703.2424389825842
 30
0.0
 10
1017.859686983661
 20
701.9587232871983
 30
0.0
 10
1017.77328115838
 20
701.056413517056
 30
0.0
 10
1017.730069548956
 20
700.6051678141151
 30
0.0
  0
SPLINE
  5
323
330
1F
100
AcDbEntity
  8
0
  6
Continuous
 62
     7
370
    15
100
AcDbSpline
210
0.0
220
0.0
230
1.0
 70
     8
 71
     3
 72
    11
 73
     7
 74
     0
 42
0.00000001
 43
0.00000001
 12
1.0
 22
0.0
 32
0.0
 13
1.0
 23
0.0
 33
0.0
 40
0.0
 40
0.0
 40
0.0
 40
0.0
 40
0.2794687038376645
 40
0.5588715069614173
 40
0.7795171672194746
 40
1.0
 40
1.0
 40
1.0
 40
1.0
 10
1026.033920438162
 20
700.646905966619
 30
0.0
 10
1025.960758151936
 20
701.2220368421038
 30
0.0
 10
1025.814450831674
 20
702.3721629731101
 30
0.0
 10
1024.65540552186
 20
703.619489792681
 30
0.0
 10
1023.282801431336
 20
704.3409287890784
 30
0.0
 10
1022.336098334256
 20
704.4296793502765
 30
0.0
 10
1021.862921507231
 20
704.4740382512603
 30
0.0
  0
SPLINE
  5
324
330
1F
100
AcDbEntity
  8
0
  6
Continuous
 62
     7
370
    15
100
AcDbSpline
210
0.0
220
0.0
230
1.0
 70
     8
 71
     3
 72
    11
 73
     7
 74
     0
 42
0.00000001
 43
0.00000001
 12
1.0
 22
0.0
 32
0.0
 13
1.0
 23
0.0
 33
0.0
 40
0.0
 40
0.0
 40
0.0
 40
0.0
 40
0.2798287652005977
 40
0.5593878078123304
 40
0.7796540854283266
 40
1.0
 40
1.0
 40
1.0
 40
1.0
 10
1021.862921507231
 20
696.8088883837256
 30
0.0
 10
1022.467850334467
 20
696.8744497704735
 30
0.0
 10
1023.677124907464
 20
697.0055093503696
 30
0.0
 10
1025.078454818492
 20
697.9975603669324
 30
0.0
 10
1025.902559313748
 20
699.2889643235882
 30
0.0
 10
1025.990128120915
 20
700.1942042141046
 30
0.0
 10
1026.033920438162
 20
700.646905966619
 30
0.0
  0
LINE
  5
325
330
1F
100
AcDbEntity
  8
0
  6
Continuous
 62
     7
370
    15
100
AcDbLine
 10
1026.0339204382
 20
700.6160009583
 30
0.0
 11
1026.0339204382
 21
700.6469059666
 31
0.0
  0
LINE
  5
326
330
1F
100
AcDbEntity
  8
0
  6
Continuous
 62
     7
370
    15
100
AcDbLine
 10
1021.8209449361
 20
705.3722429951
 30
0.0
 11
1021.8209449361
 21
705.4031405529
 31
0.0
  0
LINE
  5
327
330
1F
100
AcDbEntity
  8
0
  6
Continuous
 62
     7
370
    15
100
AcDbLine
 10
1191.492575423
 20
718.1253720006
 30
0.0
 11
1191.492575423
 21
716.5971685132
 31
0.0
  0
LINE
  5
328
330
1F
100
AcDbEntity
  8
0
  6
Continuous
 62
     7
370
    15
100
AcDbLine
 10
1206.4925741564
 20
716.5971685132
 30
0.0
 11
1206.4925741564
 21
718.1253720006
 31
0.0
  0
LINE
  5
329
330
1F
100
AcDbEntity
  8
0
  6
Continuous
 62
     7
370
    15
100
AcDbLine
 10
852.4925831865
 20
716.5971685132
 30
0.0
 11
852.4925831865
 21
718.1253720006
 31
0.0
  0
LINE
  5
32A
330
1F
100
AcDbEntity
  8
0
  6
Continuous
 62
     7
370
    15
100
AcDbLine
 10
837.4925676893
 20
718.1253720006
 30
0.0
 11
837.4925676893
 21
716.5971685132
 31
0.0
  0
LINE
  5
32B
330
1F
100
AcDbEntity
  8
0
  6
Continuous
 62
     7
370
    15
100
AcDbLine
 10
821.9925884317
 20
717.4770522793
 30
0.0
 11
821.9925884317
 21
718.8935715636
 31
0.0
  0
LINE
  5
32C
330
1F
100
AcDbEntity
  8
0
  6
Continuous
 62
     7
370
    15
100
AcDbLine
 10
836.9925741266
 20
718.8935715636
 30
0.0
 11
821.9925884317
 21
718.8935715636
 31
0.0
  0
LINE
  5
32D
330
1F
100
AcDbEntity
  8
0
  6
Continuous
 62
     7
370
    15
100
AcDbLine
 10
836.9925741266
 20
718.8935715636
 30
0.0
 11
836.9925741266
 21
717.4770522793
 31
0.0
  0
LINE
  5
32E
330
1F
100
AcDbEntity
  8
0
  6
Continuous
 62
     7
370
    15
100
AcDbLine
 10
1221.9925757657
 20
718.8935715636
 30
0.0
 11
1206.9925751697
 21
718.8935715636
 31
0.0
  0
LINE
  5
32F
330
1F
100
AcDbEntity
  8
0
  6
Continuous
 62
     7
370
    15
100
AcDbLine
 10
1221.9925757657
 20
718.8935715636
 30
0.0
 11
1221.9925757657
 21
717.4770522793
 31
0.0
  0
LINE
  5
330
330
1F
100
AcDbEntity
  8
0
  6
Continuous
 62
     7
370
    15
100
AcDbLine
 10
1206.9925751697
 20
717.4770522793
 30
0.0
 11
1206.9925751697
 21
718.8935715636
 31
0.0
  0
LINE
  5
331
330
1F
100
AcDbEntity
  8
0
  6
Continuous
 62
     7
370
    15
100
AcDbLine
 10
872.492564113
 20
717.4770522793
 30
0.0
 11
872.492564113
 21
718.8935715636
 31
0.0
  0
LINE
  5
332
330
1F
100
AcDbEntity
  8
0
  6
Continuous
 62
     7
370
    15
100
AcDbLine
 10
1171.49257587
 20
718.8935715636
 30
0.0
 11
872.492564113
 21
718.8935715636
 31
0.0
  0
LINE
  5
333
330
1F
100
AcDbEntity
  8
0
  6
Continuous
 62
     7
370
    15
100
AcDbLine
 10
1171.49257587
 20
718.8935715636
 30
0.0
 11
1171.49257587
 21
717.4770522793
 31
0.0
  0
LINE
  5
334
330
1F
100
AcDbEntity
  8
0
  6
Continuous
 62
     7
370
    15
100
AcDbLine
 10
837.2718516897
 20
719.6878630599
 30
0.0
 11
837.2718516897
 21
716.5971685132
 31
0.0
  0
SPLINE
  5
335
330
1F
100
AcDbEntity
  8
0
  6
Continuous
 62
     7
370
    15
100
AcDbSpline
210
0.0
220
0.0
230
1.0
 70
     8
 71
     3
 72
    10
 73
     6
 74
     0
 42
0.00000001
 43
0.00000001
 12
1.0
 22
0.0
 32
0.0
 13
1.0
 23
0.0
 33
0.0
 40
0.0
 40
0.0
 40
0.0
 40
0.0
 40
0.1420959949351206
 40
0.6912160420222456
 40
1.0
 40
1.0
 40
1.0
 40
1.0
 10
823.197198302618
 20
472.6670000632796
 30
0.0
 10
823.2394129109197
 20
472.6483632114113
 30
0.0
 10
823.4447629243327
 20
472.5577055472732
 30
0.0
 10
823.851562497085
 20
472.5048997028253
 30
0.0
 10
824.1974011979667
 20
472.4840958299714
 30
0.0
 10
824.3218783448848
 20
472.4766079267058
 30
0.0
  0
LINE
  5
336
330
1F
100
AcDbEntity
  8
0
  6
Continuous
 62
     7
370
    15
100
AcDbLine
 10
822.2718659948
 20
594.0558992257
 30
0.0
 11
822.2718659948
 21
596.6058995505
 31
0.0
  0
LINE
  5
337
330
1F
100
AcDbEntity
  8
0
  6
Continuous
 62
     7
370
    15
100
AcDbLine
 10
822.2718659948
 20
718.8935715636
 30
0.0
 11
822.2718659948
 21
719.2058999022
 31
0.0
  0
SPLINE
  5
338
330
1F
100
AcDbEntity
  8
0
  6
Continuous
 62
     7
370
    15
100
AcDbSpline
210
0.0
220
0.0
230
1.0
 70
     8
 71
     3
 72
    11
 73
     7
 74
     0
 42
0.00000001
 43
0.00000001
 12
1.0
 22
0.0
 32
0.0
 13
1.0
 23
0.0
 33
0.0
 40
0.0
 40
0.0
 40
0.0
 40
0.0
 40
0.2938131215173038
 40
0.5876209442382986
 40
0.8814252146927639
 40
1.0
 40
1.0
 40
1.0
 40
1.0
 10
824.3218783448848
 20
471.6058958252463
 30
0.0
 10
824.0525832400921
 20
471.6364895732493
 30
0.0
 10
823.5139978871308
 20
471.69767651751
 30
0.0
 10
822.8463359057056
 20
472.1750736199293
 30
0.0
 10
822.4362067340002
 20
472.7078048849866
 30
0.0
 10
822.3808545284138
 20
473.0807641723544
 30
0.0
 10
822.3649386476192
 20
473.1880042632613
 30
0.0
  0
LINE
  5
339
330
1F
100
AcDbEntity
  8
0
  6
Continuous
 62
     7
370
    15
100
AcDbLine
 10
1221.971866877
 20
734.5558989724
 30
0.0
 11
1221.971866877
 21
718.8935715636
 31
0.0
  0
LINE
  5
33A
330
1F
100
AcDbEntity
  8
0
  6
Continuous
 62
     7
370
    15
100
AcDbLine
 10
1221.971866877
 20
596.6058995505
 30
0.0
 11
1221.971866877
 21
594.677723751
 31
0.0
  0
LINE
  5
33B
330
1F
100
AcDbEntity
  8
0
  6
Continuous
 62
     7
370
    15
100
AcDbLine
 10
1206.9718662809
 20
716.5971685132
 30
0.0
 11
1206.9718662809
 21
719.6878630599
 31
0.0
  0
LINE
  5
33C
330
1F
100
AcDbEntity
  8
0
  6
Continuous
 62
     7
370
    15
100
AcDbLine
 10
1198.2218634497
 20
322.405903407
 30
0.0
 11
1145.2218659382
 21
322.405903407
 31
0.0
  0
LINE
  5
33D
330
1F
100
AcDbEntity
  8
0
  6
Continuous
 62
     7
370
    15
100
AcDbLine
 10
1200.2218637775
 20
328.405885764
 30
0.0
 11
1143.2218656104
 21
328.405885764
 31
0.0
  0
LINE
  5
33E
330
1F
100
AcDbEntity
  8
0
  6
Continuous
 62
     7
370
    15
100
AcDbLine
 10
901.5218738626
 20
328.405885764
 30
0.0
 11
844.5218626569
 21
328.405885764
 31
0.0
  0
LINE
  5
33F
330
1F
100
AcDbEntity
  8
0
  6
Continuous
 62
     7
370
    15
100
AcDbLine
 10
899.5218698095
 20
322.405903407
 30
0.0
 11
846.5218667101
 21
322.405903407
 31
0.0
  0
LINE
  5
340
330
1F
100
AcDbEntity
  8
0
  6
Continuous
 62
     7
370
    15
100
AcDbLine
 10
908.0218795847
 20
470.4058978637
 30
0.0
 11
908.0218795847
 21
471.1059022625
 31
0.0
  0
LINE
  5
341
330
1F
100
AcDbEntity
  8
0
  6
Continuous
 62
     7
370
    15
100
AcDbLine
 10
838.0218569349
 20
470.4058978637
 30
0.0
 11
838.0218569349
 21
471.1059022625
 31
0.0
  0
LINE
  5
342
330
1F
100
AcDbEntity
  8
0
  6
Continuous
 62
     7
370
    15
100
AcDbLine
 10
838.0218569349
 20
470.4058978637
 30
0.0
 11
908.0218795847
 21
470.4058978637
 31
0.0
  0
LINE
  5
343
330
1F
100
AcDbEntity
  8
0
  6
Continuous
 62
     7
370
    15
100
AcDbLine
 10
903.9815191339
 20
376.4058936318
 30
0.0
 11
842.0622173856
 21
376.4058936318
 31
0.0
  0
LINE
  5
344
330
1F
100
AcDbEntity
  8
0
  6
Continuous
 62
     7
370
    15
100
AcDbLine
 10
1206.7218657743
 20
470.4058978637
 30
0.0
 11
1206.7218657743
 21
471.1059022625
 31
0.0
  0
LINE
  5
345
330
1F
100
AcDbEntity
  8
0
  6
Continuous
 62
     7
370
    15
100
AcDbLine
 10
1136.7218654762
 20
470.4058978637
 30
0.0
 11
1136.7218654762
 21
471.1059022625
 31
0.0
  0
LINE
  5
346
330
1F
100
AcDbEntity
  8
0
  6
Continuous
 62
     7
370
    15
100
AcDbLine
 10
1136.7218654762
 20
470.4058978637
 30
0.0
 11
1206.7218657743
 21
470.4058978637
 31
0.0
  0
LINE
  5
347
330
1F
100
AcDbEntity
  8
0
  6
Continuous
 62
     7
370
    15
100
AcDbLine
 10
1202.6815164994
 20
376.4058936318
 30
0.0
 11
1140.7622147511
 21
376.4058936318
 31
0.0
  0
LINE
  5
348
330
1F
100
AcDbEntity
  8
0
  6
Continuous
 62
     7
370
    15
100
AcDbLine
 10
890.2735237192
 20
501.1058960041
 30
0.0
 11
854.2741958212
 21
501.1058960041
 31
0.0
  0
SPLINE
  5
349
330
1F
100
AcDbEntity
  8
0
  6
Continuous
 62
     7
370
    15
100
AcDbSpline
210
0.0
220
0.0
230
1.0
 70
     8
 71
     3
 72
    11
 73
     7
 74
     0
 42
0.00000001
 43
0.00000001
 12
1.0
 22
0.0
 32
0.0
 13
1.0
 23
0.0
 33
0.0
 40
0.0
 40
0.0
 40
0.0
 40
0.0
 40
0.2833242232439017
 40
0.5580479504457191
 40
0.775426041019363
 40
1.0
 40
1.0
 40
1.0
 40
1.0
 10
892.271858842245
 20
503.1042534788642
 30
0.0
 10
892.2329382560666
 20
502.8071381520177
 30
0.0
 10
892.1562785441004
 20
502.2219266325286
 30
0.0
 10
891.6219125731006
 20
501.5727620041041
 30
0.0
 10
890.970609237678
 20
501.177597097676
 30
0.0
 10
890.5083941557929
 20
501.1300543988571
 30
0.0
 10
890.2735237191828
 20
501.1058960040603
 30
0.0
  0
LINE
  5
34A
330
1F
100
AcDbEntity
  8
0
  6
Continuous
 62
     7
370
    15
100
AcDbLine
 10
892.2718588422
 20
559.1071516206
 30
0.0
 11
892.2718588422
 21
503.1042534789
 31
0.0
  0
SPLINE
  5
34B
330
1F
100
AcDbEntity
  8
0
  6
Continuous
 62
     7
370
    15
100
AcDbSpline
210
0.0
220
0.0
230
1.0
 70
     8
 71
     3
 72
    11
 73
     7
 74
     0
 42
0.00000001
 43
0.00000001
 12
1.0
 22
0.0
 32
0.0
 13
1.0
 23
0.0
 33
0.0
 40
0.0
 40
0.0
 40
0.0
 40
0.0
 40
0.2833003725813692
 40
0.5580342506760865
 40
0.7754293693711997
 40
0.9999999999999999
 40
0.9999999999999999
 40
0.9999999999999999
 40
0.9999999999999999
 10
890.2735237191829
 20
561.1059002508912
 30
0.0
 10
890.5706359219375
 20
561.0669516880055
 30
0.0
 10
891.1558761880208
 20
560.9902322968279
 30
0.0
 10
891.8050099439287
 20
560.455707507466
 30
0.0
 10
892.2001541506155
 20
559.8043016450475
 30
0.0
 10
892.2476999691474
 20
559.3420366551525
 30
0.0
 10
892.271858842245
 20
559.1071516206059
 30
0.0
  0
LINE
  5
34C
330
1F
100
AcDbEntity
  8
0
  6
Continuous
 62
     7
370
    15
100
AcDbLine
 10
854.2741958212
 20
561.1059002509
 30
0.0
 11
890.2735237192
 21
561.1059002509
 31
0.0
  0
SPLINE
  5
34D
330
1F
100
AcDbEntity
  8
0
  6
Continuous
 62
     7
370
    15
100
AcDbSpline
210
0.0
220
0.0
230
1.0
 70
     8
 71
     3
 72
    11
 73
     7
 74
     0
 42
0.00000001
 43
0.00000001
 12
1.0
 22
0.0
 32
0.0
 13
1.0
 23
0.0
 33
0.0
 40
0.0
 40
0.0
 40
0.0
 40
0.0
 40
0.2833524095017568
 40
0.5581077166179585
 40
0.7754847321577144
 40
1.0
 40
1.0
 40
1.0
 40
1.0
 10
852.2718671868953
 20
559.111521386126
 30
0.0
 10
852.3114442742855
 20
559.4085693878469
 30
0.0
 10
852.3893976536573
 20
559.9936527554382
 30
0.0
 10
852.9250551885297
 20
560.6417773719124
 30
0.0
 10
853.5770956907107
 20
561.035666444672
 30
0.0
 10
854.0393401052931
 20
561.082238211369
 30
0.0
 10
854.2741958211574
 20
561.1059002508912
 30
0.0
  0
LINE
  5
34E
330
1F
100
AcDbEntity
  8
0
  6
Continuous
 62
     7
370
    15
100
AcDbLine
 10
852.2718671869
 20
503.0998799881
 30
0.0
 11
852.2718671869
 21
559.1115213861
 31
0.0
  0
SPLINE
  5
34F
330
1F
100
AcDbEntity
  8
0
  6
Continuous
 62
     7
370
    15
100
AcDbSpline
210
0.0
220
0.0
230
1.0
 70
     8
 71
     3
 72
    11
 73
     7
 74
     0
 42
0.00000001
 43
0.00000001
 12
1.0
 22
0.0
 32
0.0
 13
1.0
 23
0.0
 33
0.0
 40
0.0
 40
0.0
 40
0.0
 40
0.0
 40
0.2832790968350161
 40
0.5580060877001963
 40
0.7754057101996588
 40
1.0
 40
1.0
 40
1.0
 40
1.0
 10
854.2741958211574
 20
501.1058960040603
 30
0.0
 10
853.9770772132381
 20
501.1441804728555
 30
0.0
 10
853.3918099138139
 20
501.2195936144913
 30
0.0
 10
852.741612498749
 20
501.7525318184926
 30
0.0
 10
852.3450716635706
 20
502.4029579998675
 30
0.0
 10
852.2965320510456
 20
502.8650653026306
 30
0.0
 10
852.2718671868952
 20
503.0998799880537
 30
0.0
  0
LINE
  5
350
330
1F
100
AcDbEntity
  8
0
  6
Continuous
 62
     7
370
    15
100
AcDbLine
 10
854.8095945429
 20
503.6436159094
 30
0.0
 11
889.7341612886
 21
503.6436159094
 31
0.0
  0
SPLINE
  5
351
330
1F
100
AcDbEntity
  8
0
  6
Continuous
 62
     7
370
    15
100
AcDbSpline
210
0.0
220
0.0
230
1.0
 70
     8
 71
     3
 72
    11
 73
     7
 74
     0
 42
0.00000001
 43
0.00000001
 12
1.0
 22
0.0
 32
0.0
 13
1.0
 23
0.0
 33
0.0
 40
0.0
 40
0.0
 40
0.0
 40
0.0
 40
0.2514394533635889
 40
0.5021679002616157
 40
0.7628300677602123
 40
1.0
 40
1.0
 40
1.0
 40
1.0
 10
889.7341612886104
 20
503.6436159094367
 30
0.0
 10
889.7877209510905
 20
503.3914732618202
 30
0.0
 10
889.8946888230236
 20
502.8879009615067
 30
0.0
 10
890.0469797802392
 20
502.1721914091701
 30
0.0
 10
890.1790177645313
 20
501.5488275680831
 30
0.0
 10
890.2430286050392
 20
501.2488208457011
 30
0.0
 10
890.2735237191828
 20
501.1058960040603
 30
0.0
  0
SPLINE
  5
352
330
1F
100
AcDbEntity
  8
0
  6
Continuous
 62
     7
370
    15
100
AcDbSpline
210
0.0
220
0.0
230
1.0
 70
     8
 71
     3
 72
    11
 73
     7
 74
     0
 42
0.00000001
 43
0.00000001
 12
1.0
 22
0.0
 32
0.0
 13
1.0
 23
0.0
 33
0.0
 40
0.0
 40
0.0
 40
0.0
 40
0.0
 40
0.2514213687846397
 40
0.5021380375738916
 40
0.7627987590778496
 40
1.0
 40
1.0
 40
1.0
 40
1.0
 10
854.8095945428523
 20
503.6436159094367
 30
0.0
 10
854.7564117672043
 20
503.3914721982226
 30
0.0
 10
854.650195280015
 20
502.8878915004178
 30
0.0
 10
854.4990542758142
 20
502.1721765653421
 30
0.0
 10
854.3679527311622
 20
501.5487975350181
 30
0.0
 10
854.3044507098483
 20
501.2488181259553
 30
0.0
 10
854.2741958211574
 20
501.1058960040603
 30
0.0
  0
LINE
  5
353
330
1F
100
AcDbEntity
  8
0
  6
Continuous
 62
     7
370
    15
100
AcDbLine
 10
854.8095945429
 20
558.5681840708
 30
0.0
 11
854.8095945429
 21
503.6436159094
 31
0.0
  0
LINE
  5
354
330
1F
100
AcDbEntity
  8
0
  6
Continuous
 62
     7
370
    15
100
AcDbLine
 10
889.7341612886
 20
558.5681840708
 30
0.0
 11
854.8095945429
 21
558.5681840708
 31
0.0
  0
LINE
  5
355
330
1F
100
AcDbEntity
  8
0
  6
Continuous
 62
     7
370
    15
100
AcDbLine
 10
889.7341612886
 20
503.6436159094
 30
0.0
 11
889.7341612886
 21
558.5681840708
 31
0.0
  0
SPLINE
  5
356
330
1F
100
AcDbEntity
  8
0
  6
Continuous
 62
     7
370
    15
100
AcDbSpline
210
0.0
220
0.0
230
1.0
 70
     8
 71
     3
 72
    11
 73
     7
 74
     0
 42
0.00000001
 43
0.00000001
 12
1.0
 22
0.0
 32
0.0
 13
1.0
 23
0.0
 33
0.0
 40
0.0
 40
0.0
 40
0.0
 40
0.0
 40
0.2371527633016602
 40
0.4978014818347057
 40
0.7485375316910702
 40
1.0
 40
1.0
 40
1.0
 40
1.0
 10
852.2718671868953
 20
559.111521386126
 30
0.0
 10
852.4147949554821
 20
559.0808085587563
 30
0.0
 10
852.7148110885738
 20
559.0163400247909
 30
0.0
 10
853.3382031925212
 20
558.8833208352034
 30
0.0
 10
854.0538912796236
 20
558.7299180245266
 30
0.0
 10
854.5574506594736
 20
558.6221473513014
 30
0.0
 10
854.8095945428523
 20
558.568184070805
 30
0.0
  0
SPLINE
  5
357
330
1F
100
AcDbEntity
  8
0
  6
Continuous
 62
     7
370
    15
100
AcDbSpline
210
0.0
220
0.0
230
1.0
 70
     8
 71
     3
 72
    11
 73
     7
 74
     0
 42
0.00000001
 43
0.00000001
 12
1.0
 22
0.0
 32
0.0
 13
1.0
 23
0.0
 33
0.0
 40
0.0
 40
0.0
 40
0.0
 40
0.0
 40
0.2371367511701171
 40
0.497798311386147
 40
0.7485354776329793
 40
1.0
 40
1.0
 40
1.0
 40
1.0
 10
852.2718671868953
 20
503.0998799880537
 30
0.0
 10
852.4147862880741
 20
503.130616329764
 30
0.0
 10
852.7148025735318
 20
503.1951381675898
 30
0.0
 10
853.3381930553886
 20
503.3282439784721
 30
0.0
 10
854.0538926590433
 20
503.4817643010049
 30
0.0
 10
854.5574508080065
 20
503.5896133061414
 30
0.0
 10
854.8095945428523
 20
503.6436159094367
 30
0.0
  0
SPLINE
  5
358
330
1F
100
AcDbEntity
  8
0
  6
Continuous
 62
     7
370
    15
100
AcDbSpline
210
0.0
220
0.0
230
1.0
 70
     8
 71
     3
 72
    11
 73
     7
 74
     0
 42
0.00000001
 43
0.00000001
 12
1.0
 22
0.0
 32
0.0
 13
1.0
 23
0.0
 33
0.0
 40
0.0
 40
0.0
 40
0.0
 40
0.0
 40
0.2371788279715242
 40
0.4978323067113813
 40
0.7485606502694335
 40
1.0
 40
1.0
 40
1.0
 40
1.0
 10
890.2735237191828
 20
561.1059002508912
 30
0.0
 10
890.243029491016
 20
560.9629753653949
 30
0.0
 10
890.1790228843573
 20
560.6629796784205
 30
0.0
 10
890.0469763500058
 20
560.0395968964589
 30
0.0
 10
889.8946892467233
 20
559.3238999128295
 30
0.0
 10
889.7877210924568
 20
558.8203270167339
 30
0.0
 10
889.7341612886104
 20
558.568184070805
 30
0.0
  0
SPLINE
  5
359
330
1F
100
AcDbEntity
  8
0
  6
Continuous
 62
     7
370
    15
100
AcDbSpline
210
0.0
220
0.0
230
1.0
 70
     8
 71
     3
 72
    11
 73
     7
 74
     0
 42
0.00000001
 43
0.00000001
 12
1.0
 22
0.0
 32
0.0
 13
1.0
 23
0.0
 33
0.0
 40
0.0
 40
0.0
 40
0.0
 40
0.0
 40
0.2371915862235476
 40
0.4978609409685034
 40
0.7485781197698016
 40
1.0
 40
1.0
 40
1.0
 40
1.0
 10
854.2741958211574
 20
561.1059002508912
 30
0.0
 10
854.304451615968
 20
560.9629802029098
 30
0.0
 10
854.3679579937194
 20
560.6629935520164
 30
0.0
 10
854.4990510142875
 20
560.0396346143989
 30
0.0
 10
854.6501956886168
 20
559.3239075923804
 30
0.0
 10
854.7564119035322
 20
558.8203274859279
 30
0.0
 10
854.8095945428523
 20
558.568184070805
 30
0.0
  0
SPLINE
  5
35A
330
1F
100
AcDbEntity
  8
0
  6
Continuous
 62
     7
370
    15
100
AcDbSpline
210
0.0
220
0.0
230
1.0
 70
     8
 71
     3
 72
    11
 73
     7
 74
     0
 42
0.00000001
 43
0.00000001
 12
1.0
 22
0.0
 32
0.0
 13
1.0
 23
0.0
 33
0.0
 40
0.0
 40
0.0
 40
0.0
 40
0.0
 40
0.2514329584736908
 40
0.5021680602326688
 40
0.7628319357099076
 40
1.0
 40
1.0
 40
1.0
 40
1.0
 10
889.7341612886104
 20
558.568184070805
 30
0.0
 10
889.9862956533153
 20
558.6217144760911
 30
0.0
 10
890.4898645792449
 20
558.7286267120576
 30
0.0
 10
891.2055830845877
 20
558.8807891754449
 30
0.0
 10
891.8289510759756
 20
559.0127379946704
 30
0.0
 10
892.1289424109453
 20
559.076686454916
 30
0.0
 10
892.271858842245
 20
559.1071516206059
 30
0.0
  0
SPLINE
  5
35B
330
1F
100
AcDbEntity
  8
0
  6
Continuous
 62
     7
370
    15
100
AcDbSpline
210
0.0
220
0.0
230
1.0
 70
     8
 71
     3
 72
    11
 73
     7
 74
     0
 42
0.00000001
 43
0.00000001
 12
1.0
 22
0.0
 32
0.0
 13
1.0
 23
0.0
 33
0.0
 40
0.0
 40
0.0
 40
0.0
 40
0.0
 40
0.251434983561212
 40
0.5021711782919486
 40
0.7628206808053466
 40
1.0
 40
1.0
 40
1.0
 40
1.0
 10
889.7341612886104
 20
503.6436159094367
 30
0.0
 10
889.9862955128791
 20
503.5900459699184
 30
0.0
 10
890.4898632292545
 20
503.4830549726121
 30
0.0
 10
891.2055676280308
 20
503.3307836299996
 30
0.0
 10
891.8289386699443
 20
503.1987350954755
 30
0.0
 10
892.1289332077141
 20
503.1347416928814
 30
0.0
 10
892.271858842245
 20
503.1042534788642
 30
0.0
  0
SPLINE
  5
35C
330
1F
100
AcDbEntity
  8
0
  6
Continuous
 62
     7
370
    15
100
AcDbSpline
210
0.0
220
0.0
230
1.0
 70
     8
 71
     3
 72
    13
 73
     9
 74
     0
 42
0.00000001
 43
0.00000001
 12
1.0
 22
0.0
 32
0.0
 13
1.0
 23
0.0
 33
0.0
 40
0.0
 40
0.0
 40
0.0
 40
0.0
 40
0.1275378923881936
 40
0.2545911764906691
 40
0.4999409497387712
 40
0.7453309047701641
 40
0.872505696076219
 40
1.0
 40
1.0
 40
1.0
 40
1.0
 10
854.2741958211574
 20
561.1059002508912
 30
0.0
 10
854.1410312495537
 20
561.0986322611448
 30
0.0
 10
853.8752080944379
 20
561.084123897978
 30
0.0
 10
853.3748485427742
 20
560.9236398336348
 30
0.0
 10
852.8259392008888
 20
560.557846256895
 30
0.0
 10
852.4578593476992
 20
560.0102847724324
 30
0.0
 10
852.2954337298835
 20
559.5104325961507
 30
0.0
 10
852.2797292689283
 20
559.2446029610809
 30
0.0
 10
852.2718671868953
 20
559.111521386126
 30
0.0
  0
SPLINE
  5
35D
330
1F
100
AcDbEntity
  8
0
  6
Continuous
 62
     7
370
    15
100
AcDbSpline
210
0.0
220
0.0
230
1.0
 70
     8
 71
     3
 72
    13
 73
     9
 74
     0
 42
0.00000001
 43
0.00000001
 12
1.0
 22
0.0
 32
0.0
 13
1.0
 23
0.0
 33
0.0
 40
0.0
 40
0.0
 40
0.0
 40
0.0
 40
0.1275863287107744
 40
0.254673503425199
 40
0.5000497060519659
 40
0.7453956263170936
 40
0.8725370819575834
 40
1.0
 40
1.0
 40
1.0
 40
1.0
 10
852.2718671868953
 20
503.0998799880537
 30
0.0
 10
852.2797102018884
 20
502.9667090590095
 30
0.0
 10
852.29536554777
 20
502.7008882034617
 30
0.0
 10
852.4579511826818
 20
502.2011408870864
 30
0.0
 10
852.8259379826283
 20
501.6537475842517
 30
0.0
 10
853.3749292722048
 20
501.2879818701242
 30
0.0
 10
853.8753200395469
 20
501.1277319277489
 30
0.0
 10
854.1411253590644
 20
501.1131807693668
 30
0.0
 10
854.2741958211574
 20
501.1058960040603
 30
0.0
  0
SPLINE
  5
35E
330
1F
100
AcDbEntity
  8
0
  6
Continuous
 62
     7
370
    15
100
AcDbSpline
210
0.0
220
0.0
230
1.0
 70
     8
 71
     3
 72
    13
 73
     9
 74
     0
 42
0.00000001
 43
0.00000001
 12
1.0
 22
0.0
 32
0.0
 13
1.0
 23
0.0
 33
0.0
 40
0.0
 40
0.0
 40
0.0
 40
0.0
 40
0.1275696198768718
 40
0.2546453520051791
 40
0.5000185697531982
 40
0.7453777493660719
 40
0.8725240120458887
 40
0.9999999999999999
 40
0.9999999999999999
 40
0.9999999999999999
 40
0.9999999999999999
 10
892.271858842245
 20
559.1071516206059
 30
0.0
 10
892.2643045984838
 20
559.240346526756
 30
0.0
 10
892.2492253573323
 20
559.506220672925
 30
0.0
 10
892.0877417087922
 20
560.0063928856943
 30
0.0
 10
891.7209020800134
 20
560.5547066028395
 30
0.0
 10
891.1726132847508
 20
560.921769557265
 30
0.0
 10
890.6724600334585
 20
561.0831941183
 30
0.0
 10
890.4066172424114
 20
561.0983250087352
 30
0.0
 10
890.2735237191829
 20
561.1059002508912
 30
0.0
  0
SPLINE
  5
35F
330
1F
100
AcDbEntity
  8
0
  6
Continuous
 62
     7
370
    15
100
AcDbSpline
210
0.0
220
0.0
230
1.0
 70
     8
 71
     3
 72
    13
 73
     9
 74
     0
 42
0.00000001
 43
0.00000001
 12
1.0
 22
0.0
 32
0.0
 13
1.0
 23
0.0
 33
0.0
 40
0.0
 40
0.0
 40
0.0
 40
0.0
 40
0.1275717443201194
 40
0.2546425669396109
 40
0.499998795787714
 40
0.7453557185866052
 40
0.8725138868044682
 40
1.0
 40
1.0
 40
1.0
 40
1.0
 10
890.2735237191829
 20
501.1058960040603
 30
0.0
 10
890.4067098867014
 20
501.1134512322646
 30
0.0
 10
890.67255925451
 20
501.1285320224038
 30
0.0
 10
891.1726562267941
 20
501.2900419993967
 30
0.0
 10
891.7208749171134
 20
501.6568727249762
 30
0.0
 10
892.0878459046335
 20
502.2051595141538
 30
0.0
 10
892.2491613057822
 20
502.7053193660724
 30
0.0
 10
892.2642865037354
 20
502.9711613192808
 30
0.0
 10
892.271858842245
 20
503.1042534788642
 30
0.0
  0
LINE
  5
360
330
1F
100
AcDbEntity
  8
0
  6
Continuous
 62
     8
370
    15
100
AcDbLine
 10
1208.9790973972
 20
1073.4173942288
 30
0.0
 11
1208.9790973972
 21
930.5528391083
 31
0.0
  0
LINE
  5
361
330
1F
100
AcDbEntity
  8
0
  6
Continuous
 62
     8
370
    15
100
AcDbLine
 10
834.9646452974
 20
1073.4173942288
 30
0.0
 11
834.9646452974
 21
930.5528391083
 31
0.0
  0
LINE
  5
362
330
1F
100
AcDbEntity
  8
0
  6
Continuous
 62
     8
370
    15
100
AcDbLine
 10
1219.9218657027
 20
929.2369771679
 30
0.0
 11
1219.9218657027
 21
929.0058899601
 31
0.0
  0
LINE
  5
363
330
1F
100
AcDbEntity
  8
0
  6
Continuous
 62
     8
370
    15
100
AcDbLine
 10
824.0218583654
 20
929.0058899601
 30
0.0
 11
824.0218583654
 21
929.2369771679
 31
0.0
  0
LINE
  5
364
330
1F
100
AcDbEntity
  8
0
  6
Continuous
 62
     8
370
    15
100
AcDbLine
 10
994.2218635391
 20
1073.7649191102
 30
0.0
 11
994.2218635391
 21
1072.6035822114
 31
0.0
  0
LINE
  5
365
330
1F
100
AcDbEntity
  8
0
  6
Continuous
 62
     8
370
    15
100
AcDbLine
 10
1051.2218672942
 20
1072.6035822114
 30
0.0
 11
1051.2218672942
 21
1073.7649191102
 31
0.0
  0
LINE
  5
366
330
1F
100
AcDbEntity
  8
0
  6
Continuous
 62
     8
370
    15
100
AcDbLine
 10
999.2218587707
 20
1069.4486487587
 30
0.0
 11
999.2218587707
 21
1069.8505628785
 31
0.0
  0
LINE
  5
367
330
1F
100
AcDbEntity
  8
0
  6
Continuous
 62
     8
370
    15
100
AcDbLine
 10
1000.2218607973
 20
1069.4486487587
 30
0.0
 11
1000.2218607973
 21
1069.8505628785
 31
0.0
  0
LINE
  5
368
330
1F
100
AcDbEntity
  8
0
  6
Continuous
 62
     8
370
    15
100
AcDbLine
 10
1010.2218661617
 20
1069.8505628785
 30
0.0
 11
1010.2218661617
 21
1069.4486487587
 31
0.0
  0
LINE
  5
369
330
1F
100
AcDbEntity
  8
0
  6
Continuous
 62
     8
370
    15
100
AcDbLine
 10
1046.221864612
 20
1069.8505628785
 30
0.0
 11
1046.221864612
 21
1069.4486487587
 31
0.0
  0
ARC
  5
36A
330
1F
100
AcDbEntity
  8
0
  6
Continuous
 62
     8
370
    15
100
AcDbCircle
 10
1027.4207978783
 20
967.9887266493
 30
0.0
 40
3.579795780195979
100
AcDbArc
 50
297.1404434793
 51
352.7441465504
  0
LINE
  5
36B
330
1F
100
AcDbEntity
  8
0
  6
Continuous
 62
     8
370
    15
100
AcDbLine
 10
1019.9719194482
 20
1063.8240266522
 30
0.0
 11
1019.9719194482
 21
967.5365973195
 31
0.0
  0
LINE
  5
36C
330
1F
100
AcDbEntity
  8
0
  6
Continuous
 62
     8
370
    15
100
AcDbLine
 10
1034.4718072723
 20
962.0366085251
 30
0.0
 11
1034.4718072723
 21
1063.8274539193
 31
0.0
  0
LINE
  5
36D
330
1F
100
AcDbEntity
  8
0
  6
Continuous
 62
     8
370
    15
100
AcDbLine
 10
1008.9719269584
 20
1069.3240154465
 30
0.0
 11
1008.9719269584
 21
962.0366085251
 31
0.0
  0
LINE
  5
36E
330
1F
100
AcDbEntity
  8
0
  6
Continuous
 62
     8
370
    15
100
AcDbLine
 10
1047.4718038152
 20
956.5365899285
 30
0.0
 11
1047.4718038152
 21
1069.3274725159
 31
0.0
  0
LINE
  5
36F
330
1F
100
AcDbEntity
  8
0
  6
Continuous
 62
     8
370
    15
100
AcDbLine
 10
997.9719195675
 20
1069.3240154465
 30
0.0
 11
997.9719195675
 21
956.5365899285
 31
0.0
  0
LINE
  5
370
330
1F
100
AcDbEntity
  8
0
  6
Continuous
 62
     8
370
    15
100
AcDbLine
 10
1001.4718000005
 20
962.0366085251
 30
0.0
 11
1001.4718000005
 21
1069.3274725159
 31
0.0
  0
ARC
  5
371
330
1F
100
AcDbEntity
  8
0
  6
Continuous
 62
     8
370
    15
100
AcDbCircle
 10
1005.0367599599
 20
962.4943457283
 30
0.0
 40
3.594226322738202
100
AcDbArc
 50
187.3166862428
 51
243.2921098667
  0
ARC
  5
372
330
1F
100
AcDbEntity
  8
0
  6
Continuous
 62
     8
370
    15
100
AcDbCircle
 10
1038.4209598409
 20
962.4886197119
 30
0.0
 40
3.579620135303496
100
AcDbArc
 50
297.1391044379
 51
352.7456948777
  0
ARC
  5
373
330
1F
100
AcDbEntity
  8
0
  6
Continuous
 62
     8
370
    15
100
AcDbCircle
 10
1016.0369313516
 20
967.994441916
 30
0.0
 40
3.594402665997257
100
AcDbArc
 50
187.318051254
 51
243.2903317659
  0
LINE
  5
374
330
1F
100
AcDbEntity
  8
0
  6
Continuous
 62
     8
370
    15
100
AcDbLine
 10
1021.2218586515
 20
1064.3505442818
 30
0.0
 11
1021.2218586515
 21
1063.9486599644
 31
0.0
  0
LINE
  5
375
330
1F
100
AcDbEntity
  8
0
  6
Continuous
 62
     8
370
    15
100
AcDbLine
 10
1033.221868069
 20
1064.3505442818
 30
0.0
 11
1033.221868069
 21
1063.9486301621
 31
0.0
  0
LINE
  5
376
330
1F
100
AcDbEntity
  8
0
  6
Continuous
 62
     8
370
    15
100
AcDbLine
 10
1021.2218586515
 20
962.4486256321
 30
0.0
 11
1021.2218586515
 21
962.8505695542
 31
0.0
  0
LWPOLYLINE
  5
377
330
1F
100
AcDbEntity
  8
0
  6
Continuous
 62
     8
370
    15
100
AcDbPolyline
 90
        3
 70
   128
 43
0.0
 10
1013.3988235305
 20
966.9953275403
 10
1013.5491464447
 20
966.2322390755
 10
1013.6369440864
 20
966.0376299103
  0
LWPOLYLINE
  5
378
330
1F
100
AcDbEntity
  8
0
  6
Continuous
 62
     8
370
    15
100
AcDbPolyline
 90
        3
 70
   128
 43
0.0
 10
1029.84484771
 20
966.1163974484
 10
1029.8945877861
 20
966.2322390755
 10
1030.044895799
 20
966.9953275403
  0
LINE
  5
379
330
1F
100
AcDbEntity
  8
0
  6
Continuous
 62
     8
370
    15
100
AcDbLine
 10
1022.2218606781
 20
962.4486256321
 30
0.0
 11
1022.2218606781
 21
962.8505695542
 31
0.0
  0
LINE
  5
37A
330
1F
100
AcDbEntity
  8
0
  6
Continuous
 62
     8
370
    15
100
AcDbLine
 10
1010.2218661617
 20
956.9486368378
 30
0.0
 11
1010.2218661617
 21
957.3505509575
 31
0.0
  0
LWPOLYLINE
  5
37B
330
1F
100
AcDbEntity
  8
0
  6
Continuous
 62
     8
370
    15
100
AcDbPolyline
 90
        3
 70
   128
 43
0.0
 10
1002.3988310407
 20
961.4953387459
 10
1002.5491539549
 20
960.7322502812
 10
1002.6369366954
 20
960.537641116
  0
LWPOLYLINE
  5
37C
330
1F
100
AcDbEntity
  8
0
  6
Continuous
 62
     8
370
    15
100
AcDbPolyline
 90
        3
 70
   128
 43
0.0
 10
1040.8448401998
 20
960.6164086541
 10
1040.8945802759
 20
960.7322502812
 10
1041.04490319
 20
961.4953387459
  0
LINE
  5
37D
330
1F
100
AcDbEntity
  8
0
  6
Continuous
 62
     8
370
    15
100
AcDbLine
 10
1033.221868069
 20
956.9486368378
 30
0.0
 11
1033.221868069
 21
957.3505509575
 31
0.0
  0
LINE
  5
37E
330
1F
100
AcDbEntity
  8
0
  6
Continuous
 62
     8
370
    15
100
AcDbLine
 10
994.2218635391
 20
951.6035903176
 30
0.0
 11
994.2218635391
 21
951.8715429982
 31
0.0
  0
LINE
  5
37F
330
1F
100
AcDbEntity
  8
0
  6
Continuous
 62
     8
370
    15
100
AcDbLine
 10
1051.2218672942
 20
951.8715429982
 30
0.0
 11
1051.2218672942
 21
951.6035903176
 31
0.0
  0
LINE
  5
380
330
1F
100
AcDbEntity
  8
0
  6
Continuous
 62
     8
370
    15
100
AcDbLine
 10
846.2518278669
 20
1073.7649191102
 30
0.0
 11
846.2518278669
 21
963.3134294232
 31
0.0
  0
LINE
  5
381
330
1F
100
AcDbEntity
  8
0
  6
Continuous
 62
     8
370
    15
100
AcDbLine
 10
1197.691892476
 20
963.3134294232
 30
0.0
 11
1197.691892476
 21
1073.7649191102
 31
0.0
  0
LINE
  5
382
330
1F
100
AcDbEntity
  8
0
  6
Continuous
 62
     8
370
    15
100
AcDbLine
 10
847.4592391561
 20
964.6542359074
 30
0.0
 11
847.4592391561
 21
1073.7649191102
 31
0.0
  0
LINE
  5
383
330
1F
100
AcDbEntity
  8
0
  6
Continuous
 62
     8
370
    15
100
AcDbLine
 10
1196.484484912
 20
1073.7649191102
 30
0.0
 11
1196.484484912
 21
964.6542359074
 31
0.0
  0
LINE
  5
384
330
1F
100
AcDbEntity
  8
0
  6
Continuous
 62
     8
370
    15
100
AcDbLine
 10
1196.484484912
 20
964.6542359074
 30
0.0
 11
1053.2218638967
 21
964.6542359074
 31
0.0
  0
LINE
  5
385
330
1F
100
AcDbEntity
  8
0
  6
Continuous
 62
     8
370
    15
100
AcDbLine
 10
992.221859486
 20
964.6542359074
 30
0.0
 11
847.4592391561
 21
964.6542359074
 31
0.0
  0
LINE
  5
386
330
1F
100
AcDbEntity
  8
0
  6
Continuous
 62
     8
370
    15
100
AcDbLine
 10
846.2383572172
 20
962.9466820439
 30
0.0
 11
992.221859486
 21
962.9466820439
 31
0.0
  0
LINE
  5
387
330
1F
100
AcDbEntity
  8
0
  6
Continuous
 62
     8
370
    15
100
AcDbLine
 10
1053.2218638967
 20
962.9466820439
 30
0.0
 11
1197.7053743015
 21
962.9466820439
 31
0.0
  0
LINE
  5
388
330
1F
100
AcDbEntity
  8
0
  6
Continuous
 62
     8
370
    15
100
AcDbLine
 10
1221.9511542629
 20
771.5059060534
 30
0.0
 11
1221.971866877
 21
771.5059060534
 31
0.0
  0
LINE
  5
389
330
1F
100
AcDbEntity
  8
0
  6
Continuous
 62
     8
370
    15
100
AcDbLine
 10
821.9925884317
 20
771.5059060534
 30
0.0
 11
821.9718758176
 21
771.5059060534
 31
0.0
  0
LINE
  5
38A
330
1F
100
AcDbEntity
  8
0
  6
Continuous
 62
     8
370
    15
100
AcDbLine
 10
824.3218783449
 20
594.0558992257
 30
0.0
 11
824.3218783449
 21
595.2988283639
 31
0.0
  0
LINE
  5
38B
330
1F
100
AcDbEntity
  8
0
  6
Continuous
 62
     8
370
    15
100
AcDbLine
 10
1220.2218633305
 20
595.2988283639
 30
0.0
 11
1220.2218633305
 21
594.0558992257
 31
0.0
  0
LINE
  5
38C
330
1F
100
AcDbEntity
  8
0
  6
Continuous
 62
     8
370
    15
100
AcDbLine
 10
1033.0925706934
 20
691.6122350772
 30
0.0
 11
1033.0925706934
 21
691.9577259501
 31
0.0
  0
LINE
  5
38D
330
1F
100
AcDbEntity
  8
0
  6
Continuous
 62
     8
370
    15
100
AcDbLine
 10
1009.4925735305
 20
691.6122350772
 30
0.0
 11
1009.4925735305
 21
691.9577259501
 31
0.0
  0
LINE
  5
38E
330
1F
100
AcDbEntity
  8
0
  6
Continuous
 62
     8
370
    15
100
AcDbLine
 10
824.3218783449
 20
719.6878630599
 30
0.0
 11
824.3218783449
 21
718.8935715636
 31
0.0
  0
LINE
  5
38F
330
1F
100
AcDbEntity
  8
0
  6
Continuous
 62
     8
370
    15
100
AcDbLine
 10
824.3218783449
 20
596.6058995505
 30
0.0
 11
824.3218783449
 21
596.1058994686
 31
0.0
  0
LINE
  5
390
330
1F
100
AcDbEntity
  8
0
  6
Continuous
 62
     8
370
    15
100
AcDbLine
 10
824.3218783449
 20
595.3058998962
 30
0.0
 11
824.3218783449
 21
594.0558992257
 31
0.0
  0
LINE
  5
391
330
1F
100
AcDbEntity
  8
0
  6
Continuous
 62
     8
370
    15
100
AcDbLine
 10
1219.9218657027
 20
596.1058994686
 30
0.0
 11
1219.9218657027
 21
596.6058995505
 31
0.0
  0
LINE
  5
392
330
1F
100
AcDbEntity
  8
0
  6
Continuous
 62
     8
370
    15
100
AcDbLine
 10
1219.9218657027
 20
718.8935715636
 30
0.0
 11
1219.9218657027
 21
719.6878630599
 31
0.0
  0
LINE
  5
393
330
1F
100
AcDbEntity
  8
0
  6
Continuous
 62
     8
370
    15
100
AcDbLine
 10
1200.2218637775
 20
324.4059074601
 30
0.0
 11
1143.2218656104
 21
324.4059074601
 31
0.0
  0
LINE
  5
394
330
1F
100
AcDbEntity
  8
0
  6
Continuous
 62
     8
370
    15
100
AcDbLine
 10
901.5218738626
 20
324.4059074601
 30
0.0
 11
844.5218626569
 21
324.4059074601
 31
0.0
  0
LINE
  5
395
330
1F
100
AcDbEntity
  8
0
  6
Continuous
 62
     8
370
    15
100
AcDbLine
 10
904.9218718122
 20
468.9059022745
 30
0.0
 11
841.1218647073
 21
468.9059022745
 31
0.0
  0
LINE
  5
396
330
1F
100
AcDbEntity
  8
0
  6
Continuous
 62
     8
370
    15
100
AcDbLine
 10
904.9218718122
 20
382.4384648284
 30
0.0
 11
841.1218647073
 21
382.4384648284
 31
0.0
  0
LINE
  5
397
330
1F
100
AcDbEntity
  8
0
  6
Continuous
 62
     8
370
    15
100
AcDbLine
 10
904.8579458307
 20
381.6660035332
 30
0.0
 11
841.1857906889
 21
381.6660035332
 31
0.0
  0
LINE
  5
398
330
1F
100
AcDbEntity
  8
0
  6
Continuous
 62
     8
370
    15
100
AcDbLine
 10
1203.6218654524
 20
468.9059022745
 30
0.0
 11
1139.8218657981
 21
468.9059022745
 31
0.0
  0
LINE
  5
399
330
1F
100
AcDbEntity
  8
0
  6
Continuous
 62
     8
370
    15
100
AcDbLine
 10
1203.6218654524
 20
382.4384648284
 30
0.0
 11
1139.8218657981
 21
382.4384648284
 31
0.0
  0
LINE
  5
39A
330
1F
100
AcDbEntity
  8
0
  6
Continuous
 62
     8
370
    15
100
AcDbLine
 10
1203.5579506467
 20
381.6660035332
 30
0.0
 11
1139.8857787411
 21
381.6660035332
 31
0.0
  0
ENDSEC
  0
SECTION
  2
OBJECTS
  0
DICTIONARY
  5
C
330
0
100
AcDbDictionary
281
     1
  3
ACAD_GROUP
350
D
  3
ACAD_LAYOUT
350
1A
  3
ACAD_MLINESTYLE
350
17
  3
ACAD_PLOTSETTINGS
350
19
  3
ACAD_PLOTSTYLENAME
350
E
  0
DICTIONARY
  5
D
102
{ACAD_REACTORS
330
C
102
}
330
C
100
AcDbDictionary
281
     1
  0
DICTIONARY
  5
1A
102
{ACAD_REACTORS
330
C
102
}
330
C
100
AcDbDictionary
281
     1
  3
Layout1
350
1E
  3
Layout2
350
26
  3
Model
350
22
  0
DICTIONARY
  5
17
102
{ACAD_REACTORS
330
C
102
}
330
C
100
AcDbDictionary
281
     1
  3
Standard
350
18
  0
DICTIONARY
  5
19
102
{ACAD_REACTORS
330
C
102
}
330
C
100
AcDbDictionary
281
     1
  0
ACDBDICTIONARYWDFLT
  5
E
102
{ACAD_REACTORS
330
C
102
}
330
C
100
AcDbDictionary
281
     1
  3
Normal
350
F
100
AcDbDictionaryWithDefault
340
F
  0
LAYOUT
  5
1E
102
{ACAD_REACTORS
330
1A
102
}
330
1A
100
AcDbPlotSettings
  1

  2
none_device
  4

  6

 40
0.0
 41
0.0
 42
0.0
 43
0.0
 44
0.0
 45
0.0
 46
0.0
 47
0.0
 48
0.0
 49
0.0
140
0.0
141
0.0
142
1.0
143
1.0
 70
   688
 72
     0
 73
     0
 74
     5
  7

 75
    16
147
1.0
148
0.0
149
0.0
100
AcDbLayout
  1
Layout1
 70
     1
 71
     1
 10
0.0
 20
0.0
 11
420.0
 21
297.0
 12
0.0
 22
0.0
 32
0.0
 14
1.0000000000E+20
 24
1.0000000000E+20
 34
1.0000000000E+20
 15
-1.0000000000E+20
 25
-1.0000000000E+20
 35
-1.0000000000E+20
146
0.0
 13
0.0
 23
0.0
 33
0.0
 16
1.0
 26
0.0
 36
0.0
 17
0.0
 27
1.0
 37
0.0
 76
     0
330
1B
  0
LAYOUT
  5
26
102
{ACAD_REACTORS
330
1A
102
}
330
1A
100
AcDbPlotSettings
  1

  2
none_device
  4

  6

 40
0.0
 41
0.0
 42
0.0
 43
0.0
 44
0.0
 45
0.0
 46
0.0
 47
0.0
 48
0.0
 49
0.0
140
0.0
141
0.0
142
1.0
143
1.0
 70
   688
 72
     0
 73
     0
 74
     5
  7

 75
    16
147
1.0
148
0.0
149
0.0
100
AcDbLayout
  1
Layout2
 70
     1
 71
     2
 10
0.0
 20
0.0
 11
0.0
 21
0.0
 12
0.0
 22
0.0
 32
0.0
 14
0.0
 24
0.0
 34
0.0
 15
0.0
 25
0.0
 35
0.0
146
0.0
 13
0.0
 23
0.0
 33
0.0
 16
1.0
 26
0.0
 36
0.0
 17
0.0
 27
1.0
 37
0.0
 76
     0
330
23
  0
LAYOUT
  5
22
102
{ACAD_REACTORS
330
1A
102
}
330
1A
100
AcDbPlotSettings
  1

  2
none_device
  4

  6

 40
0.0
 41
0.0
 42
0.0
 43
0.0
 44
0.0
 45
0.0
 46
0.0
 47
0.0
 48
0.0
 49
0.0
140
0.0
141
0.0
142
1.0
143
1.0
 70
  1712
 72
     0
 73
     0
 74
     0
  7

 75
     0
147
1.0
148
0.0
149
0.0
100
AcDbLayout
  1
Model
 70
     1
 71
     0
 10
0.0
 20
0.0
 11
2159.0
 21
1397.0
 12
0.0
 22
0.0
 32
0.0
 14
0.0
 24
0.0
 34
0.0
 15
2159.0
 25
1397.0
 35
0.0
146
0.0
 13
0.0
 23
0.0
 33
0.0
 16
1.0
 26
0.0
 36
0.0
 17
0.0
 27
1.0
 37
0.0
 76
     0
330
1F
331
29
  0
MLINESTYLE
  5
18
102
{ACAD_REACTORS
330
17
102
}
330
17
100
AcDbMlineStyle
  2
Standard
 70
     0
  3

 62
   256
 51
90.0
 52
90.0
 71
     2
 49
0.5
 62
   256
  6
BYLAYER
 49
-0.5
 62
   256
  6
BYLAYER
  0
ACDBPLACEHOLDER
  5
F
102
{ACAD_REACTORS
330
E
102
}
330
E
  0
ENDSEC
  0
EOF
