  0
SECTION
  2
HEADER
  9
$ACADVER
  1
AC1021
  9
$ACADMAINTVER
 70
    25
  9
$DWGCODEPAGE
  3
ANSI_1252
  9
$INSBASE
 10
0.0
 20
0.0
 30
0.0
  9
$EXTMIN
 10
0.0
 20
0.0
 30
0.0
  9
$EXTMAX
 10
841.0
 20
594.0
 30
0.0
  9
$LIMMIN
 10
0.0
 20
0.0
  9
$LIMMAX
 10
841.0
 20
594.0
  9
$ORTHOMODE
 70
     0
  9
$REGENMODE
 70
     1
  9
$FILLMODE
 70
     1
  9
$QTEXTMODE
 70
     0
  9
$MIRRTEXT
 70
     1
  9
$LTSCALE
 40
1.0
  9
$ATTMODE
 70
     1
  9
$TEXTSIZE
 40
3.5
  9
$TRACEWID
 40
1.0
  9
$TEXTSTYLE
  7
Standard
  9
$CLAYER
  8
0
  9
$CELTYPE
  6
ByLayer
  9
$CECOLOR
 62
   256
  9
$CELTSCALE
 40
1.0
  9
$DISPSILH
 70
     0
  9
$DIMSCALE
 40
1.0
  9
$DIMASZ
 40
3.302
  9
$DIMEXO
 40
1.0
  9
$DIMDLI
 40
3.75
  9
$DIMRND
 40
0.0
  9
$DIMDLE
 40
0.0
  9
$DIMEXE
 40
1.0
  9
$DIMTP
 40
0.0
  9
$DIMTM
 40
0.0
  9
$DIMTXT
 40
3.5
  9
$DIMCEN
 40
2.5
  9
$DIMTSZ
 40
0.0
  9
$DIMTOL
 70
     0
  9
$DIMLIM
 70
     0
  9
$DIMTIH
 70
     1
  9
$DIMTOH
 70
     1
  9
$DIMSE1
 70
     0
  9
$DIMSE2
 70
     0
  9
$DIMTAD
 70
     1
  9
$DIMZIN
 70
     0
  9
$DIMBLK
  1

  9
$DIMASO
 70
     1
  9
$DIMSHO
 70
     1
  9
$DIMPOST
  1

  9
$DIMAPOST
  1

  9
$DIMALT
 70
     0
  9
$DIMALTD
 70
     3
  9
$DIMALTF
 40
0.0393700787
  9
$DIMLFAC
 40
1.0
  9
$DIMTOFL
 70
     1
  9
$DIMTVP
 40
0.0
  9
$DIMTIX
 70
     0
  9
$DIMSOXD
 70
     0
  9
$DIMSAH
 70
     0
  9
$DIMBLK1
  1

  9
$DIMBLK2
  1

  9
$DIMSTYLE
  2
ISO-25
  9
$DIMCLRD
 70
     0
  9
$DIMCLRE
 70
     0
  9
$DIMCLRT
 70
     0
  9
$DIMTFAC
 40
1.0
  9
$DIMGAP
 40
1.524
  9
$DIMJUST
 70
     0
  9
$DIMSD1
 70
     0
  9
$DIMSD2
 70
     0
  9
$DIMTOLJ
 70
     0
  9
$DIMTZIN
 70
     0
  9
$DIMALTZ
 70
     0
  9
$DIMALTTZ
 70
     0
  9
$DIMUPT
 70
     0
  9
$DIMDEC
 70
     1
  9
$DIMTDEC
 70
     1
  9
$DIMALTU
 70
     2
  9
$DIMALTTD
 70
     3
  9
$DIMTXSTY
  7
Standard
  9
$DIMAUNIT
 70
     0
  9
$DIMADEC
 70
     1
  9
$DIMALTRND
 40
0.0
  9
$DIMAZIN
 70
     0
  9
$DIMDSEP
 70
    44
  9
$DIMATFIT
 70
     3
  9
$DIMFRAC
 70
     0
  9
$DIMLDRBLK
  1

  9
$DIMLUNIT
 70
     2
  9
$DIMLWD
 70
    -2
  9
$DIMLWE
 70
    -2
  9
$DIMTMOVE
 70
     0
  9
$DIMFXL
 40
1.0
  9
$DIMFXLON
 70
     0
  9
$DIMJOGANG
 40
0.7853981634
  9
$DIMTFILL
 70
     0
  9
$DIMTFILLCLR
 70
     0
  9
$DIMARCSYM
 70
     0
  9
$DIMLTYPE
  6

  9
$DIMLTEX1
  6

  9
$DIMLTEX2
  6

  9
$LUNITS
 70
     2
  9
$LUPREC
 70
     1
  9
$SKETCHINC
 40
1.0
  9
$FILLETRAD
 40
10.0
  9
$AUNITS
 70
     0
  9
$AUPREC
 70
     1
  9
$MENU
  1
.
  9
$ELEVATION
 40
0.0
  9
$PELEVATION
 40
0.0
  9
$THICKNESS
 40
0.0
  9
$LIMCHECK
 70
     0
  9
$CHAMFERA
 40
10.0
  9
$CHAMFERB
 40
10.0
  9
$CHAMFERC
 40
20.0
  9
$CHAMFERD
 40
0.0
  9
$SKPOLY
 70
     0
  9
$TDCREATE
 40
2455870.359082569
  9
$TDUCREATE
 40
2455870.359082569
  9
$TDUPDATE
 40
2455870.359082581
  9
$TDUUPDATE
 40
2455870.359082581
  9
$TDINDWG
 40
0.0000000116
  9
$TDUSRTIMER
 40
0.0000000116
  9
$USRTIMER
 70
     1
  9
$ANGBASE
 50
0.0
  9
$ANGDIR
 70
     0
  9
$PDMODE
 70
     0
  9
$PDSIZE
 40
-1.0
  9
$PLINEWID
 40
0.0
  9
$SPLFRAME
 70
     0
  9
$SPLINETYPE
 70
     6
  9
$SPLINESEGS
 70
     8
  9
$HANDSEED
  5
425
  9
$SURFTAB1
 70
     6
  9
$SURFTAB2
 70
     6
  9
$SURFTYPE
 70
     6
  9
$SURFU
 70
     6
  9
$SURFV
 70
     6
  9
$UCSBASE
  2

  9
$UCSNAME
  2

  9
$UCSORG
 10
0.0
 20
0.0
 30
0.0
  9
$UCSXDIR
 10
1.0
 20
0.0
 30
0.0
  9
$UCSYDIR
 10
0.0
 20
1.0
 30
0.0
  9
$UCSORTHOREF
  2

  9
$UCSORTHOVIEW
 70
     0
  9
$UCSORGTOP
 10
0.0
 20
0.0
 30
0.0
  9
$UCSORGBOTTOM
 10
0.0
 20
0.0
 30
0.0
  9
$UCSORGLEFT
 10
0.0
 20
0.0
 30
0.0
  9
$UCSORGRIGHT
 10
0.0
 20
0.0
 30
0.0
  9
$UCSORGFRONT
 10
0.0
 20
0.0
 30
0.0
  9
$UCSORGBACK
 10
0.0
 20
0.0
 30
0.0
  9
$PUCSBASE
  2

  9
$PUCSNAME
  2

  9
$PUCSORG
 10
0.0
 20
0.0
 30
0.0
  9
$PUCSXDIR
 10
1.0
 20
0.0
 30
0.0
  9
$PUCSYDIR
 10
0.0
 20
1.0
 30
0.0
  9
$PUCSORTHOREF
  2

  9
$PUCSORTHOVIEW
 70
     0
  9
$PUCSORGTOP
 10
0.0
 20
0.0
 30
0.0
  9
$PUCSORGBOTTOM
 10
0.0
 20
0.0
 30
0.0
  9
$PUCSORGLEFT
 10
0.0
 20
0.0
 30
0.0
  9
$PUCSORGRIGHT
 10
0.0
 20
0.0
 30
0.0
  9
$PUCSORGFRONT
 10
0.0
 20
0.0
 30
0.0
  9
$PUCSORGBACK
 10
0.0
 20
0.0
 30
0.0
  9
$USERI1
 70
     0
  9
$USERI2
 70
     0
  9
$USERI3
 70
     0
  9
$USERI4
 70
     0
  9
$USERI5
 70
     0
  9
$USERR1
 40
0.0
  9
$USERR2
 40
0.0
  9
$USERR3
 40
0.0
  9
$USERR4
 40
0.0
  9
$USERR5
 40
0.0
  9
$WORLDVIEW
 70
     1
  9
$SHADEDGE
 70
     3
  9
$SHADEDIF
 70
    70
  9
$TILEMODE
 70
     1
  9
$MAXACTVP
 70
    64
  9
$PINSBASE
 10
0.0
 20
0.0
 30
0.0
  9
$PLIMCHECK
 70
     0
  9
$PEXTMIN
 10
1.0000000000E+20
 20
1.0000000000E+20
 30
1.0000000000E+20
  9
$PEXTMAX
 10
-1.0000000000E+20
 20
-1.0000000000E+20
 30
-1.0000000000E+20
  9
$PLIMMIN
 10
0.0
 20
0.0
  9
$PLIMMAX
 10
420.0
 20
297.0
  9
$UNITMODE
 70
     0
  9
$VISRETAIN
 70
     1
  9
$PLINEGEN
 70
     0
  9
$PSLTSCALE
 70
     1
  9
$TREEDEPTH
 70
  3020
  9
$CMLSTYLE
  2
Standard
  9
$CMLJUST
 70
     0
  9
$CMLSCALE
 40
20.0
  9
$PROXYGRAPHICS
 70
     1
  9
$MEASUREMENT
 70
     1
  9
$CELWEIGHT
370
    -1
  9
$ENDCAPS
280
     0
  9
$JOINSTYLE
280
     0
  9
$LWDISPLAY
290
     1
  9
$INSUNITS
 70
     4
  9
$HYPERLINKBASE
  1

  9
$STYLESHEET
  1

  9
$XEDIT
290
     1
  9
$CEPSNTYPE
380
     0
  9
$PSTYLEMODE
290
     1
  9
$FINGERPRINTGUID
  2
{E0962C15-5E32-4E79-B336-4A719200C20E}
  9
$VERSIONGUID
  2
{FAEB1C32-E019-11D5-929B-00C0DF256EC4}
  9
$EXTNAMES
290
     1
  9
$PSVPSCALE
 40
0.0
  9
$OLESTARTUP
290
     0
  9
$SORTENTS
280
   127
  9
$INDEXCTL
280
     0
  9
$HIDETEXT
280
     1
  9
$XCLIPFRAME
290
     0
  9
$HALOGAP
280
     0
  9
$OBSCOLOR
 70
   257
  9
$OBSLTYPE
280
     0
  9
$INTERSECTIONDISPLAY
280
     0
  9
$INTERSECTIONCOLOR
 70
   257
  9
$DIMASSOC
280
     2
  9
$PROJECTNAME
  1

  9
$CAMERADISPLAY
290
     0
  9
$LENSLENGTH
 40
50.0
  9
$CAMERAHEIGHT
 40
0.0
  9
$STEPSPERSEC
 40
2.0
  9
$STEPSIZE
 40
6.0
  9
$3DDWFPREC
 40
2.0
  9
$PSOLWIDTH
 40
5.0
  9
$PSOLHEIGHT
 40
80.0
  9
$LOFTANG1
 40
1.5707963268
  9
$LOFTANG2
 40
1.5707963268
  9
$LOFTMAG1
 40
0.0
  9
$LOFTMAG2
 40
0.0
  9
$LOFTPARAM
 70
     7
  9
$LOFTNORMALS
280
     1
  9
$LATITUDE
 40
37.795
  9
$LONGITUDE
 40
-122.394
  9
$NORTHDIRECTION
 40
0.0
  9
$TIMEZONE
 70
 -8000
  9
$LIGHTGLYPHDISPLAY
280
     1
  9
$TILEMODELIGHTSYNCH
280
     1
  9
$SOLIDHIST
280
     1
  9
$SHOWHIST
280
     1
  9
$DWFFRAME
280
     2
  9
$DGNFRAME
280
     2
  9
$REALWORLDSCALE
290
     1
  9
$INTERFERECOLOR
 62
   256
  9
$CSHADOW
280
     0
  9
$SHADOWPLANELOCATION
 40
0.0
  0
ENDSEC
  0
SECTION
  2
CLASSES
  0
CLASS
  1
ACDBDICTIONARYWDFLT
  2
AcDbDictionaryWithDefault
  3
ObjectDBX Classes
 90
        0
 91
        4
280
     0
281
     0
  0
CLASS
  1
VISUALSTYLE
  2
AcDbVisualStyle
  3
ObjectDBX Classes
 90
     4095
 91
        4
280
     0
281
     0
  0
CLASS
  1
MATERIAL
  2
AcDbMaterial
  3
ObjectDBX Classes
 90
     1153
 91
        4
280
     0
281
     0
  0
ENDSEC
  0
SECTION
  2
TABLES
  0
TABLE
  2
VPORT
  5
8
330
0
100
AcDbSymbolTable
 70
     1
  0
VPORT
  5
29
330
8
100
AcDbSymbolTableRecord
100
AcDbViewportTableRecord
  2
*Active
 70
     0
 10
0.0
 20
0.0
 11
1.0
 21
1.0
 12
420.5
 22
297.0
 13
0.0
 23
0.0
 14
10.0
 24
10.0
 15
10.0
 25
10.0
 16
0.0
 26
0.0
 36
1.0
 17
0.0
 27
0.0
 37
0.0
 40
594.0
 41
1.4158249158
 42
50.0
 43
0.0
 44
0.0
 50
0.0
 51
0.0
 71
     0
 72
  2000
 73
     1
 74
     3
 75
     0
 76
     0
 77
     0
 78
     0
281
     0
 65
     1
110
0.0
120
0.0
130
0.0
111
1.0
121
0.0
131
0.0
112
0.0
122
1.0
132
0.0
 79
     0
146
0.0
 60
     3
 61
     5
292
     1
282
     1
141
0.0
142
0.0
 63
   250
  0
ENDTAB
  0
TABLE
  2
LTYPE
  5
5
330
0
100
AcDbSymbolTable
 70
     6
  0
LTYPE
  5
14
330
5
100
AcDbSymbolTableRecord
100
AcDbLinetypeTableRecord
  2
ByBlock
 70
     0
  3

 72
    65
 73
     0
 40
0.0
  0
LTYPE
  5
15
330
5
100
AcDbSymbolTableRecord
100
AcDbLinetypeTableRecord
  2
ByLayer
 70
     0
  3

 72
    65
 73
     0
 40
0.0
  0
LTYPE
  5
16
330
5
100
AcDbSymbolTableRecord
100
AcDbLinetypeTableRecord
  2
Continuous
 70
     0
  3
Solid line
 72
    65
 73
     0
 40
0.0
  0
LTYPE
  5
3F
330
5
100
AcDbSymbolTableRecord
100
AcDbLinetypeTableRecord
  2
HIDDEN
 70
     0
  3
Hidden __ __ __ __ __ __ __ __ __ __ __ __ __ __
 72
    65
 73
     2
 40
1.905
 49
1.27
 74
     0
 49
-0.635
 74
     0
  0
LTYPE
  5
40
330
5
100
AcDbSymbolTableRecord
100
AcDbLinetypeTableRecord
  2
PHANTOM
 70
     0
  3
Phantom ______  __  __  ______  __  __  ______
 72
    65
 73
     6
 40
12.7
 49
6.35
 74
     0
 49
-1.27
 74
     0
 49
1.27
 74
     0
 49
-1.27
 74
     0
 49
1.27
 74
     0
 49
-1.27
 74
     0
  0
LTYPE
  5
41
330
5
100
AcDbSymbolTableRecord
100
AcDbLinetypeTableRecord
  2
CENTER
 70
     0
  3
Center ____ _ ____ _ ____ _ ____ _ ____ _ ____
 72
    65
 73
     4
 40
10.16
 49
6.35
 74
     0
 49
-1.27
 74
     0
 49
1.27
 74
     0
 49
-1.27
 74
     0
  0
LTYPE
  5
42
330
5
100
AcDbSymbolTableRecord
100
AcDbLinetypeTableRecord
  2
CENTERX2
 70
     0
  3
Center (2x) ________  __  ________  __  _____
 72
    65
 73
     4
 40
20.32
 49
12.7
 74
     0
 49
-2.54
 74
     0
 49
2.54
 74
     0
 49
-2.54
 74
     0
  0
LTYPE
  5
43
330
5
100
AcDbSymbolTableRecord
100
AcDbLinetypeTableRecord
  2
DOT2
 70
     0
  3
Dot (.5x) ........................................
 72
    65
 73
     2
 40
0.635
 49
0.0
 74
     0
 49
-0.635
 74
     0
  0
ENDTAB
  0
TABLE
  2
LAYER
  5
2
330
0
100
AcDbSymbolTable
 70
     4
  0
LAYER
  5
10
330
2
100
AcDbSymbolTableRecord
100
AcDbLayerTableRecord
  2
0
 70
     0
 62
     7
  6
Continuous
370
    -3
390
F
347
3E
  0
LAYER
  5
44
330
2
100
AcDbSymbolTableRecord
100
AcDbLayerTableRecord
  2
FORMAT
 70
     0
 62
     7
  6
Continuous
370
    -3
390
F
347
3E
  0
LAYER
  5
45
330
2
100
AcDbSymbolTableRecord
100
AcDbLayerTableRecord
  2
SLD-0
 70
     0
 62
     1
  6
Continuous
370
    -3
390
F
347
3E
  0
LAYER
  5
46
330
2
100
AcDbSymbolTableRecord
100
AcDbLayerTableRecord
  2
WATERMARK
 70
     0
 62
    20
  6
Continuous
370
    -3
390
F
347
3E
  0
ENDTAB
  0
TABLE
  2
STYLE
  5
3
330
0
100
AcDbSymbolTable
 70
     1
  0
STYLE
  5
11
330
3
100
AcDbSymbolTableRecord
100
AcDbTextStyleTableRecord
  2
Standard
 70
     0
 40
0.0
 41
1.0
 50
0.0
 71
     0
 42
2.5
  3
txt
  4

  0
ENDTAB
  0
TABLE
  2
VIEW
  5
6
330
0
100
AcDbSymbolTable
 70
     0
  0
ENDTAB
  0
TABLE
  2
UCS
  5
7
330
0
100
AcDbSymbolTable
 70
     0
  0
ENDTAB
  0
TABLE
  2
APPID
  5
9
330
0
100
AcDbSymbolTable
 70
     1
  0
APPID
  5
12
330
9
100
AcDbSymbolTableRecord
100
AcDbRegAppTableRecord
  2
ACAD
 70
     0
  0
ENDTAB
  0
TABLE
  2
DIMSTYLE
  5
A
330
0
100
AcDbSymbolTable
 70
     1
100
AcDbDimStyleTable
  0
DIMSTYLE
105
27
330
A
100
AcDbSymbolTableRecord
100
AcDbDimStyleTableRecord
  2
ISO-25
 70
     0
 41
2.5
 42
0.625
 43
3.75
 44
1.25
 73
     0
 74
     0
 77
     1
 78
     8
140
2.5
141
2.5
143
0.0393700787
147
0.625
171
     3
172
     1
178
     0
271
     2
272
     2
274
     3
278
    44
283
     0
284
     8
340
11
  0
ENDTAB
  0
TABLE
  2
BLOCK_RECORD
  5
1
330
0
100
AcDbSymbolTable
 70
     1
  0
BLOCK_RECORD
  5
1F
330
1
100
AcDbSymbolTableRecord
100
AcDbBlockTableRecord
  2
*Model_Space
340
22
 70
     0
280
     1
281
     0
  0
BLOCK_RECORD
  5
1B
330
1
100
AcDbSymbolTableRecord
100
AcDbBlockTableRecord
  2
*Paper_Space
340
1E
 70
     0
280
     1
281
     0
  0
BLOCK_RECORD
  5
23
330
1
100
AcDbSymbolTableRecord
100
AcDbBlockTableRecord
  2
*Paper_Space0
340
26
 70
     0
280
     1
281
     0
  0
ENDTAB
  0
ENDSEC
  0
SECTION
  2
BLOCKS
  0
BLOCK
  5
20
330
1F
100
AcDbEntity
  8
0
100
AcDbBlockBegin
  2
*Model_Space
 70
     0
 10
0.0
 20
0.0
 30
0.0
  3
*Model_Space
  1

  0
ENDBLK
  5
21
330
1F
100
AcDbEntity
  8
0
100
AcDbBlockEnd
  0
BLOCK
  5
1C
330
1B
100
AcDbEntity
 67
     1
  8
0
100
AcDbBlockBegin
  2
*Paper_Space
 70
     0
 10
0.0
 20
0.0
 30
0.0
  3
*Paper_Space
  1

  0
ENDBLK
  5
1D
330
1B
100
AcDbEntity
 67
     1
  8
0
100
AcDbBlockEnd
  0
BLOCK
  5
24
330
23
100
AcDbEntity
  8
0
100
AcDbBlockBegin
  2
*Paper_Space0
 70
     0
 10
0.0
 20
0.0
 30
0.0
  3
*Paper_Space0
  1

  0
ENDBLK
  5
25
330
23
100
AcDbEntity
  8
0
100
AcDbBlockEnd
  0
ENDSEC
  0
SECTION
  2
ENTITIES
  0
LINE
  5
47
330
1F
100
AcDbEntity
  8
0
  6
Continuous
 62
     7
370
    15
100
AcDbLine
 10
786.4549822627
 20
199.1207428393
 30
0.0
 11
787.4549693881
 21
199.1207428393
 31
0.0
  0
LINE
  5
48
330
1F
100
AcDbEntity
  8
0
  6
Continuous
 62
     7
370
    15
100
AcDbLine
 10
787.4549693881
 20
203.1206913409
 30
0.0
 11
786.4549822627
 21
203.1206913409
 31
0.0
  0
LINE
  5
49
330
1F
100
AcDbEntity
  8
0
  6
Continuous
 62
     7
370
    15
100
AcDbLine
 10
792.5549812137
 20
-287.3193196836
 30
0.0
 11
786.0699064552
 21
-288.9405660215
 31
0.0
  0
LINE
  5
4A
330
1F
100
AcDbEntity
  8
0
  6
Continuous
 62
     7
370
    15
100
AcDbLine
 10
786.0699064552
 20
-296.6980509344
 30
0.0
 11
792.5549812137
 21
-298.3192972722
 31
0.0
  0
LINE
  5
4B
330
1F
100
AcDbEntity
  8
0
  6
Continuous
 62
     7
370
    15
100
AcDbLine
 10
785.9549887
 20
-296.6656260076
 30
0.0
 11
786.0699064552
 21
-296.6980509344
 31
0.0
  0
LINE
  5
4C
330
1F
100
AcDbEntity
  8
0
  6
Continuous
 62
     7
370
    15
100
AcDbLine
 10
786.0699064552
 20
-288.9405660215
 30
0.0
 11
785.9549887
 21
-288.9729909482
 31
0.0
  0
LINE
  5
4D
330
1F
100
AcDbEntity
  8
0
  6
Continuous
 62
     7
370
    15
100
AcDbLine
 10
792.5549812137
 20
137.6806326327
 30
0.0
 11
785.9549887
 21
137.6806326327
 31
0.0
  0
LINE
  5
4E
330
1F
100
AcDbEntity
  8
0
  6
Continuous
 62
     7
370
    15
100
AcDbLine
 10
785.9549887
 20
117.6806517062
 30
0.0
 11
792.5549812137
 21
117.6806517062
 31
0.0
  0
ARC
  5
4F
330
1F
100
AcDbEntity
  8
0
  6
Continuous
 62
     7
370
    15
100
AcDbCircle
 10
98.6549834193
 20
-148.5443149116
 30
0.0
 40
0.5000000000000568
100
AcDbArc
 50
90.0
 51
180.0
  0
ARC
  5
50
330
1F
100
AcDbEntity
  8
0
  6
Continuous
 62
     7
370
    15
100
AcDbCircle
 10
98.6549834193
 20
-174.5943149116
 30
0.0
 40
0.5000000000000568
100
AcDbArc
 50
180.0
 51
270.0
  0
LINE
  5
51
330
1F
100
AcDbEntity
  8
0
  6
Continuous
 62
     7
370
    15
100
AcDbLine
 10
106.0550279437
 20
-148.0443052831
 30
0.0
 11
98.6549920856
 21
-148.0443052831
 31
0.0
  0
LINE
  5
52
330
1F
100
AcDbEntity
  8
0
  6
Continuous
 62
     7
370
    15
100
AcDbLine
 10
98.6549920856
 20
-175.0943235937
 30
0.0
 11
106.0550279437
 21
-175.0943235937
 31
0.0
  0
ARC
  5
53
330
1F
100
AcDbEntity
  8
0
  6
Continuous
 62
     7
370
    15
100
AcDbCircle
 10
788.1345522763
 20
-82.0922819501
 30
0.0
 40
1.0
100
AcDbArc
 50
180.0
 51
291.8014094864
  0
ARC
  5
54
330
1F
100
AcDbEntity
  8
0
  6
Continuous
 62
     7
370
    15
100
AcDbCircle
 10
788.1345522763
 20
-20.046347873
 30
0.0
 40
1.0
100
AcDbArc
 50
68.1985905136
 51
180.0
  0
LINE
  5
55
330
1F
100
AcDbEntity
  8
0
  6
Continuous
 62
     7
370
    15
100
AcDbLine
 10
788.5059482871
 20
-83.0207638326
 30
0.0
 11
792.5549812137
 21
-81.4011268201
 31
0.0
  0
LINE
  5
56
330
1F
100
AcDbEntity
  8
0
  6
Continuous
 62
     7
370
    15
100
AcDbLine
 10
792.5549812137
 20
-20.737486321
 30
0.0
 11
788.5059482871
 21
-19.1178493085
 31
0.0
  0
LINE
  5
57
330
1F
100
AcDbEntity
  8
0
  6
Continuous
 62
     7
370
    15
100
AcDbLine
 10
787.1345646201
 20
-44.5693306508
 30
0.0
 11
785.9549887
 21
-44.5693306508
 31
0.0
  0
LINE
  5
58
330
1F
100
AcDbEntity
  8
0
  6
Continuous
 62
     7
370
    15
100
AcDbLine
 10
785.9549887
 20
-57.5693420949
 30
0.0
 11
787.1345646201
 21
-57.5693420949
 31
0.0
  0
LINE
  5
59
330
1F
100
AcDbEntity
  8
0
  6
Continuous
 62
     7
370
    15
100
AcDbLine
 10
39.904958707
 20
269.4153614459
 30
0.0
 11
39.904958707
 21
266.415340465
 31
0.0
  0
LINE
  5
5A
330
1F
100
AcDbEntity
  8
0
  6
Continuous
 62
     7
370
    15
100
AcDbLine
 10
62.404996854
 20
266.415340465
 30
0.0
 11
62.404996854
 21
269.4153614459
 31
0.0
  0
LINE
  5
5B
330
1F
100
AcDbEntity
  8
0
  6
Continuous
 62
     7
370
    15
100
AcDbLine
 10
61.6549320041
 20
278.4153051791
 30
0.0
 11
61.6549320041
 21
283.9807100711
 31
0.0
  0
LINE
  5
5C
330
1F
100
AcDbEntity
  8
0
  6
Continuous
 62
     7
370
    15
100
AcDbLine
 10
40.6550235568
 20
283.9807100711
 30
0.0
 11
40.6550235568
 21
278.4153051791
 31
0.0
  0
LINE
  5
5D
330
1F
100
AcDbEntity
  8
0
  6
Continuous
 62
     7
370
    15
100
AcDbLine
 10
60.155040723
 20
283.9807100711
 30
0.0
 11
60.155040723
 21
288.4807415423
 31
0.0
  0
LINE
  5
5E
330
1F
100
AcDbEntity
  8
0
  6
Continuous
 62
     7
370
    15
100
AcDbLine
 10
42.1550340473
 20
288.4807415423
 30
0.0
 11
42.1550340473
 21
283.9807100711
 31
0.0
  0
LINE
  5
5F
330
1F
100
AcDbEntity
  8
0
  6
Continuous
 62
     7
370
    15
100
AcDbLine
 10
60.155040723
 20
288.4807415423
 30
0.0
 11
59.1549939929
 21
288.9807053027
 31
0.0
  0
LINE
  5
60
330
1F
100
AcDbEntity
  8
0
  6
Continuous
 62
     7
370
    15
100
AcDbLine
 10
43.154961568
 20
288.9807053027
 30
0.0
 11
42.1550340473
 21
288.4807415423
 31
0.0
  0
LINE
  5
61
330
1F
100
AcDbEntity
  8
0
  6
Continuous
 62
     7
370
    15
100
AcDbLine
 10
59.1549939929
 20
288.9807053027
 30
0.0
 11
59.1549939929
 21
298.9306278643
 31
0.0
  0
LINE
  5
62
330
1F
100
AcDbEntity
  8
0
  6
Continuous
 62
     7
370
    15
100
AcDbLine
 10
43.154961568
 20
298.9306278643
 30
0.0
 11
43.154961568
 21
288.9807053027
 31
0.0
  0
LINE
  5
63
330
1F
100
AcDbEntity
  8
0
  6
Continuous
 62
     7
370
    15
100
AcDbLine
 10
37.655002576
 20
278.4153051791
 30
0.0
 11
37.655002576
 21
269.4153614459
 31
0.0
  0
LINE
  5
64
330
1F
100
AcDbEntity
  8
0
  6
Continuous
 62
     7
370
    15
100
AcDbLine
 10
64.6549529849
 20
269.4153614459
 30
0.0
 11
64.6549529849
 21
278.4153051791
 31
0.0
  0
LINE
  5
65
330
1F
100
AcDbEntity
  8
0
  6
Continuous
 62
     7
370
    15
100
AcDbLine
 10
56.6549367725
 20
-12.2693352285
 30
0.0
 11
56.6549367725
 21
-0.2693109098
 31
0.0
  0
LINE
  5
66
330
1F
100
AcDbEntity
  8
0
  6
Continuous
 62
     7
370
    15
100
AcDbLine
 10
29.6549863635
 20
-0.2693109098
 30
0.0
 11
29.6549863635
 21
-12.2693352285
 31
0.0
  0
ARC
  5
67
330
1F
100
AcDbEntity
  8
0
  6
Continuous
 62
     7
370
    15
100
AcDbCircle
 10
32.1549834193
 20
-14.0763144434
 30
0.0
 40
0.9999999999999427
100
AcDbArc
 50
180.0
 51
249.4439547804
  0
ARC
  5
68
330
1F
100
AcDbEntity
  8
0
  6
Continuous
 62
     7
370
    15
100
AcDbCircle
 10
54.1549834193
 20
-14.0763144434
 30
0.0
 40
0.9999999999998653
100
AcDbArc
 50
290.5560452196
 51
0.0
  0
LINE
  5
69
330
1F
100
AcDbEntity
  8
0
  6
Continuous
 62
     7
370
    15
100
AcDbLine
 10
31.154996854
 20
-12.2693352285
 30
0.0
 11
31.154996854
 21
-14.0763096395
 31
0.0
  0
LINE
  5
6A
330
1F
100
AcDbEntity
  8
0
  6
Continuous
 62
     7
370
    15
100
AcDbLine
 10
55.1549262821
 20
-14.0763096395
 30
0.0
 11
55.1549262821
 21
-12.2693352285
 31
0.0
  0
LINE
  5
6B
330
1F
100
AcDbEntity
  8
0
  6
Continuous
 62
     7
370
    15
100
AcDbLine
 10
31.803853017
 20
-15.0126390043
 30
0.0
 11
34.5060891925
 21
-16.0259775701
 31
0.0
  0
LINE
  5
6C
330
1F
100
AcDbEntity
  8
0
  6
Continuous
 62
     7
370
    15
100
AcDbLine
 10
53.8216895877
 20
-15.2692966047
 30
0.0
 11
54.506070119
 21
-15.0126390043
 31
0.0
  0
LINE
  5
6D
330
1F
100
AcDbEntity
  8
0
  6
Continuous
 62
     7
370
    15
100
AcDbLine
 10
51.8038339435
 20
-16.0259775701
 30
0.0
 11
53.555018407
 21
-15.3693131986
 31
0.0
  0
LINE
  5
6E
330
1F
100
AcDbEntity
  8
0
  6
Continuous
 62
     7
370
    15
100
AcDbLine
 10
72.6703471958
 20
-35.519319016
 30
0.0
 11
75.6703681766
 21
-35.519319016
 31
0.0
  0
LINE
  5
6F
330
1F
100
AcDbEntity
  8
0
  6
Continuous
 62
     7
370
    15
100
AcDbLine
 10
75.6703681766
 20
-13.0193404737
 30
0.0
 11
72.6703471958
 21
-13.0193404737
 31
0.0
  0
LINE
  5
70
330
1F
100
AcDbEntity
  8
0
  6
Continuous
 62
     7
370
    15
100
AcDbLine
 10
53.555018407
 20
-15.3693131986
 30
0.0
 11
53.1050033389
 21
-16.2693433347
 31
0.0
  0
LINE
  5
71
330
1F
100
AcDbEntity
  8
0
  6
Continuous
 62
     7
370
    15
100
AcDbLine
 10
53.1050033389
 20
-32.269316155
 30
0.0
 11
53.6049670993
 21
-33.2693032804
 31
0.0
  0
LINE
  5
72
330
1F
100
AcDbEntity
  8
0
  6
Continuous
 62
     7
370
    15
100
AcDbLine
 10
56.1820335208
 20
-15.2692966047
 30
0.0
 11
53.8216895877
 21
-15.2692966047
 31
0.0
  0
LINE
  5
73
330
1F
100
AcDbEntity
  8
0
  6
Continuous
 62
     7
370
    15
100
AcDbLine
 10
53.6049670993
 20
-33.2693032804
 30
0.0
 11
56.1820335208
 21
-33.2693032804
 31
0.0
  0
ARC
  5
74
330
1F
100
AcDbEntity
  8
0
  6
Continuous
 62
     7
370
    15
100
AcDbCircle
 10
34.1549834193
 20
-16.9623153797
 30
0.0
 40
1.000000000000334
100
AcDbArc
 50
0.0
 51
69.4439547804
  0
ARC
  5
75
330
1F
100
AcDbEntity
  8
0
  6
Continuous
 62
     7
370
    15
100
AcDbCircle
 10
52.1549834193
 20
-16.9623153797
 30
0.0
 40
1.000000000000177
100
AcDbArc
 50
110.5560452196
 51
137.1170737126
  0
LINE
  5
76
330
1F
100
AcDbEntity
  8
0
  6
Continuous
 62
     7
370
    15
100
AcDbLine
 10
35.1549453555
 20
-16.9623069349
 30
0.0
 11
35.1549453555
 21
-32.2721175733
 31
0.0
  0
LINE
  5
77
330
1F
100
AcDbEntity
  8
0
  6
Continuous
 62
     7
370
    15
100
AcDbLine
 10
53.1050033389
 20
-16.2693433347
 30
0.0
 11
51.4340467273
 21
-16.2693433347
 31
0.0
  0
LINE
  5
78
330
1F
100
AcDbEntity
  8
0
  6
Continuous
 62
     7
370
    15
100
AcDbLine
 10
35.1522035419
 20
-32.269316155
 30
0.0
 11
53.1050033389
 21
-32.269316155
 31
0.0
  0
LINE
  5
79
330
1F
100
AcDbEntity
  8
0
  6
Continuous
 62
     7
370
    15
100
AcDbLine
 10
-0.5450182141
 20
328.9307184634
 30
0.0
 11
-0.0450544537
 21
328.9307184634
 31
0.0
  0
LINE
  5
7A
330
1F
100
AcDbEntity
  8
0
  6
Continuous
 62
     7
370
    15
100
AcDbLine
 10
-0.0450544537
 20
336.9307346758
 30
0.0
 11
-0.5450182141
 21
336.9307346758
 31
0.0
  0
LINE
  5
7B
330
1F
100
AcDbEntity
  8
0
  6
Continuous
 62
     7
370
    15
100
AcDbLine
 10
219.7550005733
 20
1123.898965877
 30
0.0
 11
219.7550005733
 21
1137.6306839404
 31
0.0
  0
LINE
  5
7C
330
1F
100
AcDbEntity
  8
0
  6
Continuous
 62
     7
370
    15
100
AcDbLine
 10
219.7550005733
 20
1104.9306221423
 30
0.0
 11
219.7550005733
 21
1119.5194549975
 31
0.0
  0
LINE
  5
7D
330
1F
100
AcDbEntity
  8
0
  6
Continuous
 62
     7
370
    15
100
AcDbLine
 10
197.7549857913
 20
1119.4474525866
 30
0.0
 11
197.7549857913
 21
1104.9306221423
 31
0.0
  0
LINE
  5
7E
330
1F
100
AcDbEntity
  8
0
  6
Continuous
 62
     7
370
    15
100
AcDbLine
 10
197.7549857913
 20
1137.6306839404
 30
0.0
 11
197.7549857913
 21
1123.8145657
 31
0.0
  0
LINE
  5
7F
330
1F
100
AcDbEntity
  8
0
  6
Continuous
 62
     7
370
    15
100
AcDbLine
 10
108.4050006687
 20
-149.0693263593
 30
0.0
 11
107.6549358188
 21
-149.8193316045
 31
0.0
  0
LINE
  5
80
330
1F
100
AcDbEntity
  8
0
  6
Continuous
 62
     7
370
    15
100
AcDbLine
 10
107.6549358188
 20
-173.3192972722
 30
0.0
 11
108.4050006687
 21
-174.0693025174
 31
0.0
  0
LINE
  5
81
330
1F
100
AcDbEntity
  8
0
  6
Continuous
 62
     7
370
    15
100
AcDbLine
 10
109.9050111591
 20
-149.0693263593
 30
0.0
 11
109.1549463092
 21
-149.8193316045
 31
0.0
  0
LINE
  5
82
330
1F
100
AcDbEntity
  8
0
  6
Continuous
 62
     7
370
    15
100
AcDbLine
 10
109.1549463092
 20
-173.3192972722
 30
0.0
 11
109.9050111591
 21
-174.0693025174
 31
0.0
  0
LINE
  5
83
330
1F
100
AcDbEntity
  8
0
  6
Continuous
 62
     7
370
    15
100
AcDbLine
 10
109.9050111591
 20
-174.0693025174
 30
0.0
 11
110.6549567996
 21
-173.3192972722
 31
0.0
  0
LINE
  5
84
330
1F
100
AcDbEntity
  8
0
  6
Continuous
 62
     7
370
    15
100
AcDbLine
 10
110.6549567996
 20
-149.8193316045
 30
0.0
 11
109.9050111591
 21
-149.0693263593
 31
0.0
  0
LINE
  5
85
330
1F
100
AcDbEntity
  8
0
  6
Continuous
 62
     7
370
    15
100
AcDbLine
 10
106.0550279437
 20
-173.4193138662
 30
0.0
 11
106.1549253284
 21
-173.3192972722
 31
0.0
  0
LINE
  5
86
330
1F
100
AcDbEntity
  8
0
  6
Continuous
 62
     7
370
    15
100
AcDbLine
 10
106.1549253284
 20
-149.8193316045
 30
0.0
 11
106.0550279437
 21
-149.7193150106
 31
0.0
  0
LINE
  5
87
330
1F
100
AcDbEntity
  8
0
  6
Continuous
 62
     7
370
    15
100
AcDbLine
 10
106.9049901782
 20
-174.0693025174
 30
0.0
 11
107.6549358188
 21
-173.3192972722
 31
0.0
  0
LINE
  5
88
330
1F
100
AcDbEntity
  8
0
  6
Continuous
 62
     7
370
    15
100
AcDbLine
 10
107.6549358188
 20
-149.8193316045
 30
0.0
 11
106.9049901782
 21
-149.0693263593
 31
0.0
  0
LINE
  5
89
330
1F
100
AcDbEntity
  8
0
  6
Continuous
 62
     7
370
    15
100
AcDbLine
 10
111.4050216495
 20
-174.0693025174
 30
0.0
 11
111.7550201236
 21
-173.7193040433
 31
0.0
  0
LINE
  5
8A
330
1F
100
AcDbEntity
  8
0
  6
Continuous
 62
     7
370
    15
100
AcDbLine
 10
111.7550201236
 20
-149.4193248334
 30
0.0
 11
111.4050216495
 21
-149.0693263593
 31
0.0
  0
LINE
  5
8B
330
1F
100
AcDbEntity
  8
0
  6
Continuous
 62
     7
370
    15
100
AcDbLine
 10
106.9049901782
 20
-149.0693263593
 30
0.0
 11
106.1549253284
 21
-149.8193316045
 31
0.0
  0
LINE
  5
8C
330
1F
100
AcDbEntity
  8
0
  6
Continuous
 62
     7
370
    15
100
AcDbLine
 10
106.1549253284
 20
-173.3192972722
 30
0.0
 11
106.9049901782
 21
-174.0693025174
 31
0.0
  0
LINE
  5
8D
330
1F
100
AcDbEntity
  8
0
  6
Continuous
 62
     7
370
    15
100
AcDbLine
 10
108.4050006687
 20
-174.0693025174
 30
0.0
 11
109.1549463092
 21
-173.3192972722
 31
0.0
  0
LINE
  5
8E
330
1F
100
AcDbEntity
  8
0
  6
Continuous
 62
     7
370
    15
100
AcDbLine
 10
109.1549463092
 20
-149.8193316045
 30
0.0
 11
108.4050006687
 21
-149.0693263593
 31
0.0
  0
LINE
  5
8F
330
1F
100
AcDbEntity
  8
0
  6
Continuous
 62
     7
370
    15
100
AcDbLine
 10
111.4050216495
 20
-149.0693263593
 30
0.0
 11
110.6549567996
 21
-149.8193316045
 31
0.0
  0
LINE
  5
90
330
1F
100
AcDbEntity
  8
0
  6
Continuous
 62
     7
370
    15
100
AcDbLine
 10
110.6549567996
 20
-173.3192972722
 30
0.0
 11
111.4050216495
 21
-174.0693025174
 31
0.0
  0
LINE
  5
91
330
1F
100
AcDbEntity
  8
0
  6
Continuous
 62
     7
370
    15
100
AcDbLine
 10
785.9549887
 20
95.8963461337
 30
0.0
 11
789.2549700557
 21
96.9806738314
 31
0.0
  0
LINE
  5
92
330
1F
100
AcDbEntity
  8
0
  6
Continuous
 62
     7
370
    15
100
AcDbLine
 10
789.2549700557
 20
110.2807350573
 30
0.0
 11
785.9549887
 21
111.3649435458
 31
0.0
  0
LINE
  5
93
330
1F
100
AcDbEntity
  8
0
  6
Continuous
 62
     7
370
    15
100
AcDbLine
 10
785.9549887
 20
35.8964033541
 30
0.0
 11
789.2549700557
 21
36.9806714472
 31
0.0
  0
LINE
  5
94
330
1F
100
AcDbEntity
  8
0
  6
Continuous
 62
     7
370
    15
100
AcDbLine
 10
789.2549700557
 20
50.2806730685
 30
0.0
 11
785.9549887
 21
51.3649411616
 31
0.0
  0
LINE
  5
95
330
1F
100
AcDbEntity
  8
0
  6
Continuous
 62
     7
370
    15
100
AcDbLine
 10
32.1549243747
 20
86.5306683001
 30
0.0
 11
32.1549243747
 21
-0.2693109098
 31
0.0
  0
LINE
  5
96
330
1F
100
AcDbEntity
  8
0
  6
Continuous
 62
     7
370
    15
100
AcDbLine
 10
54.1549987613
 20
-0.2693109098
 30
0.0
 11
54.1549987613
 21
86.5306683001
 31
0.0
  0
LINE
  5
97
330
1F
100
AcDbEntity
  8
0
  6
Continuous
 62
     7
370
    15
100
AcDbLine
 10
791.3030154525
 20
686.430675548
 30
0.0
 11
788.4549863159
 21
686.430675548
 31
0.0
  0
LINE
  5
98
330
1F
100
AcDbEntity
  8
0
  6
Continuous
 62
     7
370
    15
100
AcDbLine
 10
788.4549863159
 20
669.4307156024
 30
0.0
 11
791.3030154525
 21
669.4307156024
 31
0.0
  0
LINE
  5
99
330
1F
100
AcDbEntity
  8
0
  6
Continuous
 62
     7
370
    15
100
AcDbLine
 10
795.7549757778
 20
682.2439260897
 30
0.0
 11
793.3030195056
 21
682.2439260897
 31
0.0
  0
LINE
  5
9A
330
1F
100
AcDbEntity
  8
0
  6
Continuous
 62
     7
370
    15
100
AcDbLine
 10
793.3030195056
 20
674.2439098773
 30
0.0
 11
795.7549757778
 21
674.2439098773
 31
0.0
  0
ARC
  5
9B
330
1F
100
AcDbEntity
  8
0
  6
Continuous
 62
     7
370
    15
100
AcDbCircle
 10
795.7549834193
 20
683.24386906
 30
0.0
 40
0.9999999999998863
100
AcDbArc
 50
270.0
 51
0.0
  0
ARC
  5
9C
330
1F
100
AcDbEntity
  8
0
  6
Continuous
 62
     7
370
    15
100
AcDbCircle
 10
795.7549834193
 20
673.24386906
 30
0.0
 40
1.000000000000061
100
AcDbArc
 50
41.4096223419
 51
90.0
  0
LINE
  5
9D
330
1F
100
AcDbEntity
  8
0
  6
Continuous
 62
     7
370
    15
100
AcDbLine
 10
793.3030195056
 20
682.630641025
 30
0.0
 11
791.3030154525
 21
682.630641025
 31
0.0
  0
LINE
  5
9E
330
1F
100
AcDbEntity
  8
0
  6
Continuous
 62
     7
370
    15
100
AcDbLine
 10
791.3030154525
 20
673.2306309161
 30
0.0
 11
793.3030195056
 21
673.2306309161
 31
0.0
  0
LINE
  5
9F
330
1F
100
AcDbEntity
  8
0
  6
Continuous
 62
     7
370
    15
100
AcDbLine
 10
888.9217145263
 20
696.4571304736
 30
0.0
 11
867.649740678
 21
696.0857935366
 31
0.0
  0
LINE
  5
A0
330
1F
100
AcDbEntity
  8
0
  6
Continuous
 62
     7
370
    15
100
AcDbLine
 10
868.4549696266
 20
659.161431354
 30
0.0
 11
888.9217145263
 21
658.8042803225
 31
0.0
  0
SPLINE
  5
A1
330
1F
100
AcDbEntity
  8
0
  6
Continuous
 62
     7
370
    15
100
AcDbSpline
210
0.0
220
0.0
230
1.0
 70
     8
 71
     3
 72
     9
 73
     5
 74
     0
 42
0.00000001
 43
0.00000001
 40
0.0
 40
0.0
 40
0.0
 40
0.0
 40
0.501014473656577
 40
1.0
 40
1.0
 40
1.0
 40
1.0
 10
889.843530160077
 20
696.3827438768983
 30
0.0
 10
889.590437848932
 20
696.386029833719
 30
0.0
 10
889.0852781690173
 20
696.3925884402928
 30
0.0
 10
888.5952094331458
 20
696.1960318018505
 30
0.0
 10
888.3506722270325
 20
696.0979528841615
 30
0.0
  0
SPLINE
  5
A2
330
1F
100
AcDbEntity
  8
0
  6
Continuous
 62
     7
370
    15
100
AcDbSpline
210
0.0
220
0.0
230
1.0
 70
     8
 71
     3
 72
     9
 73
     5
 74
     0
 42
0.00000001
 43
0.00000001
 40
0.0
 40
0.0
 40
0.0
 40
0.0
 40
0.4994862234803756
 40
1.0
 40
1.0
 40
1.0
 40
1.0
 10
888.3470065413787
 20
659.1682262835147
 30
0.0
 10
888.5921249661151
 20
659.0688060757046
 30
0.0
 10
889.0828660781085
 20
658.8697611308463
 30
0.0
 10
889.5898018316294
 20
658.8756962901823
 30
0.0
 10
889.843530160077
 20
658.8786669191957
 30
0.0
  0
ARC
  5
A3
330
1F
100
AcDbEntity
  8
0
  6
Continuous
 62
     7
370
    15
100
AcDbCircle
 10
867.6549834166
 20
695.7858759095
 30
0.0
 40
0.3000000000000245
100
AcDbArc
 50
91.0
 51
131.8103148958
  0
ARC
  5
A4
330
1F
100
AcDbEntity
  8
0
  6
Continuous
 62
     7
370
    15
100
AcDbCircle
 10
717.3549834166
 20
677.6306850884
 30
0.0
 40
186.6172676706113
100
AcDbArc
 50
355.9141588402
 51
4.0872355801
  0
SPLINE
  5
A5
330
1F
100
AcDbEntity
  8
0
  6
Continuous
 62
     7
370
    15
100
AcDbSpline
210
0.0
220
0.0
230
1.0
 70
     8
 71
     3
 72
    22
 73
    18
 74
     0
 42
0.00000001
 43
0.00000001
 40
0.0
 40
0.0
 40
0.0
 40
0.0
 40
0.0535289198724945
 40
0.0998591028935451
 40
0.1390278406066134
 40
0.1711201263261912
 40
0.1962834548345093
 40
0.224187996322492
 40
0.2589106874168491
 40
0.3007415888208775
 40
0.3496849786869757
 40
0.4260197748464039
 40
0.5150466445387543
 40
0.6168284340123132
 40
0.7314669577851796
 40
0.8591166043134735
 40
1.0
 40
1.0
 40
1.0
 40
1.0
 10
903.4976429759338
 20
690.9332104143741
 30
0.0
 10
903.3950764297798
 20
691.5204978018277
 30
0.0
 10
903.2037368079409
 20
692.6160923288882
 30
0.0
 10
902.4014381567242
 20
693.850563347163
 30
0.0
 10
901.5923610705936
 20
694.6501559346308
 30
0.0
 10
900.9098846337937
 20
695.1159363990289
 30
0.0
 10
900.41906860951
 20
695.3766071528967
 30
0.0
 10
900.1792276137581
 20
695.4808478260167
 30
0.0
 10
899.8541718980671
 20
695.60945054514
 30
0.0
 10
899.4910504691055
 20
695.7262105094426
 30
0.0
 10
898.9854089130131
 20
695.859891871981
 30
0.0
 10
898.2950126948491
 20
695.9976766998734
 30
0.0
 10
897.3332481283614
 20
696.1320459327753
 30
0.0
 10
896.0860836625349
 20
696.246956821217
 30
0.0
 10
894.4728333926132
 20
696.3341011639585
 30
0.0
 10
892.4337894279395
 20
696.3879384104404
 30
0.0
 10
890.7348586158555
 20
696.384531356483
 30
0.0
 10
889.843530160077
 20
696.3827438768983
 30
0.0
  0
SPLINE
  5
A6
330
1F
100
AcDbEntity
  8
0
  6
Continuous
 62
     7
370
    15
100
AcDbSpline
210
0.0
220
0.0
230
1.0
 70
     8
 71
     3
 72
    18
 73
    14
 74
     0
 42
0.00000001
 43
0.00000001
 40
0.0
 40
0.0
 40
0.0
 40
0.0
 40
0.1413693289599496
 40
0.2708666157309812
 40
0.3887128497577579
 40
0.4950676148366929
 40
0.5900385686880483
 40
0.6605370070838354
 40
0.7239598028328674
 40
0.7880336118240522
 40
0.85515823127661
 40
0.9257220995344577
 40
1.0
 40
1.0
 40
1.0
 40
1.0
 10
889.843530160077
 20
658.8786669191957
 30
0.0
 10
890.7264859580954
 20
658.8749115846797
 30
0.0
 10
892.4182478884153
 20
658.8677162845487
 30
0.0
 10
894.4665183547935
 20
658.9186277865957
 30
0.0
 10
896.111409944524
 20
659.0066101624219
 30
0.0
 10
897.4089511180019
 20
659.1300794746066
 30
0.0
 10
898.3768477739372
 20
659.2716006252863
 30
0.0
 10
899.1322334770626
 20
659.4352977836784
 30
0.0
 10
899.680285821294
 20
659.5827449191196
 30
0.0
 10
900.5919656481703
 20
659.9489039374585
 30
0.0
 10
901.7517147638451
 20
660.7130823537459
 30
0.0
 10
903.0108442731075
 20
662.0796522859589
 30
0.0
 10
903.3326263631893
 20
663.5659802110381
 30
0.0
 10
903.4976429759339
 20
664.3282003817201
 30
0.0
  0
SPLINE
  5
A7
330
1F
100
AcDbEntity
  8
0
  6
Continuous
 62
     7
370
    15
100
AcDbSpline
210
0.0
220
0.0
230
1.0
 70
     8
 71
     3
 72
    11
 73
     7
 74
     0
 42
0.00000001
 43
0.00000001
 40
0.0
 40
0.0
 40
0.0
 40
0.0
 40
0.2499910523984432
 40
0.5000037410492139
 40
0.7499990780539589
 40
1.0
 40
1.0
 40
1.0
 40
1.0
 10
846.8561537085847
 20
653.6410875734925
 30
0.0
 10
846.9728443196863
 20
654.2391734770947
 30
0.0
 10
847.2062356412406
 20
655.4353970475026
 30
0.0
 10
848.3350323392931
 20
656.9118863247601
 30
0.0
 10
849.8731530923108
 20
657.9551713652065
 30
0.0
 10
851.0806651738906
 20
658.1203822839497
 30
0.0
 10
851.6844279586152
 20
658.2029886660218
 30
0.0
  0
SPLINE
  5
A8
330
1F
100
AcDbEntity
  8
0
  6
Continuous
 62
     7
370
    15
100
AcDbSpline
210
0.0
220
0.0
230
1.0
 70
     8
 71
     3
 72
    11
 73
     7
 74
     0
 42
0.00000001
 43
0.00000001
 40
0.0
 40
0.0
 40
0.0
 40
0.0
 40
0.2500002736966631
 40
0.4999949608501437
 40
0.749993690077391
 40
1.0
 40
1.0
 40
1.0
 40
1.0
 10
851.6844279586152
 20
697.0584221300721
 30
0.0
 10
851.0806636339186
 20
697.1410274564105
 30
0.0
 10
849.8731484763324
 20
697.3062362631761
 30
0.0
 10
848.3350781234051
 20
698.3495186181981
 30
0.0
 10
847.2061787931711
 20
699.8259413375505
 30
0.0
 10
846.9728299160662
 20
701.0221898820488
 30
0.0
 10
846.8561537085847
 20
701.6203232226014
 30
0.0
  0
LWPOLYLINE
  5
A9
330
1F
100
AcDbEntity
  8
0
  6
Continuous
 62
     7
370
    15
100
AcDbPolyline
 90
        3
 70
   128
 43
0.0
 10
851.6843981563
 20
658.202988666
 10
859.3417770683
 20
658.4369965014
 10
867.4549825012
 20
658.6848326144
  0
LWPOLYLINE
  5
AA
330
1F
100
AcDbEntity
  8
0
  6
Continuous
 62
     7
370
    15
100
AcDbPolyline
 90
        3
 70
   128
 43
0.0
 10
867.4549825012
 20
696.5764589724
 10
859.3417770683
 20
696.8244142947
 10
851.6843981563
 20
697.0584221301
  0
LINE
  5
AB
330
1F
100
AcDbEntity
  8
0
  6
Continuous
 62
     7
370
    15
100
AcDbLine
 10
867.4574262916
 20
679.9082584796
 30
0.0
 11
867.4549825012
 21
679.9164839205
 31
0.0
  0
LINE
  5
AC
330
1F
100
AcDbEntity
  8
0
  6
Continuous
 62
     7
370
    15
100
AcDbLine
 10
826.9549972831
 20
1054.4307060656
 30
0.0
 11
826.4549739181
 21
1054.930669826
 31
0.0
  0
LINE
  5
AD
330
1F
100
AcDbEntity
  8
0
  6
Continuous
 62
     7
370
    15
100
AcDbLine
 10
810.4549712955
 20
1054.930669826
 30
0.0
 11
809.9549777328
 21
1054.4307060656
 31
0.0
  0
LINE
  5
AE
330
1F
100
AcDbEntity
  8
0
  6
Continuous
 62
     7
370
    15
100
AcDbLine
 10
826.9549972831
 20
1052.9306955752
 30
0.0
 11
826.9549972831
 21
1054.4307060656
 31
0.0
  0
LINE
  5
AF
330
1F
100
AcDbEntity
  8
0
  6
Continuous
 62
     7
370
    15
100
AcDbLine
 10
809.9549777328
 20
1054.4307060656
 30
0.0
 11
809.9549777328
 21
1052.9306955752
 31
0.0
  0
LINE
  5
B0
330
1F
100
AcDbEntity
  8
0
  6
Continuous
 62
     7
370
    15
100
AcDbLine
 10
809.9549777328
 20
1052.9306955752
 30
0.0
 11
810.4549712955
 21
1052.4307318148
 31
0.0
  0
LINE
  5
B1
330
1F
100
AcDbEntity
  8
0
  6
Continuous
 62
     7
370
    15
100
AcDbLine
 10
826.4549739181
 20
1052.4307318148
 30
0.0
 11
826.9549972831
 21
1052.9306955752
 31
0.0
  0
LINE
  5
B2
330
1F
100
AcDbEntity
  8
0
  6
Continuous
 62
     7
370
    15
100
AcDbLine
 10
809.9549777328
 20
191.93063454
 30
0.0
 11
809.9549777328
 21
190.4307432589
 31
0.0
  0
LINE
  5
B3
330
1F
100
AcDbEntity
  8
0
  6
Continuous
 62
     7
370
    15
100
AcDbLine
 10
826.9549972831
 20
190.4307432589
 30
0.0
 11
826.9549972831
 21
191.93063454
 31
0.0
  0
LINE
  5
B4
330
1F
100
AcDbEntity
  8
0
  6
Continuous
 62
     7
370
    15
100
AcDbLine
 10
826.9549972831
 20
191.93063454
 30
0.0
 11
826.4549739181
 21
192.4307175097
 31
0.0
  0
LINE
  5
B5
330
1F
100
AcDbEntity
  8
0
  6
Continuous
 62
     7
370
    15
100
AcDbLine
 10
810.4549712955
 20
192.4307175097
 30
0.0
 11
809.9549777328
 21
191.93063454
 31
0.0
  0
LINE
  5
B6
330
1F
100
AcDbEntity
  8
0
  6
Continuous
 62
     7
370
    15
100
AcDbLine
 10
809.9549777328
 20
190.4307432589
 30
0.0
 11
810.4549712955
 21
189.9306602893
 31
0.0
  0
LINE
  5
B7
330
1F
100
AcDbEntity
  8
0
  6
Continuous
 62
     7
370
    15
100
AcDbLine
 10
826.4549739181
 20
189.9306602893
 30
0.0
 11
826.9549972831
 21
190.4307432589
 31
0.0
  0
LINE
  5
B8
330
1F
100
AcDbEntity
  8
0
  6
Continuous
 62
     7
370
    15
100
AcDbLine
 10
809.9549777328
 20
179.930669826
 30
0.0
 11
810.4549712955
 21
179.4307060656
 31
0.0
  0
LINE
  5
B9
330
1F
100
AcDbEntity
  8
0
  6
Continuous
 62
     7
370
    15
100
AcDbLine
 10
826.4549739181
 20
179.4307060656
 30
0.0
 11
826.9549972831
 21
179.930669826
 31
0.0
  0
LINE
  5
BA
330
1F
100
AcDbEntity
  8
0
  6
Continuous
 62
     7
370
    15
100
AcDbLine
 10
826.9549972831
 20
179.930669826
 30
0.0
 11
826.9549972831
 21
181.4306803164
 31
0.0
  0
LINE
  5
BB
330
1F
100
AcDbEntity
  8
0
  6
Continuous
 62
     7
370
    15
100
AcDbLine
 10
809.9549777328
 20
181.4306803164
 30
0.0
 11
809.9549777328
 21
179.930669826
 31
0.0
  0
LINE
  5
BC
330
1F
100
AcDbEntity
  8
0
  6
Continuous
 62
     7
370
    15
100
AcDbLine
 10
826.9549972831
 20
181.4306803164
 30
0.0
 11
826.4549739181
 21
181.9306440768
 31
0.0
  0
LINE
  5
BD
330
1F
100
AcDbEntity
  8
0
  6
Continuous
 62
     7
370
    15
100
AcDbLine
 10
810.4549712955
 20
181.9306440768
 30
0.0
 11
809.9549777328
 21
181.4306803164
 31
0.0
  0
LINE
  5
BE
330
1F
100
AcDbEntity
  8
0
  6
Continuous
 62
     7
370
    15
100
AcDbLine
 10
824.95499323
 20
178.5600014147
 30
0.0
 11
824.95499323
 21
178.6306925234
 31
0.0
  0
LINE
  5
BF
330
1F
100
AcDbEntity
  8
0
  6
Continuous
 62
     7
370
    15
100
AcDbLine
 10
811.9549817859
 20
178.6306925234
 30
0.0
 11
811.9549817859
 21
178.5600014147
 31
0.0
  0
LINE
  5
C0
330
1F
100
AcDbEntity
  8
0
  6
Continuous
 62
     7
370
    15
100
AcDbLine
 10
809.9549777328
 20
-345.0693063321
 30
0.0
 11
809.9549777328
 21
-346.4693002286
 31
0.0
  0
LINE
  5
C1
330
1F
100
AcDbEntity
  8
0
  6
Continuous
 62
     7
370
    15
100
AcDbLine
 10
826.9549972831
 20
-346.4693002286
 30
0.0
 11
826.9549972831
 21
-345.0693063321
 31
0.0
  0
LINE
  5
C2
330
1F
100
AcDbEntity
  8
0
  6
Continuous
 62
     7
370
    15
100
AcDbLine
 10
826.9549972831
 20
-345.0693063321
 30
0.0
 11
826.4549739181
 21
-344.5693425718
 31
0.0
  0
LINE
  5
C3
330
1F
100
AcDbEntity
  8
0
  6
Continuous
 62
     7
370
    15
100
AcDbLine
 10
810.4549712955
 20
-344.5693425718
 30
0.0
 11
809.9549777328
 21
-345.0693063321
 31
0.0
  0
LINE
  5
C4
330
1F
100
AcDbEntity
  8
0
  6
Continuous
 62
     7
370
    15
100
AcDbLine
 10
811.9549817859
 20
-343.6985783162
 30
0.0
 11
811.9549817859
 21
-343.7693290296
 31
0.0
  0
LINE
  5
C5
330
1F
100
AcDbEntity
  8
0
  6
Continuous
 62
     7
370
    15
100
AcDbLine
 10
824.95499323
 20
-343.7693290296
 30
0.0
 11
824.95499323
 21
-343.6985783162
 31
0.0
  0
LINE
  5
C6
330
1F
100
AcDbEntity
  8
0
  6
Continuous
 62
     7
370
    15
100
AcDbLine
 10
43.6549253284
 20
266.415340465
 30
0.0
 11
43.6549253284
 21
228.4036703524
 31
0.0
  0
LINE
  5
C7
330
1F
100
AcDbEntity
  8
0
  6
Continuous
 62
     7
370
    15
100
AcDbLine
 10
58.6550302326
 20
228.4036703524
 30
0.0
 11
58.6550302326
 21
266.415340465
 31
0.0
  0
LINE
  5
C8
330
1F
100
AcDbEntity
  8
0
  6
Continuous
 62
     7
370
    15
100
AcDbLine
 10
56.3820667087
 20
-13.2693223539
 30
0.0
 11
56.1820335208
 21
-13.4692959371
 31
0.0
  0
LINE
  5
C9
330
1F
100
AcDbEntity
  8
0
  6
Continuous
 62
     7
370
    15
100
AcDbLine
 10
56.1820335208
 20
-35.069303948
 30
0.0
 11
56.3820667087
 21
-35.2693371358
 31
0.0
  0
LINE
  5
CA
330
1F
100
AcDbEntity
  8
0
  6
Continuous
 62
     7
370
    15
100
AcDbLine
 10
56.3820667087
 20
-35.2693371358
 30
0.0
 11
63.6704034625
 21
-35.2693371358
 31
0.0
  0
LINE
  5
CB
330
1F
100
AcDbEntity
  8
0
  6
Continuous
 62
     7
370
    15
100
AcDbLine
 10
75.6703681766
 20
-35.2693371358
 30
0.0
 11
112.9549808322
 21
-35.2693371358
 31
0.0
  0
LINE
  5
CC
330
1F
100
AcDbEntity
  8
0
  6
Continuous
 62
     7
370
    15
100
AcDbLine
 10
112.9549808322
 20
-13.2693223539
 30
0.0
 11
75.6703681766
 21
-13.2693223539
 31
0.0
  0
LINE
  5
CD
330
1F
100
AcDbEntity
  8
0
  6
Continuous
 62
     7
370
    15
100
AcDbLine
 10
63.6704034625
 20
-13.2693223539
 30
0.0
 11
56.3820667087
 21
-13.2693223539
 31
0.0
  0
SPLINE
  5
CE
330
1F
100
AcDbEntity
  8
0
  6
Continuous
 62
     7
370
    15
100
AcDbSpline
210
0.0
220
0.0
230
1.0
 70
     8
 71
     3
 72
     9
 73
     5
 74
     0
 42
0.00000001
 43
0.00000001
 40
0.0
 40
0.0
 40
0.0
 40
0.0
 40
0.079457878780095
 40
1.0
 40
1.0
 40
1.0
 40
1.0
 10
788.8799674331025
 20
-150.9462766232847
 30
0.0
 10
788.8841928762489
 20
-150.9385006407059
 30
0.0
 10
788.937371279841
 20
-150.8406376886823
 30
0.0
 10
788.9511485816603
 20
-150.7274620217528
 30
0.0
 10
788.9638311683015
 20
-150.6232790532468
 30
0.0
  0
SPLINE
  5
CF
330
1F
100
AcDbEntity
  8
0
  6
Continuous
 62
     7
370
    15
100
AcDbSpline
210
0.0
220
0.0
230
1.0
 70
     8
 71
     3
 72
    15
 73
    11
 74
     0
 42
0.00000001
 43
0.00000001
 40
0.0
 40
0.0
 40
0.0
 40
0.0
 40
0.1501356540546615
 40
0.4420145349016772
 40
0.6171621224104735
 40
0.7099319880437578
 40
0.7521328097368749
 40
0.8088682134574691
 40
0.8880692430104445
 40
1.0
 40
1.0
 40
1.0
 40
1.0
 10
787.0503730593995
 20
-152.2752813878416
 30
0.0
 10
787.1706785063049
 20
-152.2222089526177
 30
0.0
 10
787.524869897383
 20
-152.0659583410004
 30
0.0
 10
787.875736066499
 20
-151.9071056162975
 30
0.0
 10
788.076432286834
 20
-151.8100360216353
 30
0.0
 10
788.1919878183552
 20
-151.7508004363505
 30
0.0
 10
788.3341608382783
 20
-151.6622831542104
 30
0.0
 10
788.5034078746398
 20
-151.5303707855286
 30
0.0
 10
788.7200135294763
 20
-151.300291046996
 30
0.0
 10
788.8208913054239
 20
-151.0770255504516
 30
0.0
 10
788.8799674331025
 20
-150.9462766232847
 30
0.0
  0
LINE
  5
D0
330
1F
100
AcDbEntity
  8
0
  6
Continuous
 62
     7
370
    15
100
AcDbLine
 10
788.9638311683
 20
-150.6232790532
 30
0.0
 11
789.0668279945
 21
-149.843411881
 31
0.0
  0
SPLINE
  5
D1
330
1F
100
AcDbEntity
  8
0
  6
Continuous
 62
     7
370
    15
100
AcDbSpline
210
0.0
220
0.0
230
1.0
 70
     8
 71
     3
 72
    17
 73
    13
 74
     0
 42
0.00000001
 43
0.00000001
 40
0.0
 40
0.0
 40
0.0
 40
0.0
 40
0.0507811718586453
 40
0.0754287051360054
 40
0.0951672392850523
 40
0.120181098938532
 40
0.1674996687293485
 40
0.2862015002433848
 40
0.5079687367836128
 40
0.7447527148751427
 40
0.9740003787872693
 40
0.9999999999999999
 40
0.9999999999999999
 40
0.9999999999999999
 40
0.9999999999999999
 10
789.0668279944733
 20
-149.8434118810056
 30
0.0
 10
789.0741347355794
 20
-149.7215498962642
 30
0.0
 10
789.0849879317587
 20
-149.540540057816
 30
0.0
 10
789.0515167647005
 20
-149.3494141771451
 30
0.0
 10
789.0290262462156
 20
-149.2536520654501
 30
0.0
 10
789.0055087486844
 20
-149.1728775119457
 30
0.0
 10
788.9720909555008
 20
-149.0729432340597
 30
0.0
 10
788.9084099097895
 20
-148.9023395284965
 30
0.0
 10
788.7511440712449
 20
-148.5035940150539
 30
0.0
 10
788.4416970202564
 20
-147.7453950878879
 30
0.0
 10
788.1670252392997
 20
-147.0782541000193
 30
0.0
 10
787.9817343886772
 20
-146.6339025303838
 30
0.0
 10
787.9628605662659
 20
-146.5886406484007
 30
0.0
  0
LINE
  5
D2
330
1F
100
AcDbEntity
  8
0
  6
Continuous
 62
     7
370
    15
100
AcDbLine
 10
60.7049531757
 20
161.603672069
 30
0.0
 11
60.7049531757
 21
216.2036724505
 31
0.0
  0
LINE
  5
D3
330
1F
100
AcDbEntity
  8
0
  6
Continuous
 62
     7
370
    15
100
AcDbLine
 10
41.6050023853
 20
216.2036724505
 30
0.0
 11
41.6050023853
 21
161.603672069
 31
0.0
  0
LINE
  5
D4
330
1F
100
AcDbEntity
  8
0
  6
Continuous
 62
     7
370
    15
100
AcDbLine
 10
778.1549758731
 20
-347.0693401876
 30
0.0
 11
778.1549758731
 21
-346.5693168226
 31
0.0
  0
LINE
  5
D5
330
1F
100
AcDbEntity
  8
0
  6
Continuous
 62
     7
370
    15
100
AcDbLine
 10
767.7549786388
 20
-346.5693168226
 30
0.0
 11
767.7549786388
 21
-347.0693401876
 31
0.0
  0
LINE
  5
D6
330
1F
100
AcDbEntity
  8
0
  6
Continuous
 62
     7
370
    15
100
AcDbLine
 10
765.1549942314
 20
-347.0693401876
 30
0.0
 11
765.1549942314
 21
-346.5693168226
 31
0.0
  0
LINE
  5
D7
330
1F
100
AcDbEntity
  8
0
  6
Continuous
 62
     7
370
    15
100
AcDbLine
 10
754.754996997
 20
-346.5693168226
 30
0.0
 11
754.754996997
 21
-347.0693401876
 31
0.0
  0
LINE
  5
D8
330
1F
100
AcDbEntity
  8
0
  6
Continuous
 62
     7
370
    15
100
AcDbLine
 10
220.4549975215
 20
-519.5693246904
 30
0.0
 11
220.4549975215
 21
-517.5693206373
 31
0.0
  0
LINE
  5
D9
330
1F
100
AcDbEntity
  8
0
  6
Continuous
 62
     7
370
    15
100
AcDbLine
 10
128.4549302875
 20
-517.5693206373
 30
0.0
 11
128.4549302875
 21
-519.5693246904
 31
0.0
  0
LINE
  5
DA
330
1F
100
AcDbEntity
  8
0
  6
Continuous
 62
     7
370
    15
100
AcDbLine
 10
729.4549710571
 20
-519.5693246904
 30
0.0
 11
729.4549710571
 21
-517.5693206373
 31
0.0
  0
LINE
  5
DB
330
1F
100
AcDbEntity
  8
0
  6
Continuous
 62
     7
370
    15
100
AcDbLine
 10
637.45499323
 20
-517.5693206373
 30
0.0
 11
637.45499323
 21
-519.5693246904
 31
0.0
  0
LINE
  5
DC
330
1F
100
AcDbEntity
  8
0
  6
Continuous
 62
     7
370
    15
100
AcDbLine
 10
202.754981023
 20
-517.5693206373
 30
0.0
 11
202.754981023
 21
-445.5693237367
 31
0.0
  0
LINE
  5
DD
330
1F
100
AcDbEntity
  8
0
  6
Continuous
 62
     7
370
    15
100
AcDbLine
 10
146.1550063907
 20
-445.5693237367
 30
0.0
 11
146.1550063907
 21
-517.5693206373
 31
0.0
  0
LINE
  5
DE
330
1F
100
AcDbEntity
  8
0
  6
Continuous
 62
     7
370
    15
100
AcDbLine
 10
711.7549843608
 20
-517.5693206373
 30
0.0
 11
711.7549843608
 21
-445.5693237367
 31
0.0
  0
LINE
  5
DF
330
1F
100
AcDbEntity
  8
0
  6
Continuous
 62
     7
370
    15
100
AcDbLine
 10
655.1550097286
 20
-445.5693237367
 30
0.0
 11
655.1550097286
 21
-517.5693206373
 31
0.0
  0
ARC
  5
E0
330
1F
100
AcDbEntity
  8
0
  6
Continuous
 62
     7
370
    15
100
AcDbCircle
 10
201.6549834193
 20
-439.5367489659
 30
0.0
 40
4.699999999999944
100
AcDbArc
 50
350.5402980318
 51
0.0
  0
ARC
  5
E1
330
1F
100
AcDbEntity
  8
0
  6
Continuous
 62
     7
370
    15
100
AcDbCircle
 10
147.2549834193
 20
-439.5367489659
 30
0.0
 40
4.699999999999932
100
AcDbArc
 50
180.0
 51
189.4597019682
  0
LINE
  5
E2
330
1F
100
AcDbEntity
  8
0
  6
Continuous
 62
     7
370
    15
100
AcDbLine
 10
206.3549823581
 20
-439.536737639
 30
0.0
 11
206.3549823581
 21
-364.0693001333
 31
0.0
  0
LINE
  5
E3
330
1F
100
AcDbEntity
  8
0
  6
Continuous
 62
     7
370
    15
100
AcDbLine
 10
142.5550050556
 20
-364.0693001333
 30
0.0
 11
142.5550050556
 21
-439.536737639
 31
0.0
  0
LINE
  5
E4
330
1F
100
AcDbEntity
  8
0
  6
Continuous
 62
     7
370
    15
100
AcDbLine
 10
142.6189012348
 20
-440.3092138353
 30
0.0
 11
143.4953279315
 21
-445.5693237367
 31
0.0
  0
LINE
  5
E5
330
1F
100
AcDbEntity
  8
0
  6
Continuous
 62
     7
370
    15
100
AcDbLine
 10
205.4146594821
 20
-445.5693237367
 30
0.0
 11
206.2910861789
 21
-440.3092138353
 31
0.0
  0
ARC
  5
E6
330
1F
100
AcDbEntity
  8
0
  6
Continuous
 62
     7
370
    15
100
AcDbCircle
 10
710.6549834193
 20
-439.5367489659
 30
0.0
 40
4.7
100
AcDbArc
 50
350.5402980318
 51
0.0
  0
ARC
  5
E7
330
1F
100
AcDbEntity
  8
0
  6
Continuous
 62
     7
370
    15
100
AcDbCircle
 10
656.2549834193
 20
-439.5367489659
 30
0.0
 40
4.7
100
AcDbArc
 50
180.0
 51
189.4597019682
  0
LINE
  5
E8
330
1F
100
AcDbEntity
  8
0
  6
Continuous
 62
     7
370
    15
100
AcDbLine
 10
715.354985696
 20
-439.536737639
 30
0.0
 11
715.354985696
 21
-364.0693001333
 31
0.0
  0
LINE
  5
E9
330
1F
100
AcDbEntity
  8
0
  6
Continuous
 62
     7
370
    15
100
AcDbLine
 10
651.5550083934
 20
-364.0693001333
 30
0.0
 11
651.5550083934
 21
-439.536737639
 31
0.0
  0
LINE
  5
EA
330
1F
100
AcDbEntity
  8
0
  6
Continuous
 62
     7
370
    15
100
AcDbLine
 10
651.6189045726
 20
-440.3092138353
 30
0.0
 11
652.4953312694
 21
-445.5693237367
 31
0.0
  0
LINE
  5
EB
330
1F
100
AcDbEntity
  8
0
  6
Continuous
 62
     7
370
    15
100
AcDbLine
 10
714.4146330177
 20
-445.5693237367
 30
0.0
 11
715.2910597144
 21
-440.3092138353
 31
0.0
  0
LINE
  5
EC
330
1F
100
AcDbEntity
  8
0
  6
Continuous
 62
     7
370
    15
100
AcDbLine
 10
824.1549796878
 20
1058.6306877551
 30
0.0
 11
824.1549796878
 21
1058.730704349
 31
0.0
  0
LINE
  5
ED
330
1F
100
AcDbEntity
  8
0
  6
Continuous
 62
     7
370
    15
100
AcDbLine
 10
816.1549932777
 20
1058.730704349
 30
0.0
 11
816.1549932777
 21
1058.6306877551
 31
0.0
  0
ARC
  5
EE
330
1F
100
AcDbEntity
  8
0
  6
Continuous
 62
     7
370
    15
100
AcDbCircle
 10
113.4549834168
 20
1074.6806850886
 30
0.0
 40
0.2999999999999687
100
AcDbArc
 50
180.0
 51
228.1896851041
  0
ARC
  5
EF
330
1F
100
AcDbEntity
  8
0
  6
Continuous
 62
     7
370
    15
100
AcDbCircle
 10
113.4549834168
 20
1083.7806850886
 30
0.0
 40
0.2999999999999687
100
AcDbArc
 50
131.8103148959
 51
180.0
  0
LINE
  5
F0
330
1F
100
AcDbEntity
  8
0
  6
Continuous
 62
     7
370
    15
100
AcDbLine
 10
822.3549790202
 20
-349.4693212095
 30
0.0
 11
822.3549790202
 21
-347.969310719
 31
0.0
  0
LINE
  5
F1
330
1F
100
AcDbEntity
  8
0
  6
Continuous
 62
     7
370
    15
100
AcDbLine
 10
814.5549959956
 20
-347.969310719
 30
0.0
 11
814.5549959956
 21
-349.4693212095
 31
0.0
  0
LINE
  5
F2
330
1F
100
AcDbEntity
  8
0
  6
Continuous
 62
     7
370
    15
100
AcDbLine
 10
813.4549922763
 20
184.9306650576
 30
0.0
 11
813.4549922763
 21
181.9306440768
 31
0.0
  0
LINE
  5
F3
330
1F
100
AcDbEntity
  8
0
  6
Continuous
 62
     7
370
    15
100
AcDbLine
 10
823.4549827396
 20
181.9306440768
 30
0.0
 11
823.4549827396
 21
184.9306650576
 31
0.0
  0
LINE
  5
F4
330
1F
100
AcDbEntity
  8
0
  6
Continuous
 62
     7
370
    15
100
AcDbLine
 10
813.5549790679
 20
1058.730704349
 30
0.0
 11
813.5549790679
 21
1058.6306877551
 31
0.0
  0
LINE
  5
F5
330
1F
100
AcDbEntity
  8
0
  6
Continuous
 62
     7
370
    15
100
AcDbLine
 10
813.5549790679
 20
1057.4307270465
 30
0.0
 11
813.5549790679
 21
1054.930669826
 31
0.0
  0
LINE
  5
F6
330
1F
100
AcDbEntity
  8
0
  6
Continuous
 62
     7
370
    15
100
AcDbLine
 10
823.5549695312
 20
1054.930669826
 30
0.0
 11
823.5549695312
 21
1057.4307270465
 31
0.0
  0
LINE
  5
F7
330
1F
100
AcDbEntity
  8
0
  6
Continuous
 62
     7
370
    15
100
AcDbLine
 10
786.4549822627
 20
220.8255358157
 30
0.0
 11
785.9549887
 21
220.9374733386
 31
0.0
  0
LINE
  5
F8
330
1F
100
AcDbEntity
  8
0
  6
Continuous
 62
     7
370
    15
100
AcDbLine
 10
786.4549822627
 20
192.4158163485
 30
0.0
 11
786.4549822627
 21
211.2901039538
 31
0.0
  0
LINE
  5
F9
330
1F
100
AcDbEntity
  8
0
  6
Continuous
 62
     7
370
    15
100
AcDbLine
 10
786.4549822627
 20
213.690025371
 30
0.0
 11
786.4549822627
 21
220.8255358157
 31
0.0
  0
LINE
  5
FA
330
1F
100
AcDbEntity
  8
0
  6
Continuous
 62
     7
370
    15
100
AcDbLine
 10
785.9549887
 20
192.3043556628
 30
0.0
 11
786.4549822627
 21
192.4158163485
 31
0.0
  0
SPLINE
  5
FB
330
1F
100
AcDbEntity
  8
0
  6
Continuous
 62
     7
370
    15
100
AcDbSpline
210
0.0
220
0.0
230
1.0
 70
    24
 71
     3
 72
     9
 73
     5
 74
     0
 42
0.00000001
 43
0.00000001
 40
0.0
 40
0.0
 40
0.0
 40
0.0
 40
0.4966608547553687
 40
1.0
 40
1.0
 40
1.0
 40
1.0
 10
786.4549822627381
 20
192.4158163485171
 30
0.0
 10
786.454982262738
 20
192.1924823247759
 30
0.0
 10
786.454982262738
 20
191.7428112431854
 30
0.0
 10
786.454982262738
 20
191.6615781718867
 30
0.0
 10
786.4549822627381
 20
191.6206903872134
 30
0.0
  0
LINE
  5
FC
330
1F
100
AcDbEntity
  8
0
  6
Continuous
 62
     7
370
    15
100
AcDbLine
 10
786.4549822627
 20
191.6206903872
 30
0.0
 11
785.9549887
 21
191.6206903872
 31
0.0
  0
SPLINE
  5
FD
330
1F
100
AcDbEntity
  8
0
  6
Continuous
 62
     7
370
    15
100
AcDbSpline
210
0.0
220
0.0
230
1.0
 70
    24
 71
     3
 72
     9
 73
     5
 74
     0
 42
0.00000001
 43
0.00000001
 40
0.0
 40
0.0
 40
0.0
 40
0.0
 40
0.4960235944753752
 40
1.0
 40
1.0
 40
1.0
 40
1.0
 10
786.4549822627381
 20
221.6206617769839
 30
0.0
 10
786.4549822627382
 20
221.5810056585804
 30
0.0
 10
786.4549822627381
 20
221.5010576100494
 30
0.0
 10
786.454982262738
 20
221.0519004345193
 30
0.0
 10
786.4549822627381
 20
220.8255358156802
 30
0.0
  0
LINE
  5
FE
330
1F
100
AcDbEntity
  8
0
  6
Continuous
 62
     7
370
    15
100
AcDbLine
 10
785.9549887
 20
221.620661777
 30
0.0
 11
786.4549822627
 21
221.620661777
 31
0.0
  0
LINE
  5
FF
330
1F
100
AcDbEntity
  8
0
  6
Continuous
 62
     7
370
    15
100
AcDbLine
 10
787.4549693881
 20
196.3575907168
 30
0.0
 11
789.9549968063
 21
197.2075529513
 31
0.0
  0
LINE
  5
100
330
1F
100
AcDbEntity
  8
0
  6
Continuous
 62
     7
370
    15
100
AcDbLine
 10
791.1549873172
 20
204.6155758319
 30
0.0
 11
787.4549693881
 21
205.8838434634
 31
0.0
  0
LINE
  5
101
330
1F
100
AcDbEntity
  8
0
  6
Continuous
 62
     7
370
    15
100
AcDbLine
 10
787.4549693881
 20
196.3575907168
 30
0.0
 11
787.4549693881
 21
205.8838434634
 31
0.0
  0
LINE
  5
102
330
1F
100
AcDbEntity
  8
0
  6
Continuous
 62
     7
370
    15
100
AcDbLine
 10
787.4549693881
 20
209.4158955035
 30
0.0
 11
790.454990369
 21
209.4158955035
 31
0.0
  0
LINE
  5
103
330
1F
100
AcDbEntity
  8
0
  6
Continuous
 62
     7
370
    15
100
AcDbLine
 10
790.454990369
 20
209.4158955035
 30
0.0
 11
790.454990369
 21
215.1014633593
 31
0.0
  0
LINE
  5
104
330
1F
100
AcDbEntity
  8
0
  6
Continuous
 62
     7
370
    15
100
AcDbLine
 10
790.454990369
 20
216.4113350329
 30
0.0
 11
790.454990369
 21
221.914631885
 31
0.0
  0
LINE
  5
105
330
1F
100
AcDbEntity
  8
0
  6
Continuous
 62
     7
370
    15
100
AcDbLine
 10
787.4549693881
 20
205.8838434634
 30
0.0
 11
787.4549693881
 21
209.4158955035
 31
0.0
  0
LINE
  5
106
330
1F
100
AcDbEntity
  8
0
  6
Continuous
 62
     7
370
    15
100
AcDbLine
 10
787.4549693881
 20
192.9205484805
 30
0.0
 11
787.4549693881
 21
196.3575907168
 31
0.0
  0
LINE
  5
107
330
1F
100
AcDbEntity
  8
0
  6
Continuous
 62
     7
370
    15
100
AcDbLine
 10
790.8358342468
 20
192.9991074023
 30
0.0
 11
787.4549693881
 21
192.4158163485
 31
0.0
  0
LINE
  5
108
330
1F
100
AcDbEntity
  8
0
  6
Continuous
 62
     7
370
    15
100
AcDbLine
 10
787.4549693881
 20
192.9205484805
 30
0.0
 11
787.4549693881
 21
192.4158163485
 31
0.0
  0
LINE
  5
109
330
1F
100
AcDbEntity
  8
0
  6
Continuous
 62
     7
370
    15
100
AcDbLine
 10
790.454990369
 20
222.4159069476
 30
0.0
 11
795.8819336711
 21
221.8307085452
 31
0.0
  0
LINE
  5
10A
330
1F
100
AcDbEntity
  8
0
  6
Continuous
 62
     7
370
    15
100
AcDbLine
 10
790.454990369
 20
222.4159069476
 30
0.0
 11
790.454990369
 21
221.914631885
 31
0.0
  0
LINE
  5
10B
330
1F
100
AcDbEntity
  8
0
  6
Continuous
 62
     7
370
    15
100
AcDbLine
 10
830.5049903213
 20
1051.2236185488
 30
0.0
 11
830.5049903213
 21
193.701369327
 31
0.0
  0
LINE
  5
10C
330
1F
100
AcDbEntity
  8
0
  6
Continuous
 62
     7
370
    15
100
AcDbLine
 10
803.4549720107
 20
193.701369327
 30
0.0
 11
803.4549720107
 21
1051.2236185488
 31
0.0
  0
CIRCLE
  5
10D
330
1F
100
AcDbEntity
  8
0
  6
Continuous
 62
     7
370
    15
100
AcDbCircle
 10
808.9549834166
 20
302.5770076975
 30
0.0
 40
1.700000000000045
  0
CIRCLE
  5
10E
330
1F
100
AcDbEntity
  8
0
  6
Continuous
 62
     7
370
    15
100
AcDbCircle
 10
808.9549834166
 20
782.5770076975
 30
0.0
 40
1.700000000000045
  0
CIRCLE
  5
10F
330
1F
100
AcDbEntity
  8
0
  6
Continuous
 62
     7
370
    15
100
AcDbCircle
 10
808.9549834166
 20
1022.5770076975
 30
0.0
 40
1.700000000000159
  0
CIRCLE
  5
110
330
1F
100
AcDbEntity
  8
0
  6
Continuous
 62
     7
370
    15
100
AcDbCircle
 10
808.9549834166
 20
542.5770076975
 30
0.0
 40
1.700000000000045
  0
LINE
  5
111
330
1F
100
AcDbEntity
  8
0
  6
Continuous
 62
     7
370
    15
100
AcDbLine
 10
830.5049903213
 20
193.701369327
 30
0.0
 11
803.4549720107
 21
193.701369327
 31
0.0
  0
LINE
  5
112
330
1F
100
AcDbEntity
  8
0
  6
Continuous
 62
     7
370
    15
100
AcDbLine
 10
830.5049903213
 20
1051.2236185488
 30
0.0
 11
803.4549720107
 21
1051.2236185488
 31
0.0
  0
SPLINE
  5
113
330
1F
100
AcDbEntity
  8
0
  6
Continuous
 62
     7
370
    15
100
AcDbSpline
210
0.0
220
0.0
230
1.0
 70
     8
 71
     3
 72
    13
 73
     9
 74
     0
 42
0.00000001
 43
0.00000001
 40
0.0
 40
0.0
 40
0.0
 40
0.0
 40
0.1342999556808722
 40
0.2621064125462232
 40
0.3841108998982525
 40
0.5010886000806419
 40
0.7091588083035897
 40
1.0
 40
1.0
 40
1.0
 40
1.0
 10
830.5049903212861
 20
193.7013693270327
 30
0.0
 10
830.6866534373587
 20
193.71003829854
 30
0.0
 10
831.0411961280422
 20
193.7269570905876
 30
0.0
 10
831.5320229942198
 20
193.7962263286739
 30
0.0
 10
831.9535269188265
 20
193.8974816905491
 30
0.0
 10
832.3869130730923
 20
194.0724454243051
 30
0.0
 10
832.8367220641649
 20
194.4028698783594
 30
0.0
 10
832.9114290716557
 20
194.7047344170614
 30
0.0
 10
832.9549796401337
 20
194.8807068285586
 30
0.0
  0
LINE
  5
114
330
1F
100
AcDbEntity
  8
0
  6
Continuous
 62
     7
370
    15
100
AcDbLine
 10
832.9549796401
 20
1049.980742496
 30
0.0
 11
832.9549796401
 21
194.8807068286
 31
0.0
  0
SPLINE
  5
115
330
1F
100
AcDbEntity
  8
0
  6
Continuous
 62
     7
370
    15
100
AcDbSpline
210
0.0
220
0.0
230
1.0
 70
     8
 71
     3
 72
    11
 73
     7
 74
     0
 42
0.00000001
 43
0.00000001
 40
0.0
 40
0.0
 40
0.0
 40
0.0
 40
0.2499972716302374
 40
0.500000830094905
 40
0.7499942509585754
 40
1.0
 40
1.0
 40
1.0
 40
1.0
 10
832.9549796401337
 20
1049.980742495978
 30
0.0
 10
832.9181450742512
 20
1050.084282529683
 30
0.0
 10
832.8444750161848
 20
1050.29136520088
 30
0.0
 10
832.2779683297327
 20
1050.602222159377
 30
0.0
 10
831.4680946490024
 20
1050.912807607304
 30
0.0
 10
830.8260303741886
 20
1051.120013198677
 30
0.0
 10
830.5049903212861
 20
1051.223618548834
 30
0.0
  0
SPLINE
  5
116
330
1F
100
AcDbEntity
  8
0
  6
Continuous
 62
     7
370
    15
100
AcDbSpline
210
0.0
220
0.0
230
1.0
 70
     8
 71
     3
 72
    12
 73
     8
 74
     0
 42
0.00000001
 43
0.00000001
 40
0.0
 40
0.0
 40
0.0
 40
0.0
 40
0.2256343587289241
 40
0.4513292075972198
 40
0.6770226247138116
 40
0.9027171998120284
 40
1.0
 40
1.0
 40
1.0
 40
1.0
 10
832.9549796401337
 20
1049.980742495978
 30
0.0
 10
832.9250303595097
 20
1050.270213004913
 30
0.0
 10
832.8651237691824
 20
1050.849231626705
 30
0.0
 10
832.3997760314052
 20
1051.610643769579
 30
0.0
 10
831.7209870555242
 20
1052.165690294628
 30
0.0
 10
831.0418088884239
 20
1052.405847105151
 30
0.0
 10
830.6292543283269
 20
1052.424971444511
 30
0.0
 10
830.5049903212861
 20
1052.430731814826
 30
0.0
  0
SPLINE
  5
117
330
1F
100
AcDbEntity
  8
0
  6
Continuous
 62
     7
370
    15
100
AcDbSpline
210
0.0
220
0.0
230
1.0
 70
     8
 71
     3
 72
     9
 73
     5
 74
     0
 42
0.00000001
 43
0.00000001
 40
0.0
 40
0.0
 40
0.0
 40
0.0
 40
0.4141142708504359
 40
1.0
 40
1.0
 40
1.0
 40
1.0
 10
831.1943180381135
 20
1050.995213550055
 30
0.0
 10
831.1098863741772
 20
1051.055954001901
 30
0.0
 10
830.9060014325571
 20
1051.202629584274
 30
0.0
 10
830.6531388814286
 20
1051.220299402552
 30
0.0
 10
830.5049903212861
 20
1051.230651896918
 30
0.0
  0
LINE
  5
118
330
1F
100
AcDbEntity
  8
0
  6
Continuous
 62
     7
370
    15
100
AcDbLine
 10
830.5049903213
 20
1052.4307318148
 30
0.0
 11
830.5049903213
 21
1051.2306518969
 31
0.0
  0
SPLINE
  5
119
330
1F
100
AcDbEntity
  8
0
  6
Continuous
 62
     7
370
    15
100
AcDbSpline
210
0.0
220
0.0
230
1.0
 70
     8
 71
     3
 72
    12
 73
     8
 74
     0
 42
0.00000001
 43
0.00000001
 40
0.0
 40
0.0
 40
0.0
 40
0.0
 40
0.2245703846787572
 40
0.4491920533928385
 40
0.6738073572563978
 40
0.8984258351968466
 40
1.0
 40
1.0
 40
1.0
 40
1.0
 10
832.9549796401337
 20
194.8807068285586
 30
0.0
 10
832.9253192048797
 20
194.5925928835937
 30
0.0
 10
832.8659915609635
 20
194.0162991984978
 30
0.0
 10
832.4049183944726
 20
193.2574505823417
 30
0.0
 10
831.7317698239217
 20
192.7023330224973
 30
0.0
 10
831.0514532538805
 20
192.4570139294358
 30
0.0
 10
830.6347491407993
 20
192.4369616521358
 30
0.0
 10
830.5049903212861
 20
192.4307175097109
 30
0.0
  0
LINE
  5
11A
330
1F
100
AcDbEntity
  8
0
  6
Continuous
 62
     7
370
    15
100
AcDbLine
 10
830.5049903213
 20
193.6306782183
 30
0.0
 11
830.5049903213
 21
192.4307175097
 31
0.0
  0
SPLINE
  5
11B
330
1F
100
AcDbEntity
  8
0
  6
Continuous
 62
     7
370
    15
100
AcDbSpline
210
0.0
220
0.0
230
1.0
 70
     8
 71
     3
 72
     9
 73
     5
 74
     0
 42
0.00000001
 43
0.00000001
 40
0.0
 40
0.0
 40
0.0
 40
0.0
 40
0.0818180603453977
 40
1.0
 40
1.0
 40
1.0
 40
1.0
 10
830.9772975264863
 20
193.7310524401308
 30
0.0
 10
830.9661146166956
 20
193.723910705782
 30
0.0
 10
830.8294344052174
 20
193.6366227119253
 30
0.0
 10
830.6602929503721
 20
193.6335236870237
 30
0.0
 10
830.5049903212861
 20
193.6306782183291
 30
0.0
  0
LINE
  5
11C
330
1F
100
AcDbEntity
  8
0
  6
Continuous
 62
     7
370
    15
100
AcDbLine
 10
803.4549720107
 20
1051.2306518969
 30
0.0
 11
803.4549720107
 21
1052.4307318148
 31
0.0
  0
LINE
  5
11D
330
1F
100
AcDbEntity
  8
0
  6
Continuous
 62
     7
370
    15
100
AcDbLine
 10
830.5049903213
 20
1051.2306518969
 30
0.0
 11
803.4549720107
 21
1051.2306518969
 31
0.0
  0
LINE
  5
11E
330
1F
100
AcDbEntity
  8
0
  6
Continuous
 62
     7
370
    15
100
AcDbLine
 10
830.5049903213
 20
1052.4307318148
 30
0.0
 11
803.4549720107
 21
1052.4307318148
 31
0.0
  0
LINE
  5
11F
330
1F
100
AcDbEntity
  8
0
  6
Continuous
 62
     7
370
    15
100
AcDbLine
 10
830.5049903213
 20
192.4307175097
 30
0.0
 11
792.4049861251
 21
192.4307175097
 31
0.0
  0
LINE
  5
120
330
1F
100
AcDbEntity
  8
0
  6
Continuous
 62
     7
370
    15
100
AcDbLine
 10
792.4049861251
 20
193.6306782183
 30
0.0
 11
792.4049861251
 21
192.4307175097
 31
0.0
  0
LINE
  5
121
330
1F
100
AcDbEntity
  8
0
  6
Continuous
 62
     7
370
    15
100
AcDbLine
 10
792.4049861251
 20
193.6306782183
 30
0.0
 11
830.5049903213
 21
193.6306782183
 31
0.0
  0
LINE
  5
122
330
1F
100
AcDbEntity
  8
0
  6
Continuous
 62
     7
370
    15
100
AcDbLine
 10
791.1549873172
 20
197.4307127413
 30
0.0
 11
789.9549968063
 21
197.4307127413
 31
0.0
  0
LINE
  5
123
330
1F
100
AcDbEntity
  8
0
  6
Continuous
 62
     7
370
    15
100
AcDbLine
 10
789.9549968063
 20
197.4307127413
 30
0.0
 11
789.9549968063
 21
202.430707973
 31
0.0
  0
LINE
  5
124
330
1F
100
AcDbEntity
  8
0
  6
Continuous
 62
     7
370
    15
100
AcDbLine
 10
789.9549968063
 20
202.430707973
 30
0.0
 11
791.1549873172
 21
202.430707973
 31
0.0
  0
LINE
  5
125
330
1F
100
AcDbEntity
  8
0
  6
Continuous
 62
     7
370
    15
100
AcDbLine
 10
791.1549873172
 20
201.5731163439
 30
0.0
 11
791.1549873172
 21
197.4307127413
 31
0.0
  0
ARC
  5
126
330
1F
100
AcDbEntity
  8
0
  6
Continuous
 62
     7
370
    15
100
AcDbCircle
 10
792.4049834166
 20
194.8806850884
 30
0.0
 40
2.450000000000045
100
AcDbArc
 50
180.0
 51
270.0
  0
LINE
  5
127
330
1F
100
AcDbEntity
  8
0
  6
Continuous
 62
     7
370
    15
100
AcDbLine
 10
791.1549873172
 20
194.8807068286
 30
0.0
 11
791.1549873172
 21
197.4307127413
 31
0.0
  0
ARC
  5
128
330
1F
100
AcDbEntity
  8
0
  6
Continuous
 62
     7
370
    15
100
AcDbCircle
 10
792.4049834166
 20
194.8806850884
 30
0.0
 40
1.250000000000114
100
AcDbArc
 50
180.0
 51
270.0
  0
LINE
  5
129
330
1F
100
AcDbEntity
  8
0
  6
Continuous
 62
     7
370
    15
100
AcDbLine
 10
789.9549968063
 20
197.4307127413
 30
0.0
 11
789.9549968063
 21
194.8807068286
 31
0.0
  0
SPLINE
  5
12A
330
1F
100
AcDbEntity
  8
0
  6
Continuous
 62
     7
370
    15
100
AcDbSpline
210
0.0
220
0.0
230
1.0
 70
    24
 71
     3
 72
    24
 73
    20
 74
     0
 42
0.00000001
 43
0.00000001
 40
0.0
 40
0.0
 40
0.0
 40
0.0
 40
0.0244219047276725
 40
0.0887374273607048
 40
0.1504849563376481
 40
0.2087425776472165
 40
0.2670007573419709
 40
0.3287485901873238
 40
0.3930632039452087
 40
0.4587428506504885
 40
0.5244220287069176
 40
0.58873755133995
 40
0.6504850803168931
 40
0.7087427016264617
 40
0.767000881321216
 40
0.8287478487176858
 40
0.8930630799613267
 40
0.9587427266666065
 40
1.0
 40
1.0
 40
1.0
 40
1.0
 10
98.15502832520761
 20
-148.6090592923521
 30
0.0
 10
98.15502832520761
 20
-148.5920725063281
 30
0.0
 10
98.15502832520806
 20
-148.5303507156773
 30
0.0
 10
98.15502832520761
 20
-148.976795504852
 30
0.0
 10
98.15502832520761
 20
-149.8777234569941
 30
0.0
 10
98.15502832520761
 20
-151.1898740800662
 30
0.0
 10
98.1550283252074
 20
-152.8471681212739
 30
0.0
 10
98.15502832520784
 20
-154.8811081161615
 30
0.0
 10
98.1550283252074
 20
-157.2628398023756
 30
0.0
 10
98.15502832520784
 20
-159.8741535105044
 30
0.0
 10
98.15502832520761
 20
-162.5568559842952
 30
0.0
 10
98.15502832520761
 20
-165.1443684738549
 30
0.0
 10
98.15502832520784
 20
-167.4938308303911
 30
0.0
 10
98.1550283252074
 20
-169.556658146337
 30
0.0
 10
98.1550283252074
 20
-171.3461626698407
 30
0.0
 10
98.15502832520761
 20
-172.848921374204
 30
0.0
 10
98.15502832520717
 20
-173.9439579510777
 30
0.0
 10
98.15502832520784
 20
-174.5452679835444
 30
0.0
 10
98.15502832520761
 20
-174.533940019774
 30
0.0
 10
98.1550283252074
 20
-174.5295695844052
 30
0.0
  0
LINE
  5
12B
330
1F
100
AcDbEntity
  8
0
  6
Continuous
 62
     7
370
    15
100
AcDbLine
 10
106.0550279437
 20
-150.850015122
 30
0.0
 11
106.0550279437
 21
-148.0443052831
 31
0.0
  0
LINE
  5
12C
330
1F
100
AcDbEntity
  8
0
  6
Continuous
 62
     7
370
    15
100
AcDbLine
 10
106.0550279437
 20
-175.0943235937
 30
0.0
 11
106.0550279437
 21
-150.850015122
 31
0.0
  0
SPLINE
  5
12D
330
1F
100
AcDbEntity
  8
0
  6
Continuous
 62
     7
370
    15
100
AcDbSpline
210
0.0
220
0.0
230
1.0
 70
    24
 71
     3
 72
    34
 73
    30
 74
     0
 42
0.00000001
 43
0.00000001
 40
0.0
 40
0.0
 40
0.0
 40
0.0
 40
0.0068762971826807
 40
0.0456958167080145
 40
0.0857211278370862
 40
0.1268731179672186
 40
0.1590399009029516
 40
0.1912121099811514
 40
0.2568323762617325
 40
0.2896833831552518
 40
0.322540171694923
 40
0.3547074590650697
 40
0.3868795189843221
 40
0.4280266803233079
 40
0.4680519225970287
 40
0.5068764018024097
 40
0.5456953114042691
 40
0.585721346976535
 40
0.6268731364733644
 40
0.6590399194090975
 40
0.6912121284872973
 40
0.7568323947678784
 40
0.7896834016613978
 40
0.8225406922270628
 40
0.8547074445854662
 40
0.8868792629465533
 40
0.9280265997451261
 40
0.9680518420188468
 40
1.0
 40
1.0
 40
1.0
 40
1.0
 10
787.1345646201447
 20
-82.05874486592995
 30
0.0
 10
787.1345646201447
 20
-82.06932595122957
 30
0.0
 10
787.1345646201446
 20
-82.13964160536396
 30
0.0
 10
787.1345646201447
 20
-81.81942349482235
 30
0.0
 10
787.1345646201447
 20
-81.05367174521133
 30
0.0
 10
787.1345646201448
 20
-79.83423728052746
 30
0.0
 10
787.1345646201446
 20
-78.34754456579923
 30
0.0
 10
787.1345646201448
 20
-76.13806747303848
 30
0.0
 10
787.1345646201447
 20
-73.37027557556914
 30
0.0
 10
787.1345646201448
 20
-70.13917489428017
 30
0.0
 10
787.1345646201447
 20
-67.52753183957478
 30
0.0
 10
787.1345646201446
 20
-64.76475857682901
 30
0.0
 10
787.1345646201448
 20
-61.61295010829065
 30
0.0
 10
787.1345646201446
 20
-58.07773779580666
 30
0.0
 10
787.1345646201448
 20
-54.22380198583127
 30
0.0
 10
787.1345646201446
 20
-50.39730163554162
 30
0.0
 10
787.1345646201448
 20
-46.58085887796643
 30
0.0
 10
787.1345646201448
 20
-42.75790497977555
 30
0.0
 10
787.1345646201446
 20
-39.27181394479457
 30
0.0
 10
787.1345646201448
 20
-36.18106921951109
 30
0.0
 10
787.1345646201445
 20
-32.58006756389891
 30
0.0
 10
787.1345646201448
 20
-29.31935670483493
 30
0.0
 10
787.1345646201447
 20
-26.52896948549805
 30
0.0
 10
787.1345646201447
 20
-24.70860635406818
 30
0.0
 10
787.1345646201447
 20
-23.17378567785549
 30
0.0
 10
787.1345646201446
 20
-21.81821939658352
 30
0.0
 10
787.1345646201447
 20
-20.77046021508649
 30
0.0
 10
787.1345646201446
 20
-20.1339522139376
 30
0.0
 10
787.1345646201447
 20
-20.09653634867276
 30
0.0
 10
787.1345646201447
 20
-20.07992787984597
 30
0.0
  0
LINE
  5
12E
330
1F
100
AcDbEntity
  8
0
  6
Continuous
 62
     7
370
    15
100
AcDbLine
 10
787.1345646201
 20
-49.658673245
 30
0.0
 11
785.9549887
 21
-49.658673245
 31
0.0
  0
LINE
  5
12F
330
1F
100
AcDbEntity
  8
0
  6
Continuous
 62
     7
370
    15
100
AcDbLine
 10
785.9549887
 20
-52.1580748144
 30
0.0
 11
787.1345646201
 21
-52.1580748144
 31
0.0
  0
LINE
  5
130
330
1F
100
AcDbEntity
  8
0
  6
Continuous
 62
     7
370
    15
100
AcDbLine
 10
785.9549887
 20
-52.1811418119
 30
0.0
 11
787.1345646201
 21
-52.1811418119
 31
0.0
  0
LINE
  5
131
330
1F
100
AcDbEntity
  8
0
  6
Continuous
 62
     7
370
    15
100
AcDbLine
 10
787.1345646201
 20
-54.9029283109
 30
0.0
 11
785.9549887
 21
-54.9029283109
 31
0.0
  0
LINE
  5
132
330
1F
100
AcDbEntity
  8
0
  6
Continuous
 62
     7
370
    15
100
AcDbLine
 10
785.9549887
 20
-55.8639936033
 30
0.0
 11
787.1345646201
 21
-55.8639936033
 31
0.0
  0
LINE
  5
133
330
1F
100
AcDbEntity
  8
0
  6
Continuous
 62
     7
370
    15
100
AcDbLine
 10
787.1345646201
 20
-57.524698216
 30
0.0
 11
785.9549887
 21
-57.524698216
 31
0.0
  0
LINE
  5
134
330
1F
100
AcDbEntity
  8
0
  6
Continuous
 62
     7
370
    15
100
AcDbLine
 10
785.9549887
 20
-57.6878957334
 30
0.0
 11
787.1345646201
 21
-57.6878957334
 31
0.0
  0
LINE
  5
135
330
1F
100
AcDbEntity
  8
0
  6
Continuous
 62
     7
370
    15
100
AcDbLine
 10
41.4266652881
 20
315.780741733
 30
0.0
 11
31.6982335864
 21
298.9306278643
 31
0.0
  0
LINE
  5
136
330
1F
100
AcDbEntity
  8
0
  6
Continuous
 62
     7
370
    15
100
AcDbLine
 10
60.8832902728
 20
315.780741733
 30
0.0
 11
41.4266652881
 21
315.780741733
 31
0.0
  0
LINE
  5
137
330
1F
100
AcDbEntity
  8
0
  6
Continuous
 62
     7
370
    15
100
AcDbLine
 10
70.6117219745
 20
298.9306278643
 30
0.0
 11
60.8832902728
 21
315.780741733
 31
0.0
  0
LINE
  5
138
330
1F
100
AcDbEntity
  8
0
  6
Continuous
 62
     7
370
    15
100
AcDbLine
 10
61.6549320041
 20
283.4172077593
 30
0.0
 11
70.6117219745
 21
298.9306278643
 31
0.0
  0
LINE
  5
139
330
1F
100
AcDbEntity
  8
0
  6
Continuous
 62
     7
370
    15
100
AcDbLine
 10
31.6982335864
 20
298.9306278643
 30
0.0
 11
40.6550235568
 21
283.4172077593
 31
0.0
  0
LINE
  5
13A
330
1F
100
AcDbEntity
  8
0
  6
Continuous
 62
     7
370
    15
100
AcDbLine
 10
57.8023261844
 20
269.4153614459
 30
0.0
 11
57.8023261844
 21
278.4153051791
 31
0.0
  0
LINE
  5
13B
330
1F
100
AcDbEntity
  8
0
  6
Continuous
 62
     7
370
    15
100
AcDbLine
 10
44.5076293765
 20
278.4153051791
 30
0.0
 11
44.5076293765
 21
269.4153614459
 31
0.0
  0
LINE
  5
13C
330
1F
100
AcDbEntity
  8
0
  6
Continuous
 62
     7
370
    15
100
AcDbLine
 10
57.8023261844
 20
278.4153051791
 30
0.0
 11
44.5076293765
 21
278.4153051791
 31
0.0
  0
LINE
  5
13D
330
1F
100
AcDbEntity
  8
0
  6
Continuous
 62
     7
370
    15
100
AcDbLine
 10
57.8023261844
 20
269.4153614459
 30
0.0
 11
44.5076293765
 21
269.4153614459
 31
0.0
  0
LINE
  5
13E
330
1F
100
AcDbEntity
  8
0
  6
Continuous
 62
     7
370
    15
100
AcDbLine
 10
44.3028278171
 20
269.4153614459
 30
0.0
 11
44.3028278171
 21
278.4153051791
 31
0.0
  0
LINE
  5
13F
330
1F
100
AcDbEntity
  8
0
  6
Continuous
 62
     7
370
    15
100
AcDbLine
 10
44.3028278171
 20
278.4153051791
 30
0.0
 11
44.5076293765
 21
278.4153051791
 31
0.0
  0
LINE
  5
140
330
1F
100
AcDbEntity
  8
0
  6
Continuous
 62
     7
370
    15
100
AcDbLine
 10
44.3028278171
 20
269.4153614459
 30
0.0
 11
44.5076293765
 21
269.4153614459
 31
0.0
  0
LINE
  5
141
330
1F
100
AcDbEntity
  8
0
  6
Continuous
 62
     7
370
    15
100
AcDbLine
 10
58.0071277438
 20
278.4153051791
 30
0.0
 11
58.0071277438
 21
269.4153614459
 31
0.0
  0
LINE
  5
142
330
1F
100
AcDbEntity
  8
0
  6
Continuous
 62
     7
370
    15
100
AcDbLine
 10
57.8023261844
 20
278.4153051791
 30
0.0
 11
58.0071277438
 21
278.4153051791
 31
0.0
  0
LINE
  5
143
330
1F
100
AcDbEntity
  8
0
  6
Continuous
 62
     7
370
    15
100
AcDbLine
 10
57.8023261844
 20
269.4153614459
 30
0.0
 11
58.0071277438
 21
269.4153614459
 31
0.0
  0
LINE
  5
144
330
1F
100
AcDbEntity
  8
0
  6
Continuous
 62
     7
370
    15
100
AcDbLine
 10
37.6554794132
 20
278.4153051791
 30
0.0
 11
37.6554794132
 21
269.4153614459
 31
0.0
  0
LINE
  5
145
330
1F
100
AcDbEntity
  8
0
  6
Continuous
 62
     7
370
    15
100
AcDbLine
 10
44.3028278171
 20
278.4153051791
 30
0.0
 11
37.6554794132
 21
278.4153051791
 31
0.0
  0
LINE
  5
146
330
1F
100
AcDbEntity
  8
0
  6
Continuous
 62
     7
370
    15
100
AcDbLine
 10
44.3028278171
 20
269.4153614459
 30
0.0
 11
37.6554794132
 21
269.4153614459
 31
0.0
  0
LINE
  5
147
330
1F
100
AcDbEntity
  8
0
  6
Continuous
 62
     7
370
    15
100
AcDbLine
 10
64.6544761478
 20
269.4153614459
 30
0.0
 11
64.6544761478
 21
278.4153051791
 31
0.0
  0
LINE
  5
148
330
1F
100
AcDbEntity
  8
0
  6
Continuous
 62
     7
370
    15
100
AcDbLine
 10
64.6544761478
 20
278.4153051791
 30
0.0
 11
58.0071277438
 21
278.4153051791
 31
0.0
  0
LINE
  5
149
330
1F
100
AcDbEntity
  8
0
  6
Continuous
 62
     7
370
    15
100
AcDbLine
 10
64.6544761478
 20
269.4153614459
 30
0.0
 11
58.0071277438
 21
269.4153614459
 31
0.0
  0
LINE
  5
14A
330
1F
100
AcDbEntity
  8
0
  6
Continuous
 62
     7
370
    15
100
AcDbLine
 10
62.404996854
 20
266.415340465
 30
0.0
 11
39.904958707
 21
266.415340465
 31
0.0
  0
LINE
  5
14B
330
1F
100
AcDbEntity
  8
0
  6
Continuous
 62
     7
370
    15
100
AcDbLine
 10
51.1549777805
 20
283.9807100711
 30
0.0
 11
40.6550235568
 21
283.9807100711
 31
0.0
  0
LINE
  5
14C
330
1F
100
AcDbEntity
  8
0
  6
Continuous
 62
     7
370
    15
100
AcDbLine
 10
61.6549320041
 20
283.9807100711
 30
0.0
 11
51.1549777805
 21
283.9807100711
 31
0.0
  0
LINE
  5
14D
330
1F
100
AcDbEntity
  8
0
  6
Continuous
 62
     7
370
    15
100
AcDbLine
 10
60.155040723
 20
288.4807415423
 30
0.0
 11
42.1550340473
 21
288.4807415423
 31
0.0
  0
LINE
  5
14E
330
1F
100
AcDbEntity
  8
0
  6
Continuous
 62
     7
370
    15
100
AcDbLine
 10
59.1549939929
 20
288.9807053027
 30
0.0
 11
43.154961568
 21
288.9807053027
 31
0.0
  0
SPLINE
  5
14F
330
1F
100
AcDbEntity
  8
0
  6
Continuous
 62
     7
370
    15
100
AcDbSpline
210
0.0
220
0.0
230
1.0
 70
     8
 71
     3
 72
    26
 73
    22
 74
     0
 42
0.00000001
 43
0.00000001
 40
0.0
 40
0.0
 40
0.0
 40
0.0
 40
0.0501334917013564
 40
0.093073559239929
 40
0.1380718392551294
 40
0.2087864689267234
 40
0.277146965518544
 40
0.3416902146964228
 40
0.3991884922825862
 40
0.4507000022756124
 40
0.4999527446481506
 40
0.5492054870206889
 40
0.6007169970137151
 40
0.6582150709937082
 40
0.7227585803680635
 40
0.7672422704834911
 40
0.8133764781553708
 40
0.8619281467558855
 40
0.9069257539229186
 40
0.9498661634001829
 40
1.0
 40
1.0
 40
1.0
 40
1.0
 10
59.15499399293201
 20
298.9306278643254
 30
0.0
 10
59.14108745885394
 20
299.291341246752
 30
0.0
 10
59.11526977531712
 20
299.961010907264
 30
0.0
 10
58.91542942528105
 20
300.9461262076601
 30
0.0
 10
58.55647386319862
 20
302.0600081967524
 30
0.0
 10
57.91512755459471
 20
303.3102650484166
 30
0.0
 10
56.8887706110125
 20
304.5918833003365
 30
0.0
 10
55.61651481900609
 20
305.6369384076714
 30
0.0
 10
54.18700539481625
 20
306.3901198565445
 30
0.0
 10
52.68509849261094
 20
306.8314098193819
 30
0.0
 10
51.1549769480838
 20
306.9791485172773
 30
0.0
 10
49.62486047421433
 20
306.8314116723683
 30
0.0
 10
48.12293896551368
 20
306.3901122341462
 30
0.0
 10
46.69349970857317
 20
305.6369757159097
 30
0.0
 10
45.58048842549412
 20
304.722783824446
 30
0.0
 10
44.75347808502084
 20
303.7691574186977
 30
0.0
 10
44.157479808277
 20
302.8586426216842
 30
0.0
 10
43.70330581137461
 20
301.9045763212243
 30
0.0
 10
43.39453091146106
 20
300.9460728609379
 30
0.0
 10
43.19468402597349
 20
299.9610250425955
 30
0.0
 10
43.16886748155368
 20
299.2913460780089
 30
0.0
 10
43.15496156800525
 20
298.9306278643254
 30
0.0
  0
LINE
  5
150
330
1F
100
AcDbEntity
  8
0
  6
Continuous
 62
     7
370
    15
100
AcDbLine
 10
59.1549939929
 20
298.9306278643
 30
0.0
 11
59.148437482
 21
299.2546387133
 31
0.0
  0
LWPOLYLINE
  5
151
330
1F
100
AcDbEntity
  8
0
  6
Continuous
 62
     7
370
    15
100
AcDbPolyline
 90
        3
 70
   128
 43
0.0
 10
43.4656209766
 20
301.1381454882
 10
43.2511634647
 20
300.1673050341
 10
43.154961568
 20
298.9306278643
  0
ARC
  5
152
330
1F
100
AcDbEntity
  8
0
  6
Continuous
 62
     7
370
    15
100
AcDbCircle
 10
51.1549834193
 20
298.9306850884
 30
0.0
 40
12.00000000000023
100
AcDbArc
 50
311.8103148958
 51
0.0
  0
ARC
  5
153
330
1F
100
AcDbEntity
  8
0
  6
Continuous
 62
     7
370
    15
100
AcDbCircle
 10
51.1549834193
 20
298.9306850884
 30
0.0
 40
12.00000000000023
100
AcDbArc
 50
0.0
 51
228.1896851042
  0
LINE
  5
154
330
1F
100
AcDbEntity
  8
0
  6
Continuous
 62
     7
370
    15
100
AcDbLine
 10
39.7988624393
 20
306.2306471285
 30
0.0
 11
45.1549358188
 21
309.3229360995
 31
0.0
  0
LINE
  5
155
330
1F
100
AcDbEntity
  8
0
  6
Continuous
 62
     7
370
    15
100
AcDbLine
 10
39.1550130664
 20
298.9306278643
 30
0.0
 11
39.1550130664
 21
305.1153250155
 31
0.0
  0
ARC
  5
156
330
1F
100
AcDbEntity
  8
0
  6
Continuous
 62
     7
370
    15
100
AcDbCircle
 10
51.1549834193
 20
298.9306850884
 30
0.0
 40
13.50000000000058
100
AcDbArc
 50
147.2660444507
 51
152.7339555493
  0
LINE
  5
157
330
1F
100
AcDbEntity
  8
0
  6
Continuous
 62
     7
370
    15
100
AcDbLine
 10
43.154961568
 20
289.693100017
 30
0.0
 11
39.7988624393
 21
291.6307278094
 31
0.0
  0
ARC
  5
158
330
1F
100
AcDbEntity
  8
0
  6
Continuous
 62
     7
370
    15
100
AcDbCircle
 10
51.1549834193
 20
298.9306850884
 30
0.0
 40
13.50000000000149
100
AcDbArc
 50
207.2660444507
 51
212.7339555493
  0
LINE
  5
159
330
1F
100
AcDbEntity
  8
0
  6
Continuous
 62
     7
370
    15
100
AcDbLine
 10
39.1550130664
 20
292.7460499224
 30
0.0
 11
39.1550130664
 21
298.9306278643
 31
0.0
  0
LINE
  5
15A
330
1F
100
AcDbEntity
  8
0
  6
Continuous
 62
     7
370
    15
100
AcDbLine
 10
51.7989463626
 20
312.4153442797
 30
0.0
 11
57.1550197421
 21
309.3229360995
 31
0.0
  0
LINE
  5
15B
330
1F
100
AcDbEntity
  8
0
  6
Continuous
 62
     7
370
    15
100
AcDbLine
 10
45.1549358188
 20
309.3229360995
 30
0.0
 11
50.5110091983
 21
312.4153442797
 31
0.0
  0
ARC
  5
15C
330
1F
100
AcDbEntity
  8
0
  6
Continuous
 62
     7
370
    15
100
AcDbCircle
 10
51.1549834193
 20
298.9306850884
 30
0.0
 40
13.49999999999882
100
AcDbArc
 50
87.2660444507
 51
92.7339555493
  0
LINE
  5
15D
330
1F
100
AcDbEntity
  8
0
  6
Continuous
 62
     7
370
    15
100
AcDbLine
 10
63.1549424945
 20
298.9306278643
 30
0.0
 11
63.1549424945
 21
292.7460499224
 31
0.0
  0
LINE
  5
15E
330
1F
100
AcDbEntity
  8
0
  6
Continuous
 62
     7
370
    15
100
AcDbLine
 10
62.5110931217
 20
291.6307278094
 30
0.0
 11
59.1549939929
 21
289.693100017
 31
0.0
  0
ARC
  5
15F
330
1F
100
AcDbEntity
  8
0
  6
Continuous
 62
     7
370
    15
100
AcDbCircle
 10
51.1549834193
 20
298.9306850884
 30
0.0
 40
13.5000000000009
100
AcDbArc
 50
327.2660444507
 51
332.7339555493
  0
LINE
  5
160
330
1F
100
AcDbEntity
  8
0
  6
Continuous
 62
     7
370
    15
100
AcDbLine
 10
63.1549424945
 20
305.1153250155
 30
0.0
 11
63.1549424945
 21
298.9306278643
 31
0.0
  0
LINE
  5
161
330
1F
100
AcDbEntity
  8
0
  6
Continuous
 62
     7
370
    15
100
AcDbLine
 10
57.1550197421
 20
309.3229360995
 30
0.0
 11
62.5110931217
 21
306.2306471285
 31
0.0
  0
ARC
  5
162
330
1F
100
AcDbEntity
  8
0
  6
Continuous
 62
     7
370
    15
100
AcDbCircle
 10
51.1549834193
 20
298.9306850884
 30
0.0
 40
13.49999999999998
100
AcDbArc
 50
27.2660444507
 51
32.7339555493
  0
ARC
  5
163
330
1F
100
AcDbEntity
  8
0
  6
Continuous
 62
     7
370
    15
100
AcDbCircle
 10
51.1549834193
 20
298.9306850884
 30
0.0
 40
13.50000000000035
100
AcDbArc
 50
212.7339555493
 51
229.7817954094
  0
ARC
  5
164
330
1F
100
AcDbEntity
  8
0
  6
Continuous
 62
     7
370
    15
100
AcDbCircle
 10
51.1549834193
 20
298.9306850884
 30
0.0
 40
13.50000000000117
100
AcDbArc
 50
152.7339555493
 51
207.2660444507
  0
ARC
  5
165
330
1F
100
AcDbEntity
  8
0
  6
Continuous
 62
     7
370
    15
100
AcDbCircle
 10
51.1549834193
 20
298.9306850884
 30
0.0
 40
13.50000000000019
100
AcDbArc
 50
92.7339555493
 51
147.2660444507
  0
ARC
  5
166
330
1F
100
AcDbEntity
  8
0
  6
Continuous
 62
     7
370
    15
100
AcDbCircle
 10
51.1549834193
 20
298.9306850884
 30
0.0
 40
13.49999999999925
100
AcDbArc
 50
32.7339555493
 51
87.2660444507
  0
ARC
  5
167
330
1F
100
AcDbEntity
  8
0
  6
Continuous
 62
     7
370
    15
100
AcDbCircle
 10
51.1549834193
 20
298.9306850884
 30
0.0
 40
13.50000000000124
100
AcDbArc
 50
310.2182045906
 51
327.2660444507
  0
ARC
  5
168
330
1F
100
AcDbEntity
  8
0
  6
Continuous
 62
     7
370
    15
100
AcDbCircle
 10
51.1549834193
 20
298.9306850884
 30
0.0
 40
13.50000000000057
100
AcDbArc
 50
332.7339555493
 51
27.2660444507
  0
LINE
  5
169
330
1F
100
AcDbEntity
  8
0
  6
Continuous
 62
     7
370
    15
100
AcDbLine
 10
56.6549367725
 20
-12.2693352285
 30
0.0
 11
56.6395587741
 21
-12.2693352285
 31
0.0
  0
LINE
  5
16A
330
1F
100
AcDbEntity
  8
0
  6
Continuous
 62
     7
370
    15
100
AcDbLine
 10
56.6395587741
 20
-5.2693061414
 30
0.0
 11
56.6395587741
 21
-12.2693352285
 31
0.0
  0
LINE
  5
16B
330
1F
100
AcDbEntity
  8
0
  6
Continuous
 62
     7
370
    15
100
AcDbLine
 10
50.4549808322
 20
-5.2693061414
 30
0.0
 11
56.6395587741
 21
-5.2693061414
 31
0.0
  0
LINE
  5
16C
330
1F
100
AcDbEntity
  8
0
  6
Continuous
 62
     7
370
    15
100
AcDbLine
 10
50.4549808322
 20
-12.2693352285
 30
0.0
 11
50.4549808322
 21
-5.2693061414
 31
0.0
  0
LINE
  5
16D
330
1F
100
AcDbEntity
  8
0
  6
Continuous
 62
     7
370
    15
100
AcDbLine
 10
50.4549808322
 20
-12.2693352285
 30
0.0
 11
49.3396587192
 21
-12.2693352285
 31
0.0
  0
LINE
  5
16E
330
1F
100
AcDbEntity
  8
0
  6
Continuous
 62
     7
370
    15
100
AcDbLine
 10
49.3396587192
 20
-5.2693061414
 30
0.0
 11
49.3396587192
 21
-12.2693352285
 31
0.0
  0
LINE
  5
16F
330
1F
100
AcDbEntity
  8
0
  6
Continuous
 62
     7
370
    15
100
AcDbLine
 10
36.9703836261
 20
-5.2693061414
 30
0.0
 11
49.3396587192
 21
-5.2693061414
 31
0.0
  0
LINE
  5
170
330
1F
100
AcDbEntity
  8
0
  6
Continuous
 62
     7
370
    15
100
AcDbLine
 10
36.9703836261
 20
-12.2693352285
 30
0.0
 11
36.9703836261
 21
-5.2693061414
 31
0.0
  0
LINE
  5
171
330
1F
100
AcDbEntity
  8
0
  6
Continuous
 62
     7
370
    15
100
AcDbLine
 10
36.9703836261
 20
-12.2693352285
 30
0.0
 11
35.8550615131
 21
-12.2693352285
 31
0.0
  0
LINE
  5
172
330
1F
100
AcDbEntity
  8
0
  6
Continuous
 62
     7
370
    15
100
AcDbLine
 10
35.8550615131
 20
-5.2693061414
 30
0.0
 11
35.8550615131
 21
-12.2693352285
 31
0.0
  0
LINE
  5
173
330
1F
100
AcDbEntity
  8
0
  6
Continuous
 62
     7
370
    15
100
AcDbLine
 10
29.6703643619
 20
-5.2693061414
 30
0.0
 11
35.8550615131
 21
-5.2693061414
 31
0.0
  0
LINE
  5
174
330
1F
100
AcDbEntity
  8
0
  6
Continuous
 62
     7
370
    15
100
AcDbLine
 10
29.6703643619
 20
-12.2693352285
 30
0.0
 11
29.6703643619
 21
-5.2693061414
 31
0.0
  0
LINE
  5
175
330
1F
100
AcDbEntity
  8
0
  6
Continuous
 62
     7
370
    15
100
AcDbLine
 10
29.6703643619
 20
-12.2693352285
 30
0.0
 11
29.6549863635
 21
-12.2693352285
 31
0.0
  0
LINE
  5
176
330
1F
100
AcDbEntity
  8
0
  6
Continuous
 62
     7
370
    15
100
AcDbLine
 10
29.6549863635
 20
-0.2693109098
 30
0.0
 11
56.6549367725
 21
-0.2693109098
 31
0.0
  0
LINE
  5
177
330
1F
100
AcDbEntity
  8
0
  6
Continuous
 62
     7
370
    15
100
AcDbLine
 10
63.6704034625
 20
-24.1511039319
 30
0.0
 11
72.6703471958
 21
-24.1511039319
 31
0.0
  0
LINE
  5
178
330
1F
100
AcDbEntity
  8
0
  6
Continuous
 62
     7
370
    15
100
AcDbLine
 10
72.6703471958
 20
-24.3874959531
 30
0.0
 11
72.6703471958
 21
-24.1511039319
 31
0.0
  0
LINE
  5
179
330
1F
100
AcDbEntity
  8
0
  6
Continuous
 62
     7
370
    15
100
AcDbLine
 10
72.6703471958
 20
-24.3874959531
 30
0.0
 11
63.6704034625
 21
-24.3874959531
 31
0.0
  0
LINE
  5
17A
330
1F
100
AcDbEntity
  8
0
  6
Continuous
 62
     7
370
    15
100
AcDbLine
 10
63.6704034625
 20
-24.3874959531
 30
0.0
 11
63.6704034625
 21
-24.1511039319
 31
0.0
  0
LINE
  5
17B
330
1F
100
AcDbEntity
  8
0
  6
Continuous
 62
     7
370
    15
100
AcDbLine
 10
63.6704034625
 20
-35.9010867658
 30
0.0
 11
72.6703471958
 21
-35.9010867658
 31
0.0
  0
LINE
  5
17C
330
1F
100
AcDbEntity
  8
0
  6
Continuous
 62
     7
370
    15
100
AcDbLine
 10
72.6703471958
 20
-24.3874959531
 30
0.0
 11
72.6703471958
 21
-35.9010867658
 31
0.0
  0
LINE
  5
17D
330
1F
100
AcDbEntity
  8
0
  6
Continuous
 62
     7
370
    15
100
AcDbLine
 10
63.6704034625
 20
-24.3874959531
 30
0.0
 11
63.6704034625
 21
-35.9010867658
 31
0.0
  0
LINE
  5
17E
330
1F
100
AcDbEntity
  8
0
  6
Continuous
 62
     7
370
    15
100
AcDbLine
 10
72.6703471958
 20
-12.6375131193
 30
0.0
 11
63.6704034625
 21
-12.6375131193
 31
0.0
  0
LINE
  5
17F
330
1F
100
AcDbEntity
  8
0
  6
Continuous
 62
     7
370
    15
100
AcDbLine
 10
72.6703471958
 20
-12.6375131193
 30
0.0
 11
72.6703471958
 21
-24.1511039319
 31
0.0
  0
LINE
  5
180
330
1F
100
AcDbEntity
  8
0
  6
Continuous
 62
     7
370
    15
100
AcDbLine
 10
63.6704034625
 20
-12.6375131193
 30
0.0
 11
63.6704034625
 21
-24.1511039319
 31
0.0
  0
LINE
  5
181
330
1F
100
AcDbEntity
  8
0
  6
Continuous
 62
     7
370
    15
100
AcDbLine
 10
43.154961568
 20
-12.2693352285
 30
0.0
 11
49.3396587192
 21
-12.2693352285
 31
0.0
  0
LINE
  5
182
330
1F
100
AcDbEntity
  8
0
  6
Continuous
 62
     7
370
    15
100
AcDbLine
 10
36.9703836261
 20
-12.2693352285
 30
0.0
 11
43.154961568
 21
-12.2693352285
 31
0.0
  0
LINE
  5
183
330
1F
100
AcDbEntity
  8
0
  6
Continuous
 62
     7
370
    15
100
AcDbLine
 10
29.6703643619
 20
-12.2693352285
 30
0.0
 11
32.7626533328
 21
-12.2693352285
 31
0.0
  0
LINE
  5
184
330
1F
100
AcDbEntity
  8
0
  6
Continuous
 62
     7
370
    15
100
AcDbLine
 10
32.7626533328
 20
-12.2693352285
 30
0.0
 11
35.8550615131
 21
-12.2693352285
 31
0.0
  0
LINE
  5
185
330
1F
100
AcDbEntity
  8
0
  6
Continuous
 62
     7
370
    15
100
AcDbLine
 10
53.5472698032
 20
-12.2693352285
 30
0.0
 11
56.6395587741
 21
-12.2693352285
 31
0.0
  0
LINE
  5
186
330
1F
100
AcDbEntity
  8
0
  6
Continuous
 62
     7
370
    15
100
AcDbLine
 10
50.4549808322
 20
-12.2693352285
 30
0.0
 11
53.5472698032
 21
-12.2693352285
 31
0.0
  0
SPLINE
  5
187
330
1F
100
AcDbEntity
  8
0
  6
Continuous
 62
     7
370
    15
100
AcDbSpline
210
0.0
220
0.0
230
1.0
 70
     8
 71
     3
 72
     9
 73
     5
 74
     0
 42
0.00000001
 43
0.00000001
 40
0.0
 40
0.0
 40
0.0
 40
0.0
 40
0.5123507261376249
 40
1.0
 40
1.0
 40
1.0
 40
1.0
 10
53.60508630860605
 20
-15.33080859807717
 30
0.0
 10
53.66832673630129
 20
-15.31287080690374
 30
0.0
 10
53.79175864430674
 20
-15.27786004131232
 30
0.0
 10
53.81187826788925
 20
-15.27210368677784
 30
0.0
 10
53.82168958771982
 20
-15.26929660466897
 30
0.0
  0
LINE
  5
188
330
1F
100
AcDbEntity
  8
0
  6
Continuous
 62
     7
370
    15
100
AcDbLine
 10
53.555018407
 20
-15.3693131986
 30
0.0
 11
53.6050863086
 21
-15.3308085981
 31
0.0
  0
LINE
  5
189
330
1F
100
AcDbEntity
  8
0
  6
Continuous
 62
     7
370
    15
100
AcDbLine
 10
75.6703681766
 20
-13.0193404737
 30
0.0
 11
75.6703681766
 21
-35.519319016
 31
0.0
  0
LINE
  5
18A
330
1F
100
AcDbEntity
  8
0
  6
Continuous
 62
     7
370
    15
100
AcDbLine
 10
53.1050033389
 20
-16.2693433347
 30
0.0
 11
53.1050033389
 21
-32.269316155
 31
0.0
  0
LINE
  5
18B
330
1F
100
AcDbEntity
  8
0
  6
Continuous
 62
     7
370
    15
100
AcDbLine
 10
53.6049670993
 20
-15.3308085981
 30
0.0
 11
53.6049670993
 21
-33.2693032804
 31
0.0
  0
SPLINE
  5
18C
330
1F
100
AcDbEntity
  8
0
  6
Continuous
 62
     7
370
    15
100
AcDbSpline
210
0.0
220
0.0
230
1.0
 70
     8
 71
     3
 72
    10
 73
     6
 74
     0
 42
0.00000001
 43
0.00000001
 40
0.0
 40
0.0
 40
0.0
 40
0.0
 40
0.0271613948312058
 40
0.5156215665100707
 40
1.0
 40
1.0
 40
1.0
 40
1.0
 10
51.41723821748057
 20
-16.27882047322976
 30
0.0
 10
51.42278658975552
 20
-16.27568508991678
 30
0.0
 10
51.52811477417829
 20
-16.21616416820298
 30
0.0
 10
51.09672858227066
 20
-16.42604305262824
 30
0.0
 10
50.67299302531325
 20
-16.78405300815405
 30
0.0
 10
50.46201418031016
 20
-16.96230693486917
 30
0.0
  0
SPLINE
  5
18D
330
1F
100
AcDbEntity
  8
0
  6
Continuous
 62
     7
370
    15
100
AcDbSpline
210
0.0
220
0.0
230
1.0
 70
     8
 71
     3
 72
    16
 73
    12
 74
     0
 42
0.00000001
 43
0.00000001
 40
0.0
 40
0.0
 40
0.0
 40
0.0
 40
0.1002732578821191
 40
0.1861604184742267
 40
0.2761649479119603
 40
0.4176097573753138
 40
0.5543429069347897
 40
0.6834446770287231
 40
0.7984462146645035
 40
0.9014830286965583
 40
0.9999999999999999
 40
0.9999999999999999
 40
0.9999999999999999
 40
0.9999999999999999
 10
43.15496156800547
 20
-24.26929994252908
 30
0.0
 10
42.79429781147159
 20
-24.63016093905929
 30
0.0
 10
42.12471434262876
 20
-25.30011059008247
 30
0.0
 10
41.1395698646354
 20
-26.28490611669682
 30
0.0
 10
40.02570779175952
 20
-27.39850905572877
 30
0.0
 10
38.77533369889485
 20
-28.6492374530613
 30
0.0
 10
37.49425963479769
 20
-29.92959936452083
 30
0.0
 10
36.44726571057932
 20
-30.9785020147953
 30
0.0
 10
35.69982840179586
 20
-31.72390463245983
 30
0.0
 10
35.24052928866939
 20
-32.18447235399419
 30
0.0
 10
35.18304362802394
 20
-32.24146087711782
 30
0.0
 10
35.15494535554187
 20
-32.26931615499235
 30
0.0
  0
SPLINE
  5
18E
330
1F
100
AcDbEntity
  8
0
  6
Continuous
 62
     7
370
    15
100
AcDbSpline
210
0.0
220
0.0
230
1.0
 70
     8
 71
     3
 72
    11
 73
     7
 74
     0
 42
0.00000001
 43
0.00000001
 40
0.0
 40
0.0
 40
0.0
 40
0.0
 40
0.2155747146293802
 40
0.4637483176659599
 40
0.7321108899043886
 40
1.0
 40
1.0
 40
1.0
 40
1.0
 10
50.46201418031016
 20
-16.96230693486917
 30
0.0
 10
50.08819654351948
 20
-17.33612998580497
 30
0.0
 10
49.28403312169316
 20
-18.14030505463987
 30
0.0
 10
47.48537493561422
 20
-19.93886296480568
 30
0.0
 10
45.3980324293467
 20
-22.02623516221852
 30
0.0
 10
43.90221162991359
 20
-23.52205190643736
 30
0.0
 10
43.15496156800547
 20
-24.26929994252908
 30
0.0
  0
LINE
  5
18F
330
1F
100
AcDbEntity
  8
0
  6
Continuous
 62
     7
370
    15
100
AcDbLine
 10
72.6703471958
 20
-36.019342381
 30
0.0
 11
63.6704034625
 21
-36.019342381
 31
0.0
  0
LINE
  5
190
330
1F
100
AcDbEntity
  8
0
  6
Continuous
 62
     7
370
    15
100
AcDbLine
 10
72.6703471958
 20
-36.019342381
 30
0.0
 11
72.6703471958
 21
-35.9010867658
 31
0.0
  0
LINE
  5
191
330
1F
100
AcDbEntity
  8
0
  6
Continuous
 62
     7
370
    15
100
AcDbLine
 10
63.6704034625
 20
-36.019342381
 30
0.0
 11
63.6704034625
 21
-35.9010867658
 31
0.0
  0
LINE
  5
192
330
1F
100
AcDbEntity
  8
0
  6
Continuous
 62
     7
370
    15
100
AcDbLine
 10
63.6704034625
 20
-12.5193171087
 30
0.0
 11
72.6703471958
 21
-12.5193171087
 31
0.0
  0
LINE
  5
193
330
1F
100
AcDbEntity
  8
0
  6
Continuous
 62
     7
370
    15
100
AcDbLine
 10
72.6703471958
 20
-12.6375131193
 30
0.0
 11
72.6703471958
 21
-12.5193171087
 31
0.0
  0
LINE
  5
194
330
1F
100
AcDbEntity
  8
0
  6
Continuous
 62
     7
370
    15
100
AcDbLine
 10
63.6704034625
 20
-12.6375131193
 30
0.0
 11
63.6704034625
 21
-12.5193171087
 31
0.0
  0
LWPOLYLINE
  5
195
330
1F
100
AcDbEntity
  8
0
  6
Continuous
 62
     7
370
    15
100
AcDbPolyline
 90
       19
 70
   128
 43
0.0
 10
49.6549672901
 20
-17.7692942205
 10
49.5562619983
 20
-17.8680591169
 10
49.263007146
 20
-18.1613139692
 10
48.7841434299
 20
-18.6401776853
 10
48.1342143833
 20
-19.2900471273
 10
47.3331279575
 20
-20.0911931577
 10
46.404964429
 20
-21.0192970815
 10
45.3780956088
 20
-22.0461659017
 10
44.2837543308
 20
-23.1406263891
 10
43.154961568
 20
-24.2692999425
 10
42.0262880145
 20
-25.3980331006
 10
40.9318275272
 20
-26.4924339834
 10
39.904958707
 20
-27.5193028036
 10
38.9769143878
 20
-28.4474067273
 10
38.1757087528
 20
-29.2486123624
 10
37.5257797061
 20
-29.8984818044
 10
37.0470351993
 20
-30.3773455205
 10
36.753780347
 20
-30.6705407682
 10
36.654955846
 20
-30.7693056646
  0
LINE
  5
196
330
1F
100
AcDbEntity
  8
0
  6
Continuous
 62
     7
370
    15
100
AcDbLine
 10
787.4549693881
 20
-312.0693139615
 30
0.0
 11
785.9549887
 21
-312.0693139615
 31
0.0
  0
LINE
  5
197
330
1F
100
AcDbEntity
  8
0
  6
Continuous
 62
     7
370
    15
100
AcDbLine
 10
785.9549887
 20
-307.0693187299
 30
0.0
 11
787.4549693881
 21
-307.0693187299
 31
0.0
  0
LINE
  5
198
330
1F
100
AcDbEntity
  8
0
  6
Continuous
 62
     7
370
    15
100
AcDbLine
 10
787.4549693881
 20
-307.0693187299
 30
0.0
 11
787.4549693881
 21
-312.0693139615
 31
0.0
  0
LINE
  5
199
330
1F
100
AcDbEntity
  8
0
  6
Continuous
 62
     7
370
    15
100
AcDbLine
 10
787.4549693881
 20
-344.719307858
 30
0.0
 11
785.9549887
 21
-344.719307858
 31
0.0
  0
LINE
  5
19A
330
1F
100
AcDbEntity
  8
0
  6
Continuous
 62
     7
370
    15
100
AcDbLine
 10
785.9549887
 20
-344.719307858
 30
0.0
 11
785.9549887
 21
-344.1193275037
 31
0.0
  0
LINE
  5
19B
330
1F
100
AcDbEntity
  8
0
  6
Continuous
 62
     7
370
    15
100
AcDbLine
 10
787.4549693881
 20
-344.719307858
 30
0.0
 11
787.4549693881
 21
-312.0693139615
 31
0.0
  0
ARC
  5
19C
330
1F
100
AcDbEntity
  8
0
  6
Continuous
 62
     7
370
    15
100
AcDbCircle
 10
789.2049834193
 20
-344.7193149116
 30
0.0
 40
3.249999999999886
100
AcDbArc
 50
180.0
 51
270.0
  0
ARC
  5
19D
330
1F
100
AcDbEntity
  8
0
  6
Continuous
 62
     7
370
    15
100
AcDbCircle
 10
789.2049834193
 20
-344.7193149116
 30
0.0
 40
1.75
100
AcDbArc
 50
180.0
 51
270.0
  0
LINE
  5
19E
330
1F
100
AcDbEntity
  8
0
  6
Continuous
 62
     7
370
    15
100
AcDbLine
 10
789.2049915611
 20
-346.4693002286
 30
0.0
 11
789.2049915611
 21
-347.969310719
 31
0.0
  0
LINE
  5
19F
330
1F
100
AcDbEntity
  8
0
  6
Continuous
 62
     7
370
    15
100
AcDbLine
 10
810.3839225589
 20
-347.969310719
 30
0.0
 11
810.3839225589
 21
-346.4693002286
 31
0.0
  0
LINE
  5
1A0
330
1F
100
AcDbEntity
  8
0
  6
Continuous
 62
     7
370
    15
100
AcDbLine
 10
789.2049915611
 20
-347.969310719
 30
0.0
 11
810.3839225589
 21
-347.969310719
 31
0.0
  0
LINE
  5
1A1
330
1F
100
AcDbEntity
  8
0
  6
Continuous
 62
     7
370
    15
100
AcDbLine
 10
789.2049915611
 20
-346.4693002286
 30
0.0
 11
810.3839225589
 21
-346.4693002286
 31
0.0
  0
LINE
  5
1A2
330
1F
100
AcDbEntity
  8
0
  6
Continuous
 62
     7
370
    15
100
AcDbLine
 10
813.9194614707
 20
-346.4693002286
 30
0.0
 11
813.9194614707
 21
-347.969310719
 31
0.0
  0
LINE
  5
1A3
330
1F
100
AcDbEntity
  8
0
  6
Continuous
 62
     7
370
    15
100
AcDbLine
 10
813.9194614707
 20
-347.969310719
 30
0.0
 11
810.3839225589
 21
-347.969310719
 31
0.0
  0
LINE
  5
1A4
330
1F
100
AcDbEntity
  8
0
  6
Continuous
 62
     7
370
    15
100
AcDbLine
 10
810.3839225589
 20
-346.4693002286
 30
0.0
 11
813.9194614707
 21
-346.4693002286
 31
0.0
  0
LINE
  5
1A5
330
1F
100
AcDbEntity
  8
0
  6
Continuous
 62
     7
370
    15
100
AcDbLine
 10
825.9905047237
 20
-347.969310719
 30
0.0
 11
825.9905047237
 21
-346.4693002286
 31
0.0
  0
LINE
  5
1A6
330
1F
100
AcDbEntity
  8
0
  6
Continuous
 62
     7
370
    15
100
AcDbLine
 10
813.9194614707
 20
-347.969310719
 30
0.0
 11
825.9905047237
 21
-347.969310719
 31
0.0
  0
LINE
  5
1A7
330
1F
100
AcDbEntity
  8
0
  6
Continuous
 62
     7
370
    15
100
AcDbLine
 10
813.9194614707
 20
-346.4693002286
 30
0.0
 11
825.9905047237
 21
-346.4693002286
 31
0.0
  0
LINE
  5
1A8
330
1F
100
AcDbEntity
  8
0
  6
Continuous
 62
     7
370
    15
100
AcDbLine
 10
827.4549908458
 20
-346.4693002286
 30
0.0
 11
827.4549908458
 21
-347.969310719
 31
0.0
  0
LINE
  5
1A9
330
1F
100
AcDbEntity
  8
0
  6
Continuous
 62
     7
370
    15
100
AcDbLine
 10
827.4549908458
 20
-347.969310719
 30
0.0
 11
825.9905047237
 21
-347.969310719
 31
0.0
  0
LINE
  5
1AA
330
1F
100
AcDbEntity
  8
0
  6
Continuous
 62
     7
370
    15
100
AcDbLine
 10
825.9905047237
 20
-346.4693002286
 30
0.0
 11
827.4549908458
 21
-346.4693002286
 31
0.0
  0
LINE
  5
1AB
330
1F
100
AcDbEntity
  8
0
  6
Continuous
 62
     7
370
    15
100
AcDbLine
 10
102.3550100147
 20
340.9306831774
 30
0.0
 11
101.1549300968
 21
340.9306831774
 31
0.0
  0
LINE
  5
1AC
330
1F
100
AcDbEntity
  8
0
  6
Continuous
 62
     7
370
    15
100
AcDbLine
 10
102.3550100147
 20
340.9306831774
 30
0.0
 11
102.3550100147
 21
88.4377785143
 31
0.0
  0
LINE
  5
1AD
330
1F
100
AcDbEntity
  8
0
  6
Continuous
 62
     7
370
    15
100
AcDbLine
 10
102.3550100147
 20
88.4377785143
 30
0.0
 11
101.1549300968
 21
88.4377785143
 31
0.0
  0
LINE
  5
1AE
330
1F
100
AcDbEntity
  8
0
  6
Continuous
 62
     7
370
    15
100
AcDbLine
 10
101.1549300968
 20
340.9306831774
 30
0.0
 11
101.1549300968
 21
88.4377785143
 31
0.0
  0
LINE
  5
1AF
330
1F
100
AcDbEntity
  8
0
  6
Continuous
 62
     7
370
    15
100
AcDbLine
 10
101.1549300968
 20
340.9306831774
 30
0.0
 11
100.4549331485
 21
340.9306831774
 31
0.0
  0
LINE
  5
1B0
330
1F
100
AcDbEntity
  8
0
  6
Continuous
 62
     7
370
    15
100
AcDbLine
 10
99.6550388156
 20
88.4377785143
 30
0.0
 11
101.1549300968
 21
88.4377785143
 31
0.0
  0
SPLINE
  5
1B1
330
1F
100
AcDbEntity
  8
0
  6
Continuous
 62
     7
370
    15
100
AcDbSpline
210
0.0
220
0.0
230
1.0
 70
     8
 71
     3
 72
    12
 73
     8
 74
     0
 42
0.00000001
 43
0.00000001
 40
0.0
 40
0.0
 40
0.0
 40
0.0
 40
0.226588495770526
 40
0.4532294935471445
 40
0.6798614162189899
 40
0.9064961541947621
 40
1.0
 40
1.0
 40
1.0
 40
1.0
 10
-0.0450544537230479
 20
89.23069910379661
 30
0.0
 10
-0.011758880435031
 20
89.12269010025837
 30
0.0
 10
0.0548399809386924
 20
88.90664706680357
 30
0.0
 10
0.5719060602183967
 20
88.58267132392078
 30
0.0
 10
1.325390838267437
 20
88.25873598122274
 30
0.0
 10
2.072773858790788
 20
87.997603465016
 30
0.0
 10
2.523415643602367
 20
87.84573608712203
 30
0.0
 10
2.655035954602147
 20
87.80137972208274
 30
0.0
  0
LINE
  5
1B2
330
1F
100
AcDbEntity
  8
0
  6
Continuous
 62
     7
370
    15
100
AcDbLine
 10
-0.0450544537
 20
89.2306991038
 30
0.0
 11
-0.0450544537
 21
339.6806545672
 31
0.0
  0
LINE
  5
1B3
330
1F
100
AcDbEntity
  8
0
  6
Continuous
 62
     7
370
    15
100
AcDbLine
 10
0.1956291019
 20
339.6806545672
 30
0.0
 11
-0.0450544537
 21
339.6806545672
 31
0.0
  0
LINE
  5
1B4
330
1F
100
AcDbEntity
  8
0
  6
Continuous
 62
     7
370
    15
100
AcDbLine
 10
99.6550388156
 20
87.8013797221
 30
0.0
 11
99.6550388156
 21
88.4377785143
 31
0.0
  0
LINE
  5
1B5
330
1F
100
AcDbEntity
  8
0
  6
Continuous
 62
     7
370
    15
100
AcDbLine
 10
2.6550359546
 20
87.8013797221
 30
0.0
 11
99.6550388156
 21
87.8013797221
 31
0.0
  0
LINE
  5
1B6
330
1F
100
AcDbEntity
  8
0
  6
Continuous
 62
     7
370
    15
100
AcDbLine
 10
99.6550388156
 20
86.5306683001
 30
0.0
 11
99.6550388156
 21
87.7306886134
 31
0.0
  0
LINE
  5
1B7
330
1F
100
AcDbEntity
  8
0
  6
Continuous
 62
     7
370
    15
100
AcDbLine
 10
2.6550359546
 20
86.5306683001
 30
0.0
 11
99.6550388156
 21
86.5306683001
 31
0.0
  0
LINE
  5
1B8
330
1F
100
AcDbEntity
  8
0
  6
Continuous
 62
     7
370
    15
100
AcDbLine
 10
2.6550359546
 20
86.5306683001
 30
0.0
 11
2.6550359546
 21
87.7306886134
 31
0.0
  0
LINE
  5
1B9
330
1F
100
AcDbEntity
  8
0
  6
Continuous
 62
     7
370
    15
100
AcDbLine
 10
2.6550359546
 20
87.7306886134
 30
0.0
 11
99.6550388156
 21
87.7306886134
 31
0.0
  0
SPLINE
  5
1BA
330
1F
100
AcDbEntity
  8
0
  6
Continuous
 62
     7
370
    15
100
AcDbSpline
210
0.0
220
0.0
230
1.0
 70
     8
 71
     3
 72
    11
 73
     7
 74
     0
 42
0.00000001
 43
0.00000001
 40
0.0
 40
0.0
 40
0.0
 40
0.0
 40
0.2500073771256399
 40
0.5000072962381206
 40
0.7500072153506011
 40
1.0
 40
1.0
 40
1.0
 40
1.0
 10
2.655035954602147
 20
86.53066830011619
 30
0.0
 10
2.301212359361648
 20
86.5712446931169
 30
0.0
 10
1.59357572385288
 20
86.65239626867665
 30
0.0
 10
0.7011081502071859
 20
87.276831347663
 30
0.0
 10
0.0766863288320652
 20
88.16928000370866
 30
0.0
 10
-0.0044745789032907
 20
88.87689610279043
 30
0.0
 10
-0.0450544537230479
 20
89.23069910379661
 30
0.0
  0
SPLINE
  5
1BB
330
1F
100
AcDbEntity
  8
0
  6
Continuous
 62
     7
370
    15
100
AcDbSpline
210
0.0
220
0.0
230
1.0
 70
     8
 71
     3
 72
    10
 73
     6
 74
     0
 42
0.00000001
 43
0.00000001
 40
0.0
 40
0.0
 40
0.0
 40
0.0
 40
0.4980919522699163
 40
0.9961113619257848
 40
1.0
 40
1.0
 40
1.0
 40
1.0
 10
2.655035954602147
 20
87.73068861337913
 30
0.0
 10
2.463183997341134
 20
87.75639700177712
 30
0.0
 10
2.079508024331544
 20
87.80781003437782
 30
0.0
 10
1.700131686121487
 20
88.0082904002088
 30
0.0
 10
1.592641106949899
 20
88.17257630769177
 30
0.0
 10
1.591808301098729
 20
88.17384914728416
 30
0.0
  0
ARC
  5
1BC
330
1F
100
AcDbEntity
  8
0
  6
Continuous
 62
     7
370
    15
100
AcDbCircle
 10
99.6549834193
 20
85.0306850884
 30
0.0
 40
2.70000000000104
100
AcDbArc
 50
0.0
 51
90.0
  0
LINE
  5
1BD
330
1F
100
AcDbEntity
  8
0
  6
Continuous
 62
     7
370
    15
100
AcDbLine
 10
101.1549300968
 20
85.0306578097
 30
0.0
 11
102.3550100147
 21
85.0306578097
 31
0.0
  0
ARC
  5
1BE
330
1F
100
AcDbEntity
  8
0
  6
Continuous
 62
     7
370
    15
100
AcDbCircle
 10
99.6549834193
 20
85.0306850884
 30
0.0
 40
1.500000000001052
100
AcDbArc
 50
0.0
 51
90.0
  0
LINE
  5
1BF
330
1F
100
AcDbEntity
  8
0
  6
Continuous
 62
     7
370
    15
100
AcDbLine
 10
102.3550100147
 20
74.5307035861
 30
0.0
 11
101.1549300968
 21
74.5307035861
 31
0.0
  0
LINE
  5
1C0
330
1F
100
AcDbEntity
  8
0
  6
Continuous
 62
     7
370
    15
100
AcDbLine
 10
102.3550100147
 20
74.9307103572
 30
0.0
 11
102.3550100147
 21
74.5307035861
 31
0.0
  0
LINE
  5
1C1
330
1F
100
AcDbEntity
  8
0
  6
Continuous
 62
     7
370
    15
100
AcDbLine
 10
101.1549300968
 20
85.0306578097
 30
0.0
 11
101.1549300968
 21
74.5307035861
 31
0.0
  0
ARC
  5
1C2
330
1F
100
AcDbEntity
  8
0
  6
Continuous
 62
     7
370
    15
100
AcDbCircle
 10
1.2049834193
 20
339.6806850884
 30
0.0
 40
1.249999999999973
100
AcDbArc
 50
128.0474391881
 51
180.0000000001
  0
LINE
  5
1C3
330
1F
100
AcDbEntity
  8
0
  6
Continuous
 62
     7
370
    15
100
AcDbLine
 10
744.954980117
 20
1060.98066048
 30
0.0
 11
745.5549902736
 21
1060.98066048
 31
0.0
  0
LINE
  5
1C4
330
1F
100
AcDbEntity
  8
0
  6
Continuous
 62
     7
370
    15
100
AcDbLine
 10
744.954980117
 20
1060.3806801257
 30
0.0
 11
744.954980117
 21
1060.98066048
 31
0.0
  0
LINE
  5
1C5
330
1F
100
AcDbEntity
  8
0
  6
Continuous
 62
     7
370
    15
100
AcDbLine
 10
113.255030614
 20
1060.3806801257
 30
0.0
 11
744.954980117
 21
1060.3806801257
 31
0.0
  0
LINE
  5
1C6
330
1F
100
AcDbEntity
  8
0
  6
Continuous
 62
     7
370
    15
100
AcDbLine
 10
113.255030614
 20
1102.3807354388
 30
0.0
 11
113.255030614
 21
1060.3806801257
 31
0.0
  0
LINE
  5
1C7
330
1F
100
AcDbEntity
  8
0
  6
Continuous
 62
     7
370
    15
100
AcDbLine
 10
114.4050426303
 20
1102.3807354388
 30
0.0
 11
113.255030614
 21
1102.3807354388
 31
0.0
  0
LINE
  5
1C8
330
1F
100
AcDbEntity
  8
0
  6
Continuous
 62
     7
370
    15
100
AcDbLine
 10
114.4050426303
 20
1102.4806328234
 30
0.0
 11
114.4050426303
 21
1102.3807354388
 31
0.0
  0
LINE
  5
1C9
330
1F
100
AcDbEntity
  8
0
  6
Continuous
 62
     7
370
    15
100
AcDbLine
 10
810.754991275
 20
1102.4806328234
 30
0.0
 11
114.4050426303
 21
1102.4806328234
 31
0.0
  0
LINE
  5
1CA
330
1F
100
AcDbEntity
  8
0
  6
Continuous
 62
     7
370
    15
100
AcDbLine
 10
810.754991275
 20
1102.3807354388
 30
0.0
 11
810.754991275
 21
1102.4806328234
 31
0.0
  0
LINE
  5
1CB
330
1F
100
AcDbEntity
  8
0
  6
Continuous
 62
     7
370
    15
100
AcDbLine
 10
817.9095156013
 20
1102.3807354388
 30
0.0
 11
810.754991275
 21
1102.3807354388
 31
0.0
  0
ARC
  5
1CC
330
1F
100
AcDbEntity
  8
0
  6
Continuous
 62
     7
370
    15
100
AcDbCircle
 10
810.7549834168
 20
1082.5306850886
 30
0.0
 40
21.09999999999999
100
AcDbArc
 50
0.0
 51
70.1792943547
  0
LINE
  5
1CD
330
1F
100
AcDbEntity
  8
0
  6
Continuous
 62
     7
370
    15
100
AcDbLine
 10
831.8549759208
 20
1059.8807163653
 30
0.0
 11
831.8549759208
 21
1082.5307197985
 31
0.0
  0
ARC
  5
1CE
330
1F
100
AcDbEntity
  8
0
  6
Continuous
 62
     7
370
    15
100
AcDbCircle
 10
830.7049834168
 20
1059.8806850886
 30
0.0
 40
1.150000000000205
100
AcDbArc
 50
270.0
 51
360.0
  0
LINE
  5
1CF
330
1F
100
AcDbEntity
  8
0
  6
Continuous
 62
     7
370
    15
100
AcDbLine
 10
790.9549839317
 20
1058.730704349
 30
0.0
 11
830.7049937068
 21
1058.730704349
 31
0.0
  0
ARC
  5
1D0
330
1F
100
AcDbEntity
  8
0
  6
Continuous
 62
     7
370
    15
100
AcDbCircle
 10
790.9549834168
 20
1053.7306850886
 30
0.0
 40
5.000000000000455
100
AcDbArc
 50
90.0
 51
180.0
  0
LINE
  5
1D1
330
1F
100
AcDbEntity
  8
0
  6
Continuous
 62
     7
370
    15
100
AcDbLine
 10
785.9549887
 20
1054.930669826
 30
0.0
 11
785.9549887
 21
1053.7307091174
 31
0.0
  0
ARC
  5
1D2
330
1F
100
AcDbEntity
  8
0
  6
Continuous
 62
     7
370
    15
100
AcDbCircle
 10
780.9549834168
 20
1054.9306850886
 30
0.0
 40
4.999999999999886
100
AcDbArc
 50
270.0
 51
0.0
  0
LINE
  5
1D3
330
1F
100
AcDbEntity
  8
0
  6
Continuous
 62
     7
370
    15
100
AcDbLine
 10
749.9549753486
 20
1049.9306745944
 30
0.0
 11
780.9549934684
 21
1049.9306745944
 31
0.0
  0
LINE
  5
1D4
330
1F
100
AcDbEntity
  8
0
  6
Continuous
 62
     7
370
    15
100
AcDbLine
 10
745.5549902736
 20
1054.3306894717
 30
0.0
 11
749.9549753486
 21
1049.9306745944
 31
0.0
  0
LINE
  5
1D5
330
1F
100
AcDbEntity
  8
0
  6
Continuous
 62
     7
370
    15
100
AcDbLine
 10
745.5549902736
 20
1060.98066048
 30
0.0
 11
745.5549902736
 21
1054.3306894717
 31
0.0
  0
LINE
  5
1D6
330
1F
100
AcDbEntity
  8
0
  6
Continuous
 62
     7
370
    15
100
AcDbLine
 10
744.954980117
 20
1060.3806801257
 30
0.0
 11
744.954980117
 21
1057.9306908068
 31
0.0
  0
LINE
  5
1D7
330
1F
100
AcDbEntity
  8
0
  6
Continuous
 62
     7
370
    15
100
AcDbLine
 10
172.5549764453
 20
1057.9306908068
 30
0.0
 11
744.954980117
 21
1057.9306908068
 31
0.0
  0
LINE
  5
1D8
330
1F
100
AcDbEntity
  8
0
  6
Continuous
 62
     7
370
    15
100
AcDbLine
 10
113.255030614
 20
1057.9306908068
 30
0.0
 11
113.255030614
 21
1060.3806801257
 31
0.0
  0
LINE
  5
1D9
330
1F
100
AcDbEntity
  8
0
  6
Continuous
 62
     7
370
    15
100
AcDbLine
 10
810.754991275
 20
1104.5877762255
 30
0.0
 11
810.754991275
 21
1102.4806328234
 31
0.0
  0
LINE
  5
1DA
330
1F
100
AcDbEntity
  8
0
  6
Continuous
 62
     7
370
    15
100
AcDbLine
 10
114.4050426303
 20
1102.4806328234
 30
0.0
 11
114.4050426303
 21
1104.9306221423
 31
0.0
  0
LINE
  5
1DB
330
1F
100
AcDbEntity
  8
0
  6
Continuous
 62
     7
370
    15
100
AcDbLine
 10
114.4050426303
 20
1104.9306221423
 30
0.0
 11
810.754991275
 21
1104.9306221423
 31
0.0
  0
LINE
  5
1DC
330
1F
100
AcDbEntity
  8
0
  6
Continuous
 62
     7
370
    15
100
AcDbLine
 10
113.1550140201
 20
1102.4806328234
 30
0.0
 11
113.1550140201
 21
1058.3807058749
 31
0.0
  0
LINE
  5
1DD
330
1F
100
AcDbEntity
  8
0
  6
Continuous
 62
     7
370
    15
100
AcDbLine
 10
111.9549341022
 20
1058.3807058749
 30
0.0
 11
113.1550140201
 21
1058.3807058749
 31
0.0
  0
LINE
  5
1DE
330
1F
100
AcDbEntity
  8
0
  6
Continuous
 62
     7
370
    15
100
AcDbLine
 10
111.9549341022
 20
1102.4806328234
 30
0.0
 11
111.9549341022
 21
1058.3807058749
 31
0.0
  0
LINE
  5
1DF
330
1F
100
AcDbEntity
  8
0
  6
Continuous
 62
     7
370
    15
100
AcDbLine
 10
113.1550140201
 20
1102.4806328234
 30
0.0
 11
111.9549341022
 21
1102.4806328234
 31
0.0
  0
LINE
  5
1E0
330
1F
100
AcDbEntity
  8
0
  6
Continuous
 62
     7
370
    15
100
AcDbLine
 10
810.754991275
 20
1104.5877762255
 30
0.0
 11
810.754991275
 21
1104.9306221423
 31
0.0
  0
LINE
  5
1E1
330
1F
100
AcDbEntity
  8
0
  6
Continuous
 62
     7
370
    15
100
AcDbLine
 10
833.1549830257
 20
1082.5307197985
 30
0.0
 11
831.9549925147
 21
1082.5307197985
 31
0.0
  0
ARC
  5
1E2
330
1F
100
AcDbEntity
  8
0
  6
Continuous
 62
     7
370
    15
100
AcDbCircle
 10
810.7549834168
 20
1082.5306850886
 30
0.0
 40
21.20000000000005
100
AcDbArc
 50
0.0
 51
90.0
  0
ARC
  5
1E3
330
1F
100
AcDbEntity
  8
0
  6
Continuous
 62
     7
370
    15
100
AcDbCircle
 10
810.7549834168
 20
1082.5306850886
 30
0.0
 40
22.39999999999998
100
AcDbArc
 50
0.0
 51
90.0
  0
LINE
  5
1E4
330
1F
100
AcDbEntity
  8
0
  6
Continuous
 62
     7
370
    15
100
AcDbLine
 10
813.1549722968
 20
1057.4307270465
 30
0.0
 11
813.1549722968
 21
1058.6306877551
 31
0.0
  0
LINE
  5
1E5
330
1F
100
AcDbEntity
  8
0
  6
Continuous
 62
     7
370
    15
100
AcDbLine
 10
813.1549722968
 20
1058.6306877551
 30
0.0
 11
830.7049937068
 21
1058.6306877551
 31
0.0
  0
LINE
  5
1E6
330
1F
100
AcDbEntity
  8
0
  6
Continuous
 62
     7
370
    15
100
AcDbLine
 10
830.7049937068
 20
1057.4307270465
 30
0.0
 11
830.7049937068
 21
1058.6306877551
 31
0.0
  0
LINE
  5
1E7
330
1F
100
AcDbEntity
  8
0
  6
Continuous
 62
     7
370
    15
100
AcDbLine
 10
813.1549722968
 20
1057.4307270465
 30
0.0
 11
830.7049937068
 21
1057.4307270465
 31
0.0
  0
LINE
  5
1E8
330
1F
100
AcDbEntity
  8
0
  6
Continuous
 62
     7
370
    15
100
AcDbLine
 10
831.9549925147
 20
1059.8807163653
 30
0.0
 11
833.1549830257
 21
1059.8807163653
 31
0.0
  0
ARC
  5
1E9
330
1F
100
AcDbEntity
  8
0
  6
Continuous
 62
     7
370
    15
100
AcDbCircle
 10
830.7049834168
 20
1059.8806850886
 30
0.0
 40
1.250000000000227
100
AcDbArc
 50
270.0
 51
0.0
  0
ARC
  5
1EA
330
1F
100
AcDbEntity
  8
0
  6
Continuous
 62
     7
370
    15
100
AcDbCircle
 10
830.7049834168
 20
1059.8806850886
 30
0.0
 40
2.450000000000273
100
AcDbArc
 50
270.0
 51
0.0
  0
LINE
  5
1EB
330
1F
100
AcDbEntity
  8
0
  6
Continuous
 62
     7
370
    15
100
AcDbLine
 10
833.1549830257
 20
1059.8807163653
 30
0.0
 11
833.1549830257
 21
1082.5307197985
 31
0.0
  0
LINE
  5
1EC
330
1F
100
AcDbEntity
  8
0
  6
Continuous
 62
     7
370
    15
100
AcDbLine
 10
831.9549925147
 20
1059.8807163653
 30
0.0
 11
831.9549925147
 21
1082.5307197985
 31
0.0
  0
ARC
  5
1ED
330
1F
100
AcDbEntity
  8
0
  6
Continuous
 62
     7
370
    15
100
AcDbCircle
 10
114.4049834168
 20
1102.4806850886
 30
0.0
 40
2.4500000000005
100
AcDbArc
 50
90.0
 51
180.0
  0
ARC
  5
1EE
330
1F
100
AcDbEntity
  8
0
  6
Continuous
 62
     7
370
    15
100
AcDbCircle
 10
114.4049834168
 20
1102.4806850886
 30
0.0
 40
1.250000000000682
100
AcDbArc
 50
90.0
 51
180.0
  0
LWPOLYLINE
  5
1EF
330
1F
100
AcDbEntity
  8
0
  6
Continuous
 62
     7
370
    15
100
AcDbPolyline
 90
        3
 70
   128
 43
0.0
 10
113.1550140201
 20
1058.3807058749
 10
113.1789750873
 20
1058.1368036685
 10
113.2388181506
 20
1057.9306908068
  0
ARC
  5
1F0
330
1F
100
AcDbEntity
  8
0
  6
Continuous
 62
     7
370
    15
100
AcDbCircle
 10
114.4049834168
 20
1058.3806850886
 30
0.0
 40
2.45000000000006
100
AcDbArc
 50
180.0
 51
233.7125429872
  0
SPLINE
  5
1F1
330
1F
100
AcDbEntity
  8
0
  6
Continuous
 62
     7
370
    15
100
AcDbSpline
210
0.0
220
0.0
230
1.0
 70
    11
 71
     3
 72
    27
 73
    23
 74
     0
 42
0.00000001
 43
0.00000001
 40
0.0
 40
0.0
 40
0.0
 40
0.0
 40
0.0489594421868909
 40
0.0977550684910338
 40
0.1505872478404492
 40
0.2069132115004685
 40
0.2591956710419194
 40
0.3069572874894994
 40
0.3554158827601717
 40
0.4084726236417821
 40
0.4648332967397696
 40
0.5166640209958068
 40
0.5628727779239596
 40
0.6112679442801122
 40
0.6657533669307379
 40
0.7216082574091468
 40
0.772319576381752
 40
0.8197247949046714
 40
0.8691894539999273
 40
0.9235857364334898
 40
0.9795692622758806
 40
1.0
 40
1.0
 40
1.0
 40
1.0
 10
214.7502965747193
 20
1121.630651515448
 30
0.0
 10
214.8024302828167
 20
1121.05685261986
 30
0.0
 10
214.9065232621908
 20
1119.911174731535
 30
0.0
 10
215.6554833709985
 20
1118.360169622519
 30
0.0
 10
216.6678471471096
 20
1117.075690475056
 30
0.0
 10
217.791942720597
 20
1116.245631593613
 30
0.0
 10
218.7251212810075
 20
1116.042265226105
 30
0.0
 10
219.335939640483
 20
1116.414186927492
 30
0.0
 10
219.6653783699782
 20
1117.266572745258
 30
0.0
 10
219.7700612053302
 20
1118.595039392415
 30
0.0
 10
219.7447632589962
 20
1120.323795528077
 30
0.0
 10
219.7351706267847
 20
1122.166765863818
 30
0.0
 10
219.7616053204517
 20
1123.830453334645
 30
0.0
 10
219.7451362885583
 20
1125.285787428532
 30
0.0
 10
219.5564578956216
 20
1126.463895250572
 30
0.0
 10
219.0466523517784
 20
1127.134757557645
 30
0.0
 10
218.2292452649737
 20
1127.169521018594
 30
0.0
 10
217.2532502832747
 20
1126.663393824839
 30
0.0
 10
216.2135951823172
 20
1125.682175153557
 30
0.0
 10
215.2651275535227
 20
1124.231991423741
 30
0.0
 10
214.7939148603236
 20
1122.761100685206
 30
0.0
 10
214.7594984306881
 20
1121.869134763835
 30
0.0
 10
214.7502965747192
 20
1121.630651515449
 30
0.0
  0
SPLINE
  5
1F2
330
1F
100
AcDbEntity
  8
0
  6
Continuous
 62
     7
370
    15
100
AcDbSpline
210
0.0
220
0.0
230
1.0
 70
     8
 71
     3
 72
    10
 73
     6
 74
     0
 42
0.00000001
 43
0.00000001
 40
0.0
 40
0.0
 40
0.0
 40
0.0
 40
0.2717914958569516
 40
0.6603514247463804
 40
1.0
 40
1.0
 40
1.0
 40
1.0
 10
208.7519831477478
 20
1119.513017695868
 30
0.0
 10
208.5667300350594
 20
1119.887389060149
 30
0.0
 10
208.1166344332205
 20
1120.796971102103
 30
0.0
 10
208.1229599916696
 20
1122.400987412286
 30
0.0
 10
208.5483762943964
 20
1123.430802373988
 30
0.0
 10
208.7467975436523
 20
1123.911125224555
 30
0.0
  0
LINE
  5
1F3
330
1F
100
AcDbEntity
  8
0
  6
Continuous
 62
     7
370
    15
100
AcDbLine
 10
203.7656373798
 20
1137.6306839404
 30
0.0
 11
219.7550005733
 21
1137.6306839404
 31
0.0
  0
LINE
  5
1F4
330
1F
100
AcDbEntity
  8
0
  6
Continuous
 62
     7
370
    15
100
AcDbLine
 10
197.7549857913
 20
1137.6306839404
 30
0.0
 11
203.7656373798
 21
1137.6306839404
 31
0.0
  0
SPLINE
  5
1F5
330
1F
100
AcDbEntity
  8
0
  6
Continuous
 62
     7
370
    15
100
AcDbSpline
210
0.0
220
0.0
230
1.0
 70
    11
 71
     3
 72
    27
 73
    23
 74
     0
 42
0.00000001
 43
0.00000001
 40
0.0
 40
0.0
 40
0.0
 40
0.0
 40
0.0489594034085856
 40
0.0977544517102676
 40
0.1505870509412397
 40
0.2069135062154237
 40
0.2591940791185591
 40
0.3069570728638105
 40
0.3554162323107684
 40
0.4084723816701438
 40
0.46483305778575
 40
0.5166637847872941
 40
0.5628725372365583
 40
0.6112676893861353
 40
0.6657526509494297
 40
0.7216083084938371
 40
0.7723188678876001
 40
0.8197242851279479
 40
0.8691899546744821
 40
0.9235858910180016
 40
0.9795693494064195
 40
1.0
 40
1.0
 40
1.0
 40
1.0
 10
199.5323962985352
 20
1121.630651515448
 30
0.0
 10
199.5652913501115
 20
1121.056854624545
 30
0.0
 10
199.6309710256581
 20
1119.911187060028
 30
0.0
 10
200.1638363907248
 20
1118.360150803114
 30
0.0
 10
201.0594837721749
 20
1117.075693313755
 30
0.0
 10
202.3896269208637
 20
1116.24564251009
 30
0.0
 10
203.9942978226933
 20
1116.042267543691
 30
0.0
 10
205.6082798216726
 20
1116.414184783424
 30
0.0
 10
207.1228057233741
 20
1117.266556285923
 30
0.0
 10
208.4367700926941
 20
1118.595052045272
 30
0.0
 10
209.2837310595681
 20
1120.323794034751
 30
0.0
 10
209.4118928513157
 20
1122.166765843472
 30
0.0
 10
208.9082512372817
 20
1123.83045389032
 30
0.0
 10
207.9108505599378
 20
1125.285779746753
 30
0.0
 10
206.4517369319768
 20
1126.463909581942
 30
0.0
 10
204.7217011729403
 20
1127.134749607116
 30
0.0
 10
203.0765481210315
 20
1127.169522032192
 30
0.0
 10
201.7126192275929
 20
1126.663383200147
 30
0.0
 10
200.6300156688019
 20
1125.68219689386
 30
0.0
 10
199.8698136602757
 20
1124.231982699722
 30
0.0
 10
199.5607766394349
 20
1122.761103562595
 30
0.0
 10
199.5383834973385
 20
1121.86913494903
 30
0.0
 10
199.5323962985352
 20
1121.630651515448
 30
0.0
  0
SPLINE
  5
1F6
330
1F
100
AcDbEntity
  8
0
  6
Continuous
 62
     7
370
    15
100
AcDbSpline
210
0.0
220
0.0
230
1.0
 70
     8
 71
     3
 72
     9
 73
     5
 74
     0
 42
0.00000001
 43
0.00000001
 40
0.0
 40
0.0
 40
0.0
 40
0.0
 40
0.750572017650673
 40
1.0
 40
1.0
 40
1.0
 40
1.0
 10
197.7703041850404
 20
1121.630651515448
 30
0.0
 10
197.7635925815161
 20
1122.216609052038
 30
0.0
 10
197.7546505967807
 20
1122.997290349518
 30
0.0
 10
197.7605004241373
 20
1123.651409964291
 30
0.0
 10
197.7619595347717
 20
1123.814565700019
 30
0.0
  0
SPLINE
  5
1F7
330
1F
100
AcDbEntity
  8
0
  6
Continuous
 62
     7
370
    15
100
AcDbSpline
210
0.0
220
0.0
230
1.0
 70
     8
 71
     3
 72
    13
 73
     9
 74
     0
 42
0.00000001
 43
0.00000001
 40
0.0
 40
0.0
 40
0.0
 40
0.0
 40
0.1629793975578234
 40
0.3717379428981504
 40
0.5637394996270118
 40
0.7349383883920383
 40
0.9142162183270727
 40
1.0
 40
1.0
 40
1.0
 40
1.0
 10
201.1355824290589
 20
1125.732404750311
 30
0.0
 10
201.4185517068702
 20
1125.386297000786
 30
0.0
 10
202.0639732682038
 20
1124.596863583079
 30
0.0
 10
202.7115504082719
 20
1122.931401334229
 30
0.0
 10
202.8254889669976
 20
1121.09230407537
 30
0.0
 10
202.3969455314306
 20
1119.444268608887
 30
0.0
 10
201.784203549863
 20
1118.238834285492
 30
0.0
 10
201.3078185234855
 20
1117.741928965565
 30
0.0
 10
201.1536426364259
 20
1117.581111949408
 30
0.0
  0
SPLINE
  5
1F8
330
1F
100
AcDbEntity
  8
0
  6
Continuous
 62
     7
370
    15
100
AcDbSpline
210
0.0
220
0.0
230
1.0
 70
     8
 71
     3
 72
     9
 73
     5
 74
     0
 42
0.00000001
 43
0.00000001
 40
0.0
 40
0.0
 40
0.0
 40
0.0
 40
0.6859389660161247
 40
1.0
 40
1.0
 40
1.0
 40
1.0
 10
197.758204442151
 20
1119.447452586615
 30
0.0
 10
197.7617505346529
 20
1119.927489185727
 30
0.0
 10
197.766920225657
 20
1120.627313255934
 30
0.0
 10
197.769495417597
 20
1121.390853330228
 30
0.0
 10
197.7703041850404
 20
1121.630651515448
 30
0.0
  0
SPLINE
  5
1F9
330
1F
100
AcDbEntity
  8
0
  6
Continuous
 62
     7
370
    15
100
AcDbSpline
210
0.0
220
0.0
230
1.0
 70
     8
 71
     3
 72
    18
 73
    14
 74
     0
 42
0.00000001
 43
0.00000001
 40
0.0
 40
0.0
 40
0.0
 40
0.0
 40
0.0160244080529756
 40
0.1102161893185984
 40
0.2056010766994665
 40
0.3109351041714233
 40
0.4245083314304405
 40
0.5287040568290202
 40
0.6191375070449011
 40
0.7136683259639675
 40
0.822138446707505
 40
0.9349946275371366
 40
1.0
 40
1.0
 40
1.0
 40
1.0
 10
217.9179854213075
 20
1116.170389216864
 30
0.0
 10
217.966107234689
 20
1116.15761347364
 30
0.0
 10
218.2970900002587
 20
1116.069741664012
 30
0.0
 10
218.6722921095669
 20
1116.426691285432
 30
0.0
 10
219.0025276629338
 20
1117.207143848674
 30
0.0
 10
219.0764592372672
 20
1118.516587113803
 30
0.0
 10
219.0219646821202
 20
1120.224939409054
 30
0.0
 10
219.0021872830102
 20
1122.070393492664
 30
0.0
 10
219.0466408193589
 20
1123.722670124295
 30
0.0
 10
219.0715271292493
 20
1125.177279493673
 30
0.0
 10
218.9296436221886
 20
1126.363584037082
 30
0.0
 10
218.5557906325146
 20
1127.073953217307
 30
0.0
 10
218.0765643757122
 20
1127.066469329657
 30
0.0
 10
217.9014153300599
 20
1127.063734096015
 30
0.0
  0
SPLINE
  5
1FA
330
1F
100
AcDbEntity
  8
0
  6
Continuous
 62
     7
370
    15
100
AcDbSpline
210
0.0
220
0.0
230
1.0
 70
     8
 71
     3
 72
    13
 73
     9
 74
     0
 42
0.00000001
 43
0.00000001
 40
0.0
 40
0.0
 40
0.0
 40
0.0
 40
0.1288995394028332
 40
0.3392534924951056
 40
0.5360904381580335
 40
0.7053482573974578
 40
0.8785761645599828
 40
1.0
 40
1.0
 40
1.0
 40
1.0
 10
216.328269940503
 20
1125.709278148139
 30
0.0
 10
216.5399750625749
 20
1125.449431683528
 30
0.0
 10
217.0971663634492
 20
1124.76553613945
 30
0.0
 10
217.5251982518141
 20
1123.22454519168
 30
0.0
 10
217.6641517799469
 20
1121.383771015617
 30
0.0
 10
217.4378897324156
 20
1119.713647024714
 30
0.0
 10
217.0375628183013
 20
1118.414483566241
 30
0.0
 10
216.546702683117
 20
1117.827354919594
 30
0.0
 10
216.3444227992372
 20
1117.585403483832
 30
0.0
  0
SPLINE
  5
1FB
330
1F
100
AcDbEntity
  8
0
  6
Continuous
 62
     7
370
    15
100
AcDbSpline
210
0.0
220
0.0
230
1.0
 70
     8
 71
     3
 72
    11
 73
     7
 74
     0
 42
0.00000001
 43
0.00000001
 40
0.0
 40
0.0
 40
0.0
 40
0.0
 40
0.2856387890479244
 40
0.6229858103662417
 40
0.9195532806562875
 40
0.9999999999999999
 40
0.9999999999999999
 40
0.9999999999999999
 40
0.9999999999999999
 10
208.572573166974
 20
1119.135839503729
 30
0.0
 10
208.3228343554381
 20
1119.585032502595
 30
0.0
 10
207.7781473526575
 20
1120.564734402822
 30
0.0
 10
207.7721577502483
 20
1122.246591437378
 30
0.0
 10
208.0901142625826
 20
1123.512099179298
 30
0.0
 10
208.4888602551217
 20
1124.05198644728
 30
0.0
 10
208.5739440738038
 20
1124.16718677851
 30
0.0
  0
SPLINE
  5
1FC
330
1F
100
AcDbEntity
  8
0
  6
Continuous
 62
     7
370
    15
100
AcDbSpline
210
0.0
220
0.0
230
1.0
 70
     8
 71
     3
 72
    12
 73
     8
 74
     0
 42
0.00000001
 43
0.00000001
 40
0.0
 40
0.0
 40
0.0
 40
0.0
 40
0.1930734187704069
 40
0.3854218286352373
 40
0.5960421307608741
 40
0.8231455249627054
 40
0.9999999999999999
 40
0.9999999999999999
 40
0.9999999999999999
 40
0.9999999999999999
 10
199.9032563983277
 20
1121.630651515448
 30
0.0
 10
199.9342028040437
 20
1121.063647882329
 30
0.0
 10
199.9959794088016
 20
1119.931769768235
 30
0.0
 10
200.4982946593816
 20
1118.392284660303
 30
0.0
 10
201.3631712041265
 20
1117.117907835526
 30
0.0
 10
202.5921981991153
 20
1116.26088630044
 30
0.0
 10
203.6386153135796
 20
1116.197945129486
 30
0.0
 10
204.0967411815003
 20
1116.170389216864
 30
0.0
  0
SPLINE
  5
1FD
330
1F
100
AcDbEntity
  8
0
  6
Continuous
 62
     7
370
    15
100
AcDbSpline
210
0.0
220
0.0
230
1.0
 70
     8
 71
     3
 72
    13
 73
     9
 74
     0
 42
0.00000001
 43
0.00000001
 40
0.0
 40
0.0
 40
0.0
 40
0.0
 40
0.073224379680203
 40
0.2600078414260533
 40
0.4539515688970216
 40
0.6694058821958105
 40
0.8960470238007374
 40
1.0
 40
1.0
 40
1.0
 40
1.0
 10
204.0966219722108
 20
1127.063734096015
 30
0.0
 10
203.9010888475003
 20
1127.081747113069
 30
0.0
 10
203.2067825808547
 20
1127.145708401676
 30
0.0
 10
202.1605684767221
 20
1126.708104592003
 30
0.0
 10
201.0679889278358
 20
1125.814889907254
 30
0.0
 10
200.2921567383388
 20
1124.411137884913
 30
0.0
 10
199.9420757355421
 20
1122.903765305178
 30
0.0
 10
199.9125428155957
 20
1121.935207613761
 30
0.0
 10
199.9032563983277
 20
1121.630651515448
 30
0.0
  0
SPLINE
  5
1FE
330
1F
100
AcDbEntity
  8
0
  6
Continuous
 62
     7
370
    15
100
AcDbSpline
210
0.0
220
0.0
230
1.0
 70
     8
 71
     3
 72
    14
 73
    10
 74
     0
 42
0.00000001
 43
0.00000001
 40
0.0
 40
0.0
 40
0.0
 40
0.0
 40
0.0112394681822844
 40
0.185057130836115
 40
0.3724690468962925
 40
0.5443854321705613
 40
0.6936142323397494
 40
0.8496049270544759
 40
1.0
 40
1.0
 40
1.0
 40
1.0
 10
201.504952412732
 20
1126.067382853949
 30
0.0
 10
201.5284186157946
 20
1126.049045649481
 30
0.0
 10
201.9147881610366
 20
1125.747124740833
 30
0.0
 10
202.6569071706488
 20
1124.71475254114
 30
0.0
 10
203.4170413848554
 20
1123.044482948148
 30
0.0
 10
203.5643241533502
 20
1121.187745328516
 30
0.0
 10
203.1515955077336
 20
1119.544744960949
 30
0.0
 10
202.4127377930385
 20
1118.148950505215
 30
0.0
 10
201.7754150612332
 20
1117.497489362693
 30
0.0
 10
201.4625735102967
 20
1117.177707713568
 30
0.0
  0
LINE
  5
1FF
330
1F
100
AcDbEntity
  8
0
  6
Continuous
 62
     7
370
    15
100
AcDbLine
 10
745.5549902736
 20
1058.4306545672
 30
0.0
 11
744.954980117
 21
1058.4306545672
 31
0.0
  0
LINE
  5
200
330
1F
100
AcDbEntity
  8
0
  6
Continuous
 62
     7
370
    15
100
AcDbLine
 10
107.6549358188
 20
-161.5693144384
 30
0.0
 11
107.6549358188
 21
-149.8193316045
 31
0.0
  0
LINE
  5
201
330
1F
100
AcDbEntity
  8
0
  6
Continuous
 62
     7
370
    15
100
AcDbLine
 10
107.6549358188
 20
-173.3192972722
 30
0.0
 11
107.6549358188
 21
-161.5693144384
 31
0.0
  0
LINE
  5
202
330
1F
100
AcDbEntity
  8
0
  6
Continuous
 62
     7
370
    15
100
AcDbLine
 10
108.4050006687
 20
-161.5693144384
 30
0.0
 11
108.4050006687
 21
-149.0693263593
 31
0.0
  0
LINE
  5
203
330
1F
100
AcDbEntity
  8
0
  6
Continuous
 62
     7
370
    15
100
AcDbLine
 10
108.4050006687
 20
-174.0693025174
 30
0.0
 11
108.4050006687
 21
-161.5693144384
 31
0.0
  0
LINE
  5
204
330
1F
100
AcDbEntity
  8
0
  6
Continuous
 62
     7
370
    15
100
AcDbLine
 10
109.1549463092
 20
-161.5693144384
 30
0.0
 11
109.1549463092
 21
-149.8193316045
 31
0.0
  0
LINE
  5
205
330
1F
100
AcDbEntity
  8
0
  6
Continuous
 62
     7
370
    15
100
AcDbLine
 10
109.1549463092
 20
-173.3192972722
 30
0.0
 11
109.1549463092
 21
-161.5693144384
 31
0.0
  0
LINE
  5
206
330
1F
100
AcDbEntity
  8
0
  6
Continuous
 62
     7
370
    15
100
AcDbLine
 10
109.9050111591
 20
-161.5693144384
 30
0.0
 11
109.9050111591
 21
-149.0693263593
 31
0.0
  0
LINE
  5
207
330
1F
100
AcDbEntity
  8
0
  6
Continuous
 62
     7
370
    15
100
AcDbLine
 10
109.9050111591
 20
-174.0693025174
 30
0.0
 11
109.9050111591
 21
-161.5693144384
 31
0.0
  0
LINE
  5
208
330
1F
100
AcDbEntity
  8
0
  6
Continuous
 62
     7
370
    15
100
AcDbLine
 10
110.6549567996
 20
-161.5693144384
 30
0.0
 11
110.6549567996
 21
-149.8193316045
 31
0.0
  0
LINE
  5
209
330
1F
100
AcDbEntity
  8
0
  6
Continuous
 62
     7
370
    15
100
AcDbLine
 10
110.6549567996
 20
-173.3192972722
 30
0.0
 11
110.6549567996
 21
-161.5693144384
 31
0.0
  0
LINE
  5
20A
330
1F
100
AcDbEntity
  8
0
  6
Continuous
 62
     7
370
    15
100
AcDbLine
 10
106.1549253284
 20
-161.5693144384
 30
0.0
 11
106.1549253284
 21
-149.8193316045
 31
0.0
  0
LINE
  5
20B
330
1F
100
AcDbEntity
  8
0
  6
Continuous
 62
     7
370
    15
100
AcDbLine
 10
106.1549253284
 20
-173.3192972722
 30
0.0
 11
106.1549253284
 21
-161.5693144384
 31
0.0
  0
LINE
  5
20C
330
1F
100
AcDbEntity
  8
0
  6
Continuous
 62
     7
370
    15
100
AcDbLine
 10
106.9049901782
 20
-161.5693144384
 30
0.0
 11
106.9049901782
 21
-149.0693263593
 31
0.0
  0
LINE
  5
20D
330
1F
100
AcDbEntity
  8
0
  6
Continuous
 62
     7
370
    15
100
AcDbLine
 10
106.9049901782
 20
-174.0693025174
 30
0.0
 11
106.9049901782
 21
-161.5693144384
 31
0.0
  0
LINE
  5
20E
330
1F
100
AcDbEntity
  8
0
  6
Continuous
 62
     7
370
    15
100
AcDbLine
 10
111.4050216495
 20
-161.5693144384
 30
0.0
 11
111.4050216495
 21
-149.0693263593
 31
0.0
  0
LINE
  5
20F
330
1F
100
AcDbEntity
  8
0
  6
Continuous
 62
     7
370
    15
100
AcDbLine
 10
111.4050216495
 20
-174.0693025174
 30
0.0
 11
111.4050216495
 21
-161.5693144384
 31
0.0
  0
LINE
  5
210
330
1F
100
AcDbEntity
  8
0
  6
Continuous
 62
     7
370
    15
100
AcDbLine
 10
112.9549808322
 20
-161.5693144384
 30
0.0
 11
111.7550201236
 21
-161.5693144384
 31
0.0
  0
LINE
  5
211
330
1F
100
AcDbEntity
  8
0
  6
Continuous
 62
     7
370
    15
100
AcDbLine
 10
112.9549808322
 20
-178.0693106237
 30
0.0
 11
111.7550201236
 21
-178.0693106237
 31
0.0
  0
LINE
  5
212
330
1F
100
AcDbEntity
  8
0
  6
Continuous
 62
     7
370
    15
100
AcDbLine
 10
111.7550201236
 20
-161.5693144384
 30
0.0
 11
111.7550201236
 21
-178.0693106237
 31
0.0
  0
LINE
  5
213
330
1F
100
AcDbEntity
  8
0
  6
Continuous
 62
     7
370
    15
100
AcDbLine
 10
112.9549808322
 20
-145.0693182531
 30
0.0
 11
111.7550201236
 21
-145.0693182531
 31
0.0
  0
LINE
  5
214
330
1F
100
AcDbEntity
  8
0
  6
Continuous
 62
     7
370
    15
100
AcDbLine
 10
111.7550201236
 20
-145.0693182531
 30
0.0
 11
111.7550201236
 21
-161.5693144384
 31
0.0
  0
LINE
  5
215
330
1F
100
AcDbEntity
  8
0
  6
Continuous
 62
     7
370
    15
100
AcDbLine
 10
789.2549700557
 20
110.2807350573
 30
0.0
 11
789.2549700557
 21
96.9806738314
 31
0.0
  0
LINE
  5
216
330
1F
100
AcDbEntity
  8
0
  6
Continuous
 62
     7
370
    15
100
AcDbLine
 10
789.2549700557
 20
50.2806730685
 30
0.0
 11
789.2549700557
 21
36.9806714472
 31
0.0
  0
LINE
  5
217
330
1F
100
AcDbEntity
  8
0
  6
Continuous
 62
     7
370
    15
100
AcDbLine
 10
783.7049729644
 20
-345.3532032552
 30
0.0
 11
783.7049729644
 21
-345.26933952
 31
0.0
  0
LINE
  5
218
330
1F
100
AcDbEntity
  8
0
  6
Continuous
 62
     7
370
    15
100
AcDbLine
 10
783.7049729644
 20
-345.26933952
 30
0.0
 11
784.1125495254
 21
-345.1880387845
 31
0.0
  0
LWPOLYLINE
  5
219
330
1F
100
AcDbEntity
  8
0
  6
Continuous
 62
     7
370
    15
100
AcDbPolyline
 90
        3
 70
   128
 43
0.0
 10
745.4549736797
 20
-345.3192882123
 10
745.5078131973
 20
-345.85578962
 10
745.5414600192
 20
-346.0035495344
  0
LINE
  5
21A
330
1F
100
AcDbEntity
  8
0
  6
Continuous
 62
     7
370
    15
100
AcDbLine
 10
782.9549975215
 20
-348.069327313
 30
0.0
 11
782.9549975215
 21
-346.5693168226
 31
0.0
  0
LINE
  5
21B
330
1F
100
AcDbEntity
  8
0
  6
Continuous
 62
     7
370
    15
100
AcDbLine
 10
782.9549975215
 20
-348.069327313
 30
0.0
 11
780.9549934684
 21
-348.069327313
 31
0.0
  0
LINE
  5
21C
330
1F
100
AcDbEntity
  8
0
  6
Continuous
 62
     7
370
    15
100
AcDbLine
 10
832.9549796401
 20
112.9807062564
 30
0.0
 11
834.7549803077
 21
112.9807062564
 31
0.0
  0
LINE
  5
21D
330
1F
100
AcDbEntity
  8
0
  6
Continuous
 62
     7
370
    15
100
AcDbLine
 10
834.7549803077
 20
112.9807062564
 30
0.0
 11
834.7549803077
 21
111.4806957659
 31
0.0
  0
LINE
  5
21E
330
1F
100
AcDbEntity
  8
0
  6
Continuous
 62
     7
370
    15
100
AcDbLine
 10
834.7549803077
 20
111.4806957659
 30
0.0
 11
832.9549796401
 21
111.4806957659
 31
0.0
  0
LINE
  5
21F
330
1F
100
AcDbEntity
  8
0
  6
Continuous
 62
     7
370
    15
100
AcDbLine
 10
834.7549803077
 20
149.9806471285
 30
0.0
 11
832.9549796401
 21
149.9806471285
 31
0.0
  0
LINE
  5
220
330
1F
100
AcDbEntity
  8
0
  6
Continuous
 62
     7
370
    15
100
AcDbLine
 10
834.7549803077
 20
112.9807062564
 30
0.0
 11
834.7549803077
 21
149.9806471285
 31
0.0
  0
LINE
  5
221
330
1F
100
AcDbEntity
  8
0
  6
Continuous
 62
     7
370
    15
100
AcDbLine
 10
832.9549796401
 20
151.480657619
 30
0.0
 11
834.7549803077
 21
151.480657619
 31
0.0
  0
LINE
  5
222
330
1F
100
AcDbEntity
  8
0
  6
Continuous
 62
     7
370
    15
100
AcDbLine
 10
834.7549803077
 20
151.480657619
 30
0.0
 11
834.7549803077
 21
149.9806471285
 31
0.0
  0
LINE
  5
223
330
1F
100
AcDbEntity
  8
0
  6
Continuous
 62
     7
370
    15
100
AcDbLine
 10
830.9049970924
 20
-343.6985783162
 30
0.0
 11
794.9549920379
 21
-343.6985783162
 31
0.0
  0
LINE
  5
224
330
1F
100
AcDbEntity
  8
0
  6
Continuous
 62
     7
370
    15
100
AcDbLine
 10
794.9549920379
 20
-343.6985783162
 30
0.0
 11
794.9549920379
 21
178.5600014147
 31
0.0
  0
LINE
  5
225
330
1F
100
AcDbEntity
  8
0
  6
Continuous
 62
     7
370
    15
100
AcDbLine
 10
830.9049970924
 20
178.5600014147
 30
0.0
 11
794.9549920379
 21
178.5600014147
 31
0.0
  0
LINE
  5
226
330
1F
100
AcDbEntity
  8
0
  6
Continuous
 62
     7
370
    15
100
AcDbLine
 10
830.9049970924
 20
178.5600014147
 30
0.0
 11
830.9049970924
 21
-343.6985783162
 31
0.0
  0
CIRCLE
  5
227
330
1F
100
AcDbEntity
  8
0
  6
Continuous
 62
     7
370
    15
100
AcDbCircle
 10
808.9549834166
 20
-82.5693149118
 30
0.0
 40
1.699999999999932
  0
CIRCLE
  5
228
330
1F
100
AcDbEntity
  8
0
  6
Continuous
 62
     7
370
    15
100
AcDbCircle
 10
808.9549834166
 20
-182.5693149118
 30
0.0
 40
1.700000000000045
  0
CIRCLE
  5
229
330
1F
100
AcDbEntity
  8
0
  6
Continuous
 62
     7
370
    15
100
AcDbCircle
 10
808.9549834166
 20
-282.5693149118
 30
0.0
 40
1.700000000000045
  0
CIRCLE
  5
22A
330
1F
100
AcDbEntity
  8
0
  6
Continuous
 62
     7
370
    15
100
AcDbCircle
 10
808.9549834166
 20
17.4306850882
 30
0.0
 40
1.700000000000045
  0
CIRCLE
  5
22B
330
1F
100
AcDbEntity
  8
0
  6
Continuous
 62
     7
370
    15
100
AcDbCircle
 10
808.9549834166
 20
117.4306850882
 30
0.0
 40
1.700000000000045
  0
SPLINE
  5
22C
330
1F
100
AcDbEntity
  8
0
  6
Continuous
 62
     7
370
    15
100
AcDbSpline
210
0.0
220
0.0
230
1.0
 70
     8
 71
     3
 72
    12
 73
     8
 74
     0
 42
0.00000001
 43
0.00000001
 40
0.0
 40
0.0
 40
0.0
 40
0.0
 40
0.2286700820099395
 40
0.4574138999591417
 40
0.6861666492326092
 40
0.9149066181946945
 40
1.0
 40
1.0
 40
1.0
 40
1.0
 10
832.9549796401337
 20
-342.5193004193662
 30
0.0
 10
832.9292430386635
 20
-342.609225146924
 30
0.0
 10
832.8777615368125
 20
-342.7891035987682
 30
0.0
 10
832.4781378971022
 20
-343.0589179163133
 30
0.0
 10
831.8967900048764
 20
-343.3286808977389
 30
0.0
 10
831.3312914094204
 20
-343.5424731190121
 30
0.0
 10
830.9959281384031
 20
-343.665280173843
 30
0.0
 10
830.9049970923737
 20
-343.6985783162473
 30
0.0
  0
LINE
  5
22D
330
1F
100
AcDbEntity
  8
0
  6
Continuous
 62
     7
370
    15
100
AcDbLine
 10
832.9549796401
 20
177.3806639132
 30
0.0
 11
832.9549796401
 21
-342.5193004194
 31
0.0
  0
SPLINE
  5
22E
330
1F
100
AcDbEntity
  8
0
  6
Continuous
 62
     7
370
    15
100
AcDbSpline
210
0.0
220
0.0
230
1.0
 70
     8
 71
     3
 72
    12
 73
     8
 74
     0
 42
0.00000001
 43
0.00000001
 40
0.0
 40
0.0
 40
0.0
 40
0.0
 40
0.2286639909082245
 40
0.4574152938718266
 40
0.6861507133232929
 40
0.9148972886841324
 40
0.9999999999999999
 40
0.9999999999999999
 40
0.9999999999999999
 40
0.9999999999999999
 10
830.9049970923737
 20
178.5600014147402
 30
0.0
 10
831.1504613522844
 20
178.4700849659427
 30
0.0
 10
831.6414835991021
 20
178.2902177350448
 30
0.0
 10
832.2846232913337
 20
178.0202782587642
 30
0.0
 10
832.748846174637
 20
177.7507199716378
 30
0.0
 10
832.9375905620815
 20
177.5368573773289
 30
0.0
 10
832.9512702773607
 20
177.4139824261006
 30
0.0
 10
832.9549796401336
 20
177.3806639132146
 30
0.0
  0
SPLINE
  5
22F
330
1F
100
AcDbEntity
  8
0
  6
Continuous
 62
     7
370
    15
100
AcDbSpline
210
0.0
220
0.0
230
1.0
 70
     8
 71
     3
 72
    10
 73
     6
 74
     0
 42
0.00000001
 43
0.00000001
 40
0.0
 40
0.0
 40
0.0
 40
0.0
 40
0.0732868128866843
 40
0.5395421097517658
 40
1.0
 40
1.0
 40
1.0
 40
1.0
 10
831.829614144452
 20
178.2027311739565
 30
0.0
 10
831.8158058710425
 20
178.224395753498
 30
0.0
 10
831.7141484967625
 20
178.3838917459167
 30
0.0
 10
831.3849844365243
 20
178.5692494894189
 30
0.0
 10
831.0643242030959
 20
178.6102971084303
 30
0.0
 10
830.9049970923737
 20
178.6306925234438
 30
0.0
  0
LINE
  5
230
330
1F
100
AcDbEntity
  8
0
  6
Continuous
 62
     7
370
    15
100
AcDbLine
 10
830.9049970924
 20
179.4307060656
 30
0.0
 11
830.9049970924
 21
178.6306925234
 31
0.0
  0
SPLINE
  5
231
330
1F
100
AcDbEntity
  8
0
  6
Continuous
 62
     7
370
    15
100
AcDbSpline
210
0.0
220
0.0
230
1.0
 70
     8
 71
     3
 72
    12
 73
     8
 74
     0
 42
0.00000001
 43
0.00000001
 40
0.0
 40
0.0
 40
0.0
 40
0.0
 40
0.2286708269810753
 40
0.4574108607461645
 40
0.6861588164252408
 40
0.9149048205783511
 40
1.0
 40
1.0
 40
1.0
 40
1.0
 10
832.9549796401336
 20
177.3806639132146
 30
0.0
 10
832.9292434919462
 20
177.6261374437356
 30
0.0
 10
832.8777634065756
 20
178.1171587968682
 30
0.0
 10
832.4781420210279
 20
178.760330320769
 30
0.0
 10
831.8967701527456
 20
179.2244524061533
 30
0.0
 10
831.3312936646544
 20
179.4133785160342
 30
0.0
 10
830.9959283452497
 20
179.4270100101132
 30
0.0
 10
830.9049970923737
 20
179.4307060656191
 30
0.0
  0
SPLINE
  5
232
330
1F
100
AcDbEntity
  8
0
  6
Continuous
 62
     7
370
    15
100
AcDbSpline
210
0.0
220
0.0
230
1.0
 70
     8
 71
     3
 72
    12
 73
     8
 74
     0
 42
0.00000001
 43
0.00000001
 40
0.0
 40
0.0
 40
0.0
 40
0.0
 40
0.2286645534858059
 40
0.457406226076126
 40
0.6861514872171111
 40
0.9148980413600426
 40
1.0
 40
1.0
 40
1.0
 40
1.0
 10
830.9049970923737
 20
-344.569342571771
 30
0.0
 10
831.1504578373233
 20
-344.5435890153514
 30
0.0
 10
831.6414621109884
 20
-344.4920732169019
 30
0.0
 10
832.2846557753843
 20
-344.0925219090266
 30
0.0
 10
832.7488314900042
 20
-343.5111327138939
 30
0.0
 10
832.9375911621765
 20
-342.9456240773642
 30
0.0
 10
832.9512704239831
 20
-342.610241478242
 30
0.0
 10
832.9549796401337
 20
-342.5193004193662
 30
0.0
  0
LINE
  5
233
330
1F
100
AcDbEntity
  8
0
  6
Continuous
 62
     7
370
    15
100
AcDbLine
 10
830.9049970924
 20
-344.5693425718
 30
0.0
 11
830.9049970924
 21
-343.7693290296
 31
0.0
  0
SPLINE
  5
234
330
1F
100
AcDbEntity
  8
0
  6
Continuous
 62
     7
370
    15
100
AcDbSpline
210
0.0
220
0.0
230
1.0
 70
     8
 71
     3
 72
    10
 73
     6
 74
     0
 42
0.00000001
 43
0.00000001
 40
0.0
 40
0.0
 40
0.0
 40
0.0
 40
0.4688807953841416
 40
0.9380499305988916
 40
1.0
 40
1.0
 40
1.0
 40
1.0
 10
830.9049970923737
 20
-343.7693290295957
 30
0.0
 10
831.0661225386602
 20
-343.7484097884046
 30
0.0
 10
831.388472515871
 20
-343.7065584416639
 30
0.0
 10
831.7159083558577
 20
-343.5215328629939
 30
0.0
 10
831.8151212626319
 20
-343.365471619042
 30
0.0
 10
831.826693516858
 20
-343.3472685399412
 30
0.0
  0
LINE
  5
235
330
1F
100
AcDbEntity
  8
0
  6
Continuous
 62
     7
370
    15
100
AcDbLine
 10
830.9049970924
 20
-344.5693425718
 30
0.0
 11
794.9549920379
 21
-344.5693425718
 31
0.0
  0
LINE
  5
236
330
1F
100
AcDbEntity
  8
0
  6
Continuous
 62
     7
370
    15
100
AcDbLine
 10
830.9049970924
 20
-343.7693290296
 30
0.0
 11
794.9549920379
 21
-343.7693290296
 31
0.0
  0
LINE
  5
237
330
1F
100
AcDbEntity
  8
0
  6
Continuous
 62
     7
370
    15
100
AcDbLine
 10
794.9549920379
 20
-343.7693290296
 30
0.0
 11
794.9549920379
 21
-344.5693425718
 31
0.0
  0
LINE
  5
238
330
1F
100
AcDbEntity
  8
0
  6
Continuous
 62
     7
370
    15
100
AcDbLine
 10
830.9049970924
 20
179.4307060656
 30
0.0
 11
794.9549920379
 21
179.4307060656
 31
0.0
  0
LINE
  5
239
330
1F
100
AcDbEntity
  8
0
  6
Continuous
 62
     7
370
    15
100
AcDbLine
 10
794.9549920379
 20
178.6306925234
 30
0.0
 11
794.9549920379
 21
179.4307060656
 31
0.0
  0
LINE
  5
23A
330
1F
100
AcDbEntity
  8
0
  6
Continuous
 62
     7
370
    15
100
AcDbLine
 10
830.9049970924
 20
178.6306925234
 30
0.0
 11
794.9549920379
 21
178.6306925234
 31
0.0
  0
LINE
  5
23B
330
1F
100
AcDbEntity
  8
0
  6
Continuous
 62
     7
370
    15
100
AcDbLine
 10
794.6049935638
 20
-341.9485859456
 30
0.0
 11
794.6049935638
 21
176.8100090441
 31
0.0
  0
CIRCLE
  5
23C
330
1F
100
AcDbEntity
  8
0
  6
Continuous
 62
     7
370
    15
100
AcDbCircle
 10
808.9549834166
 20
-282.5693149118
 30
0.0
 40
1.64999999999884
  0
CIRCLE
  5
23D
330
1F
100
AcDbEntity
  8
0
  6
Continuous
 62
     7
370
    15
100
AcDbCircle
 10
808.9549834166
 20
-182.5693149118
 30
0.0
 40
1.649999999999409
  0
CIRCLE
  5
23E
330
1F
100
AcDbEntity
  8
0
  6
Continuous
 62
     7
370
    15
100
AcDbCircle
 10
808.9549834166
 20
-82.5693149118
 30
0.0
 40
1.649999999998954
  0
CIRCLE
  5
23F
330
1F
100
AcDbEntity
  8
0
  6
Continuous
 62
     7
370
    15
100
AcDbCircle
 10
808.9549834166
 20
17.4306850882
 30
0.0
 40
1.649999999999181
  0
CIRCLE
  5
240
330
1F
100
AcDbEntity
  8
0
  6
Continuous
 62
     7
370
    15
100
AcDbCircle
 10
808.9549834166
 20
117.4306850882
 30
0.0
 40
1.649999999998727
  0
LINE
  5
241
330
1F
100
AcDbEntity
  8
0
  6
Continuous
 62
     7
370
    15
100
AcDbLine
 10
794.6049935638
 20
176.8100090441
 30
0.0
 11
794.9549920379
 21
176.8100090441
 31
0.0
  0
LINE
  5
242
330
1F
100
AcDbEntity
  8
0
  6
Continuous
 62
     7
370
    15
100
AcDbLine
 10
794.6049935638
 20
-341.9485859456
 30
0.0
 11
794.9549920379
 21
-341.9485859456
 31
0.0
  0
LINE
  5
243
330
1F
100
AcDbEntity
  8
0
  6
Continuous
 62
     7
370
    15
100
AcDbLine
 10
792.5549812137
 20
-340.7693080488
 30
0.0
 11
792.5549812137
 21
175.6306715426
 31
0.0
  0
SPLINE
  5
244
330
1F
100
AcDbEntity
  8
0
  6
Continuous
 62
     7
370
    15
100
AcDbSpline
210
0.0
220
0.0
230
1.0
 70
     8
 71
     3
 72
    12
 73
     8
 74
     0
 42
0.00000001
 43
0.00000001
 40
0.0
 40
0.0
 40
0.0
 40
0.0
 40
0.2286721770009416
 40
0.4574175745596057
 40
0.6861540503180904
 40
0.9148972415149602
 40
1.0
 40
1.0
 40
1.0
 40
1.0
 10
794.6049935637786
 20
-341.9485859456418
 30
0.0
 10
794.3595217444246
 20
-341.858662114615
 30
0.0
 10
793.8684995059331
 20
-341.6787856590581
 30
0.0
 10
793.2253113885888
 20
-341.4089653142577
 30
0.0
 10
792.7611740084868
 20
-341.1392567827645
 30
0.0
 10
792.5723652338129
 20
-340.9255084080787
 30
0.0
 10
792.5586895301672
 20
-340.8026283257343
 30
0.0
 10
792.5549812136964
 20
-340.7693080487608
 30
0.0
  0
SPLINE
  5
245
330
1F
100
AcDbEntity
  8
0
  6
Continuous
 62
     7
370
    15
100
AcDbSpline
210
0.0
220
0.0
230
1.0
 70
     8
 71
     3
 72
    12
 73
     8
 74
     0
 42
0.00000001
 43
0.00000001
 40
0.0
 40
0.0
 40
0.0
 40
0.0
 40
0.2286668379545485
 40
0.4574134430534665
 40
0.6861508839226463
 40
0.9148936401905532
 40
1.0
 40
1.0
 40
1.0
 40
1.0
 10
792.5549812136964
 20
175.6306715426089
 30
0.0
 10
792.5807202638841
 20
175.7205869224868
 30
0.0
 10
792.6322073429577
 20
175.9004490479324
 30
0.0
 10
793.0317949754016
 20
176.1704012689727
 30
0.0
 10
793.6132030462021
 20
176.4399461073017
 30
0.0
 10
794.1786874701835
 20
176.653822547237
 30
0.0
 10
794.5140526894623
 20
176.7766908795632
 30
0.0
 10
794.6049935637787
 20
176.8100090441347
 30
0.0
  0
SPLINE
  5
246
330
1F
100
AcDbEntity
  8
0
  6
Continuous
 62
     7
370
    15
100
AcDbSpline
210
0.0
220
0.0
230
1.0
 70
     8
 71
     3
 72
    12
 73
     8
 74
     0
 42
0.00000001
 43
0.00000001
 40
0.0
 40
0.0
 40
0.0
 40
0.0
 40
0.2286673559232537
 40
0.4574151074401858
 40
0.6861529370296618
 40
0.9149137612979922
 40
1.0
 40
1.0
 40
1.0
 40
1.0
 10
794.6049935637787
 20
177.6807136950137
 30
0.0
 10
794.3595198010382
 20
177.6549907292351
 30
0.0
 10
793.8684859711138
 20
177.6035357539168
 30
0.0
 10
793.2253159652045
 20
177.203884902788
 30
0.0
 10
792.7611571504822
 20
176.6224922382012
 30
0.0
 10
792.5723750089315
 20
176.0569581108527
 30
0.0
 10
792.558691038389
 20
175.7215918055931
 30
0.0
 10
792.5549812136962
 20
175.6306715426091
 30
0.0
  0
LINE
  5
247
330
1F
100
AcDbEntity
  8
0
  6
Continuous
 62
     7
370
    15
100
AcDbLine
 10
794.6049935638
 20
177.680713695
 30
0.0
 11
794.6049935638
 21
176.8807001528
 31
0.0
  0
SPLINE
  5
248
330
1F
100
AcDbEntity
  8
0
  6
Continuous
 62
     7
370
    15
100
AcDbSpline
210
0.0
220
0.0
230
1.0
 70
     8
 71
     3
 72
    10
 73
     6
 74
     0
 42
0.00000001
 43
0.00000001
 40
0.0
 40
0.0
 40
0.0
 40
0.0
 40
0.4688933473223638
 40
0.938005621829757
 40
1.0
 40
1.0
 40
1.0
 40
1.0
 10
794.6049935637787
 20
176.8807001528384
 30
0.0
 10
794.4438572431809
 20
176.8597469279337
 30
0.0
 10
794.1215093671343
 20
176.8178306950237
 30
0.0
 10
793.7940699356664
 20
176.6329286487492
 30
0.0
 10
793.6948490706876
 20
176.4768039898302
 30
0.0
 10
793.6832673369721
 20
176.458580058539
 30
0.0
  0
SPLINE
  5
249
330
1F
100
AcDbEntity
  8
0
  6
Continuous
 62
     7
370
    15
100
AcDbSpline
210
0.0
220
0.0
230
1.0
 70
     8
 71
     3
 72
    12
 73
     8
 74
     0
 42
0.00000001
 43
0.00000001
 40
0.0
 40
0.0
 40
0.0
 40
0.0
 40
0.2286701103494063
 40
0.4574094272659394
 40
0.686156666071633
 40
0.9148969096647191
 40
1.0
 40
1.0
 40
1.0
 40
1.0
 10
792.5549812136962
 20
-340.7693080487606
 30
0.0
 10
792.5807172408832
 20
-341.0147820791338
 30
0.0
 10
792.6321970842158
 20
-341.505804432121
 30
0.0
 10
793.0318202854911
 20
-342.1489684552844
 30
0.0
 10
793.6131809804266
 20
-342.6131156346957
 30
0.0
 10
794.1786799559737
 20
-342.8019605772262
 30
0.0
 10
794.5140525168872
 20
-342.8155937637939
 30
0.0
 10
794.6049935637787
 20
-342.8192905965208
 30
0.0
  0
SPLINE
  5
24A
330
1F
100
AcDbEntity
  8
0
  6
Continuous
 62
     7
370
    15
100
AcDbSpline
210
0.0
220
0.0
230
1.0
 70
     8
 71
     3
 72
    10
 73
     6
 74
     0
 42
0.00000001
 43
0.00000001
 40
0.0
 40
0.0
 40
0.0
 40
0.0
 40
0.0732655352874595
 40
0.5395315375072085
 40
1.0
 40
1.0
 40
1.0
 40
1.0
 10
793.6803467093781
 20
-341.5914349141477
 30
0.0
 10
793.6941662846466
 20
-341.6130784085178
 30
0.0
 10
793.7959344170025
 20
-341.7724623227779
 30
0.0
 10
794.1249740339009
 20
-341.957923194177
 30
0.0
 10
794.4456557693188
 20
-341.9989510591878
 30
0.0
 10
794.6049935637787
 20
-342.0193366589903
 30
0.0
  0
LINE
  5
24B
330
1F
100
AcDbEntity
  8
0
  6
Continuous
 62
     7
370
    15
100
AcDbLine
 10
794.6049935638
 20
-342.8192905965
 30
0.0
 11
794.6049935638
 21
-342.019336659
 31
0.0
  0
LINE
  5
24C
330
1F
100
AcDbEntity
  8
0
  6
Continuous
 62
     7
370
    15
100
AcDbLine
 10
794.9549920379
 20
177.680713695
 30
0.0
 11
794.6049935638
 21
177.680713695
 31
0.0
  0
LINE
  5
24D
330
1F
100
AcDbEntity
  8
0
  6
Continuous
 62
     7
370
    15
100
AcDbLine
 10
794.6049935638
 20
176.8807001528
 30
0.0
 11
794.9549920379
 21
176.8807001528
 31
0.0
  0
LINE
  5
24E
330
1F
100
AcDbEntity
  8
0
  6
Continuous
 62
     7
370
    15
100
AcDbLine
 10
794.6049935638
 20
-342.019336659
 30
0.0
 11
794.9549920379
 21
-342.019336659
 31
0.0
  0
LINE
  5
24F
330
1F
100
AcDbEntity
  8
0
  6
Continuous
 62
     7
370
    15
100
AcDbLine
 10
794.6049935638
 20
-342.8192905965
 30
0.0
 11
794.9549920379
 21
-342.8192905965
 31
0.0
  0
LINE
  5
250
330
1F
100
AcDbEntity
  8
0
  6
Continuous
 62
     7
370
    15
100
AcDbLine
 10
100.4549331485
 20
333.930713695
 30
0.0
 11
100.4549331485
 21
339.430672687
 31
0.0
  0
ARC
  5
251
330
1F
100
AcDbEntity
  8
0
  6
Continuous
 62
     7
370
    15
100
AcDbCircle
 10
97.4549834193
 20
333.9306850884
 30
0.0
 40
3.000000000000114
100
AcDbArc
 50
270.0
 51
0.0
  0
LINE
  5
252
330
1F
100
AcDbEntity
  8
0
  6
Continuous
 62
     7
370
    15
100
AcDbLine
 10
2.4550027667
 20
330.9306927142
 30
0.0
 11
97.455031377
 21
330.9306927142
 31
0.0
  0
ARC
  5
253
330
1F
100
AcDbEntity
  8
0
  6
Continuous
 62
     7
370
    15
100
AcDbCircle
 10
2.4549834193
 20
333.9306850884
 30
0.0
 40
2.999999999999988
100
AcDbArc
 50
220.1554437773
 51
270.0
  0
LINE
  5
254
330
1F
100
AcDbEntity
  8
0
  6
Continuous
 62
     7
370
    15
100
AcDbLine
 10
0.1621312915
 20
339.430672687
 30
0.0
 11
0.1621312915
 21
331.9960661349
 31
0.0
  0
LINE
  5
255
330
1F
100
AcDbEntity
  8
0
  6
Continuous
 62
     7
370
    15
100
AcDbLine
 10
0.1621312915
 20
339.430672687
 30
0.0
 11
100.4549331485
 21
339.430672687
 31
0.0
  0
LINE
  5
256
330
1F
100
AcDbEntity
  8
0
  6
Continuous
 62
     7
370
    15
100
AcDbLine
 10
100.4549331485
 20
339.430672687
 30
0.0
 11
100.4549331485
 21
341.7306967196
 31
0.0
  0
LINE
  5
257
330
1F
100
AcDbEntity
  8
0
  6
Continuous
 62
     7
370
    15
100
AcDbLine
 10
0.9549922763
 20
341.7306967196
 30
0.0
 11
100.4549331485
 21
341.7306967196
 31
0.0
  0
SPLINE
  5
258
330
1F
100
AcDbEntity
  8
0
  6
Continuous
 62
     7
370
    15
100
AcDbSpline
210
0.0
220
0.0
230
1.0
 70
     8
 71
     3
 72
    11
 73
     7
 74
     0
 42
0.00000001
 43
0.00000001
 40
0.0
 40
0.0
 40
0.0
 40
0.0
 40
0.2500041966764106
 40
0.5000008875962348
 40
0.7499888123577627
 40
0.9999999999999999
 40
0.9999999999999999
 40
0.9999999999999999
 40
0.9999999999999999
 10
0.954992276318456
 20
341.7306967196108
 30
0.0
 10
0.8889101400363364
 20
341.6961036692064
 30
0.0
 10
0.7567478514248771
 20
341.6269186069679
 30
0.0
 10
0.5585158891462383
 20
341.0951269702337
 30
0.0
 10
0.3602137225663382
 20
340.3348782557423
 30
0.0
 10
0.2281608164905746
 20
339.7320838917648
 30
0.0
 10
0.1621312915162099
 20
339.430672687018
 30
0.0
  0
SPLINE
  5
259
330
1F
100
AcDbEntity
  8
0
  6
Continuous
 62
     7
370
    15
100
AcDbSpline
210
0.0
220
0.0
230
1.0
 70
     8
 71
     3
 72
    12
 73
     8
 74
     0
 42
0.00000001
 43
0.00000001
 40
0.0
 40
0.0
 40
0.0
 40
0.0
 40
0.2198237193785861
 40
0.4396333487912393
 40
0.6594798409075954
 40
0.8792881261017468
 40
1.0
 40
1.0
 40
1.0
 40
1.0
 10
-1.34503175627454
 20
339.4306726870183
 30
0.0
 10
-1.318347095824346
 20
339.6954301972766
 30
0.0
 10
-1.264979485322004
 20
340.2249282477217
 30
0.0
 10
-0.8498631244430177
 20
340.9263435368646
 30
0.0
 10
-0.241311028938207
 20
341.447281736911
 30
0.0
 10
0.4015923310435321
 20
341.6992596908722
 30
0.0
 10
0.8101585708700787
 20
341.7224691413479
 30
0.0
 10
0.9549922763182339
 20
341.730696719611
 30
0.0
  0
SPLINE
  5
25A
330
1F
100
AcDbEntity
  8
0
  6
Continuous
 62
     7
370
    15
100
AcDbSpline
210
0.0
220
0.0
230
1.0
 70
     8
 71
     3
 72
    11
 73
     7
 74
     0
 42
0.00000001
 43
0.00000001
 40
0.0
 40
0.0
 40
0.0
 40
0.0
 40
0.2832204683286381
 40
0.5664648649111005
 40
0.849735260384835
 40
1.0
 40
1.0
 40
1.0
 40
1.0
 10
-0.5450182140990245
 20
339.430672687018
 30
0.0
 10
-0.5266942747595982
 20
339.6091419175474
 30
0.0
 10
-0.4900448479580044
 20
339.9660954568138
 30
0.0
 10
-0.2005320918251341
 20
340.4262054711438
 30
0.0
 10
0.1452379210936661
 20
340.7364787430352
 30
0.0
 10
0.4083999453113885
 20
340.8096989548997
 30
0.0
 10
0.4996127902344716
 20
340.8350773272158
 30
0.0
  0
LINE
  5
25B
330
1F
100
AcDbEntity
  8
0
  6
Continuous
 62
     7
370
    15
100
AcDbLine
 10
-1.3450317563
 20
339.430672687
 30
0.0
 11
-0.5450182141
 21
339.430672687
 31
0.0
  0
LINE
  5
25C
330
1F
100
AcDbEntity
  8
0
  6
Continuous
 62
     7
370
    15
100
AcDbLine
 10
-0.5450182141
 20
339.430672687
 30
0.0
 11
-0.5450182141
 21
327.9961176333
 31
0.0
  0
LINE
  5
25D
330
1F
100
AcDbEntity
  8
0
  6
Continuous
 62
     7
370
    15
100
AcDbLine
 10
-1.3450317563
 20
327.9961176333
 30
0.0
 11
-0.5450182141
 21
327.9961176333
 31
0.0
  0
LINE
  5
25E
330
1F
100
AcDbEntity
  8
0
  6
Continuous
 62
     7
370
    15
100
AcDbLine
 10
-1.3450317563
 20
339.430672687
 30
0.0
 11
-1.3450317563
 21
327.9961176333
 31
0.0
  0
LINE
  5
25F
330
1F
100
AcDbEntity
  8
0
  6
Continuous
 62
     7
370
    15
100
AcDbLine
 10
-1.3450317563
 20
326.9307442126
 30
0.0
 11
-0.5450182141
 21
326.9307442126
 31
0.0
  0
LINE
  5
260
330
1F
100
AcDbEntity
  8
0
  6
Continuous
 62
     7
370
    15
100
AcDbLine
 10
-0.5450182141
 20
326.9307442126
 30
0.0
 11
-0.5450182141
 21
327.9961176333
 31
0.0
  0
LINE
  5
261
330
1F
100
AcDbEntity
  8
0
  6
Continuous
 62
     7
370
    15
100
AcDbLine
 10
-1.3450317563
 20
326.9307442126
 30
0.0
 11
-1.3450317563
 21
327.9961176333
 31
0.0
  0
LINE
  5
262
330
1F
100
AcDbEntity
  8
0
  6
Continuous
 62
     7
370
    15
100
AcDbLine
 10
103.5549707233
 20
340.9306831774
 30
0.0
 11
103.5549707233
 21
341.7306967196
 31
0.0
  0
LINE
  5
263
330
1F
100
AcDbEntity
  8
0
  6
Continuous
 62
     7
370
    15
100
AcDbLine
 10
102.5549239932
 20
340.9306831774
 30
0.0
 11
102.5549239932
 21
341.7306967196
 31
0.0
  0
LINE
  5
264
330
1F
100
AcDbEntity
  8
0
  6
Continuous
 62
     7
370
    15
100
AcDbLine
 10
103.5549707233
 20
341.7306967196
 30
0.0
 11
102.5549239932
 21
341.7306967196
 31
0.0
  0
LINE
  5
265
330
1F
100
AcDbEntity
  8
0
  6
Continuous
 62
     7
370
    15
100
AcDbLine
 10
100.4549331485
 20
341.7306967196
 30
0.0
 11
102.5549239932
 21
341.7306967196
 31
0.0
  0
LINE
  5
266
330
1F
100
AcDbEntity
  8
0
  6
Continuous
 62
     7
370
    15
100
AcDbLine
 10
103.955037099
 20
340.9306831774
 30
0.0
 11
103.955037099
 21
341.7306967196
 31
0.0
  0
ARC
  5
267
330
1F
100
AcDbEntity
  8
0
  6
Continuous
 62
     7
370
    15
100
AcDbCircle
 10
103.9549834193
 20
339.4306850884
 30
0.0
 40
2.299999999999975
100
AcDbArc
 50
40.705706831
 51
90.0
  0
LINE
  5
268
330
1F
100
AcDbEntity
  8
0
  6
Continuous
 62
     7
370
    15
100
AcDbLine
 10
103.5549707233
 20
341.7306967196
 30
0.0
 11
103.955037099
 21
341.7306967196
 31
0.0
  0
LINE
  5
269
330
1F
100
AcDbEntity
  8
0
  6
Continuous
 62
     7
370
    15
100
AcDbLine
 10
102.3550100147
 20
340.9306831774
 30
0.0
 11
104.9050159274
 21
340.9306831774
 31
0.0
  0
LINE
  5
26A
330
1F
100
AcDbEntity
  8
0
  6
Continuous
 62
     7
370
    15
100
AcDbLine
 10
104.9050159274
 20
74.9307103572
 30
0.0
 11
104.9050159274
 21
340.9306831774
 31
0.0
  0
LINE
  5
26B
330
1F
100
AcDbEntity
  8
0
  6
Continuous
 62
     7
370
    15
100
AcDbLine
 10
104.9050159274
 20
74.9307103572
 30
0.0
 11
102.3550100147
 21
74.9307103572
 31
0.0
  0
LINE
  5
26C
330
1F
100
AcDbEntity
  8
0
  6
Continuous
 62
     7
370
    15
100
AcDbLine
 10
102.3550100147
 20
74.9307103572
 30
0.0
 11
102.3550100147
 21
88.4377785143
 31
0.0
  0
LINE
  5
26D
330
1F
100
AcDbEntity
  8
0
  6
Continuous
 62
     7
370
    15
100
AcDbLine
 10
104.9050159274
 20
74.9307103572
 30
0.0
 11
112.9549808322
 21
74.9307103572
 31
0.0
  0
LINE
  5
26E
330
1F
100
AcDbEntity
  8
0
  6
Continuous
 62
     7
370
    15
100
AcDbLine
 10
112.9549808322
 20
340.9306831774
 30
0.0
 11
104.9050159274
 21
340.9306831774
 31
0.0
  0
LINE
  5
26F
330
1F
100
AcDbEntity
  8
0
  6
Continuous
 62
     7
370
    15
100
AcDbLine
 10
112.9549808322
 20
355.2306719241
 30
0.0
 11
104.7549314319
 21
355.2306719241
 31
0.0
  0
LINE
  5
270
330
1F
100
AcDbEntity
  8
0
  6
Continuous
 62
     7
370
    15
100
AcDbLine
 10
104.7549314319
 20
355.2306719241
 30
0.0
 11
104.7549314319
 21
356.4306326327
 31
0.0
  0
LINE
  5
271
330
1F
100
AcDbEntity
  8
0
  6
Continuous
 62
     7
370
    15
100
AcDbLine
 10
112.9549808322
 20
356.4306326327
 30
0.0
 11
104.7549314319
 21
356.4306326327
 31
0.0
  0
LINE
  5
272
330
1F
100
AcDbEntity
  8
0
  6
Continuous
 62
     7
370
    15
100
AcDbLine
 10
832.9549796401
 20
-256.5636806074
 30
0.0
 11
834.5549769222
 21
-256.5636806074
 31
0.0
  0
LINE
  5
273
330
1F
100
AcDbEntity
  8
0
  6
Continuous
 62
     7
370
    15
100
AcDbLine
 10
832.9549796401
 20
-312.5753573957
 30
0.0
 11
834.5549769222
 21
-312.5753573957
 31
0.0
  0
LINE
  5
274
330
1F
100
AcDbEntity
  8
0
  6
Continuous
 62
     7
370
    15
100
AcDbLine
 10
834.5549769222
 20
-312.5753573957
 30
0.0
 11
834.5549769222
 21
-256.5636806074
 31
0.0
  0
LINE
  5
275
330
1F
100
AcDbEntity
  8
0
  6
Continuous
 62
     7
370
    15
100
AcDbLine
 10
832.9549796401
 20
-314.5693115774
 30
0.0
 11
834.5549769222
 21
-314.5693115774
 31
0.0
  0
SPLINE
  5
276
330
1F
100
AcDbEntity
  8
0
  6
Continuous
 62
     7
370
    15
100
AcDbSpline
210
0.0
220
0.0
230
1.0
 70
    24
 71
     3
 72
    11
 73
     7
 74
     0
 42
0.00000001
 43
0.00000001
 40
0.0
 40
0.0
 40
0.0
 40
0.0
 40
0.2832778649057324
 40
0.5580019847905101
 40
0.7754087782741147
 40
1.0
 40
1.0
 40
1.0
 40
1.0
 10
834.5549769221619
 20
-314.5693115773557
 30
0.0
 10
834.5549769221619
 20
-314.5310291598332
 30
0.0
 10
834.5549769221618
 20
-314.4556202853442
 30
0.0
 10
834.554976922162
 20
-313.9226915480295
 30
0.0
 10
834.5549769221618
 20
-313.2722647048494
 30
0.0
 10
834.5549769221619
 20
-312.8101635631448
 30
0.0
 10
834.5549769221619
 20
-312.5753573956846
 30
0.0
  0
LINE
  5
277
330
1F
100
AcDbEntity
  8
0
  6
Continuous
 62
     7
370
    15
100
AcDbLine
 10
832.9549796401
 20
-254.5693091932
 30
0.0
 11
834.5549769222
 21
-254.5693091932
 31
0.0
  0
SPLINE
  5
278
330
1F
100
AcDbEntity
  8
0
  6
Continuous
 62
     7
370
    15
100
AcDbSpline
210
0.0
220
0.0
230
1.0
 70
    24
 71
     3
 72
    11
 73
     7
 74
     0
 42
0.00000001
 43
0.00000001
 40
0.0
 40
0.0
 40
0.0
 40
0.0
 40
0.2833571656777427
 40
0.55810695974678
 40
0.7754832253612259
 40
1.0
 40
1.0
 40
1.0
 40
1.0
 10
834.5549769221619
 20
-256.5636806073545
 30
0.0
 10
834.5549769221619
 20
-256.266625157471
 30
0.0
 10
834.5549769221618
 20
-255.6815377339211
 30
0.0
 10
834.554976922162
 20
-255.0334821655011
 30
0.0
 10
834.5549769221618
 20
-254.639518439226
 30
0.0
 10
834.554976922162
 20
-254.592963036679
 30
0.0
 10
834.5549769221618
 20
-254.5693091931698
 30
0.0
  0
SPLINE
  5
279
330
1F
100
AcDbEntity
  8
0
  6
Continuous
 62
     7
370
    15
100
AcDbSpline
210
0.0
220
0.0
230
1.0
 70
     8
 71
     3
 72
    11
 73
     7
 74
     0
 42
0.00000001
 43
0.00000001
 40
0.0
 40
0.0
 40
0.0
 40
0.0
 40
0.2371522685317183
 40
0.4977969215471193
 40
0.7485368398951942
 40
0.9999999999999999
 40
0.9999999999999999
 40
0.9999999999999999
 40
0.9999999999999999
 10
834.5549769221619
 20
-256.5636806073545
 30
0.0
 10
834.7499694691722
 20
-256.5943888586813
 30
0.0
 10
835.1592705913049
 20
-256.6588473311691
 30
0.0
 10
835.6028363825005
 20
-256.7918688861554
 30
0.0
 10
835.900130436358
 20
-256.9452676922489
 30
0.0
 10
835.9366731490333
 20
-257.0530618506783
 30
0.0
 10
835.9549708186463
 20
-257.107036549127
 30
0.0
  0
LINE
  5
27A
330
1F
100
AcDbEntity
  8
0
  6
Continuous
 62
     7
370
    15
100
AcDbLine
 10
835.9549708186
 20
-257.1070365491
 30
0.0
 11
835.9549708186
 21
-312.0315842214
 31
0.0
  0
SPLINE
  5
27B
330
1F
100
AcDbEntity
  8
0
  6
Continuous
 62
     7
370
    15
100
AcDbSpline
210
0.0
220
0.0
230
1.0
 70
     8
 71
     3
 72
    11
 73
     7
 74
     0
 42
0.00000001
 43
0.00000001
 40
0.0
 40
0.0
 40
0.0
 40
0.0
 40
0.2371486384958902
 40
0.4977973509729534
 40
0.7485349209227388
 40
1.0
 40
1.0
 40
1.0
 40
1.0
 10
834.5549769221618
 20
-312.5753573956845
 30
0.0
 10
834.7499707025692
 20
-312.5446095827502
 30
0.0
 10
835.1592810319838
 20
-312.4800670244462
 30
0.0
 10
835.6028290732925
 20
-312.346914843683
 30
0.0
 10
835.9001333439082
 20
-312.1934898684578
 30
0.0
 10
835.9366740156823
 20
-312.0856048658055
 30
0.0
 10
835.9549708186463
 20
-312.0315842213987
 30
0.0
  0
SPLINE
  5
27C
330
1F
100
AcDbEntity
  8
0
  6
Continuous
 62
     7
370
    15
100
AcDbSpline
210
0.0
220
0.0
230
1.0
 70
     8
 71
     3
 72
    11
 73
     7
 74
     0
 42
0.00000001
 43
0.00000001
 40
0.0
 40
0.0
 40
0.0
 40
0.0
 40
0.251429526968974
 40
0.5021460539019147
 40
0.7627994855904013
 40
1.0
 40
1.0
 40
1.0
 40
1.0
 10
835.9549708186463
 20
-312.0315842213987
 30
0.0
 10
835.9366727115787
 20
-312.2837422712491
 30
0.0
 10
835.9001283869374
 20
-312.7873433049799
 30
0.0
 10
835.6028151087359
 20
-313.5030450936131
 30
0.0
 10
835.1592182602103
 20
-314.1264132670751
 30
0.0
 10
834.7499643195769
 20
-314.4263892325853
 30
0.0
 10
834.5549769221619
 20
-314.5693115773557
 30
0.0
  0
SPLINE
  5
27D
330
1F
100
AcDbEntity
  8
0
  6
Continuous
 62
     7
370
    15
100
AcDbSpline
210
0.0
220
0.0
230
1.0
 70
    24
 71
     3
 72
    13
 73
     9
 74
     0
 42
0.00000001
 43
0.00000001
 40
0.0
 40
0.0
 40
0.0
 40
0.0
 40
0.1275851869685392
 40
0.2546667631265613
 40
0.5000465988233571
 40
0.7453948494455914
 40
0.8725417551652026
 40
1.0
 40
1.0
 40
1.0
 40
1.0
 10
834.5549769221618
 20
-312.5753573956845
 30
0.0
 10
834.5549769221618
 20
-312.7085263500522
 30
0.0
 10
834.5549769221618
 20
-312.9743386074438
 30
0.0
 10
834.554976922162
 20
-313.4740679974995
 30
0.0
 10
834.5549769221618
 20
-314.0215004406627
 30
0.0
 10
834.5549769221619
 20
-314.3871804574654
 30
0.0
 10
834.5549769221618
 20
-314.5475337153549
 30
0.0
 10
834.554976922162
 20
-314.5620463745114
 30
0.0
 10
834.5549769221619
 20
-314.5693115773557
 30
0.0
  0
SPLINE
  5
27E
330
1F
100
AcDbEntity
  8
0
  6
Continuous
 62
     7
370
    15
100
AcDbSpline
210
0.0
220
0.0
230
1.0
 70
     8
 71
     3
 72
    11
 73
     7
 74
     0
 42
0.00000001
 43
0.00000001
 40
0.0
 40
0.0
 40
0.0
 40
0.0
 40
0.2372007867748482
 40
0.4978545177583729
 40
0.7485890673586499
 40
1.0
 40
1.0
 40
1.0
 40
1.0
 10
834.5549769221619
 20
-254.5693091931699
 30
0.0
 10
834.7499638717688
 20
-254.7122317834831
 30
0.0
 10
835.1592168725101
 20
-255.0122082643568
 30
0.0
 10
835.6028317159661
 20
-255.6355871019139
 30
0.0
 10
835.9001112281424
 20
-256.3513059315961
 30
0.0
 10
835.936667874712
 20
-256.8549002317571
 30
0.0
 10
835.9549708186463
 20
-257.107036549127
 30
0.0
  0
SPLINE
  5
27F
330
1F
100
AcDbEntity
  8
0
  6
Continuous
 62
     7
370
    15
100
AcDbSpline
210
0.0
220
0.0
230
1.0
 70
    24
 71
     3
 72
    13
 73
     9
 74
     0
 42
0.00000001
 43
0.00000001
 40
0.0
 40
0.0
 40
0.0
 40
0.0
 40
0.1275348218190821
 40
0.2545890763320601
 40
0.4999486864924663
 40
0.7453395051698284
 40
0.8725014042615692
 40
1.0
 40
1.0
 40
1.0
 40
1.0
 10
834.5549769221619
 20
-254.5693091931699
 30
0.0
 10
834.5549769221619
 20
-254.5765826438214
 30
0.0
 10
834.5549769221618
 20
-254.5911021378437
 30
0.0
 10
834.554976922162
 20
-254.7515753003388
 30
0.0
 10
834.5549769221618
 20
-255.1173820642153
 30
0.0
 10
834.5549769221618
 20
-255.6649467835783
 30
0.0
 10
834.554976922162
 20
-256.1647762008428
 30
0.0
 10
834.5549769221619
 20
-256.4305953218823
 30
0.0
 10
834.5549769221619
 20
-256.5636806073545
 30
0.0
  0
LINE
  5
280
330
1F
100
AcDbEntity
  8
0
  6
Continuous
 62
     7
370
    15
100
AcDbLine
 10
111.9549341022
 20
1089.2306394992
 30
0.0
 11
111.1550397693
 21
1089.2306394992
 31
0.0
  0
LINE
  5
281
330
1F
100
AcDbEntity
  8
0
  6
Continuous
 62
     7
370
    15
100
AcDbLine
 10
111.9549341022
 20
394.2307062564
 30
0.0
 11
111.9549341022
 21
1058.3807058749
 31
0.0
  0
LINE
  5
282
330
1F
100
AcDbEntity
  8
0
  6
Continuous
 62
     7
370
    15
100
AcDbLine
 10
111.1550397693
 20
394.2307062564
 30
0.0
 11
111.9549341022
 21
394.2307062564
 31
0.0
  0
LINE
  5
283
330
1F
100
AcDbEntity
  8
0
  6
Continuous
 62
     7
370
    15
100
AcDbLine
 10
111.1550397693
 20
394.2307062564
 30
0.0
 11
111.1550397693
 21
1089.2306394992
 31
0.0
  0
LINE
  5
284
330
1F
100
AcDbEntity
  8
0
  6
Continuous
 62
     7
370
    15
100
AcDbLine
 10
111.1550397693
 20
1089.2306394992
 30
0.0
 11
111.1550397693
 21
1099.2307491717
 31
0.0
  0
LINE
  5
285
330
1F
100
AcDbEntity
  8
0
  6
Continuous
 62
     7
370
    15
100
AcDbLine
 10
111.1550397693
 20
1099.2307491717
 30
0.0
 11
111.9549341022
 21
1099.2307491717
 31
0.0
  0
LINE
  5
286
330
1F
100
AcDbEntity
  8
0
  6
Continuous
 62
     7
370
    15
100
AcDbLine
 10
111.9549341022
 20
384.2307157931
 30
0.0
 11
111.1550397693
 21
384.2307157931
 31
0.0
  0
LINE
  5
287
330
1F
100
AcDbEntity
  8
0
  6
Continuous
 62
     7
370
    15
100
AcDbLine
 10
111.1550397693
 20
384.2307157931
 30
0.0
 11
111.1550397693
 21
394.2307062564
 31
0.0
  0
LINE
  5
288
330
1F
100
AcDbEntity
  8
0
  6
Continuous
 62
     7
370
    15
100
AcDbLine
 10
111.9549341022
 20
394.2307062564
 30
0.0
 11
111.9549341022
 21
384.2307157931
 31
0.0
  0
ARC
  5
289
330
1F
100
AcDbEntity
  8
0
  6
Continuous
 62
     7
370
    15
100
AcDbCircle
 10
113.2049834143
 20
386.2806850884
 30
0.0
 40
2.049999999999969
100
AcDbArc
 50
232.4281306802
 51
262.9952737324
  0
ARC
  5
28A
330
1F
100
AcDbEntity
  8
0
  6
Continuous
 62
     7
370
    15
100
AcDbCircle
 10
113.2049834143
 20
386.2806850884
 30
0.0
 40
1.249999999999979
100
AcDbArc
 50
180.0
 51
258.4630412022
  0
LINE
  5
28B
330
1F
100
AcDbEntity
  8
0
  6
Continuous
 62
     7
370
    15
100
AcDbLine
 10
745.5549902736
 20
1057.9306908068
 30
0.0
 11
744.954980117
 21
1057.9306908068
 31
0.0
  0
SPLINE
  5
28C
330
1F
100
AcDbEntity
  8
0
  6
Continuous
 62
     7
370
    15
100
AcDbSpline
210
0.0
220
0.0
230
1.0
 70
     8
 71
     3
 72
    11
 73
     7
 74
     0
 42
0.00000001
 43
0.00000001
 40
0.0
 40
0.0
 40
0.0
 40
0.0
 40
0.0158730572713824
 40
0.4307549207739415
 40
0.8456150366004938
 40
1.0
 40
1.0
 40
1.0
 40
1.0
 10
745.5549902736024
 20
1057.437998813117
 30
0.0
 10
745.5515531316483
 20
1057.433235598263
 30
0.0
 10
745.4582777288847
 20
1057.303973906462
 30
0.0
 10
745.2749118944191
 20
1056.855512535022
 30
0.0
 10
745.0610906772289
 20
1056.308339831875
 30
0.0
 10
744.9382794532406
 20
1055.97189567692
 30
0.0
 10
744.9049718200043
 20
1055.880648654425
 30
0.0
  0
LINE
  5
28D
330
1F
100
AcDbEntity
  8
0
  6
Continuous
 62
     7
370
    15
100
AcDbLine
 10
744.90497182
 20
1055.8806486544
 30
0.0
 11
172.9549832164
 21
1055.8806486544
 31
0.0
  0
LINE
  5
28E
330
1F
100
AcDbEntity
  8
0
  6
Continuous
 62
     7
370
    15
100
AcDbLine
 10
172.9549832164
 20
1055.8806486544
 30
0.0
 11
172.9549832164
 21
1057.9306908068
 31
0.0
  0
LINE
  5
28F
330
1F
100
AcDbEntity
  8
0
  6
Continuous
 62
     7
370
    15
100
AcDbLine
 10
172.9549832164
 20
-345.0192980352
 30
0.0
 11
744.90497182
 21
-345.0192980352
 31
0.0
  0
LINE
  5
290
330
1F
100
AcDbEntity
  8
0
  6
Continuous
 62
     7
370
    15
100
AcDbLine
 10
172.9549832164
 20
-345.0192980352
 30
0.0
 11
172.9549832164
 21
-344.6192912641
 31
0.0
  0
LINE
  5
291
330
1F
100
AcDbEntity
  8
0
  6
Continuous
 62
     7
370
    15
100
AcDbLine
 10
172.9549832164
 20
-344.6192912641
 30
0.0
 11
172.5549764453
 21
-344.6192912641
 31
0.0
  0
LINE
  5
292
330
1F
100
AcDbEntity
  8
0
  6
Continuous
 62
     7
370
    15
100
AcDbLine
 10
172.5549764453
 20
-344.6192912641
 30
0.0
 11
172.5549764453
 21
-347.0693401876
 31
0.0
  0
LINE
  5
293
330
1F
100
AcDbEntity
  8
0
  6
Continuous
 62
     7
370
    15
100
AcDbLine
 10
115.0050229846
 20
-347.0693401876
 30
0.0
 11
172.5549764453
 21
-347.0693401876
 31
0.0
  0
LINE
  5
294
330
1F
100
AcDbEntity
  8
0
  6
Continuous
 62
     7
370
    15
100
AcDbLine
 10
115.0050229846
 20
1057.9306908068
 30
0.0
 11
115.0050229846
 21
-347.0693401876
 31
0.0
  0
LINE
  5
295
330
1F
100
AcDbEntity
  8
0
  6
Continuous
 62
     7
370
    15
100
AcDbLine
 10
172.5549764453
 20
1057.9306908068
 30
0.0
 11
172.5549764453
 21
1055.480701488
 31
0.0
  0
LINE
  5
296
330
1F
100
AcDbEntity
  8
0
  6
Continuous
 62
     7
370
    15
100
AcDbLine
 10
172.5549764453
 20
1055.480701488
 30
0.0
 11
172.9549832164
 21
1055.480701488
 31
0.0
  0
LINE
  5
297
330
1F
100
AcDbEntity
  8
0
  6
Continuous
 62
     7
370
    15
100
AcDbLine
 10
172.9549832164
 20
1055.480701488
 30
0.0
 11
172.9549832164
 21
1055.8806486544
 31
0.0
  0
LINE
  5
298
330
1F
100
AcDbEntity
  8
0
  6
Continuous
 62
     7
370
    15
100
AcDbLine
 10
744.90497182
 20
-345.0192980352
 30
0.0
 11
744.90497182
 21
1055.8806486544
 31
0.0
  0
LINE
  5
299
330
1F
100
AcDbEntity
  8
0
  6
Continuous
 62
     7
370
    15
100
AcDbLine
 10
172.5549764453
 20
1057.9306908068
 30
0.0
 11
115.0050229846
 21
1057.9306908068
 31
0.0
  0
LINE
  5
29A
330
1F
100
AcDbEntity
  8
0
  6
Continuous
 62
     7
370
    15
100
AcDbLine
 10
115.0050229846
 20
-347.0693401876
 30
0.0
 11
112.9549808322
 21
-347.0693401876
 31
0.0
  0
LINE
  5
29B
330
1F
100
AcDbEntity
  8
0
  6
Continuous
 62
     7
370
    15
100
AcDbLine
 10
112.9549808322
 20
-347.0693401876
 30
0.0
 11
112.9549808322
 21
1057.9306908068
 31
0.0
  0
LINE
  5
29C
330
1F
100
AcDbEntity
  8
0
  6
Continuous
 62
     7
370
    15
100
AcDbLine
 10
112.9549808322
 20
1057.9306908068
 30
0.0
 11
115.0050229846
 21
1057.9306908068
 31
0.0
  0
SPLINE
  5
29D
330
1F
100
AcDbEntity
  8
0
  6
Continuous
 62
     7
370
    15
100
AcDbSpline
210
0.0
220
0.0
230
1.0
 70
     8
 71
     3
 72
    12
 73
     8
 74
     0
 42
0.00000001
 43
0.00000001
 40
0.0
 40
0.0
 40
0.0
 40
0.0
 40
0.2286705035669208
 40
0.4574109454529488
 40
0.6861547852175909
 40
0.9149000504790421
 40
0.9999999999999999
 40
0.9999999999999999
 40
0.9999999999999999
 40
0.9999999999999999
 10
744.9049718200043
 20
-345.0192980351804
 30
0.0
 10
744.9948911071505
 20
-345.264772902855
 30
0.0
 10
745.1747571830383
 20
-345.7557977160972
 30
0.0
 10
745.4446479763985
 20
-346.3989461564175
 30
0.0
 10
745.7143031608042
 20
-346.8631322935199
 30
0.0
 10
745.9281317403653
 20
-347.051900599321
 30
0.0
 10
746.0509712621183
 20
-347.065620107199
 30
0.0
 10
746.0842795192078
 20
-347.0693401875852
 30
0.0
  0
LINE
  5
29E
330
1F
100
AcDbEntity
  8
0
  6
Continuous
 62
     7
370
    15
100
AcDbLine
 10
746.0842795192
 20
-347.0693401876
 30
0.0
 11
172.9549832164
 21
-347.0693401876
 31
0.0
  0
LINE
  5
29F
330
1F
100
AcDbEntity
  8
0
  6
Continuous
 62
     7
370
    15
100
AcDbLine
 10
172.9549832164
 20
-347.0693401876
 30
0.0
 11
172.9549832164
 21
-345.0192980352
 31
0.0
  0
SPLINE
  5
2A0
330
1F
100
AcDbEntity
  8
0
  6
Continuous
 62
     7
370
    15
100
AcDbSpline
210
0.0
220
0.0
230
1.0
 70
     8
 71
     3
 72
    10
 73
     6
 74
     0
 42
0.00000001
 43
0.00000001
 40
0.0
 40
0.0
 40
0.0
 40
0.0
 40
0.0956104515665442
 40
0.5505822299736672
 40
1.0
 40
1.0
 40
1.0
 40
1.0
 10
745.5549902736024
 20
1056.819779437506
 30
0.0
 10
745.5342784778194
 20
1056.801456850911
 30
0.0
 10
745.4150075558423
 20
1056.695944426053
 30
0.0
 10
745.1982328014041
 20
1056.361446937557
 30
0.0
 10
745.0023244450783
 20
1056.04025725551
 30
0.0
 10
744.9049718200043
 20
1055.880648654425
 30
0.0
  0
LINE
  5
2A1
330
1F
100
AcDbEntity
  8
0
  6
Continuous
 62
     7
370
    15
100
AcDbLine
 10
744.90497182
 20
1055.8806486544
 30
0.0
 11
745.5549902736
 21
1056.1239548144
 31
0.0
  0
SPLINE
  5
2A2
330
1F
100
AcDbEntity
  8
0
  6
Continuous
 62
     7
370
    15
100
AcDbSpline
210
0.0
220
0.0
230
1.0
 70
     8
 71
     3
 72
     9
 73
     5
 74
     0
 42
0.00000001
 43
0.00000001
 40
0.0
 40
0.0
 40
0.0
 40
0.0
 40
0.7044169107107224
 40
1.0
 40
1.0
 40
1.0
 40
1.0
 10
744.9049718200043
 20
1055.880648654425
 30
0.0
 10
745.0734702906215
 20
1055.979183071272
 30
0.0
 10
745.3126730525868
 20
1056.119063893762
 30
0.0
 10
745.4997063837709
 20
1056.259016839019
 30
0.0
 10
745.5549902736024
 20
1056.300384562933
 30
0.0
  0
LINE
  5
2A3
330
1F
100
AcDbEntity
  8
0
  6
Continuous
 62
     7
370
    15
100
AcDbLine
 10
746.9549841701
 20
-346.1985759321
 30
0.0
 11
746.9549841701
 21
1052.9306955752
 31
0.0
  0
SPLINE
  5
2A4
330
1F
100
AcDbEntity
  8
0
  6
Continuous
 62
     7
370
    15
100
AcDbSpline
210
0.0
220
0.0
230
1.0
 70
     8
 71
     3
 72
    12
 73
     8
 74
     0
 42
0.00000001
 43
0.00000001
 40
0.0
 40
0.0
 40
0.0
 40
0.0
 40
0.2286658773861396
 40
0.4574135242129626
 40
0.6861554870121476
 40
0.9148932526102879
 40
1.0
 40
1.0
 40
1.0
 40
1.0
 10
746.9549841700867
 20
-346.1985759320615
 30
0.0
 10
746.9292452493887
 20
-346.1086833644826
 30
0.0
 10
746.8777582039207
 20
-345.9288660843232
 30
0.0
 10
746.4781628576887
 20
-345.6589263550988
 30
0.0
 10
745.8967818555961
 20
-345.3892641174231
 30
0.0
 10
745.3312692330286
 20
-345.1754895375952
 30
0.0
 10
744.9959122176077
 20
-345.0526177713502
 30
0.0
 10
744.9049718200043
 20
-345.0192980351804
 30
0.0
  0
LINE
  5
2A5
330
1F
100
AcDbEntity
  8
0
  6
Continuous
 62
     7
370
    15
100
AcDbLine
 10
746.9549841701
 20
-346.1985759321
 30
0.0
 11
746.1549706279
 21
-346.1985759321
 31
0.0
  0
SPLINE
  5
2A6
330
1F
100
AcDbEntity
  8
0
  6
Continuous
 62
     7
370
    15
100
AcDbSpline
210
0.0
220
0.0
230
1.0
 70
     8
 71
     3
 72
    11
 73
     7
 74
     0
 42
0.00000001
 43
0.00000001
 40
0.0
 40
0.0
 40
0.0
 40
0.0
 40
0.2506624030535264
 40
0.5014783067455552
 40
0.7522880833741686
 40
1.0
 40
1.0
 40
1.0
 40
1.0
 10
746.1549706279114
 20
-346.1985759320615
 30
0.0
 10
746.1360859196108
 20
-346.1000559264205
 30
0.0
 10
746.0983049383921
 20
-345.902955583459
 30
0.0
 10
745.8075737565077
 20
-345.6071607299431
 30
0.0
 10
745.3938277447438
 20
-345.3126474378952
 30
0.0
 10
745.0672473279254
 20
-345.1166752396181
 30
0.0
 10
744.9049718200043
 20
-345.0192980351804
 30
0.0
  0
SPLINE
  5
2A7
330
1F
100
AcDbEntity
  8
0
  6
Continuous
 62
     7
370
    15
100
AcDbSpline
210
0.0
220
0.0
230
1.0
 70
     8
 71
     3
 72
    11
 73
     7
 74
     0
 42
0.00000001
 43
0.00000001
 40
0.0
 40
0.0
 40
0.0
 40
0.0
 40
0.250670197623215
 40
0.5014857594319746
 40
0.7523071467535087
 40
1.0
 40
1.0
 40
1.0
 40
1.0
 10
744.9049718200043
 20
-345.0192980351804
 30
0.0
 10
745.0035200404257
 20
-345.1835363707987
 30
0.0
 10
745.2006736295929
 20
-345.5121082841983
 30
0.0
 10
745.4964011155819
 20
-345.9261474394139
 30
0.0
 10
745.7909587161698
 20
-346.2137690074618
 30
0.0
 10
745.9869158419884
 20
-346.2508850760693
 30
0.0
 10
746.0842795192078
 20
-346.2693266454099
 30
0.0
  0
LINE
  5
2A8
330
1F
100
AcDbEntity
  8
0
  6
Continuous
 62
     7
370
    15
100
AcDbLine
 10
746.0842795192
 20
-347.0693401876
 30
0.0
 11
746.0842795192
 21
-346.2693266454
 31
0.0
  0
LINE
  5
2A9
330
1F
100
AcDbEntity
  8
0
  6
Continuous
 62
     7
370
    15
100
AcDbLine
 10
796.7549927055
 20
683.2438536105
 30
0.0
 11
796.7549927055
 21
675.1025743899
 31
0.0
  0
LINE
  5
2AA
330
1F
100
AcDbEntity
  8
0
  6
Continuous
 62
     7
370
    15
100
AcDbLine
 10
796.7549927055
 20
683.2438536105
 30
0.0
 11
803.4549720107
 21
683.2438536105
 31
0.0
  0
LINE
  5
2AB
330
1F
100
AcDbEntity
  8
0
  6
Continuous
 62
     7
370
    15
100
AcDbLine
 10
791.3030154525
 20
670.5438919482
 30
0.0
 11
791.3030154525
 21
669.4307156024
 31
0.0
  0
LINE
  5
2AC
330
1F
100
AcDbEntity
  8
0
  6
Continuous
 62
     7
370
    15
100
AcDbLine
 10
791.3030154525
 20
686.430675548
 30
0.0
 11
791.3030154525
 21
670.5438919482
 31
0.0
  0
LINE
  5
2AD
330
1F
100
AcDbEntity
  8
0
  6
Continuous
 62
     7
370
    15
100
AcDbLine
 10
793.3030195056
 20
673.2306309161
 30
0.0
 11
793.3030195056
 21
682.630641025
 31
0.0
  0
CIRCLE
  5
2AE
330
1F
100
AcDbEntity
  8
0
  6
Continuous
 62
     7
370
    15
100
AcDbCircle
 10
800.497766204
 20
671.7175354937
 30
0.0
 40
2.0
  0
SPLINE
  5
2AF
330
1F
100
AcDbEntity
  8
0
  6
Continuous
 62
     7
370
    15
100
AcDbSpline
210
0.0
220
0.0
230
1.0
 70
     8
 71
     3
 72
    15
 73
    11
 74
     0
 42
0.00000001
 43
0.00000001
 40
0.0
 40
0.0
 40
0.0
 40
0.0
 40
0.1249924913837679
 40
0.2500028578535917
 40
0.3750027001977854
 40
0.5000042995505246
 40
0.6250009164840431
 40
0.7500025018816491
 40
0.8749964014779762
 40
1.0
 40
1.0
 40
1.0
 40
1.0
 10
798.6978061019257
 20
671.729666751349
 30
0.0
 10
798.7264556739467
 20
671.9650453455632
 30
0.0
 10
798.7837589151432
 20
672.4358361953156
 30
0.0
 10
799.2039701294475
 20
673.0322151537172
 30
0.0
 10
799.801658124822
 20
673.4285643084108
 30
0.0
 10
800.5101831685909
 20
673.5642803435879
 30
0.0
 10
801.2168163345742
 20
673.4190042734211
 30
0.0
 10
801.8090548769189
 20
673.0146542772458
 30
0.0
 10
802.221319890928
 20
672.4127613927586
 30
0.0
 10
802.2722513250643
 20
671.9412380723868
 30
0.0
 10
802.2977180301026
 20
671.7054672655702
 30
0.0
  0
SPLINE
  5
2B0
330
1F
100
AcDbEntity
  8
0
  6
Continuous
 62
     7
370
    15
100
AcDbSpline
210
0.0
220
0.0
230
1.0
 70
     8
 71
     3
 72
    15
 73
    11
 74
     0
 42
0.00000001
 43
0.00000001
 40
0.0
 40
0.0
 40
0.0
 40
0.0
 40
0.1250088487529274
 40
0.2500012763335765
 40
0.3749977647593234
 40
0.4999948002405862
 40
0.6249932585501532
 40
0.7499914899825438
 40
0.8749997554972065
 40
1.0
 40
1.0
 40
1.0
 40
1.0
 10
802.2977180301026
 20
671.7054672655702
 30
0.0
 10
802.2690968870116
 20
671.4700412144614
 30
0.0
 10
802.2118583605055
 20
670.9992200378288
 30
0.0
 10
801.7915059262857
 20
670.4029084919758
 30
0.0
 10
801.1938669689514
 20
670.0066096650761
 30
0.0
 10
800.4853645962901
 20
669.870692492325
 30
0.0
 10
799.7787185923927
 20
670.0160182496714
 30
0.0
 10
799.1864253689622
 20
670.4203665769251
 30
0.0
 10
798.7742305465447
 20
671.0223538938207
 30
0.0
 10
798.7232803719213
 20
671.4939008417131
 30
0.0
 10
798.6978061019257
 20
671.729666751349
 30
0.0
  0
SPLINE
  5
2B1
330
1F
100
AcDbEntity
  8
0
  6
Continuous
 62
     7
370
    15
100
AcDbSpline
210
0.0
220
0.0
230
1.0
 70
     8
 71
     3
 72
    15
 73
    11
 74
     0
 42
0.00000001
 43
0.00000001
 40
0.0
 40
0.0
 40
0.0
 40
0.0
 40
0.1250127129305637
 40
0.2499975591627012
 40
0.3750052911392208
 40
0.5000011003480801
 40
0.6250021241363077
 40
0.7500001968400204
 40
0.8750030660176523
 40
1.0
 40
1.0
 40
1.0
 40
1.0
 10
798.8978094874695
 20
671.7282362398744
 30
0.0
 10
798.9232465783612
 20
671.9375166696004
 30
0.0
 10
798.9741150899392
 20
672.3560308781598
 30
0.0
 10
799.3478029013256
 20
672.8860508376322
 30
0.0
 10
799.8789467029969
 20
673.2385014145506
 30
0.0
 10
800.5087968277988
 20
673.3591635604264
 30
0.0
 10
801.136937062411
 20
673.2300480410734
 30
0.0
 10
801.6633777133853
 20
672.8705482102229
 30
0.0
 10
802.0297972298314
 20
672.3354906273725
 30
0.0
 10
802.0750957330054
 20
671.9163459373511
 30
0.0
 10
802.0977444468812
 20
671.7067785677552
 30
0.0
  0
SPLINE
  5
2B2
330
1F
100
AcDbEntity
  8
0
  6
Continuous
 62
     7
370
    15
100
AcDbSpline
210
0.0
220
0.0
230
1.0
 70
     8
 71
     3
 72
    15
 73
    11
 74
     0
 42
0.00000001
 43
0.00000001
 40
0.0
 40
0.0
 40
0.0
 40
0.0
 40
0.1249952268984713
 40
0.2500045183448318
 40
0.3750038110550143
 40
0.5000043092107894
 40
0.6250041773685043
 40
0.7500118781862282
 40
0.8749995018442247
 40
1.0
 40
1.0
 40
1.0
 40
1.0
 10
802.0977444468812
 20
671.7067785677552
 30
0.0
 10
802.0722790275137
 20
671.4975478088836
 30
0.0
 10
802.021345323392
 20
671.0790627483536
 30
0.0
 10
801.6478029660915
 20
670.5489573171158
 30
0.0
 10
801.1165315428296
 20
670.1966604233369
 30
0.0
 10
800.486743252715
 20
670.0759598492023
 30
0.0
 10
799.8585976713002
 20
670.2050996120714
 30
0.0
 10
799.3321953803683
 20
670.5645651902878
 30
0.0
 10
798.9656942234645
 20
671.0995417353566
 30
0.0
 10
798.9204385096975
 20
671.5186642100382
 30
0.0
 10
798.8978094874695
 20
671.7282362398744
 30
0.0
  0
CIRCLE
  5
2B3
330
1F
100
AcDbEntity
  8
0
  6
Continuous
 62
     7
370
    15
100
AcDbCircle
 10
800.497766204
 20
671.7175354937
 30
0.0
 40
1.500000000042057
  0
SPLINE
  5
2B4
330
1F
100
AcDbEntity
  8
0
  6
Continuous
 62
     7
370
    15
100
AcDbSpline
210
0.0
220
0.0
230
1.0
 70
     8
 71
     3
 72
    10
 73
     6
 74
     0
 42
0.00000001
 43
0.00000001
 40
0.0
 40
0.0
 40
0.0
 40
0.0
 40
0.3107581344063333
 40
0.6553755099014704
 40
1.0
 40
1.0
 40
1.0
 40
1.0
 10
803.4549720107392
 20
668.5066051897645
 30
0.0
 10
803.2118946472766
 20
668.3484571833567
 30
0.0
 10
802.699254965843
 20
668.0149298549813
 30
0.0
 10
801.8011499903457
 20
667.7187291427198
 30
0.0
 10
801.1593504146704
 20
667.677259020915
 30
0.0
 10
800.8384473143891
 20
667.6565237459779
 30
0.0
  0
LINE
  5
2B5
330
1F
100
AcDbEntity
  8
0
  6
Continuous
 62
     7
370
    15
100
AcDbLine
 10
800.8384473144
 20
667.656523746
 30
0.0
 11
799.0049786388
 21
667.656523746
 31
0.0
  0
SPLINE
  5
2B6
330
1F
100
AcDbEntity
  8
0
  6
Continuous
 62
     7
370
    15
100
AcDbSpline
210
0.0
220
0.0
230
1.0
 70
     8
 71
     3
 72
    11
 73
     7
 74
     0
 42
0.00000001
 43
0.00000001
 40
0.0
 40
0.0
 40
0.0
 40
0.0
 40
0.2500018209434606
 40
0.4999996503908056
 40
0.7500101817411466
 40
1.0
 40
1.0
 40
1.0
 40
1.0
 10
799.0049786387757
 20
667.6565237459779
 30
0.0
 10
798.6773837840713
 20
667.6940843370625
 30
0.0
 10
798.0221993049988
 20
667.7692049195437
 30
0.0
 10
797.1958307577738
 20
668.3473441318337
 30
0.0
 10
796.617759282311
 20
669.1737191211129
 30
0.0
 10
796.5425727378482
 20
669.8288899255382
 30
0.0
 10
796.5049810229614
 20
670.1564617571476
 30
0.0
  0
LINE
  5
2B7
330
1F
100
AcDbEntity
  8
0
  6
Continuous
 62
     7
370
    15
100
AcDbLine
 10
796.504981023
 20
670.1564617571
 30
0.0
 11
796.504981023
 21
674.0565128741
 31
0.0
  0
SPLINE
  5
2B8
330
1F
100
AcDbEntity
  8
0
  6
Continuous
 62
     7
370
    15
100
AcDbSpline
210
0.0
220
0.0
230
1.0
 70
     8
 71
     3
 72
    11
 73
     7
 74
     0
 42
0.00000001
 43
0.00000001
 40
0.0
 40
0.0
 40
0.0
 40
0.0
 40
0.2499898182588534
 40
0.5000003496091945
 40
0.7499981790565394
 40
1.0
 40
1.0
 40
1.0
 40
1.0
 10
796.5049810229615
 20
674.0565128740907
 30
0.0
 10
796.5425727378482
 20
674.3840847056999
 30
0.0
 10
796.6177592823109
 20
675.0392555101255
 30
0.0
 10
797.1958307577738
 20
675.8656304994042
 30
0.0
 10
798.0221993049988
 20
676.4437697116945
 30
0.0
 10
798.6773837840713
 20
676.5188902941759
 30
0.0
 10
799.0049786387757
 20
676.5564508852601
 30
0.0
  0
LINE
  5
2B9
330
1F
100
AcDbEntity
  8
0
  6
Continuous
 62
     7
370
    15
100
AcDbLine
 10
799.0049786388
 20
676.5564508853
 30
0.0
 11
803.4549720107
 21
676.5564508853
 31
0.0
  0
LINE
  5
2BA
330
1F
100
AcDbEntity
  8
0
  6
Continuous
 62
     7
370
    15
100
AcDbLine
 10
867.649740678
 20
696.0857935366
 30
0.0
 11
867.649740678
 21
659.4158239779
 31
0.0
  0
SPLINE
  5
2BB
330
1F
100
AcDbEntity
  8
0
  6
Continuous
 62
     7
370
    15
100
AcDbSpline
210
0.0
220
0.0
230
1.0
 70
     8
 71
     3
 72
    17
 73
    13
 74
     0
 42
0.00000001
 43
0.00000001
 40
0.0
 40
0.0
 40
0.0
 40
0.0
 40
0.0907515493649786
 40
0.1737927025057954
 40
0.2490575695912934
 40
0.3349406953425483
 40
0.4181880125528743
 40
0.498763604635616
 40
0.6249293075919352
 40
0.7491131405194635
 40
0.8747491281495687
 40
1.0
 40
1.0
 40
1.0
 40
1.0
 10
888.9173335849122
 20
696.4570112642884
 30
0.0
 10
888.7772838447135
 20
696.4194114080842
 30
0.0
 10
888.5090832133775
 20
696.3474062393653
 30
0.0
 10
888.1450734408043
 20
695.8245957529161
 30
0.0
 10
887.8072430903126
 20
695.0500581809123
 30
0.0
 10
887.495967199586
 20
693.9879829121265
 30
0.0
 10
887.2082652960322
 20
692.6214734574237
 30
0.0
 10
886.9125808903658
 20
690.74153215793
 30
0.0
 10
886.6343674534901
 20
688.2113608357057
 30
0.0
 10
886.407011049615
 20
684.9233272849016
 30
0.0
 10
886.2640426562497
 20
681.3557638060078
 30
0.0
 10
886.2462051848407
 20
678.8710804532639
 30
0.0
 10
886.2373001395539
 20
677.6306457934022
 30
0.0
  0
SPLINE
  5
2BC
330
1F
100
AcDbEntity
  8
0
  6
Continuous
 62
     7
370
    15
100
AcDbSpline
210
0.0
220
0.0
230
1.0
 70
     8
 71
     3
 72
     9
 73
     5
 74
     0
 42
0.00000001
 43
0.00000001
 40
0.0
 40
0.0
 40
0.0
 40
0.0
 40
0.2663410027605547
 40
1.0
 40
1.0
 40
1.0
 40
1.0
 10
888.3563644706086
 20
659.1968365130067
 30
0.0
 10
888.4042268893224
 20
659.1245226346987
 30
0.0
 10
888.5839304205765
 20
658.8530140139501
 30
0.0
 10
888.7762422678697
 20
658.8249037041883
 30
0.0
 10
888.9173335849122
 20
658.804280322516
 30
0.0
  0
LINE
  5
2BD
330
1F
100
AcDbEntity
  8
0
  6
Continuous
 62
     7
370
    15
100
AcDbLine
 10
868.4549696266
 20
659.1615505633
 30
0.0
 11
868.4549696266
 21
659.4016380725
 31
0.0
  0
LWPOLYLINE
  5
2BE
330
1F
100
AcDbEntity
  8
0
  6
Continuous
 62
     7
370
    15
100
AcDbPolyline
 90
        3
 70
   128
 43
0.0
 10
868.4549696266
 20
659.4016380725
 10
867.7504427253
 20
659.4140358386
 10
867.649740678
 20
659.4158239779
  0
SPLINE
  5
2BF
330
1F
100
AcDbEntity
  8
0
  6
Continuous
 62
     7
370
    15
100
AcDbSpline
210
0.0
220
0.0
230
1.0
 70
     8
 71
     3
 72
    11
 73
     7
 74
     0
 42
0.00000001
 43
0.00000001
 40
0.0
 40
0.0
 40
0.0
 40
0.0
 40
0.2796555788567152
 40
0.5592991985271298
 40
0.7796495959321673
 40
1.0
 40
1.0
 40
1.0
 40
1.0
 10
893.8753969489411
 20
691.8501682695985
 30
0.0
 10
893.7362366325483
 20
692.5462238211142
 30
0.0
 10
893.4579219508119
 20
693.9383051580381
 30
0.0
 10
892.1240207401664
 20
695.4435987071159
 30
0.0
 10
890.5443641956151
 20
696.3247689838521
 30
0.0
 10
889.4596771272795
 20
696.4129305036986
 30
0.0
 10
888.9173335849122
 20
696.4570112642884
 30
0.0
  0
SPLINE
  5
2C0
330
1F
100
AcDbEntity
  8
0
  6
Continuous
 62
     7
370
    15
100
AcDbSpline
210
0.0
220
0.0
230
1.0
 70
     8
 71
     3
 72
    15
 73
    11
 74
     0
 42
0.00000001
 43
0.00000001
 40
0.0
 40
0.0
 40
0.0
 40
0.0
 40
0.1249310053700643
 40
0.2501939922584539
 40
0.3747936281203365
 40
0.5001584907713333
 40
0.6247796472267868
 40
0.7500595516258058
 40
0.8750626905383075
 40
1.0
 40
1.0
 40
1.0
 40
1.0
 10
893.8753969489411
 20
691.8501682695985
 30
0.0
 10
893.6803182180884
 20
691.7957170066425
 30
0.0
 10
893.2896423699901
 20
691.6866697863613
 30
0.0
 10
892.7556620300494
 20
690.8431415234761
 30
0.0
 10
892.2813917184919
 20
689.5307128511121
 30
0.0
 10
891.8831515279926
 20
687.7521611830495
 30
0.0
 10
891.5669418066425
 20
685.582717613455
 30
0.0
 10
891.3407994790498
 20
683.1084643609839
 30
0.0
 10
891.1985596045506
 20
680.4217400046615
 30
0.0
 10
891.1809698550944
 20
678.5608471561661
 30
0.0
 10
891.1721772967651
 20
677.6306457934024
 30
0.0
  0
SPLINE
  5
2C1
330
1F
100
AcDbEntity
  8
0
  6
Continuous
 62
     7
370
    15
100
AcDbSpline
210
0.0
220
0.0
230
1.0
 70
     8
 71
     3
 72
    15
 73
    11
 74
     0
 42
0.00000001
 43
0.00000001
 40
0.0
 40
0.0
 40
0.0
 40
0.0
 40
0.1256428967416188
 40
0.2501866089924852
 40
0.3753329487951844
 40
0.5002530260829461
 40
0.6250134974933079
 40
0.7502418138236411
 40
0.8747963346426096
 40
1.0
 40
1.0
 40
1.0
 40
1.0
 10
893.8753969489411
 20
663.4112425264955
 30
0.0
 10
893.6792127413562
 20
663.4662659283159
 30
0.0
 10
893.2885606399923
 20
663.5758313607729
 30
0.0
 10
892.7540076306731
 20
664.4218657567895
 30
0.0
 10
892.2806499858091
 20
665.7332977699804
 30
0.0
 10
891.8823620439578
 20
667.5138961545961
 30
0.0
 10
891.5665512709411
 20
669.6818054941041
 30
0.0
 10
891.3408258318543
 20
672.154088166611
 30
0.0
 10
891.1986220499222
 20
674.8389007283404
 30
0.0
 10
891.1810074751186
 20
676.6984530557696
 30
0.0
 10
891.1721772967652
 20
677.6306457934022
 30
0.0
  0
LINE
  5
2C2
330
1F
100
AcDbEntity
  8
0
  6
Continuous
 62
     7
370
    15
100
AcDbLine
 10
867.4549825012
 20
688.8873405871
 30
0.0
 11
867.4549825012
 21
666.4320059237
 31
0.0
  0
SPLINE
  5
2C3
330
1F
100
AcDbEntity
  8
0
  6
Continuous
 62
     7
370
    15
100
AcDbSpline
210
0.0
220
0.0
230
1.0
 70
     8
 71
     3
 72
    10
 73
     6
 74
     0
 42
0.00000001
 43
0.00000001
 40
0.0
 40
0.0
 40
0.0
 40
0.0
 40
0.4681329909760557
 40
0.9359801131326595
 40
1.0
 40
1.0
 40
1.0
 40
1.0
 10
867.6497406779603
 20
659.4158239779115
 30
0.0
 10
867.6164261693153
 20
659.4197341102898
 30
0.0
 10
867.5498174957726
 20
659.4275519872949
 30
0.0
 10
867.4867416280812
 20
659.4652302621935
 30
0.0
 10
867.4583945844342
 20
659.4901868292013
 30
0.0
 10
867.4549825011567
 20
659.49319080683
 30
0.0
  0
SPLINE
  5
2C4
330
1F
100
AcDbEntity
  8
0
  6
Continuous
 62
     7
370
    15
100
AcDbSpline
210
0.0
220
0.0
230
1.0
 70
     8
 71
     3
 72
    10
 73
     6
 74
     0
 42
0.00000001
 43
0.00000001
 40
0.0
 40
0.0
 40
0.0
 40
0.0
 40
0.4197732409726487
 40
0.8382601311287732
 40
1.0
 40
1.0
 40
1.0
 40
1.0
 10
888.9173335849122
 20
658.804280322516
 30
0.0
 10
890.3624815943735
 20
658.7985545889421
 30
0.0
 10
893.2483491096649
 20
658.7871206677016
 30
0.0
 10
895.7198268999964
 20
658.8909228690059
 30
0.0
 10
896.4875236996678
 20
659.0331057560838
 30
0.0
 10
896.7015213786439
 20
659.0727396425843
 30
0.0
  0
LINE
  5
2C5
330
1F
100
AcDbEntity
  8
0
  6
Continuous
 62
     7
370
    15
100
AcDbLine
 10
867.6497108756
 20
659.2191286502
 30
0.0
 11
868.4549696266
 21
659.2048235354
 31
0.0
  0
SPLINE
  5
2C6
330
1F
100
AcDbEntity
  8
0
  6
Continuous
 62
     7
370
    15
100
AcDbSpline
210
0.0
220
0.0
230
1.0
 70
     8
 71
     3
 72
     9
 73
     5
 74
     0
 42
0.00000001
 43
0.00000001
 40
0.0
 40
0.0
 40
0.0
 40
0.0
 40
0.4981408105116661
 40
1.0
 40
1.0
 40
1.0
 40
1.0
 10
851.3221509276704
 20
666.0103626665712
 30
0.0
 10
854.0110723686607
 20
666.0835429164312
 30
0.0
 10
859.4089867419648
 20
666.2304496711394
 30
0.0
 10
864.7663436869478
 20
666.2655948162922
 30
0.0
 10
867.4549825011567
 20
666.2832327303529
 30
0.0
  0
SPLINE
  5
2C7
330
1F
100
AcDbEntity
  8
0
  6
Continuous
 62
     7
370
    15
100
AcDbSpline
210
0.0
220
0.0
230
1.0
 70
     8
 71
     3
 72
     9
 73
     5
 74
     0
 42
0.00000001
 43
0.00000001
 40
0.0
 40
0.0
 40
0.0
 40
0.0
 40
0.4930703409312965
 40
1.0
 40
1.0
 40
1.0
 40
1.0
 10
848.4279579936341
 20
665.1032991823793
 30
0.0
 10
848.8769787715307
 20
665.3411640331364
 30
0.0
 10
849.7876414916781
 20
665.8235796866676
 30
0.0
 10
850.8059434586993
 20
665.9475290553589
 30
0.0
 10
851.3221509276704
 20
666.0103626665712
 30
0.0
  0
SPLINE
  5
2C8
330
1F
100
AcDbEntity
  8
0
  6
Continuous
 62
     7
370
    15
100
AcDbSpline
210
0.0
220
0.0
230
1.0
 70
     8
 71
     3
 72
     9
 73
     5
 74
     0
 42
0.00000001
 43
0.00000001
 40
0.0
 40
0.0
 40
0.0
 40
0.0
 40
0.4988220387490221
 40
0.9999999999999999
 40
0.9999999999999999
 40
0.9999999999999999
 40
0.9999999999999999
 10
848.9549822627381
 20
677.6306457934022
 30
0.0
 10
848.8772183254654
 20
675.5284938151844
 30
0.0
 10
848.7213231740246
 20
671.3142614539007
 30
0.0
 10
848.5258998544962
 20
667.1768690648292
 30
0.0
 10
848.4279579936341
 20
665.1032991823793
 30
0.0
  0
SPLINE
  5
2C9
330
1F
100
AcDbEntity
  8
0
  6
Continuous
 62
     7
370
    15
100
AcDbSpline
210
0.0
220
0.0
230
1.0
 70
     8
 71
     3
 72
     9
 73
     5
 74
     0
 42
0.00000001
 43
0.00000001
 40
0.0
 40
0.0
 40
0.0
 40
0.0
 40
0.5014010279960087
 40
1.0
 40
1.0
 40
1.0
 40
1.0
 10
848.4279579936341
 20
690.1581116137147
 30
0.0
 10
848.5259428214289
 20
688.083592657454
 30
0.0
 10
848.7213648934304
 20
683.9461480962576
 30
0.0
 10
848.8772554109552
 20
679.7318770198466
 30
0.0
 10
848.9549822627381
 20
677.6306457934022
 30
0.0
  0
SPLINE
  5
2CA
330
1F
100
AcDbEntity
  8
0
  6
Continuous
 62
     7
370
    15
100
AcDbSpline
210
0.0
220
0.0
230
1.0
 70
     8
 71
     3
 72
     9
 73
     5
 74
     0
 42
0.00000001
 43
0.00000001
 40
0.0
 40
0.0
 40
0.0
 40
0.0
 40
0.5069214733072699
 40
1.0
 40
1.0
 40
1.0
 40
1.0
 10
851.3221509276704
 20
689.2509289202333
 30
0.0
 10
850.805939701271
 20
689.3137544548906
 30
0.0
 10
849.7876138784733
 20
689.4376898925578
 30
0.0
 10
848.8769746451499
 20
689.9201974822644
 30
0.0
 10
848.4279579936341
 20
690.1581116137147
 30
0.0
  0
SPLINE
  5
2CB
330
1F
100
AcDbEntity
  8
0
  6
Continuous
 62
     7
370
    15
100
AcDbSpline
210
0.0
220
0.0
230
1.0
 70
     8
 71
     3
 72
     9
 73
     5
 74
     0
 42
0.00000001
 43
0.00000001
 40
0.0
 40
0.0
 40
0.0
 40
0.0
 40
0.501859275840002
 40
1.0
 40
1.0
 40
1.0
 40
1.0
 10
867.4549825011567
 20
688.9781780657411
 30
0.0
 10
864.7663439220399
 20
688.9958260180846
 30
0.0
 10
859.4089883673049
 20
689.0309911593774
 30
0.0
 10
854.0110725979644
 20
689.1777983032654
 30
0.0
 10
851.3221509276704
 20
689.2509289202333
 30
0.0
  0
SPLINE
  5
2CC
330
1F
100
AcDbEntity
  8
0
  6
Continuous
 62
     7
370
    15
100
AcDbSpline
210
0.0
220
0.0
230
1.0
 70
    24
 71
     3
 72
    14
 73
    10
 74
     0
 42
0.00000001
 43
0.00000001
 40
0.0
 40
0.0
 40
0.0
 40
0.0
 40
0.1361883880586021
 40
0.272369068595639
 40
0.4140872057933597
 40
0.5557979052184024
 40
0.6959300542890081
 40
0.8360614032065947
 40
1.0
 40
1.0
 40
1.0
 40
1.0
 10
867.4549825011567
 20
688.9781780657411
 30
0.0
 10
867.4549825011567
 20
688.0456808167772
 30
0.0
 10
867.4549825011568
 20
686.1807390931185
 30
0.0
 10
867.4549825011566
 20
683.0337739607379
 30
0.0
 10
867.4549825011567
 20
679.7116085554733
 30
0.0
 10
867.4549825011567
 20
676.2912585707517
 30
0.0
 10
867.4549825011568
 20
672.9313942842061
 30
0.0
 10
867.4549825011567
 20
669.5073290949924
 30
0.0
 10
867.4549825011566
 20
667.4126006498302
 30
0.0
 10
867.4549825011567
 20
666.2832327303529
 30
0.0
  0
LINE
  5
2CD
330
1F
100
AcDbEntity
  8
0
  6
Continuous
 62
     7
370
    15
100
AcDbLine
 10
833.4702617942
 20
653.0413456378
 30
0.0
 11
833.4693379222
 21
650.3051348147
 31
0.0
  0
LINE
  5
2CE
330
1F
100
AcDbEntity
  8
0
  6
Continuous
 62
     7
370
    15
100
AcDbLine
 10
833.4549732028
 20
650.3050156054
 30
0.0
 11
833.4693379222
 21
650.3051348147
 31
0.0
  0
SPLINE
  5
2CF
330
1F
100
AcDbEntity
  8
0
  6
Continuous
 62
     7
370
    15
100
AcDbSpline
210
0.0
220
0.0
230
1.0
 70
     8
 71
     3
 72
    11
 73
     7
 74
     0
 42
0.00000001
 43
0.00000001
 40
0.0
 40
0.0
 40
0.0
 40
0.0
 40
0.2500437505973929
 40
0.5000074230525555
 40
0.7500082201211005
 40
1.0
 40
1.0
 40
1.0
 40
1.0
 10
832.9549796401337
 20
650.4762001452088
 30
0.0
 10
832.9624897480543
 20
650.4537365956185
 30
0.0
 10
832.9775075587345
 20
650.4088166905349
 30
0.0
 10
833.0931674430619
 20
650.3523867817418
 30
0.0
 10
833.2584265169969
 20
650.3128423530931
 30
0.0
 10
833.3894584285918
 20
650.3076244899395
 30
0.0
 10
833.4549732028321
 20
650.3050156054139
 30
0.0
  0
SPLINE
  5
2D0
330
1F
100
AcDbEntity
  8
0
  6
Continuous
 62
     7
370
    15
100
AcDbSpline
210
0.0
220
0.0
230
1.0
 70
    24
 71
     3
 72
    15
 73
    11
 74
     0
 42
0.00000001
 43
0.00000001
 40
0.0
 40
0.0
 40
0.0
 40
0.0
 40
0.1250157962192062
 40
0.2500003952349272
 40
0.3750223624153377
 40
0.4999966718608185
 40
0.62501190656303
 40
0.7499986354042366
 40
0.8749963964942175
 40
0.9999999999999999
 40
0.9999999999999999
 40
0.9999999999999999
 40
0.9999999999999999
 10
833.470261794217
 20
653.0413456377626
 30
0.0
 10
833.4368521625859
 20
653.0413456377628
 30
0.0
 10
833.3700412365667
 20
653.0413456377624
 30
0.0
 10
833.2730591682247
 20
653.041345637763
 30
0.0
 10
833.1833667846511
 20
653.0413456377624
 30
0.0
 10
833.1045677716252
 20
653.0413456377632
 30
0.0
 10
833.0396146348322
 20
653.0413456377626
 30
0.0
 10
832.9916919602177
 20
653.0413456377626
 30
0.0
 10
832.9607764992381
 20
653.0413456377624
 30
0.0
 10
832.9569119566061
 20
653.0413456377628
 30
0.0
 10
832.9549796401337
 20
653.0413456377626
 30
0.0
  0
LINE
  5
2D1
330
1F
100
AcDbEntity
  8
0
  6
Continuous
 62
     7
370
    15
100
AcDbLine
 10
833.4693379222
 20
704.9562759814
 30
0.0
 11
833.4702617942
 21
702.2200651583
 31
0.0
  0
SPLINE
  5
2D2
330
1F
100
AcDbEntity
  8
0
  6
Continuous
 62
     7
370
    15
100
AcDbSpline
210
0.0
220
0.0
230
1.0
 70
    24
 71
     3
 72
    15
 73
    11
 74
     0
 42
0.00000001
 43
0.00000001
 40
0.0
 40
0.0
 40
0.0
 40
0.0
 40
0.1250157962192062
 40
0.2500003952349272
 40
0.3750223624153377
 40
0.4999966718608185
 40
0.62501190656303
 40
0.7499986354042366
 40
0.8749963964942175
 40
0.9999999999999999
 40
0.9999999999999999
 40
0.9999999999999999
 40
0.9999999999999999
 10
833.470261794217
 20
702.2200651583314
 30
0.0
 10
833.4368521625859
 20
702.2200651583314
 30
0.0
 10
833.3700412365667
 20
702.2200651583313
 30
0.0
 10
833.2730591682247
 20
702.2200651583319
 30
0.0
 10
833.1833667846511
 20
702.2200651583314
 30
0.0
 10
833.1045677716252
 20
702.2200651583321
 30
0.0
 10
833.0396146348322
 20
702.2200651583314
 30
0.0
 10
832.9916919602177
 20
702.2200651583314
 30
0.0
 10
832.9607764992381
 20
702.2200651583314
 30
0.0
 10
832.9569119566061
 20
702.2200651583319
 30
0.0
 10
832.9549796401337
 20
702.2200651583314
 30
0.0
  0
SPLINE
  5
2D3
330
1F
100
AcDbEntity
  8
0
  6
Continuous
 62
     7
370
    15
100
AcDbSpline
210
0.0
220
0.0
230
1.0
 70
     8
 71
     3
 72
    11
 73
     7
 74
     0
 42
0.00000001
 43
0.00000001
 40
0.0
 40
0.0
 40
0.0
 40
0.0
 40
0.2500201210202743
 40
0.499999832095062
 40
0.7499860736028401
 40
1.0
 40
1.0
 40
1.0
 40
1.0
 10
833.469337922223
 20
704.9562759813905
 30
0.0
 10
833.4024219622274
 20
704.9542209245483
 30
0.0
 10
833.2686008576471
 20
704.9501111430166
 30
0.0
 10
833.0980835994817
 20
704.9108484977821
 30
0.0
 10
832.9783861797098
 20
704.8537539961808
 30
0.0
 10
832.9627821079903
 20
704.8080592760193
 30
0.0
 10
832.9549796401337
 20
704.7852106508851
 30
0.0
  0
LINE
  5
2D4
330
1F
100
AcDbEntity
  8
0
  6
Continuous
 62
     7
370
    15
100
AcDbLine
 10
833.4702617942
 20
653.0413456378
 30
0.0
 11
833.4702617942
 21
702.2200651583
 31
0.0
  0
LINE
  5
2D5
330
1F
100
AcDbEntity
  8
0
  6
Continuous
 62
     7
370
    15
100
AcDbLine
 10
833.4702617942
 20
702.2200651583
 30
0.0
 11
841.9373102008
 21
702.2200651583
 31
0.0
  0
LINE
  5
2D6
330
1F
100
AcDbEntity
  8
0
  6
Continuous
 62
     7
370
    15
100
AcDbLine
 10
841.9373102008
 20
702.2200651583
 30
0.0
 11
842.4009151279
 21
696.9208546099
 31
0.0
  0
LINE
  5
2D7
330
1F
100
AcDbEntity
  8
0
  6
Continuous
 62
     7
370
    15
100
AcDbLine
 10
842.4009151279
 20
696.9208546099
 30
0.0
 11
842.8928024589
 21
694.3144627032
 31
0.0
  0
LINE
  5
2D8
330
1F
100
AcDbEntity
  8
0
  6
Continuous
 62
     7
370
    15
100
AcDbLine
 10
842.8928024589
 20
694.3144627032
 30
0.0
 11
844.514257413
 21
689.5334549365
 31
0.0
  0
SPLINE
  5
2D9
330
1F
100
AcDbEntity
  8
0
  6
Continuous
 62
     7
370
    15
100
AcDbSpline
210
0.0
220
0.0
230
1.0
 70
     8
 71
     3
 72
    10
 73
     6
 74
     0
 42
0.00000001
 43
0.00000001
 40
0.0
 40
0.0
 40
0.0
 40
0.0
 40
0.3262982930865118
 40
0.6632084931493114
 40
0.9999999999999999
 40
0.9999999999999999
 40
0.9999999999999999
 40
0.9999999999999999
 10
844.5142574130372
 20
689.5334549364686
 30
0.0
 10
844.9322125095315
 20
688.2154156303691
 30
0.0
 10
845.7817154815763
 20
685.5364716069694
 30
0.0
 10
847.2989821971933
 20
681.5784460146581
 30
0.0
 10
848.4030470791835
 20
678.9464246300645
 30
0.0
 10
848.9549822627381
 20
677.6306457934022
 30
0.0
  0
SPLINE
  5
2DA
330
1F
100
AcDbEntity
  8
0
  6
Continuous
 62
     7
370
    15
100
AcDbSpline
210
0.0
220
0.0
230
1.0
 70
     8
 71
     3
 72
    10
 73
     6
 74
     0
 42
0.00000001
 43
0.00000001
 40
0.0
 40
0.0
 40
0.0
 40
0.0
 40
0.3367313949286015
 40
0.6736824604191737
 40
1.0
 40
1.0
 40
1.0
 40
1.0
 10
848.9549822627381
 20
677.6306457934022
 30
0.0
 10
848.403139839065
 20
676.3151040921025
 30
0.0
 10
847.2990949910262
 20
673.6831624808855
 30
0.0
 10
845.7817913544687
 20
669.7251497357626
 30
0.0
 10
844.9322286622694
 20
667.0459567331799
 30
0.0
 10
844.5142574130372
 20
665.7278366503358
 30
0.0
  0
LINE
  5
2DB
330
1F
100
AcDbEntity
  8
0
  6
Continuous
 62
     7
370
    15
100
AcDbLine
 10
844.514257413
 20
665.7278366503
 30
0.0
 11
842.8928024589
 21
660.9469480929
 31
0.0
  0
LINE
  5
2DC
330
1F
100
AcDbEntity
  8
0
  6
Continuous
 62
     7
370
    15
100
AcDbLine
 10
842.8928024589
 20
660.9469480929
 30
0.0
 11
842.4009151279
 21
658.3404369769
 31
0.0
  0
LINE
  5
2DD
330
1F
100
AcDbEntity
  8
0
  6
Continuous
 62
     7
370
    15
100
AcDbLine
 10
842.4009151279
 20
658.3404369769
 30
0.0
 11
841.9373102008
 21
653.0413456378
 31
0.0
  0
LINE
  5
2DE
330
1F
100
AcDbEntity
  8
0
  6
Continuous
 62
     7
370
    15
100
AcDbLine
 10
841.9373102008
 20
653.0413456378
 30
0.0
 11
833.4702617942
 21
653.0413456378
 31
0.0
  0
LINE
  5
2DF
330
1F
100
AcDbEntity
  8
0
  6
Continuous
 62
     7
370
    15
100
AcDbLine
 10
841.8383068858
 20
704.9562759814
 30
0.0
 11
833.4693379222
 21
704.9562759814
 31
0.0
  0
LINE
  5
2E0
330
1F
100
AcDbEntity
  8
0
  6
Continuous
 62
     7
370
    15
100
AcDbLine
 10
841.9373102008
 20
702.2200651583
 30
0.0
 11
841.8383068858
 21
704.9562759814
 31
0.0
  0
LINE
  5
2E1
330
1F
100
AcDbEntity
  8
0
  6
Continuous
 62
     7
370
    15
100
AcDbLine
 10
841.8383068858
 20
650.3051348147
 30
0.0
 11
841.9373102008
 21
653.0413456378
 31
0.0
  0
LINE
  5
2E2
330
1F
100
AcDbEntity
  8
0
  6
Continuous
 62
     7
370
    15
100
AcDbLine
 10
833.4693379222
 20
650.3051348147
 30
0.0
 11
841.8383068858
 21
650.3051348147
 31
0.0
  0
LINE
  5
2E3
330
1F
100
AcDbEntity
  8
0
  6
Continuous
 62
     7
370
    15
100
AcDbLine
 10
846.7655546485
 20
702.6558943209
 30
0.0
 11
847.1540875255
 21
698.214871448
 31
0.0
  0
SPLINE
  5
2E4
330
1F
100
AcDbEntity
  8
0
  6
Continuous
 62
     7
370
    15
100
AcDbSpline
210
0.0
220
0.0
230
1.0
 70
     8
 71
     3
 72
    10
 73
     6
 74
     0
 42
0.00000001
 43
0.00000001
 40
0.0
 40
0.0
 40
0.0
 40
0.0
 40
0.0545218238965389
 40
0.4999945915133412
 40
1.0
 40
1.0
 40
1.0
 40
1.0
 10
847.1582896529511
 20
697.3482199129701
 30
0.0
 10
847.1594629255771
 20
697.3640425247473
 30
0.0
 10
847.170222469654
 20
697.5091444260952
 30
0.0
 10
847.1811875309741
 20
697.7955604736028
 30
0.0
 10
847.1634616543012
 20
698.0698281162959
 30
0.0
 10
847.1540875254944
 20
698.2148714480043
 30
0.0
  0
SPLINE
  5
2E5
330
1F
100
AcDbEntity
  8
0
  6
Continuous
 62
     7
370
    15
100
AcDbSpline
210
0.0
220
0.0
230
1.0
 70
     8
 71
     3
 72
    11
 73
     7
 74
     0
 42
0.00000001
 43
0.00000001
 40
0.0
 40
0.0
 40
0.0
 40
0.0
 40
0.2499992300734171
 40
0.5000013500664343
 40
0.7499999574889987
 40
1.0
 40
1.0
 40
1.0
 40
1.0
 10
842.4009151278809
 20
696.9208546099305
 30
0.0
 10
842.9686021110348
 20
696.9707587672733
 30
0.0
 10
844.1039826396413
 20
697.0705676588369
 30
0.0
 10
845.5761544960776
 20
697.2017701452208
 30
0.0
 10
846.7031174790238
 20
697.3040085820819
 30
0.0
 10
847.0065653046584
 20
697.333482774475
 30
0.0
 10
847.1582896529511
 20
697.3482199129701
 30
0.0
  0
SPLINE
  5
2E6
330
1F
100
AcDbEntity
  8
0
  6
Continuous
 62
     7
370
    15
100
AcDbSpline
210
0.0
220
0.0
230
1.0
 70
     8
 71
     3
 72
    11
 73
     7
 74
     0
 42
0.00000001
 43
0.00000001
 40
0.0
 40
0.0
 40
0.0
 40
0.0
 40
0.2499986830864449
 40
0.4999992456080194
 40
0.7499995707309137
 40
1.0
 40
1.0
 40
1.0
 40
1.0
 10
846.765554648526
 20
702.6558943209293
 30
0.0
 10
846.6937680037072
 20
702.6478788394752
 30
0.0
 10
846.5501941743936
 20
702.6318478163087
 30
0.0
 10
845.4409849316204
 20
702.5303499918631
 30
0.0
 10
843.849905117164
 20
702.3881842692623
 30
0.0
 10
842.5748419281285
 20
702.2761048697568
 30
0.0
 10
841.9373102008179
 20
702.2200651583314
 30
0.0
  0
SPLINE
  5
2E7
330
1F
100
AcDbEntity
  8
0
  6
Continuous
 62
     7
370
    15
100
AcDbSpline
210
0.0
220
0.0
230
1.0
 70
     8
 71
     3
 72
    11
 73
     7
 74
     0
 42
0.00000001
 43
0.00000001
 40
0.0
 40
0.0
 40
0.0
 40
0.0
 40
0.2499981039849086
 40
0.5000005993435598
 40
0.749999582126484
 40
1.0
 40
1.0
 40
1.0
 40
1.0
 10
842.4009151278809
 20
658.3404369768739
 30
0.0
 10
842.9686028908231
 20
658.2905831299832
 30
0.0
 10
844.1039883884999
 20
658.1908745604878
 30
0.0
 10
845.5761537489711
 20
658.0596322013743
 30
0.0
 10
846.7031176658005
 20
657.9574043263888
 30
0.0
 10
847.0065653669174
 20
657.9279287257453
 30
0.0
 10
847.1582896529511
 20
657.9131908831239
 30
0.0
  0
SPLINE
  5
2E8
330
1F
100
AcDbEntity
  8
0
  6
Continuous
 62
     7
370
    15
100
AcDbSpline
210
0.0
220
0.0
230
1.0
 70
     8
 71
     3
 72
    11
 73
     7
 74
     0
 42
0.00000001
 43
0.00000001
 40
0.0
 40
0.0
 40
0.0
 40
0.0
 40
0.4999205368978042
 40
0.8439561415661323
 40
0.9454967426999153
 40
1.0
 40
1.0
 40
1.0
 40
1.0
 10
847.1540875254943
 20
657.0465393480899
 30
0.0
 10
847.1635572701895
 20
657.1915422322974
 30
0.0
 10
847.1795439092742
 20
657.436333285353
 30
0.0
 10
847.171452546109
 20
657.7074868877046
 30
0.0
 10
847.1628505844889
 20
657.8520676593489
 30
0.0
 10
847.159470318021
 20
657.8973682261344
 30
0.0
 10
847.1582896529511
 20
657.9131908831239
 30
0.0
  0
LINE
  5
2E9
330
1F
100
AcDbEntity
  8
0
  6
Continuous
 62
     7
370
    15
100
AcDbLine
 10
847.1540875255
 20
657.0465393481
 30
0.0
 11
846.7655546485
 21
652.6055164752
 31
0.0
  0
SPLINE
  5
2EA
330
1F
100
AcDbEntity
  8
0
  6
Continuous
 62
     7
370
    15
100
AcDbSpline
210
0.0
220
0.0
230
1.0
 70
     8
 71
     3
 72
    11
 73
     7
 74
     0
 42
0.00000001
 43
0.00000001
 40
0.0
 40
0.0
 40
0.0
 40
0.0
 40
0.2500003387974417
 40
0.5000017110195107
 40
0.7500014073845679
 40
0.9999999999999999
 40
0.9999999999999999
 40
0.9999999999999999
 40
0.9999999999999999
 10
841.9373102008179
 20
653.0413456377626
 30
0.0
 10
842.5748427604045
 20
652.9853228811623
 30
0.0
 10
843.8499105149413
 20
652.8732771363815
 30
0.0
 10
845.4409778814462
 20
652.7308570810894
 30
0.0
 10
846.5501964282121
 20
652.6296138612839
 30
0.0
 10
846.6937686807337
 20
652.6135489253835
 30
0.0
 10
846.7655546485261
 20
652.6055164751649
 30
0.0
  0
SPLINE
  5
2EB
330
1F
100
AcDbEntity
  8
0
  6
Continuous
 62
     7
370
    15
100
AcDbSpline
210
0.0
220
0.0
230
1.0
 70
     8
 71
     3
 72
    11
 73
     7
 74
     0
 42
0.00000001
 43
0.00000001
 40
0.0
 40
0.0
 40
0.0
 40
0.0
 40
0.2500024036568949
 40
0.5000019155148727
 40
0.7500039543584524
 40
1.0
 40
1.0
 40
1.0
 40
1.0
 10
841.838306885846
 20
704.9562759813905
 30
0.0
 10
842.4647262287042
 20
704.9748844815842
 30
0.0
 10
843.7175576685754
 20
705.0121012667248
 30
0.0
 10
845.2931066372729
 20
704.7530038708887
 30
0.0
 10
846.4120095905429
 20
704.3023357986613
 30
0.0
 10
846.5878639351337
 20
703.8887293977245
 30
0.0
 10
846.6757900534943
 20
703.6819286760926
 30
0.0
  0
LINE
  5
2EC
330
1F
100
AcDbEntity
  8
0
  6
Continuous
 62
     7
370
    15
100
AcDbLine
 10
846.7655546485
 20
702.6558943209
 30
0.0
 11
846.6757900535
 21
703.6819286761
 31
0.0
  0
LINE
  5
2ED
330
1F
100
AcDbEntity
  8
0
  6
Continuous
 62
     7
370
    15
100
AcDbLine
 10
846.6757900535
 20
651.57948212
 30
0.0
 11
846.7655546485
 21
652.6055164752
 31
0.0
  0
SPLINE
  5
2EE
330
1F
100
AcDbEntity
  8
0
  6
Continuous
 62
     7
370
    15
100
AcDbSpline
210
0.0
220
0.0
230
1.0
 70
     8
 71
     3
 72
    11
 73
     7
 74
     0
 42
0.00000001
 43
0.00000001
 40
0.0
 40
0.0
 40
0.0
 40
0.0
 40
0.2500002261872383
 40
0.4999976760657523
 40
0.7499983845735689
 40
1.0
 40
1.0
 40
1.0
 40
1.0
 10
846.6757900534943
 20
651.5794821200013
 30
0.0
 10
846.5878686281532
 20
651.3726147775516
 30
0.0
 10
846.4120267538582
 20
650.95888238996
 30
0.0
 10
845.2930859382723
 20
650.5085024561623
 30
0.0
 10
843.7175678050819
 20
650.249106803307
 30
0.0
 10
842.464727949737
 20
650.2864587883213
 30
0.0
 10
841.838306885846
 20
650.3051348147035
 30
0.0
  0
LINE
  5
2EF
330
1F
100
AcDbEntity
  8
0
  6
Continuous
 62
     7
370
    15
100
AcDbLine
 10
847.1723265468
 20
659.2142410693
 30
0.0
 11
847.1913106262
 21
659.7738094744
 31
0.0
  0
LINE
  5
2F0
330
1F
100
AcDbEntity
  8
0
  6
Continuous
 62
     7
370
    15
100
AcDbLine
 10
847.158289653
 20
657.9131908831
 30
0.0
 11
847.1723265468
 21
659.2142410693
 31
0.0
  0
SPLINE
  5
2F1
330
1F
100
AcDbEntity
  8
0
  6
Continuous
 62
     7
370
    15
100
AcDbSpline
210
0.0
220
0.0
230
1.0
 70
     8
 71
     3
 72
    11
 73
     7
 74
     0
 42
0.00000001
 43
0.00000001
 40
0.0
 40
0.0
 40
0.0
 40
0.0
 40
0.2499987778710088
 40
0.4999989315577997
 40
0.7500034181784371
 40
1.0
 40
1.0
 40
1.0
 40
1.0
 10
842.8928024588898
 20
660.9469480929017
 30
0.0
 10
843.3507098932932
 20
660.8242143069676
 30
0.0
 10
844.2665272820973
 20
660.5787460596599
 30
0.0
 10
845.5073178564243
 20
660.2417960317324
 30
0.0
 10
846.5513470204437
 20
659.9550783793449
 30
0.0
 10
846.9779916726077
 20
659.8342318058934
 30
0.0
 10
847.1913106261566
 20
659.7738094744327
 30
0.0
  0
LINE
  5
2F2
330
1F
100
AcDbEntity
  8
0
  6
Continuous
 62
     7
370
    15
100
AcDbLine
 10
847.1723265468
 20
696.0470505175
 30
0.0
 11
847.158289653
 21
697.348219913
 31
0.0
  0
LINE
  5
2F3
330
1F
100
AcDbEntity
  8
0
  6
Continuous
 62
     7
370
    15
100
AcDbLine
 10
847.1913106262
 20
695.4876013217
 30
0.0
 11
847.1723265468
 21
696.0470505175
 31
0.0
  0
SPLINE
  5
2F4
330
1F
100
AcDbEntity
  8
0
  6
Continuous
 62
     7
370
    15
100
AcDbSpline
210
0.0
220
0.0
230
1.0
 70
     8
 71
     3
 72
    11
 73
     7
 74
     0
 42
0.00000001
 43
0.00000001
 40
0.0
 40
0.0
 40
0.0
 40
0.0
 40
0.249996581821563
 40
0.5000010684422004
 40
0.7500012221289912
 40
1.0
 40
1.0
 40
1.0
 40
1.0
 10
847.1913106261567
 20
695.4876013216615
 30
0.0
 10
846.9779916726077
 20
695.4271789902009
 30
0.0
 10
846.5513470204436
 20
695.3063324167488
 30
0.0
 10
845.5073178564243
 20
695.0196147643621
 30
0.0
 10
844.2665272820973
 20
694.682664736433
 30
0.0
 10
843.3507098932931
 20
694.4371964891262
 30
0.0
 10
842.8928024588898
 20
694.3144627031922
 30
0.0
  0
SPLINE
  5
2F5
330
1F
100
AcDbEntity
  8
0
  6
Continuous
 62
     7
370
    15
100
AcDbSpline
210
0.0
220
0.0
230
1.0
 70
     8
 71
     3
 72
     9
 73
     5
 74
     0
 42
0.00000001
 43
0.00000001
 40
0.0
 40
0.0
 40
0.0
 40
0.0
 40
0.5097032733028359
 40
1.0
 40
1.0
 40
1.0
 40
1.0
 10
847.1913106261567
 20
659.7738094744325
 30
0.0
 10
847.2291769368713
 20
660.6006726916704
 30
0.0
 10
847.3034678286471
 20
662.2229169670106
 30
0.0
 10
847.4099075032988
 20
663.9756163172794
 30
0.0
 10
847.4620945273713
 20
664.8349590716005
 30
0.0
  0
SPLINE
  5
2F6
330
1F
100
AcDbEntity
  8
0
  6
Continuous
 62
     7
370
    15
100
AcDbSpline
210
0.0
220
0.0
230
1.0
 70
     8
 71
     3
 72
     9
 73
     5
 74
     0
 42
0.00000001
 43
0.00000001
 40
0.0
 40
0.0
 40
0.0
 40
0.0
 40
0.4999958889310329
 40
0.9999999999999999
 40
0.9999999999999999
 40
0.9999999999999999
 40
0.9999999999999999
 10
844.5142574130372
 20
665.7278366503358
 30
0.0
 10
845.0537482591313
 20
665.5657909501671
 30
0.0
 10
846.1327388229291
 20
665.241696885084
 30
0.0
 10
847.0189735303093
 20
664.970539085927
 30
0.0
 10
847.4620945273713
 20
664.8349590716005
 30
0.0
  0
SPLINE
  5
2F7
330
1F
100
AcDbEntity
  8
0
  6
Continuous
 62
     7
370
    15
100
AcDbSpline
210
0.0
220
0.0
230
1.0
 70
     8
 71
     3
 72
     9
 73
     5
 74
     0
 42
0.00000001
 43
0.00000001
 40
0.0
 40
0.0
 40
0.0
 40
0.0
 40
0.4904487430514223
 40
1.0
 40
1.0
 40
1.0
 40
1.0
 10
847.4620945273712
 20
690.4263325152042
 30
0.0
 10
847.4098978242579
 20
691.2859608473858
 30
0.0
 10
847.3034714058954
 20
693.0386992208868
 30
0.0
 10
847.2291706630605
 20
694.6609707996107
 30
0.0
 10
847.1913106261567
 20
695.4876013216615
 30
0.0
  0
SPLINE
  5
2F8
330
1F
100
AcDbEntity
  8
0
  6
Continuous
 62
     7
370
    15
100
AcDbSpline
210
0.0
220
0.0
230
1.0
 70
     8
 71
     3
 72
     9
 73
     5
 74
     0
 42
0.00000001
 43
0.00000001
 40
0.0
 40
0.0
 40
0.0
 40
0.0
 40
0.5000041110689671
 40
0.9999999999999999
 40
0.9999999999999999
 40
0.9999999999999999
 40
0.9999999999999999
 10
847.4620945273713
 20
690.426332515204
 30
0.0
 10
847.0189735303093
 20
690.2907525008775
 30
0.0
 10
846.1327388229292
 20
690.0195947017203
 30
0.0
 10
845.0537482591313
 20
689.6955006366375
 30
0.0
 10
844.5142574130372
 20
689.5334549364686
 30
0.0
  0
SPLINE
  5
2F9
330
1F
100
AcDbEntity
  8
0
  6
Continuous
 62
     7
370
    15
100
AcDbSpline
210
0.0
220
0.0
230
1.0
 70
     8
 71
     3
 72
     9
 73
     5
 74
     0
 42
0.00000001
 43
0.00000001
 40
0.0
 40
0.0
 40
0.0
 40
0.0
 40
0.5020255846518636
 40
1.0
 40
1.0
 40
1.0
 40
1.0
 10
847.4792010604218
 20
665.0314159807801
 30
0.0
 10
847.695055600761
 20
667.133334770772
 30
0.0
 10
848.1250228114734
 20
671.3202106078863
 30
0.0
 10
848.6790773018313
 20
675.5328561116143
 30
0.0
 10
848.9549822627381
 20
677.6306457934022
 30
0.0
  0
SPLINE
  5
2FA
330
1F
100
AcDbEntity
  8
0
  6
Continuous
 62
     7
370
    15
100
AcDbSpline
210
0.0
220
0.0
230
1.0
 70
     8
 71
     3
 72
     9
 73
     5
 74
     0
 42
0.00000001
 43
0.00000001
 40
0.0
 40
0.0
 40
0.0
 40
0.0
 40
0.5000288824601747
 40
0.9999999999999999
 40
0.9999999999999999
 40
0.9999999999999999
 40
0.9999999999999999
 10
847.4620945273713
 20
664.8349590716005
 30
0.0
 10
847.464930632122
 20
664.8677009439945
 30
0.0
 10
847.4706025139877
 20
664.933180906338
 30
0.0
 10
847.4763349886557
 20
664.9986722169998
 30
0.0
 10
847.4792010604217
 20
665.0314159807804
 30
0.0
  0
SPLINE
  5
2FB
330
1F
100
AcDbEntity
  8
0
  6
Continuous
 62
     7
370
    15
100
AcDbSpline
210
0.0
220
0.0
230
1.0
 70
     8
 71
     3
 72
     9
 73
     5
 74
     0
 42
0.00000001
 43
0.00000001
 40
0.0
 40
0.0
 40
0.0
 40
0.0
 40
0.4977521132359952
 40
1.0
 40
1.0
 40
1.0
 40
1.0
 10
848.9549822627381
 20
677.6306457934022
 30
0.0
 10
848.6792105101722
 20
679.7275195919816
 30
0.0
 10
848.1251761922201
 20
683.9402064753112
 30
0.0
 10
847.6951705070801
 20
688.1271242239873
 30
0.0
 10
847.4792010604218
 20
690.2299948153138
 30
0.0
  0
SPLINE
  5
2FC
330
1F
100
AcDbEntity
  8
0
  6
Continuous
 62
     7
370
    15
100
AcDbSpline
210
0.0
220
0.0
230
1.0
 70
     8
 71
     3
 72
     9
 73
     5
 74
     0
 42
0.00000001
 43
0.00000001
 40
0.0
 40
0.0
 40
0.0
 40
0.0
 40
0.5002646987518977
 40
1.0
 40
1.0
 40
1.0
 40
1.0
 10
847.4792010604218
 20
690.2299948153138
 30
0.0
 10
847.4763358206362
 20
690.2627389072418
 30
0.0
 10
847.4706083731611
 20
690.3281924401605
 30
0.0
 10
847.4649314741891
 20
690.3936307044745
 30
0.0
 10
847.4620945273713
 20
690.426332515204
 30
0.0
  0
SPLINE
  5
2FD
330
1F
100
AcDbEntity
  8
0
  6
Continuous
 62
     7
370
    15
100
AcDbSpline
210
0.0
220
0.0
230
1.0
 70
     8
 71
     3
 72
     9
 73
     5
 74
     0
 42
0.00000001
 43
0.00000001
 40
0.0
 40
0.0
 40
0.0
 40
0.0
 40
0.5596873054873643
 40
1.0
 40
1.0
 40
1.0
 40
1.0
 10
847.4792010604217
 20
690.2299948153141
 30
0.0
 10
847.6427560516751
 20
690.2092070551093
 30
0.0
 10
847.9349817099124
 20
690.1720653154247
 30
0.0
 10
848.2772520277398
 20
690.1623773485246
 30
0.0
 10
848.4279579936341
 20
690.1581116137147
 30
0.0
  0
SPLINE
  5
2FE
330
1F
100
AcDbEntity
  8
0
  6
Continuous
 62
     7
370
    15
100
AcDbSpline
210
0.0
220
0.0
230
1.0
 70
     8
 71
     3
 72
     9
 73
     5
 74
     0
 42
0.00000001
 43
0.00000001
 40
0.0
 40
0.0
 40
0.0
 40
0.0
 40
0.5596738872423233
 40
1.0
 40
1.0
 40
1.0
 40
1.0
 10
848.4279579936341
 20
665.1032991823793
 30
0.0
 10
848.2364868991975
 20
665.0971340803378
 30
0.0
 10
847.894375003679
 20
665.0861185547226
 30
0.0
 10
847.6061250444651
 20
665.0481392572162
 30
0.0
 10
847.4792010604218
 20
665.0314159807801
 30
0.0
  0
SPLINE
  5
2FF
330
1F
100
AcDbEntity
  8
0
  6
Continuous
 62
     7
370
    15
100
AcDbSpline
210
0.0
220
0.0
230
1.0
 70
     8
 71
     3
 72
    11
 73
     7
 74
     0
 42
0.00000001
 43
0.00000001
 40
0.0
 40
0.0
 40
0.0
 40
0.0
 40
0.2500022596251028
 40
0.4999728916093347
 40
0.7499778819107655
 40
1.0
 40
1.0
 40
1.0
 40
1.0
 10
833.469337922223
 20
714.3407888826966
 30
0.0
 10
833.4024217426621
 20
714.3387807005129
 30
0.0
 10
833.2685978490673
 20
714.3347645901987
 30
0.0
 10
833.0980740945479
 20
714.2955111310072
 30
0.0
 10
832.9783892086862
 20
714.2382304773012
 30
0.0
 10
832.9627830078414
 20
714.1925597153592
 30
0.0
 10
832.9549796401337
 20
714.1697235521913
 30
0.0
  0
LINE
  5
300
330
1F
100
AcDbEntity
  8
0
  6
Continuous
 62
     7
370
    15
100
AcDbLine
 10
833.4693379222
 20
714.3407888827
 30
0.0
 11
833.4693379222
 21
704.9562759814
 31
0.0
  0
LINE
  5
301
330
1F
100
AcDbEntity
  8
0
  6
Continuous
 62
     7
370
    15
100
AcDbLine
 10
833.4693379222
 20
640.9206219134
 30
0.0
 11
833.4693379222
 21
650.3051348147
 31
0.0
  0
LINE
  5
302
330
1F
100
AcDbEntity
  8
0
  6
Continuous
 62
     7
370
    15
100
AcDbLine
 10
833.4693379222
 20
640.9206219134
 30
0.0
 11
833.4549732028
 21
640.9205027041
 31
0.0
  0
SPLINE
  5
303
330
1F
100
AcDbEntity
  8
0
  6
Continuous
 62
     7
370
    15
100
AcDbSpline
210
0.0
220
0.0
230
1.0
 70
     8
 71
     3
 72
    11
 73
     7
 74
     0
 42
0.00000001
 43
0.00000001
 40
0.0
 40
0.0
 40
0.0
 40
0.0
 40
0.2499848348710491
 40
0.4999789404777295
 40
0.7500042608191441
 40
0.9999999999999999
 40
0.9999999999999999
 40
0.9999999999999999
 40
0.9999999999999999
 10
833.4549732028321
 20
640.9205027041078
 30
0.0
 10
833.3894591578195
 20
640.9230649121711
 30
0.0
 10
833.2584286381933
 20
640.928189423318
 30
0.0
 10
833.0931434695648
 20
640.9677223908532
 30
0.0
 10
832.9775285964128
 20
641.0243569108746
 30
0.0
 10
832.9624956624448
 20
641.0691652103176
 30
0.0
 10
832.9549796401337
 20
641.0915680346131
 30
0.0
  0
LINE
  5
304
330
1F
100
AcDbEntity
  8
0
  6
Continuous
 62
     7
370
    15
100
AcDbLine
 10
841.0172827064
 20
714.3407888827
 30
0.0
 11
833.4693379222
 21
714.3407888827
 31
0.0
  0
LINE
  5
305
330
1F
100
AcDbEntity
  8
0
  6
Continuous
 62
     7
370
    15
100
AcDbLine
 10
841.0172827064
 20
714.3407888827
 30
0.0
 11
841.8383068858
 21
704.9562759814
 31
0.0
  0
LINE
  5
306
330
1F
100
AcDbEntity
  8
0
  6
Continuous
 62
     7
370
    15
100
AcDbLine
 10
841.8383068858
 20
650.3051348147
 30
0.0
 11
841.0172827064
 21
640.9206219134
 31
0.0
  0
LINE
  5
307
330
1F
100
AcDbEntity
  8
0
  6
Continuous
 62
     7
370
    15
100
AcDbLine
 10
841.0172827064
 20
640.9206219134
 30
0.0
 11
833.4693379222
 21
640.9206219134
 31
0.0
  0
LWPOLYLINE
  5
308
330
1F
100
AcDbEntity
  8
0
  6
Continuous
 62
     7
370
    15
100
AcDbPolyline
 90
        9
 70
   128
 43
0.0
 10
845.854765874
 20
713.0664415774
 10
845.7382685958
 20
713.3757896838
 10
845.4484410106
 20
713.6586733279
 10
844.9956245242
 20
713.9048405108
 10
844.3959421932
 20
714.1055889544
 10
843.6707622825
 20
714.2537661013
 10
842.8458936035
 20
714.3442459521
 10
841.9507808505
 20
714.3735714373
 10
841.0172827064
 20
714.3407888827
  0
LINE
  5
309
330
1F
100
AcDbEntity
  8
0
  6
Continuous
 62
     7
370
    15
100
AcDbLine
 10
845.854765874
 20
713.0664415774
 30
0.0
 11
846.6757900535
 21
703.6819286761
 31
0.0
  0
LINE
  5
30A
330
1F
100
AcDbEntity
  8
0
  6
Continuous
 62
     7
370
    15
100
AcDbLine
 10
846.6757900535
 20
651.57948212
 30
0.0
 11
845.854765874
 21
642.1948500094
 31
0.0
  0
LWPOLYLINE
  5
30B
330
1F
100
AcDbEntity
  8
0
  6
Continuous
 62
     7
370
    15
100
AcDbPolyline
 90
        9
 70
   128
 43
0.0
 10
841.0172827064
 20
640.9206219134
 10
841.9507808505
 20
640.8878393588
 10
842.8458936035
 20
640.917164844
 10
843.6707622825
 20
641.0075254855
 10
844.3959421932
 20
641.1558218417
 10
844.9956245242
 20
641.3565702853
 10
845.4484410106
 20
641.6027374682
 10
845.7382685958
 20
641.885501903
 10
845.854765874
 20
642.1948500094
  0
SPLINE
  5
30C
330
1F
100
AcDbEntity
  8
0
  6
Continuous
 62
     7
370
    15
100
AcDbSpline
210
0.0
220
0.0
230
1.0
 70
     8
 71
     3
 72
     9
 73
     5
 74
     0
 42
0.00000001
 43
0.00000001
 40
0.0
 40
0.0
 40
0.0
 40
0.0
 40
0.5596807599866774
 40
1.0
 40
1.0
 40
1.0
 40
1.0
 10
847.4620945273713
 20
664.8349590716005
 30
0.0
 10
847.6243613057148
 20
664.8614617669007
 30
0.0
 10
847.9142886892243
 20
664.9088150032356
 30
0.0
 10
848.2554678916779
 20
664.927640230214
 30
0.0
 10
848.4056956588105
 20
664.93592933985
 30
0.0
  0
SPLINE
  5
30D
330
1F
100
AcDbEntity
  8
0
  6
Continuous
 62
     7
370
    15
100
AcDbSpline
210
0.0
220
0.0
230
1.0
 70
     8
 71
     3
 72
     9
 73
     5
 74
     0
 42
0.00000001
 43
0.00000001
 40
0.0
 40
0.0
 40
0.0
 40
0.0
 40
0.4985296881518508
 40
1.0
 40
1.0
 40
1.0
 40
1.0
 10
848.4279579936341
 20
665.1032991823793
 30
0.0
 10
848.4239819204569
 20
665.0754824110974
 30
0.0
 10
848.4160063208652
 20
665.0196847887222
 30
0.0
 10
848.4091392772924
 20
664.963902501046
 30
0.0
 10
848.4056956588105
 20
664.93592933985
 30
0.0
  0
SPLINE
  5
30E
330
1F
100
AcDbEntity
  8
0
  6
Continuous
 62
     7
370
    15
100
AcDbSpline
210
0.0
220
0.0
230
1.0
 70
     8
 71
     3
 72
     9
 73
     5
 74
     0
 42
0.00000001
 43
0.00000001
 40
0.0
 40
0.0
 40
0.0
 40
0.0
 40
0.5596703172849657
 40
1.0
 40
1.0
 40
1.0
 40
1.0
 10
847.4620945273713
 20
690.426332515204
 30
0.0
 10
847.624363619867
 20
690.3998947122017
 30
0.0
 10
847.9143005478835
 20
690.3526565396813
 30
0.0
 10
848.255469043419
 20
690.3337065082719
 30
0.0
 10
848.4056956588105
 20
690.3253622469545
 30
0.0
  0
SPLINE
  5
30F
330
1F
100
AcDbEntity
  8
0
  6
Continuous
 62
     7
370
    15
100
AcDbSpline
210
0.0
220
0.0
230
1.0
 70
     8
 71
     3
 72
     9
 73
     5
 74
     0
 42
0.00000001
 43
0.00000001
 40
0.0
 40
0.0
 40
0.0
 40
0.0
 40
0.5011357183159272
 40
1.0
 40
1.0
 40
1.0
 40
1.0
 10
848.4056956588105
 20
690.3253622469545
 30
0.0
 10
848.4091406487017
 20
690.2974294011661
 30
0.0
 10
848.4160150137996
 20
690.2416903173854
 30
0.0
 10
848.4239830333064
 20
690.1859289621433
 30
0.0
 10
848.4279579936341
 20
690.1581116137147
 30
0.0
  0
SPLINE
  5
310
330
1F
100
AcDbEntity
  8
0
  6
Continuous
 62
     7
370
    15
100
AcDbSpline
210
0.0
220
0.0
230
1.0
 70
     8
 71
     3
 72
     9
 73
     5
 74
     0
 42
0.00000001
 43
0.00000001
 40
0.0
 40
0.0
 40
0.0
 40
0.0
 40
0.5596511342105718
 40
1.0
 40
1.0
 40
1.0
 40
1.0
 10
847.1913106261567
 20
659.7738094744325
 30
0.0
 10
847.2954650119557
 20
659.8858922262066
 30
0.0
 10
847.4815709258585
 20
660.0861647619384
 30
0.0
 10
847.7702002470005
 20
660.2321420615209
 30
0.0
 10
847.8972978411988
 20
660.2964229998231
 30
0.0
  0
SPLINE
  5
311
330
1F
100
AcDbEntity
  8
0
  6
Continuous
 62
     7
370
    15
100
AcDbSpline
210
0.0
220
0.0
230
1.0
 70
     8
 71
     3
 72
     9
 73
     5
 74
     0
 42
0.00000001
 43
0.00000001
 40
0.0
 40
0.0
 40
0.0
 40
0.0
 40
0.4911096245275578
 40
1.0
 40
1.0
 40
1.0
 40
1.0
 10
848.4056956588105
 20
664.93592933985
 30
0.0
 10
848.3129823535589
 20
664.1336285631713
 30
0.0
 10
848.1241990338657
 20
662.4999795027395
 30
0.0
 10
847.973822839309
 20
661.0395973976271
 30
0.0
 10
847.8972978411988
 20
660.2964229998231
 30
0.0
  0
SPLINE
  5
312
330
1F
100
AcDbEntity
  8
0
  6
Continuous
 62
     7
370
    15
100
AcDbSpline
210
0.0
220
0.0
230
1.0
 70
     8
 71
     3
 72
     9
 73
     5
 74
     0
 42
0.00000001
 43
0.00000001
 40
0.0
 40
0.0
 40
0.0
 40
0.0
 40
0.5596763591018269
 40
1.0
 40
1.0
 40
1.0
 40
1.0
 10
847.8972978411988
 20
694.9648685869813
 30
0.0
 10
847.7372406248946
 20
695.0484043562917
 30
0.0
 10
847.4512588897343
 20
695.1976616332003
 30
0.0
 10
847.2707798250323
 20
695.3989633963793
 30
0.0
 10
847.1913106261567
 20
695.4876013216615
 30
0.0
  0
SPLINE
  5
313
330
1F
100
AcDbEntity
  8
0
  6
Continuous
 62
     7
370
    15
100
AcDbSpline
210
0.0
220
0.0
230
1.0
 70
     8
 71
     3
 72
     9
 73
     5
 74
     0
 42
0.00000001
 43
0.00000001
 40
0.0
 40
0.0
 40
0.0
 40
0.0
 40
0.5087397654986343
 40
1.0
 40
1.0
 40
1.0
 40
1.0
 10
847.8972978411988
 20
694.9648685869813
 30
0.0
 10
847.9738078965856
 20
694.2219264448229
 30
0.0
 10
848.1241992372579
 20
692.7615685319129
 30
0.0
 10
848.3129633543717
 20
691.1279124948278
 30
0.0
 10
848.4056956588105
 20
690.3253622469545
 30
0.0
  0
SPLINE
  5
314
330
1F
100
AcDbEntity
  8
0
  6
Continuous
 62
     7
370
    15
100
AcDbSpline
210
0.0
220
0.0
230
1.0
 70
     8
 71
     3
 72
    10
 73
     6
 74
     0
 42
0.00000001
 43
0.00000001
 40
0.0
 40
0.0
 40
0.0
 40
0.0
 40
0.0909090557896081
 40
0.4470751052025183
 40
1.0
 40
1.0
 40
1.0
 40
1.0
 10
851.5891499339417
 20
692.0815535006166
 30
0.0
 10
851.4587698357092
 20
692.1482704329308
 30
0.0
 10
850.8175829305399
 20
692.4763728345459
 30
0.0
 10
849.9258878858604
 20
693.7455931158158
 30
0.0
 10
849.2814036527889
 20
694.8698504434315
 30
0.0
 10
848.8894171534852
 20
695.5536432680726
 30
0.0
  0
SPLINE
  5
315
330
1F
100
AcDbEntity
  8
0
  6
Continuous
 62
     7
370
    15
100
AcDbSpline
210
0.0
220
0.0
230
1.0
 70
     8
 71
     3
 72
     9
 73
     5
 74
     0
 42
0.00000001
 43
0.00000001
 40
0.0
 40
0.0
 40
0.0
 40
0.0
 40
0.4999910929967465
 40
1.0
 40
1.0
 40
1.0
 40
1.0
 10
851.3221509276702
 20
689.2509289202335
 30
0.0
 10
851.3810678606383
 20
689.7665425811513
 30
0.0
 10
851.4989038257046
 20
690.7977882736056
 30
0.0
 10
851.5590675406104
 20
691.6536266763094
 30
0.0
 10
851.5891499339417
 20
692.0815535006166
 30
0.0
  0
LINE
  5
316
330
1F
100
AcDbEntity
  8
0
  6
Continuous
 62
     7
370
    15
100
AcDbLine
 10
847.8403456031
 20
695.4716272769
 30
0.0
 11
847.8972978412
 21
694.964868587
 31
0.0
  0
SPLINE
  5
317
330
1F
100
AcDbEntity
  8
0
  6
Continuous
 62
     7
370
    15
100
AcDbSpline
210
0.0
220
0.0
230
1.0
 70
     8
 71
     3
 72
     9
 73
     5
 74
     0
 42
0.00000001
 43
0.00000001
 40
0.0
 40
0.0
 40
0.0
 40
0.0
 40
0.5846294100821748
 40
1.0
 40
1.0
 40
1.0
 40
1.0
 10
848.8894171534852
 20
695.5536432680726
 30
0.0
 10
848.7164811784352
 20
695.5158595363242
 30
0.0
 10
848.420676738789
 20
695.4512310193577
 30
0.0
 10
848.010761393512
 20
695.4657257862686
 30
0.0
 10
847.8404946147278
 20
695.4717464861512
 30
0.0
  0
SPLINE
  5
318
330
1F
100
AcDbEntity
  8
0
  6
Continuous
 62
     7
370
    15
100
AcDbSpline
210
0.0
220
0.0
230
1.0
 70
     8
 71
     3
 72
     9
 73
     5
 74
     0
 42
0.00000001
 43
0.00000001
 40
0.0
 40
0.0
 40
0.0
 40
0.0
 40
0.4152359490626859
 40
1.0
 40
1.0
 40
1.0
 40
1.0
 10
847.8404946147278
 20
659.7895451006532
 30
0.0
 10
848.010707163983
 20
659.7956158178206
 30
0.0
 10
848.4206248255907
 20
659.8102357397728
 30
0.0
 10
848.716436891505
 20
659.7455021783443
 30
0.0
 10
848.8894171534852
 20
659.7076483187318
 30
0.0
  0
LINE
  5
319
330
1F
100
AcDbEntity
  8
0
  6
Continuous
 62
     7
370
    15
100
AcDbLine
 10
847.8972978412
 20
660.2964229998
 30
0.0
 11
847.8403456031
 21
659.7896643099
 31
0.0
  0
SPLINE
  5
31A
330
1F
100
AcDbEntity
  8
0
  6
Continuous
 62
     7
370
    15
100
AcDbSpline
210
0.0
220
0.0
230
1.0
 70
     8
 71
     3
 72
     9
 73
     5
 74
     0
 42
0.00000001
 43
0.00000001
 40
0.0
 40
0.0
 40
0.0
 40
0.0
 40
0.4999865253889677
 40
1.0
 40
1.0
 40
1.0
 40
1.0
 10
851.3221509276702
 20
666.0103626665714
 30
0.0
 10
851.3810083725069
 20
665.4949755989489
 30
0.0
 10
851.4987264345904
 20
664.4641736843948
 30
0.0
 10
851.5590082259754
 20
663.6079704497872
 30
0.0
 10
851.5891499339417
 20
663.1798572954774
 30
0.0
  0
SPLINE
  5
31B
330
1F
100
AcDbEntity
  8
0
  6
Continuous
 62
     7
370
    15
100
AcDbSpline
210
0.0
220
0.0
230
1.0
 70
     8
 71
     3
 72
    11
 73
     7
 74
     0
 42
0.00000001
 43
0.00000001
 40
0.0
 40
0.0
 40
0.0
 40
0.0
 40
0.5522759206556412
 40
0.8026890718975564
 40
0.909200722635226
 40
0.9999999999999999
 40
0.9999999999999999
 40
0.9999999999999999
 40
0.9999999999999999
 10
848.8894171534852
 20
659.7076483187318
 30
0.0
 10
849.2731533747817
 20
660.4063774343819
 30
0.0
 10
849.8308834147952
 20
661.4219245628597
 30
0.0
 10
850.6689069818132
 20
662.4914795205003
 30
0.0
 10
851.1716337369439
 20
662.9736611151765
 30
0.0
 10
851.4575677537339
 20
663.1148736058634
 30
0.0
 10
851.5891499339417
 20
663.1798572954774
 30
0.0
  0
LINE
  5
31C
330
1F
100
AcDbEntity
  8
0
  6
Continuous
 62
     7
370
    15
100
AcDbLine
 10
851.5891499339
 20
692.0815535006
 30
0.0
 11
867.4549825012
 21
689.2654724536
 31
0.0
  0
SPLINE
  5
31D
330
1F
100
AcDbEntity
  8
0
  6
Continuous
 62
     7
370
    15
100
AcDbSpline
210
0.0
220
0.0
230
1.0
 70
    24
 71
     3
 72
    10
 73
     6
 74
     0
 42
0.00000001
 43
0.00000001
 40
0.0
 40
0.0
 40
0.0
 40
0.0
 40
0.4996535591267179
 40
0.7498792913520473
 40
1.0
 40
1.0
 40
1.0
 40
1.0
 10
867.4549825011567
 20
689.2654724535585
 30
0.0
 10
867.4549825011568
 20
689.2182664193931
 30
0.0
 10
867.4549825011568
 20
689.1474196760831
 30
0.0
 10
867.4549825011566
 20
689.051144204539
 30
0.0
 10
867.4549825011567
 20
689.0024967082765
 30
0.0
 10
867.4549825011567
 20
688.9781780657411
 30
0.0
  0
LINE
  5
31E
330
1F
100
AcDbEntity
  8
0
  6
Continuous
 62
     7
370
    15
100
AcDbLine
 10
851.5891499339
 20
663.1798572955
 30
0.0
 11
867.4549825012
 21
665.9959383425
 31
0.0
  0
SPLINE
  5
31F
330
1F
100
AcDbEntity
  8
0
  6
Continuous
 62
     7
370
    15
100
AcDbSpline
210
0.0
220
0.0
230
1.0
 70
    24
 71
     3
 72
    10
 73
     6
 74
     0
 42
0.00000001
 43
0.00000001
 40
0.0
 40
0.0
 40
0.0
 40
0.0
 40
0.2499800155678951
 40
0.6248988285511352
 40
0.9999999999999999
 40
0.9999999999999999
 40
0.9999999999999999
 40
0.9999999999999999
 10
867.4549825011567
 20
666.2832327303529
 30
0.0
 10
867.4549825011567
 20
666.2589121402847
 30
0.0
 10
867.4549825011568
 20
666.1981156473771
 30
0.0
 10
867.4549825011566
 20
666.1020744503421
 30
0.0
 10
867.4549825011567
 20
666.0312433128619
 30
0.0
 10
867.4549825011567
 20
665.995819133246
 30
0.0
  0
LINE
  5
320
330
1F
100
AcDbEntity
  8
0
  6
Continuous
 62
     7
370
    15
100
AcDbLine
 10
851.3572878658
 20
694.2492552218
 30
0.0
 11
851.5891499339
 21
692.0815535006
 31
0.0
  0
SPLINE
  5
321
330
1F
100
AcDbEntity
  8
0
  6
Continuous
 62
     7
370
    15
100
AcDbSpline
210
0.0
220
0.0
230
1.0
 70
     8
 71
     3
 72
     9
 73
     5
 74
     0
 42
0.00000001
 43
0.00000001
 40
0.0
 40
0.0
 40
0.0
 40
0.0
 40
0.5085007936008131
 40
1.0
 40
1.0
 40
1.0
 40
1.0
 10
848.8894171534852
 20
695.5536432680726
 30
0.0
 10
849.2608760756863
 20
695.2463326609202
 30
0.0
 10
849.9913742909804
 20
694.6419862940713
 30
0.0
 10
850.9071733533765
 20
694.3786733331409
 30
0.0
 10
851.3572878657653
 20
694.2492552218082
 30
0.0
  0
LINE
  5
322
330
1F
100
AcDbEntity
  8
0
  6
Continuous
 62
     7
370
    15
100
AcDbLine
 10
851.5891499339
 20
663.1798572955
 30
0.0
 11
851.3572878658
 21
661.0121555743
 31
0.0
  0
SPLINE
  5
323
330
1F
100
AcDbEntity
  8
0
  6
Continuous
 62
     7
370
    15
100
AcDbSpline
210
0.0
220
0.0
230
1.0
 70
     8
 71
     3
 72
     9
 73
     5
 74
     0
 42
0.00000001
 43
0.00000001
 40
0.0
 40
0.0
 40
0.0
 40
0.0
 40
0.4946803374203604
 40
1.0
 40
1.0
 40
1.0
 40
1.0
 10
851.3572878657654
 20
661.012155574286
 30
0.0
 10
850.9042828461209
 20
660.8816451210242
 30
0.0
 10
849.9885298125417
 20
660.6178172641455
 30
0.0
 10
849.2583774825223
 20
660.0131822699717
 30
0.0
 10
848.8894171534852
 20
659.7076483187318
 30
0.0
  0
LINE
  5
324
330
1F
100
AcDbEntity
  8
0
  6
Continuous
 62
     7
370
    15
100
AcDbLine
 10
851.5269822894
 20
661.0305138049
 30
0.0
 11
867.4549825012
 21
662.3925991473
 31
0.0
  0
LINE
  5
325
330
1F
100
AcDbEntity
  8
0
  6
Continuous
 62
     7
370
    15
100
AcDbLine
 10
851.5269822894
 20
661.0305138049
 30
0.0
 11
851.3572878658
 21
661.0121555743
 31
0.0
  0
LINE
  5
326
330
1F
100
AcDbEntity
  8
0
  6
Continuous
 62
     7
370
    15
100
AcDbLine
 10
867.4549825012
 20
665.9959383425
 30
0.0
 11
867.4549825012
 21
662.3925991473
 31
0.0
  0
LINE
  5
327
330
1F
100
AcDbEntity
  8
0
  6
Continuous
 62
     7
370
    15
100
AcDbLine
 10
851.3572878658
 20
694.2492552218
 30
0.0
 11
851.5269822894
 21
694.2308969912
 31
0.0
  0
LINE
  5
328
330
1F
100
AcDbEntity
  8
0
  6
Continuous
 62
     7
370
    15
100
AcDbLine
 10
867.4549825012
 20
692.8688116488
 30
0.0
 11
851.5269822894
 21
694.2308969912
 31
0.0
  0
LINE
  5
329
330
1F
100
AcDbEntity
  8
0
  6
Continuous
 62
     7
370
    15
100
AcDbLine
 10
867.4549825012
 20
692.8688116488
 30
0.0
 11
867.4549825012
 21
689.2654724536
 31
0.0
  0
SPLINE
  5
32A
330
1F
100
AcDbEntity
  8
0
  6
Continuous
 62
     7
370
    15
100
AcDbSpline
210
0.0
220
0.0
230
1.0
 70
     8
 71
     3
 72
     9
 73
     5
 74
     0
 42
0.00000001
 43
0.00000001
 40
0.0
 40
0.0
 40
0.0
 40
0.0
 40
0.5000194736840838
 40
1.0
 40
1.0
 40
1.0
 40
1.0
 10
848.8894171534852
 20
695.5536432680726
 30
0.0
 10
848.898366061964
 20
695.7083848336034
 30
0.0
 10
848.916263181876
 20
696.017855911581
 30
0.0
 10
848.8518137653342
 20
696.2404545014804
 30
0.0
 10
848.8195903121308
 20
696.3517494616151
 30
0.0
  0
LINE
  5
32B
330
1F
100
AcDbEntity
  8
0
  6
Continuous
 62
     7
370
    15
100
AcDbLine
 10
847.7681047736
 20
696.4182682452
 30
0.0
 11
847.8403456031
 21
695.4716272769
 31
0.0
  0
LINE
  5
32C
330
1F
100
AcDbEntity
  8
0
  6
Continuous
 62
     7
370
    15
100
AcDbLine
 10
847.5660152255
 20
697.3672933993
 30
0.0
 11
847.7681047736
 21
696.4182682452
 31
0.0
  0
SPLINE
  5
32D
330
1F
100
AcDbEntity
  8
0
  6
Continuous
 62
     7
370
    15
100
AcDbSpline
210
0.0
220
0.0
230
1.0
 70
     8
 71
     3
 72
     9
 73
     5
 74
     0
 42
0.00000001
 43
0.00000001
 40
0.0
 40
0.0
 40
0.0
 40
0.0
 40
0.5062802342964543
 40
1.0
 40
1.0
 40
1.0
 40
1.0
 10
846.9729192076996
 20
700.28589443537
 30
0.0
 10
847.0276948913762
 20
699.8153669609076
 30
0.0
 10
847.1358873112378
 20
698.8859854788974
 30
0.0
 10
847.423844881443
 20
697.8692672734692
 30
0.0
 10
847.5660152255371
 20
697.3672933992984
 30
0.0
  0
SPLINE
  5
32E
330
1F
100
AcDbEntity
  8
0
  6
Continuous
 62
     7
370
    15
100
AcDbSpline
210
0.0
220
0.0
230
1.0
 70
     8
 71
     3
 72
    13
 73
     9
 74
     0
 42
0.00000001
 43
0.00000001
 40
0.0
 40
0.0
 40
0.0
 40
0.0
 40
0.0275901667997072
 40
0.109685557767095
 40
0.2242134760239403
 40
0.4655170290459537
 40
0.720655886569995
 40
1.0
 40
1.0
 40
1.0
 40
1.0
 10
848.8195903121308
 20
696.3517494616151
 30
0.0
 10
848.7865181764198
 20
696.3760632316662
 30
0.0
 10
848.6550388824259
 20
696.472723373261
 30
0.0
 10
848.3902717431538
 20
696.7362612119921
 30
0.0
 10
847.9578371801995
 20
697.274239946692
 30
0.0
 10
847.4933830142108
 20
698.0979586568887
 30
0.0
 10
847.1096732169925
 20
699.203185175826
 30
0.0
 10
847.0198596797201
 20
699.9142571870977
 30
0.0
 10
846.9729192076996
 20
700.28589443537
 30
0.0
  0
SPLINE
  5
32F
330
1F
100
AcDbEntity
  8
0
  6
Continuous
 62
     7
370
    15
100
AcDbSpline
210
0.0
220
0.0
230
1.0
 70
     8
 71
     3
 72
     9
 73
     5
 74
     0
 42
0.00000001
 43
0.00000001
 40
0.0
 40
0.0
 40
0.0
 40
0.0
 40
0.4937197657035456
 40
1.0
 40
1.0
 40
1.0
 40
1.0
 10
847.5660152255371
 20
657.8939981875064
 30
0.0
 10
847.4238448814428
 20
657.3920243133358
 30
0.0
 10
847.1358873112378
 20
656.3753061079071
 30
0.0
 10
847.0276948913762
 20
655.4459246258974
 30
0.0
 10
846.9729192076996
 20
654.9753971514344
 30
0.0
  0
LINE
  5
330
330
1F
100
AcDbEntity
  8
0
  6
Continuous
 62
     7
370
    15
100
AcDbLine
 10
847.7681047736
 20
658.8431425509
 30
0.0
 11
847.5660152255
 21
657.8939981875
 31
0.0
  0
LINE
  5
331
330
1F
100
AcDbEntity
  8
0
  6
Continuous
 62
     7
370
    15
100
AcDbLine
 10
847.8403456031
 20
659.7896643099
 30
0.0
 11
847.7681047736
 21
658.8431425509
 31
0.0
  0
SPLINE
  5
332
330
1F
100
AcDbEntity
  8
0
  6
Continuous
 62
     7
370
    15
100
AcDbSpline
210
0.0
220
0.0
230
1.0
 70
     8
 71
     3
 72
     9
 73
     5
 74
     0
 42
0.00000001
 43
0.00000001
 40
0.0
 40
0.0
 40
0.0
 40
0.0
 40
0.5000118655843021
 40
1.0
 40
1.0
 40
1.0
 40
1.0
 10
848.8195903121308
 20
658.9095421251893
 30
0.0
 10
848.8518142608101
 20
659.0208916145443
 30
0.0
 10
848.9162606287812
 20
659.2435853084714
 30
0.0
 10
848.8983648370212
 20
659.5529630959438
 30
0.0
 10
848.8894171534852
 20
659.7076483187318
 30
0.0
  0
SPLINE
  5
333
330
1F
100
AcDbEntity
  8
0
  6
Continuous
 62
     7
370
    15
100
AcDbSpline
210
0.0
220
0.0
230
1.0
 70
     8
 71
     3
 72
    14
 73
    10
 74
     0
 42
0.00000001
 43
0.00000001
 40
0.0
 40
0.0
 40
0.0
 40
0.0
 40
0.2792030476144229
 40
0.5343530834795781
 40
0.7755259638803634
 40
0.8900921314735433
 40
0.9453320109417592
 40
0.9724258776223298
 40
1.0
 40
1.0
 40
1.0
 40
1.0
 10
846.9729192076995
 20
654.9753971514347
 30
0.0
 10
847.0197882068018
 20
655.3468692128737
 30
0.0
 10
847.1094884962642
 20
656.0578114577828
 30
0.0
 10
847.4937956716855
 20
657.1641522959228
 30
0.0
 10
847.9563972936081
 20
657.9846202344653
 30
0.0
 10
848.3655195754544
 20
658.4953612474749
 30
0.0
 10
848.5887398610854
 20
658.720601757425
 30
0.0
 10
848.7211511830673
 20
658.8377941779942
 30
0.0
 10
848.7865856561929
 20
658.8854864845725
 30
0.0
 10
848.8195903121308
 20
658.9095421251893
 30
0.0
  0
SPLINE
  5
334
330
1F
100
AcDbEntity
  8
0
  6
Continuous
 62
     7
370
    15
100
AcDbSpline
210
0.0
220
0.0
230
1.0
 70
     8
 71
     3
 72
     9
 73
     5
 74
     0
 42
0.00000001
 43
0.00000001
 40
0.0
 40
0.0
 40
0.0
 40
0.0
 40
0.5596558916733607
 40
1.0
 40
1.0
 40
1.0
 40
1.0
 10
847.1723265467957
 20
696.0470505175233
 30
0.0
 10
847.2666512646119
 20
695.9247217913851
 30
0.0
 10
847.4351918253737
 20
695.706143325656
 30
0.0
 10
847.7164813973586
 20
695.5433238664457
 30
0.0
 10
847.8403456031159
 20
695.4716272768617
 30
0.0
  0
SPLINE
  5
335
330
1F
100
AcDbEntity
  8
0
  6
Continuous
 62
     7
370
    15
100
AcDbSpline
210
0.0
220
0.0
230
1.0
 70
     8
 71
     3
 72
     9
 73
     5
 74
     0
 42
0.00000001
 43
0.00000001
 40
0.0
 40
0.0
 40
0.0
 40
0.0
 40
0.5596258935249191
 40
1.0
 40
1.0
 40
1.0
 40
1.0
 10
847.8403456031159
 20
659.7896643099427
 30
0.0
 10
847.6846369807517
 20
659.6966408212073
 30
0.0
 10
847.4063999939257
 20
659.5304164026954
 30
0.0
 10
847.2438912081335
 20
659.3109072265772
 30
0.0
 10
847.1723265467957
 20
659.2142410692811
 30
0.0
  0
SPLINE
  5
336
330
1F
100
AcDbEntity
  8
0
  6
Continuous
 62
     7
370
    15
100
AcDbSpline
210
0.0
220
0.0
230
1.0
 70
     8
 71
     3
 72
     9
 73
     5
 74
     0
 42
0.00000001
 43
0.00000001
 40
0.0
 40
0.0
 40
0.0
 40
0.0
 40
0.5595242454899536
 40
1.0
 40
1.0
 40
1.0
 40
1.0
 10
847.1582896529511
 20
697.3482199129701
 30
0.0
 10
847.2232457544451
 20
697.1550793100163
 30
0.0
 10
847.339337419851
 20
696.8098921183787
 30
0.0
 10
847.6369941853013
 20
696.5380209175149
 30
0.0
 10
847.7681047736481
 20
696.4182682451844
 30
0.0
  0
SPLINE
  5
337
330
1F
100
AcDbEntity
  8
0
  6
Continuous
 62
     7
370
    15
100
AcDbSpline
210
0.0
220
0.0
230
1.0
 70
     8
 71
     3
 72
     9
 73
     5
 74
     0
 42
0.00000001
 43
0.00000001
 40
0.0
 40
0.0
 40
0.0
 40
0.0
 40
0.5594598679596066
 40
1.0
 40
1.0
 40
1.0
 40
1.0
 10
847.1582896529511
 20
657.9131908831239
 30
0.0
 10
847.2232590123106
 20
658.1062771914301
 30
0.0
 10
847.3393877341013
 20
658.4514070557235
 30
0.0
 10
847.6369962699632
 20
658.7233435929107
 30
0.0
 10
847.7681047736481
 20
658.8431425509095
 30
0.0
  0
ARC
  5
338
330
1F
100
AcDbEntity
  8
0
  6
Continuous
 62
     7
370
    15
100
AcDbCircle
 10
817.9974028299
 20
640.2765882277
 30
0.0
 40
23.0288872704854
100
AcDbArc
 50
353.4024304389
 51
1.6025621812
  0
ARC
  5
339
330
1F
100
AcDbEntity
  8
0
  6
Continuous
 62
     7
370
    15
100
AcDbCircle
 10
840.8737810055
 20
642.6306850884
 30
0.0
 40
5.000000000000114
100
AcDbArc
 50
270.0
 51
355.0
  0
ARC
  5
33A
330
1F
100
AcDbEntity
  8
0
  6
Continuous
 62
     7
370
    15
100
AcDbCircle
 10
840.8737810055
 20
712.6306850884
 30
0.0
 40
5.00000000000021
100
AcDbArc
 50
5.0
 51
90.0
  0
ARC
  5
33B
330
1F
100
AcDbEntity
  8
0
  6
Continuous
 62
     7
370
    15
100
AcDbCircle
 10
817.9939347751
 20
714.9846713012
 30
0.0
 40
23.03234973974392
100
AcDbArc
 50
358.3980552386
 51
6.5969521413
  0
LINE
  5
33C
330
1F
100
AcDbEntity
  8
0
  6
Continuous
 62
     7
370
    15
100
AcDbLine
 10
833.4549732028
 20
637.6306839404
 30
0.0
 11
833.4573871909
 21
637.7646751818
 31
0.0
  0
SPLINE
  5
33D
330
1F
100
AcDbEntity
  8
0
  6
Continuous
 62
     7
370
    15
100
AcDbSpline
210
0.0
220
0.0
230
1.0
 70
     8
 71
     3
 72
    11
 73
     7
 74
     0
 42
0.00000001
 43
0.00000001
 40
0.0
 40
0.0
 40
0.0
 40
0.0
 40
0.2499817314293403
 40
0.4999697904217461
 40
0.750010820791816
 40
1.0
 40
1.0
 40
1.0
 40
1.0
 10
833.4549732028321
 20
637.6306839403749
 30
0.0
 10
833.38945956363
 20
637.6381890419123
 30
0.0
 10
833.2584306269375
 20
637.6531994349568
 30
0.0
 10
833.0931356887955
 20
637.7688007852613
 30
0.0
 10
832.9775332923668
 20
637.9340940948164
 30
0.0
 10
832.9624970044769
 20
638.0651343615593
 30
0.0
 10
832.9549796401336
 20
638.1306477007511
 30
0.0
  0
SPLINE
  5
33E
330
1F
100
AcDbEntity
  8
0
  6
Continuous
 62
     7
370
    15
100
AcDbSpline
210
0.0
220
0.0
230
1.0
 70
     8
 71
     3
 72
    11
 73
     7
 74
     0
 42
0.00000001
 43
0.00000001
 40
0.0
 40
0.0
 40
0.0
 40
0.0
 40
0.249981723556349
 40
0.5000152967281802
 40
0.7499959001021604
 40
1.0
 40
1.0
 40
1.0
 40
1.0
 10
832.9549796401337
 20
717.1306438860536
 30
0.0
 10
832.9624971477356
 20
717.1961565207286
 30
0.0
 10
832.977533722173
 20
717.3271953782913
 30
0.0
 10
833.0931339693062
 20
717.4924992576288
 30
0.0
 10
833.2584436467956
 20
717.608065044971
 30
0.0
 10
833.3894612984509
 20
717.6231726821445
 30
0.0
 10
833.4549732028321
 20
717.6307268557191
 30
0.0
  0
LINE
  5
33F
330
1F
100
AcDbEntity
  8
0
  6
Continuous
 62
     7
370
    15
100
AcDbLine
 10
833.4549732028
 20
717.6307268557
 30
0.0
 11
833.4573871909
 21
717.496616405
 31
0.0
  0
LINE
  5
340
330
1F
100
AcDbEntity
  8
0
  6
Continuous
 62
     7
370
    15
100
AcDbLine
 10
833.4549732028
 20
717.6307268557
 30
0.0
 11
840.8737845241
 21
717.6307268557
 31
0.0
  0
LINE
  5
341
330
1F
100
AcDbEntity
  8
0
  6
Continuous
 62
     7
370
    15
100
AcDbLine
 10
833.4549732028
 20
637.6306839404
 30
0.0
 11
840.8737845241
 21
637.6306839404
 31
0.0
  0
SPLINE
  5
342
330
1F
100
AcDbEntity
  8
0
  6
Continuous
 62
     7
370
    15
100
AcDbSpline
210
0.0
220
0.0
230
1.0
 70
     8
 71
     3
 72
     9
 73
     5
 74
     0
 42
0.00000001
 43
0.00000001
 40
0.0
 40
0.0
 40
0.0
 40
0.0
 40
0.5596112705264312
 40
1.0
 40
1.0
 40
1.0
 40
1.0
 10
847.1540875254944
 20
657.0465393480897
 30
0.0
 10
847.188412798014
 20
657.219550064543
 30
0.0
 10
847.2497505056826
 20
657.5287123805386
 30
0.0
 10
847.4693195104819
 20
657.7823146196378
 30
0.0
 10
847.5660152255372
 20
657.8939981875062
 30
0.0
  0
SPLINE
  5
343
330
1F
100
AcDbEntity
  8
0
  6
Continuous
 62
     7
370
    15
100
AcDbSpline
210
0.0
220
0.0
230
1.0
 70
     8
 71
     3
 72
     9
 73
     5
 74
     0
 42
0.00000001
 43
0.00000001
 40
0.0
 40
0.0
 40
0.0
 40
0.0
 40
0.5595626571001343
 40
1.0
 40
1.0
 40
1.0
 40
1.0
 10
847.5660152255372
 20
697.3672933992982
 30
0.0
 10
847.4461058875655
 20
697.5116420915186
 30
0.0
 10
847.2318147148966
 20
697.7696090776797
 30
0.0
 10
847.1778538884953
 20
698.0787251753146
 30
0.0
 10
847.1540875254944
 20
698.2148714480043
 30
0.0
  0
SPLINE
  5
344
330
1F
100
AcDbEntity
  8
0
  6
Continuous
 62
     7
370
    15
100
AcDbSpline
210
0.0
220
0.0
230
1.0
 70
     8
 71
     3
 72
     9
 73
     5
 74
     0
 42
0.00000001
 43
0.00000001
 40
0.0
 40
0.0
 40
0.0
 40
0.0
 40
0.4930569084841374
 40
1.0
 40
1.0
 40
1.0
 40
1.0
 10
851.2484199820831
 20
695.4934425768497
 30
0.0
 10
850.8036290706126
 20
695.567532204294
 30
0.0
 10
849.9015204015786
 20
695.7177980786173
 30
0.0
 10
849.1835569326599
 20
696.1384850883436
 30
0.0
 10
848.8195903121308
 20
696.3517494616151
 30
0.0
  0
SPLINE
  5
345
330
1F
100
AcDbEntity
  8
0
  6
Continuous
 62
     7
370
    15
100
AcDbSpline
210
0.0
220
0.0
230
1.0
 70
     8
 71
     3
 72
     9
 73
     5
 74
     0
 42
0.00000001
 43
0.00000001
 40
0.0
 40
0.0
 40
0.0
 40
0.0
 40
0.5597629665219054
 40
0.9999999999999999
 40
0.9999999999999999
 40
0.9999999999999999
 40
0.9999999999999999
 10
851.3572878657654
 20
694.249255221808
 30
0.0
 10
851.3497599827648
 20
694.5511330870742
 30
0.0
 10
851.3363116422154
 20
695.0904289735851
 30
0.0
 10
851.2752858123769
 20
695.3702534704533
 30
0.0
 10
851.2484199820832
 20
695.4934425768495
 30
0.0
  0
SPLINE
  5
346
330
1F
100
AcDbEntity
  8
0
  6
Continuous
 62
     7
370
    15
100
AcDbSpline
210
0.0
220
0.0
230
1.0
 70
     8
 71
     3
 72
     9
 73
     5
 74
     0
 42
0.00000001
 43
0.00000001
 40
0.0
 40
0.0
 40
0.0
 40
0.0
 40
0.5597629810567375
 40
1.0
 40
1.0
 40
1.0
 40
1.0
 10
851.2484199820832
 20
659.7679682192445
 30
0.0
 10
851.2816061951736
 20
659.9313983446468
 30
0.0
 10
851.3408923827448
 20
660.2233614271184
 30
0.0
 10
851.352276261096
 20
660.7710449936379
 30
0.0
 10
851.3572878657654
 20
661.012155574286
 30
0.0
  0
SPLINE
  5
347
330
1F
100
AcDbEntity
  8
0
  6
Continuous
 62
     7
370
    15
100
AcDbSpline
210
0.0
220
0.0
230
1.0
 70
     8
 71
     3
 72
     9
 73
     5
 74
     0
 42
0.00000001
 43
0.00000001
 40
0.0
 40
0.0
 40
0.0
 40
0.0
 40
0.5037622253908454
 40
1.0
 40
1.0
 40
1.0
 40
1.0
 10
848.8195903121308
 20
658.9095421251893
 30
0.0
 10
849.1811097566389
 20
659.1215875181358
 30
0.0
 10
849.8987488059495
 20
659.5425110853637
 30
0.0
 10
850.8007920500363
 20
659.6931937761145
 30
0.0
 10
851.2484199820832
 20
659.7679682192445
 30
0.0
  0
SPLINE
  5
348
330
1F
100
AcDbEntity
  8
0
  6
Continuous
 62
     7
370
    15
100
AcDbSpline
210
0.0
220
0.0
230
1.0
 70
     8
 71
     3
 72
     9
 73
     5
 74
     0
 42
0.00000001
 43
0.00000001
 40
0.0
 40
0.0
 40
0.0
 40
0.0
 40
0.5597700851143039
 40
1.0
 40
1.0
 40
1.0
 40
1.0
 10
851.526982289441
 20
661.0305138048768
 30
0.0
 10
851.501548280567
 20
660.7259929316058
 30
0.0
 10
851.4561117530525
 20
660.1819823076571
 30
0.0
 10
851.365333070279
 20
659.8991535981658
 30
0.0
 10
851.3253695784882
 20
659.7746439394593
 30
0.0
  0
LINE
  5
349
330
1F
100
AcDbEntity
  8
0
  6
Continuous
 62
     7
370
    15
100
AcDbLine
 10
851.2484199821
 20
659.7679682192
 30
0.0
 11
851.3253695785
 21
659.7746439395
 31
0.0
  0
LINE
  5
34A
330
1F
100
AcDbEntity
  8
0
  6
Continuous
 62
     7
370
    15
100
AcDbLine
 10
851.3253695785
 20
695.4867668566
 30
0.0
 11
851.2484199821
 21
695.4934425768
 31
0.0
  0
SPLINE
  5
34B
330
1F
100
AcDbEntity
  8
0
  6
Continuous
 62
     7
370
    15
100
AcDbSpline
210
0.0
220
0.0
230
1.0
 70
     8
 71
     3
 72
     9
 73
     5
 74
     0
 42
0.00000001
 43
0.00000001
 40
0.0
 40
0.0
 40
0.0
 40
0.0
 40
0.5597571515816278
 40
1.0
 40
1.0
 40
1.0
 40
1.0
 10
851.3253695784882
 20
695.4867668566346
 30
0.0
 10
851.3753250123497
 20
695.3216004145313
 30
0.0
 10
851.4645698459715
 20
695.0265323807656
 30
0.0
 10
851.5079045124398
 20
694.4741009693396
 30
0.0
 10
851.526982289441
 20
694.2308969912172
 30
0.0
  0
LINE
  5
34C
330
1F
100
AcDbEntity
  8
0
  6
Continuous
 62
     7
370
    15
100
AcDbLine
 10
867.4549825012
 20
662.227375072
 30
0.0
 11
851.3253695785
 21
659.7746439395
 31
0.0
  0
LINE
  5
34D
330
1F
100
AcDbEntity
  8
0
  6
Continuous
 62
     7
370
    15
100
AcDbLine
 10
851.3253695785
 20
695.4867668566
 30
0.0
 11
867.4549825012
 21
693.0339165148
 31
0.0
  0
SPLINE
  5
34E
330
1F
100
AcDbEntity
  8
0
  6
Continuous
 62
     7
370
    15
100
AcDbSpline
210
0.0
220
0.0
230
1.0
 70
    24
 71
     3
 72
    11
 73
     7
 74
     0
 42
0.00000001
 43
0.00000001
 40
0.0
 40
0.0
 40
0.0
 40
0.0
 40
0.250919352088412
 40
0.5321069112256815
 40
0.8235896459289481
 40
1.0
 40
1.0
 40
1.0
 40
1.0
 10
867.4549825011567
 20
662.050826114142
 30
0.0
 10
867.4549825011567
 20
661.5332341011886
 30
0.0
 10
867.4549825011566
 20
660.4356133517513
 30
0.0
 10
867.4549825011568
 20
659.3529300917116
 30
0.0
 10
867.4549825011566
 20
658.7323678316832
 30
0.0
 10
867.4549825011567
 20
658.7492702072286
 30
0.0
 10
867.4549825011567
 20
658.7556429323793
 30
0.0
  0
SPLINE
  5
34F
330
1F
100
AcDbEntity
  8
0
  6
Continuous
 62
     7
370
    15
100
AcDbSpline
210
0.0
220
0.0
230
1.0
 70
    24
 71
     3
 72
    11
 73
     7
 74
     0
 42
0.00000001
 43
0.00000001
 40
0.0
 40
0.0
 40
0.0
 40
0.0
 40
0.1151839676388508
 40
0.4033286250161299
 40
0.6914713231938978
 40
1.0
 40
1.0
 40
1.0
 40
1.0
 10
867.4549825011567
 20
696.5057678637147
 30
0.0
 10
867.4549825011568
 20
696.5239073561469
 30
0.0
 10
867.4549825011568
 20
696.5874246727599
 30
0.0
 10
867.4549825011568
 20
696.0786333772344
 30
0.0
 10
867.4549825011566
 20
695.0557168156441
 30
0.0
 10
867.4549825011566
 20
693.8390086441373
 30
0.0
 10
867.4549825011567
 20
693.2098694262147
 30
0.0
  0
LINE
  5
350
330
1F
100
AcDbEntity
  8
0
  6
Continuous
 62
     7
370
    15
100
AcDbLine
 10
803.1549818336
 20
288.7013979373
 30
0.0
 11
803.4549720107
 21
288.7013979373
 31
0.0
  0
LINE
  5
351
330
1F
100
AcDbEntity
  8
0
  6
Continuous
 62
     7
370
    15
100
AcDbLine
 10
803.4549720107
 20
1039.3013782916
 30
0.0
 11
803.1549818336
 21
1039.3013782916
 31
0.0
  0
LINE
  5
352
330
1F
100
AcDbEntity
  8
0
  6
Continuous
 62
     7
370
    15
100
AcDbLine
 10
803.1549818336
 20
1044.3013735232
 30
0.0
 11
803.1549818336
 21
1039.3013782916
 31
0.0
  0
LINE
  5
353
330
1F
100
AcDbEntity
  8
0
  6
Continuous
 62
     7
370
    15
100
AcDbLine
 10
803.1549818336
 20
288.7013979373
 30
0.0
 11
803.1549818336
 21
283.7014027056
 31
0.0
  0
LINE
  5
354
330
1F
100
AcDbEntity
  8
0
  6
Continuous
 62
     7
370
    15
100
AcDbLine
 10
805.7549960433
 20
1051.2306518969
 30
0.0
 11
805.7549960433
 21
1051.2236185488
 31
0.0
  0
LINE
  5
355
330
1F
100
AcDbEntity
  8
0
  6
Continuous
 62
     7
370
    15
100
AcDbLine
 10
830.2549786388
 20
1051.2306518969
 30
0.0
 11
830.2549786388
 21
1051.2236185488
 31
0.0
  0
LINE
  5
356
330
1F
100
AcDbEntity
  8
0
  6
Continuous
 62
     7
370
    15
100
AcDbLine
 10
820.939756137
 20
1054.4307060656
 30
0.0
 11
809.9549777328
 21
1054.4307060656
 31
0.0
  0
LINE
  5
357
330
1F
100
AcDbEntity
  8
0
  6
Continuous
 62
     7
370
    15
100
AcDbLine
 10
826.9549972831
 20
1054.4307060656
 30
0.0
 11
820.939756137
 21
1054.4307060656
 31
0.0
  0
LINE
  5
358
330
1F
100
AcDbEntity
  8
0
  6
Continuous
 62
     7
370
    15
100
AcDbLine
 10
820.793605548
 20
1054.930669826
 30
0.0
 11
810.4549712955
 21
1054.930669826
 31
0.0
  0
LINE
  5
359
330
1F
100
AcDbEntity
  8
0
  6
Continuous
 62
     7
370
    15
100
AcDbLine
 10
826.4549739181
 20
1054.930669826
 30
0.0
 11
820.793605548
 21
1054.930669826
 31
0.0
  0
LINE
  5
35A
330
1F
100
AcDbEntity
  8
0
  6
Continuous
 62
     7
370
    15
100
AcDbLine
 10
820.939756137
 20
1052.9306955752
 30
0.0
 11
809.9549777328
 21
1052.9306955752
 31
0.0
  0
LINE
  5
35B
330
1F
100
AcDbEntity
  8
0
  6
Continuous
 62
     7
370
    15
100
AcDbLine
 10
826.9549972831
 20
1052.9306955752
 30
0.0
 11
820.939756137
 21
1052.9306955752
 31
0.0
  0
LINE
  5
35C
330
1F
100
AcDbEntity
  8
0
  6
Continuous
 62
     7
370
    15
100
AcDbLine
 10
809.9549777328
 20
191.93063454
 30
0.0
 11
826.9549972831
 21
191.93063454
 31
0.0
  0
LINE
  5
35D
330
1F
100
AcDbEntity
  8
0
  6
Continuous
 62
     7
370
    15
100
AcDbLine
 10
809.9549777328
 20
190.4307432589
 30
0.0
 11
826.9549972831
 21
190.4307432589
 31
0.0
  0
LINE
  5
35E
330
1F
100
AcDbEntity
  8
0
  6
Continuous
 62
     7
370
    15
100
AcDbLine
 10
826.9549972831
 20
179.930669826
 30
0.0
 11
809.9549777328
 21
179.930669826
 31
0.0
  0
SPLINE
  5
35F
330
1F
100
AcDbEntity
  8
0
  6
Continuous
 62
     7
370
    15
100
AcDbSpline
210
0.0
220
0.0
230
1.0
 70
    24
 71
     3
 72
     9
 73
     5
 74
     0
 42
0.00000001
 43
0.00000001
 40
0.0
 40
0.0
 40
0.0
 40
0.0
 40
0.9542676091315856
 40
1.0
 40
1.0
 40
1.0
 40
1.0
 10
818.6549908934907
 20
179.4307060656191
 30
0.0
 10
818.654990893491
 20
179.4942158652824
 30
0.0
 10
818.6549908934912
 20
179.5607693132413
 30
0.0
 10
818.6549908934905
 20
179.6276792998258
 30
0.0
 10
818.6549908934907
 20
179.6307392534853
 30
0.0
  0
LINE
  5
360
330
1F
100
AcDbEntity
  8
0
  6
Continuous
 62
     7
370
    15
100
AcDbLine
 10
818.2549841224
 20
179.6307392535
 30
0.0
 11
818.6549908935
 21
179.6307392535
 31
0.0
  0
SPLINE
  5
361
330
1F
100
AcDbEntity
  8
0
  6
Continuous
 62
     7
370
    15
100
AcDbSpline
210
0.0
220
0.0
230
1.0
 70
    24
 71
     3
 72
     9
 73
     5
 74
     0
 42
0.00000001
 43
0.00000001
 40
0.0
 40
0.0
 40
0.0
 40
0.0
 40
0.0457323908684143
 40
1.0
 40
1.0
 40
1.0
 40
1.0
 10
818.254984122403
 20
179.6307392534853
 30
0.0
 10
818.2549841224031
 20
179.6276792998258
 30
0.0
 10
818.2549841224029
 20
179.5607693132407
 30
0.0
 10
818.2549841224029
 20
179.4942158652822
 30
0.0
 10
818.2549841224029
 20
179.4307060656193
 30
0.0
  0
LINE
  5
362
330
1F
100
AcDbEntity
  8
0
  6
Continuous
 62
     7
370
    15
100
AcDbLine
 10
826.9549972831
 20
181.4306803164
 30
0.0
 11
809.9549777328
 21
181.4306803164
 31
0.0
  0
LINE
  5
363
330
1F
100
AcDbEntity
  8
0
  6
Continuous
 62
     7
370
    15
100
AcDbLine
 10
826.4549739181
 20
181.9306440768
 30
0.0
 11
810.4549712955
 21
181.9306440768
 31
0.0
  0
LINE
  5
364
330
1F
100
AcDbEntity
  8
0
  6
Continuous
 62
     7
370
    15
100
AcDbLine
 10
809.9549777328
 20
-345.0693063321
 30
0.0
 11
826.9549972831
 21
-345.0693063321
 31
0.0
  0
LINE
  5
365
330
1F
100
AcDbEntity
  8
0
  6
Continuous
 62
     7
370
    15
100
AcDbLine
 10
803.4549720107
 20
221.8307085452
 30
0.0
 11
792.4256987392
 21
221.8307085452
 31
0.0
  0
LINE
  5
366
330
1F
100
AcDbEntity
  8
0
  6
Continuous
 62
     7
370
    15
100
AcDbLine
 10
792.4256987392
 20
196.3306494174
 30
0.0
 11
792.4256987392
 21
221.8307085452
 31
0.0
  0
SPLINE
  5
367
330
1F
100
AcDbEntity
  8
0
  6
Continuous
 62
     7
370
    15
100
AcDbSpline
210
0.0
220
0.0
230
1.0
 70
     8
 71
     3
 72
     9
 73
     5
 74
     0
 42
0.00000001
 43
0.00000001
 40
0.0
 40
0.0
 40
0.0
 40
0.0
 40
0.2497424396914779
 40
1.0
 40
1.0
 40
1.0
 40
1.0
 10
828.6326296149566
 20
193.7013693270329
 30
0.0
 10
828.6177909071248
 20
193.6860799136957
 30
0.0
 10
828.5583748629384
 20
193.6248591882326
 30
0.0
 10
828.4992996193401
 20
193.6281838589718
 30
0.0
 10
828.4549779712037
 20
193.6306782183291
 30
0.0
  0
SPLINE
  5
368
330
1F
100
AcDbEntity
  8
0
  6
Continuous
 62
     7
370
    15
100
AcDbSpline
210
0.0
220
0.0
230
1.0
 70
     8
 71
     3
 72
    12
 73
     8
 74
     0
 42
0.00000001
 43
0.00000001
 40
0.0
 40
0.0
 40
0.0
 40
0.0
 40
0.2265911890052135
 40
0.4532256944601807
 40
0.6798819984545588
 40
0.9065215768550834
 40
1.0
 40
1.0
 40
1.0
 40
1.0
 10
793.8549883185699
 20
193.6306782183293
 30
0.0
 10
793.7470019350906
 20
193.6639858795999
 30
0.0
 10
793.5310085248452
 20
193.7306075694217
 30
0.0
 10
793.2068662883773
 20
194.2474933317363
 30
0.0
 10
792.8830618361521
 20
195.0011282090143
 30
0.0
 10
792.6219096945152
 20
195.7484683974165
 30
0.0
 10
792.4700450865204
 20
196.1990685803919
 30
0.0
 10
792.4256987391785
 20
196.3306494173647
 30
0.0
  0
LINE
  5
369
330
1F
100
AcDbEntity
  8
0
  6
Continuous
 62
     7
370
    15
100
AcDbLine
 10
791.1549873172
 20
196.3306494174
 30
0.0
 11
792.3549778282
 21
196.3306494174
 31
0.0
  0
SPLINE
  5
36A
330
1F
100
AcDbEntity
  8
0
  6
Continuous
 62
     7
370
    15
100
AcDbSpline
210
0.0
220
0.0
230
1.0
 70
     8
 71
     3
 72
    10
 73
     6
 74
     0
 42
0.00000001
 43
0.00000001
 40
0.0
 40
0.0
 40
0.0
 40
0.0
 40
0.4544250008824982
 40
0.9614409537696914
 40
0.9999999999999999
 40
0.9999999999999999
 40
0.9999999999999999
 40
0.9999999999999999
 10
792.3549778281525
 20
196.3306494173647
 30
0.0
 10
792.3758171221065
 20
196.1571079572809
 30
0.0
 10
792.4199074574005
 20
195.7899409515543
 30
0.0
 10
792.6070529419533
 20
195.4132179025887
 30
0.0
 10
792.7802082013092
 20
195.2920767848339
 30
0.0
 10
792.7924461184815
 20
195.2835150179507
 30
0.0
  0
SPLINE
  5
36B
330
1F
100
AcDbEntity
  8
0
  6
Continuous
 62
     7
370
    15
100
AcDbSpline
210
0.0
220
0.0
230
1.0
 70
     8
 71
     3
 72
    12
 73
     8
 74
     0
 42
0.00000001
 43
0.00000001
 40
0.0
 40
0.0
 40
0.0
 40
0.0
 40
0.2265868791840261
 40
0.4532251927993659
 40
0.6798766347112457
 40
0.9065150399070686
 40
1.0
 40
1.0
 40
1.0
 40
1.0
 10
791.154987317212
 20
196.3306494173647
 30
0.0
 10
791.188260138927
 20
196.0102836745633
 30
0.0
 10
791.2548133351718
 20
195.3694794670542
 30
0.0
 10
791.7718773444234
 20
194.5278915543792
 30
0.0
 10
792.5253733741047
 20
193.9162004958124
 30
0.0
 10
793.2727931702215
 20
193.6566375890923
 30
0.0
 10
793.7233988730252
 20
193.6365456310259
 30
0.0
 10
793.85498831857
 20
193.6306782183291
 30
0.0
  0
LINE
  5
36C
330
1F
100
AcDbEntity
  8
0
  6
Continuous
 62
     7
370
    15
100
AcDbLine
 10
828.4549779712
 20
193.6306782183
 30
0.0
 11
828.8479811965
 21
193.701369327
 31
0.0
  0
LINE
  5
36D
330
1F
100
AcDbEntity
  8
0
  6
Continuous
 62
     7
370
    15
100
AcDbLine
 10
792.3549778282
 20
196.3306494174
 30
0.0
 11
792.3549778282
 21
221.8307085452
 31
0.0
  0
LINE
  5
36E
330
1F
100
AcDbEntity
  8
0
  6
Continuous
 62
     7
370
    15
100
AcDbLine
 10
791.1549873172
 20
201.5731163439
 30
0.0
 11
791.1549873172
 21
221.8307085452
 31
0.0
  0
LINE
  5
36F
330
1F
100
AcDbEntity
  8
0
  6
Continuous
 62
     7
370
    15
100
AcDbLine
 10
791.1549873172
 20
221.8307085452
 30
0.0
 11
792.3549778282
 21
221.8307085452
 31
0.0
  0
ARC
  5
370
330
1F
100
AcDbEntity
  8
0
  6
Continuous
 62
     7
370
    15
100
AcDbCircle
 10
789.6549834166
 20
213.8326088771
 30
0.0
 40
2.700000000000069
100
AcDbArc
 50
56.2510114041
 51
150.0
  0
ARC
  5
371
330
1F
100
AcDbEntity
  8
0
  6
Continuous
 62
     7
370
    15
100
AcDbCircle
 10
789.6549834166
 20
213.8326088771
 30
0.0
 40
1.500000000000455
100
AcDbArc
 50
0.0
 51
150.0
  0
LINE
  5
372
330
1F
100
AcDbEntity
  8
0
  6
Continuous
 62
     7
370
    15
100
AcDbLine
 10
788.3559531986
 20
214.5826645312
 30
0.0
 11
787.3167164146
 21
215.1826448855
 31
0.0
  0
LINE
  5
373
330
1F
100
AcDbEntity
  8
0
  6
Continuous
 62
     7
370
    15
100
AcDbLine
 10
786.1549920856
 20
210.7704706607
 30
0.0
 11
785.9549887
 21
210.4240484652
 31
0.0
  0
LINE
  5
374
330
1F
100
AcDbEntity
  8
0
  6
Continuous
 62
     7
370
    15
100
AcDbLine
 10
785.9549887
 20
212.8239698825
 30
0.0
 11
787.3167164146
 21
215.1826448855
 31
0.0
  0
LINE
  5
375
330
1F
100
AcDbEntity
  8
0
  6
Continuous
 62
     7
370
    15
100
AcDbLine
 10
786.1549920856
 20
210.7704706607
 30
0.0
 11
788.3559531986
 21
214.5826645312
 31
0.0
  0
LINE
  5
376
330
1F
100
AcDbEntity
  8
0
  6
Continuous
 62
     7
370
    15
100
AcDbLine
 10
788.4549863159
 20
184.4307012972
 30
0.0
 11
788.4549863159
 21
147.4306412158
 31
0.0
  0
LINE
  5
377
330
1F
100
AcDbEntity
  8
0
  6
Continuous
 62
     7
370
    15
100
AcDbLine
 10
788.4549863159
 20
147.4306412158
 30
0.0
 11
785.9549887
 21
147.4306412158
 31
0.0
  0
LINE
  5
378
330
1F
100
AcDbEntity
  8
0
  6
Continuous
 62
     7
370
    15
100
AcDbLine
 10
788.4549863159
 20
187.4307222781
 30
0.0
 11
788.4549863159
 21
184.4307012972
 31
0.0
  0
LINE
  5
379
330
1F
100
AcDbEntity
  8
0
  6
Continuous
 62
     7
370
    15
100
AcDbLine
 10
785.9549887
 20
187.4307222781
 30
0.0
 11
788.4549863159
 21
187.4307222781
 31
0.0
  0
LINE
  5
37A
330
1F
100
AcDbEntity
  8
0
  6
Continuous
 62
     7
370
    15
100
AcDbLine
 10
802.7049965679
 20
187.4307222781
 30
0.0
 11
802.7049965679
 21
189.9306602893
 31
0.0
  0
LINE
  5
37B
330
1F
100
AcDbEntity
  8
0
  6
Continuous
 62
     7
370
    15
100
AcDbLine
 10
823.4549827396
 20
187.4307222781
 30
0.0
 11
823.4549827396
 21
189.9306602893
 31
0.0
  0
LINE
  5
37C
330
1F
100
AcDbEntity
  8
0
  6
Continuous
 62
     7
370
    15
100
AcDbLine
 10
802.7049965679
 20
187.4307222781
 30
0.0
 11
823.4549827396
 21
187.4307222781
 31
0.0
  0
LINE
  5
37D
330
1F
100
AcDbEntity
  8
0
  6
Continuous
 62
     7
370
    15
100
AcDbLine
 10
802.7049965679
 20
189.9306602893
 30
0.0
 11
823.4549827396
 21
189.9306602893
 31
0.0
  0
LINE
  5
37E
330
1F
100
AcDbEntity
  8
0
  6
Continuous
 62
     7
370
    15
100
AcDbLine
 10
788.6549897014
 20
184.4307012972
 30
0.0
 11
791.4549774944
 21
184.4307012972
 31
0.0
  0
LINE
  5
37F
330
1F
100
AcDbEntity
  8
0
  6
Continuous
 62
     7
370
    15
100
AcDbLine
 10
791.4549774944
 20
184.4307012972
 30
0.0
 11
801.4549977599
 21
184.4307012972
 31
0.0
  0
LINE
  5
380
330
1F
100
AcDbEntity
  8
0
  6
Continuous
 62
     7
370
    15
100
AcDbLine
 10
801.4549977599
 20
178.5600014147
 30
0.0
 11
801.4549977599
 21
178.6306925234
 31
0.0
  0
LINE
  5
381
330
1F
100
AcDbEntity
  8
0
  6
Continuous
 62
     7
370
    15
100
AcDbLine
 10
801.4549977599
 20
179.4307060656
 30
0.0
 11
801.4549977599
 21
184.4307012972
 31
0.0
  0
LINE
  5
382
330
1F
100
AcDbEntity
  8
0
  6
Continuous
 62
     7
370
    15
100
AcDbLine
 10
788.6549897014
 20
169.9306793627
 30
0.0
 11
788.6549897014
 21
184.4307012972
 31
0.0
  0
LINE
  5
383
330
1F
100
AcDbEntity
  8
0
  6
Continuous
 62
     7
370
    15
100
AcDbLine
 10
788.6549897014
 20
169.9306793627
 30
0.0
 11
792.5549812137
 21
169.9306793627
 31
0.0
  0
LINE
  5
384
330
1F
100
AcDbEntity
  8
0
  6
Continuous
 62
     7
370
    15
100
AcDbLine
 10
801.4549977599
 20
189.9306602893
 30
0.0
 11
801.4549977599
 21
184.4307012972
 31
0.0
  0
LINE
  5
385
330
1F
100
AcDbEntity
  8
0
  6
Continuous
 62
     7
370
    15
100
AcDbLine
 10
791.4549774944
 20
184.4307012972
 30
0.0
 11
791.4549774944
 21
189.9306602893
 31
0.0
  0
LINE
  5
386
330
1F
100
AcDbEntity
  8
0
  6
Continuous
 62
     7
370
    15
100
AcDbLine
 10
791.4549774944
 20
189.9306602893
 30
0.0
 11
801.4549977599
 21
189.9306602893
 31
0.0
  0
LINE
  5
387
330
1F
100
AcDbEntity
  8
0
  6
Continuous
 62
     7
370
    15
100
AcDbLine
 10
828.4549779712
 20
189.9306602893
 30
0.0
 11
828.4549779712
 21
187.4307222781
 31
0.0
  0
LINE
  5
388
330
1F
100
AcDbEntity
  8
0
  6
Continuous
 62
     7
370
    15
100
AcDbLine
 10
828.4549779712
 20
187.4307222781
 30
0.0
 11
823.4549827396
 21
187.4307222781
 31
0.0
  0
LINE
  5
389
330
1F
100
AcDbEntity
  8
0
  6
Continuous
 62
     7
370
    15
100
AcDbLine
 10
823.4549827396
 20
189.9306602893
 30
0.0
 11
828.4549779712
 21
189.9306602893
 31
0.0
  0
ARC
  5
38A
330
1F
100
AcDbEntity
  8
0
  6
Continuous
 62
     7
370
    15
100
AcDbCircle
 10
791.4549834193
 20
184.4306850884
 30
0.0
 40
5.500000000000057
100
AcDbArc
 50
90.0
 51
146.9442688491
  0
ARC
  5
38B
330
1F
100
AcDbEntity
  8
0
  6
Continuous
 62
     7
370
    15
100
AcDbCircle
 10
791.4549834193
 20
184.4306850884
 30
0.0
 40
3.000000000000114
100
AcDbArc
 50
90.0
 51
180.0
  0
LINE
  5
38C
330
1F
100
AcDbEntity
  8
0
  6
Continuous
 62
     7
370
    15
100
AcDbLine
 10
802.7049965679
 20
189.9306602893
 30
0.0
 11
801.4549977599
 21
189.9306602893
 31
0.0
  0
LINE
  5
38D
330
1F
100
AcDbEntity
  8
0
  6
Continuous
 62
     7
370
    15
100
AcDbLine
 10
799.684262973
 20
261.7306538043
 30
0.0
 11
785.9549887
 21
261.7306538043
 31
0.0
  0
LWPOLYLINE
  5
38E
330
1F
100
AcDbEntity
  8
0
  6
Continuous
 62
     7
370
    15
100
AcDbPolyline
 90
        3
 70
   128
 43
0.0
 10
803.4549720107
 20
260.9925098834
 10
801.6351826011
 20
261.5384884295
 10
799.684262973
 20
261.7306538043
  0
LINE
  5
38F
330
1F
100
AcDbEntity
  8
0
  6
Continuous
 62
     7
370
    15
100
AcDbLine
 10
803.4549720107
 20
225.5307264742
 30
0.0
 11
785.9549887
 21
225.5307264742
 31
0.0
  0
LINE
  5
390
330
1F
100
AcDbEntity
  8
0
  6
Continuous
 62
     7
370
    15
100
AcDbLine
 10
790.9549839317
 20
169.9306793627
 30
0.0
 11
790.9549839317
 21
152.4306364474
 31
0.0
  0
LINE
  5
391
330
1F
100
AcDbEntity
  8
0
  6
Continuous
 62
     7
370
    15
100
AcDbLine
 10
788.4549863159
 20
152.4306364474
 30
0.0
 11
790.9549839317
 21
152.4306364474
 31
0.0
  0
LINE
  5
392
330
1F
100
AcDbEntity
  8
0
  6
Continuous
 62
     7
370
    15
100
AcDbLine
 10
801.4549977599
 20
187.4307222781
 30
0.0
 11
802.7049965679
 21
187.4307222781
 31
0.0
  0
LINE
  5
393
330
1F
100
AcDbEntity
  8
0
  6
Continuous
 62
     7
370
    15
100
AcDbLine
 10
823.4549827396
 20
184.9306650576
 30
0.0
 11
823.4549827396
 21
187.4307222781
 31
0.0
  0
LINE
  5
394
330
1F
100
AcDbEntity
  8
0
  6
Continuous
 62
     7
370
    15
100
AcDbLine
 10
801.4549977599
 20
184.9306650576
 30
0.0
 11
823.4549827396
 21
184.9306650576
 31
0.0
  0
ARC
  5
395
330
1F
100
AcDbEntity
  8
0
  6
Continuous
 62
     7
370
    15
100
AcDbCircle
 10
793.9549834193
 20
181.9306850884
 30
0.0
 40
5.500000000000041
100
AcDbArc
 50
117.0356917894
 51
152.9643082106
  0
LWPOLYLINE
  5
396
330
1F
100
AcDbEntity
  8
0
  6
Continuous
 62
     7
370
    15
100
AcDbPolyline
 90
        3
 70
   128
 43
0.0
 10
788.6549897014
 20
183.4003754077
 10
788.560665351
 20
183.003646892
 10
788.4549863159
 20
181.9306440768
  0
LINE
  5
397
330
1F
100
AcDbEntity
  8
0
  6
Continuous
 62
     7
370
    15
100
AcDbLine
 10
790.9549839317
 20
147.4306412158
 30
0.0
 11
788.4549863159
 21
147.4306412158
 31
0.0
  0
LINE
  5
398
330
1F
100
AcDbEntity
  8
0
  6
Continuous
 62
     7
370
    15
100
AcDbLine
 10
790.9549839317
 20
152.4306364474
 30
0.0
 11
790.9549839317
 21
147.4306412158
 31
0.0
  0
LINE
  5
399
330
1F
100
AcDbEntity
  8
0
  6
Continuous
 62
     7
370
    15
100
AcDbLine
 10
828.4549779712
 20
187.4307222781
 30
0.0
 11
828.4549779712
 21
184.9306650576
 31
0.0
  0
LINE
  5
39A
330
1F
100
AcDbEntity
  8
0
  6
Continuous
 62
     7
370
    15
100
AcDbLine
 10
828.4549779712
 20
184.9306650576
 30
0.0
 11
823.4549827396
 21
184.9306650576
 31
0.0
  0
LINE
  5
39B
330
1F
100
AcDbEntity
  8
0
  6
Continuous
 62
     7
370
    15
100
AcDbLine
 10
788.4549863159
 20
707.930666965
 30
0.0
 11
785.9549887
 21
707.930666965
 31
0.0
  0
LINE
  5
39C
330
1F
100
AcDbEntity
  8
0
  6
Continuous
 62
     7
370
    15
100
AcDbLine
 10
788.4549863159
 20
647.9307241854
 30
0.0
 11
788.4549863159
 21
707.930666965
 31
0.0
  0
LINE
  5
39D
330
1F
100
AcDbEntity
  8
0
  6
Continuous
 62
     7
370
    15
100
AcDbLine
 10
788.4549863159
 20
647.9307241854
 30
0.0
 11
785.9549887
 21
647.9307241854
 31
0.0
  0
LINE
  5
39E
330
1F
100
AcDbEntity
  8
0
  6
Continuous
 62
     7
370
    15
100
AcDbLine
 10
788.4549863159
 20
637.9307337222
 30
0.0
 11
788.4549863159
 21
647.9307241854
 31
0.0
  0
LINE
  5
39F
330
1F
100
AcDbEntity
  8
0
  6
Continuous
 62
     7
370
    15
100
AcDbLine
 10
788.4549863159
 20
637.9307337222
 30
0.0
 11
785.9549887
 21
637.9307337222
 31
0.0
  0
LINE
  5
3A0
330
1F
100
AcDbEntity
  8
0
  6
Continuous
 62
     7
370
    15
100
AcDbLine
 10
788.4549863159
 20
717.9306574282
 30
0.0
 11
785.9549887
 21
717.9306574282
 31
0.0
  0
LINE
  5
3A1
330
1F
100
AcDbEntity
  8
0
  6
Continuous
 62
     7
370
    15
100
AcDbLine
 10
788.4549863159
 20
707.930666965
 30
0.0
 11
788.4549863159
 21
717.9306574282
 31
0.0
  0
LINE
  5
3A2
330
1F
100
AcDbEntity
  8
0
  6
Continuous
 62
     7
370
    15
100
AcDbLine
 10
56.3820667087
 20
-19.1548637929
 30
0.0
 11
56.3820667087
 21
-35.2693371358
 31
0.0
  0
LINE
  5
3A3
330
1F
100
AcDbEntity
  8
0
  6
Continuous
 62
     7
370
    15
100
AcDbLine
 10
56.3820667087
 20
-13.2693223539
 30
0.0
 11
56.3820667087
 21
-19.1548637929
 31
0.0
  0
LINE
  5
3A4
330
1F
100
AcDbEntity
  8
0
  6
Continuous
 62
     7
370
    15
100
AcDbLine
 10
56.1820335208
 20
-19.2478470388
 30
0.0
 11
56.1820335208
 21
-13.4692959371
 31
0.0
  0
LINE
  5
3A5
330
1F
100
AcDbEntity
  8
0
  6
Continuous
 62
     7
370
    15
100
AcDbLine
 10
56.1820335208
 20
-35.069303948
 30
0.0
 11
56.1820335208
 21
-19.2478470388
 31
0.0
  0
ARC
  5
3A6
330
1F
100
AcDbEntity
  8
0
  6
Continuous
 62
     7
370
    15
100
AcDbCircle
 10
786.2968406785
 20
-151.1902935848
 30
0.0
 40
1.31715918486379
100
AcDbArc
 50
303.9546110212
 51
31.401569867
  0
LINE
  5
3A7
330
1F
100
AcDbEntity
  8
0
  6
Continuous
 62
     7
370
    15
100
AcDbLine
 10
787.0325214683
 20
-152.2828511777
 30
0.0
 11
785.9549887
 21
-152.7565292898
 31
0.0
  0
ARC
  5
3A8
330
1F
100
AcDbEntity
  8
0
  6
Continuous
 62
     7
370
    15
100
AcDbCircle
 10
780.3281859595
 20
-133.2411580284
 30
0.0
 40
18.66320627307286
100
AcDbArc
 50
292.3366027168
 51
297.1949835516
  0
LWPOLYLINE
  5
3A9
330
1F
100
AcDbEntity
  8
0
  6
Continuous
 62
     7
370
    15
100
AcDbPolyline
 90
        3
 70
   128
 43
0.0
 10
788.9638311683
 20
-150.6232790532
 10
788.9503307163
 20
-150.7070235792
 10
788.8835735141
 20
-150.9472899022
  0
LINE
  5
3AA
330
1F
100
AcDbEntity
  8
0
  6
Continuous
 62
     7
370
    15
100
AcDbLine
 10
788.8576454936
 20
-149.8412661138
 30
0.0
 11
788.9606125175
 21
-149.0613989416
 31
0.0
  0
LINE
  5
3AB
330
1F
100
AcDbEntity
  8
0
  6
Continuous
 62
     7
370
    15
100
AcDbLine
 10
786.2437434017
 20
-142.4913577619
 30
0.0
 11
785.9549887
 21
-141.813950974
 31
0.0
  0
LWPOLYLINE
  5
3AC
330
1F
100
AcDbEntity
  8
0
  6
Continuous
 62
     7
370
    15
100
AcDbPolyline
 90
        5
 70
   128
 43
0.0
 10
787.9629499732
 20
-146.5886406484
 10
787.7924508869
 20
-146.1788587156
 10
787.3218126117
 20
-145.0526289525
 10
786.8003315746
 20
-143.8109449926
 10
786.2437434017
 20
-142.4913577619
  0
LINE
  5
3AD
330
1F
100
AcDbEntity
  8
0
  6
Continuous
 62
     7
370
    15
100
AcDbLine
 10
48.3548707782
 20
184.0536423144
 30
0.0
 11
53.9550847827
 21
184.0536423144
 31
0.0
  0
LINE
  5
3AE
330
1F
100
AcDbEntity
  8
0
  6
Continuous
 62
     7
370
    15
100
AcDbLine
 10
45.5546445667
 20
188.9036722598
 30
0.0
 11
48.3548707782
 21
184.0536423144
 31
0.0
  0
LINE
  5
3AF
330
1F
100
AcDbEntity
  8
0
  6
Continuous
 62
     7
370
    15
100
AcDbLine
 10
48.3548707782
 20
193.7535829959
 30
0.0
 11
45.5546445667
 21
188.9036722598
 31
0.0
  0
LINE
  5
3B0
330
1F
100
AcDbEntity
  8
0
  6
Continuous
 62
     7
370
    15
100
AcDbLine
 10
53.9550847827
 20
193.7535829959
 30
0.0
 11
48.3548707782
 21
193.7535829959
 31
0.0
  0
LINE
  5
3B1
330
1F
100
AcDbEntity
  8
0
  6
Continuous
 62
     7
370
    15
100
AcDbLine
 10
56.7553109943
 20
188.9036722598
 30
0.0
 11
53.9550847827
 21
193.7535829959
 31
0.0
  0
LINE
  5
3B2
330
1F
100
AcDbEntity
  8
0
  6
Continuous
 62
     7
370
    15
100
AcDbLine
 10
53.9550847827
 20
184.0536423144
 30
0.0
 11
56.7553109943
 21
188.9036722598
 31
0.0
  0
ARC
  5
3B3
330
1F
100
AcDbEntity
  8
0
  6
Continuous
 62
     7
370
    15
100
AcDbCircle
 10
51.1549834193
 20
188.9036341053
 30
0.0
 40
5.525000000000339
100
AcDbArc
 50
61.3814626183
 51
118.6185373817
  0
ARC
  5
3B4
330
1F
100
AcDbEntity
  8
0
  6
Continuous
 62
     7
370
    15
100
AcDbCircle
 10
51.1549834193
 20
188.9036341053
 30
0.0
 40
5.525000000000019
100
AcDbArc
 50
241.3814626183
 51
298.6185373817
  0
ARC
  5
3B5
330
1F
100
AcDbEntity
  8
0
  6
Continuous
 62
     7
370
    15
100
AcDbCircle
 10
51.1549834193
 20
188.9036341053
 30
0.0
 40
5.525000000000537
100
AcDbArc
 50
301.3814626173
 51
358.6185373827
  0
ARC
  5
3B6
330
1F
100
AcDbEntity
  8
0
  6
Continuous
 62
     7
370
    15
100
AcDbCircle
 10
51.1549834193
 20
188.9036341053
 30
0.0
 40
5.525000000000537
100
AcDbArc
 50
1.3814626173
 51
58.6185373827
  0
ARC
  5
3B7
330
1F
100
AcDbEntity
  8
0
  6
Continuous
 62
     7
370
    15
100
AcDbCircle
 10
51.1549834193
 20
188.9036341053
 30
0.0
 40
5.524999999999904
100
AcDbArc
 50
181.3814626193
 51
238.6185373807
  0
ARC
  5
3B8
330
1F
100
AcDbEntity
  8
0
  6
Continuous
 62
     7
370
    15
100
AcDbCircle
 10
51.1549834193
 20
188.9036341053
 30
0.0
 40
5.525000000000334
100
AcDbArc
 50
121.3814626193
 51
178.6185373807
  0
LINE
  5
3B9
330
1F
100
AcDbEntity
  8
0
  6
Continuous
 62
     7
370
    15
100
AcDbLine
 10
57.9735107242
 20
216.2036724505
 30
0.0
 11
57.9735107242
 21
228.4036703524
 31
0.0
  0
LINE
  5
3BA
330
1F
100
AcDbEntity
  8
0
  6
Continuous
 62
     7
370
    15
100
AcDbLine
 10
44.3364448367
 20
216.2036724505
 30
0.0
 11
57.9735107242
 21
216.2036724505
 31
0.0
  0
LINE
  5
3BB
330
1F
100
AcDbEntity
  8
0
  6
Continuous
 62
     7
370
    15
100
AcDbLine
 10
44.3364448367
 20
216.2036724505
 30
0.0
 11
44.3364448367
 21
228.4036703524
 31
0.0
  0
LINE
  5
3BC
330
1F
100
AcDbEntity
  8
0
  6
Continuous
 62
     7
370
    15
100
AcDbLine
 10
44.3364448367
 20
228.4036703524
 30
0.0
 11
57.9735107242
 21
228.4036703524
 31
0.0
  0
LINE
  5
3BD
330
1F
100
AcDbEntity
  8
0
  6
Continuous
 62
     7
370
    15
100
AcDbLine
 10
44.3364448367
 20
161.603672069
 30
0.0
 11
44.3364448367
 21
149.4036741671
 31
0.0
  0
LINE
  5
3BE
330
1F
100
AcDbEntity
  8
0
  6
Continuous
 62
     7
370
    15
100
AcDbLine
 10
57.9735107242
 20
161.603672069
 30
0.0
 11
57.9735107242
 21
149.4036741671
 31
0.0
  0
LINE
  5
3BF
330
1F
100
AcDbEntity
  8
0
  6
Continuous
 62
     7
370
    15
100
AcDbLine
 10
57.9735107242
 20
149.4036741671
 30
0.0
 11
44.3364448367
 21
149.4036741671
 31
0.0
  0
LINE
  5
3C0
330
1F
100
AcDbEntity
  8
0
  6
Continuous
 62
     7
370
    15
100
AcDbLine
 10
57.9735107242
 20
161.603672069
 30
0.0
 11
44.3364448367
 21
161.603672069
 31
0.0
  0
LINE
  5
3C1
330
1F
100
AcDbEntity
  8
0
  6
Continuous
 62
     7
370
    15
100
AcDbLine
 10
37.517911893
 20
216.2036724505
 30
0.0
 11
37.517911893
 21
228.4036703524
 31
0.0
  0
LINE
  5
3C2
330
1F
100
AcDbEntity
  8
0
  6
Continuous
 62
     7
370
    15
100
AcDbLine
 10
37.517911893
 20
216.2036724505
 30
0.0
 11
44.3364448367
 21
216.2036724505
 31
0.0
  0
LINE
  5
3C3
330
1F
100
AcDbEntity
  8
0
  6
Continuous
 62
     7
370
    15
100
AcDbLine
 10
37.517911893
 20
228.4036703524
 30
0.0
 11
44.3364448367
 21
228.4036703524
 31
0.0
  0
LINE
  5
3C4
330
1F
100
AcDbEntity
  8
0
  6
Continuous
 62
     7
370
    15
100
AcDbLine
 10
64.7920436679
 20
216.2036724505
 30
0.0
 11
64.7920436679
 21
228.4036703524
 31
0.0
  0
LINE
  5
3C5
330
1F
100
AcDbEntity
  8
0
  6
Continuous
 62
     7
370
    15
100
AcDbLine
 10
57.9735107242
 20
216.2036724505
 30
0.0
 11
64.7920436679
 21
216.2036724505
 31
0.0
  0
LINE
  5
3C6
330
1F
100
AcDbEntity
  8
0
  6
Continuous
 62
     7
370
    15
100
AcDbLine
 10
57.9735107242
 20
228.4036703524
 30
0.0
 11
64.7920436679
 21
228.4036703524
 31
0.0
  0
LINE
  5
3C7
330
1F
100
AcDbEntity
  8
0
  6
Continuous
 62
     7
370
    15
100
AcDbLine
 10
37.517911893
 20
161.603672069
 30
0.0
 11
37.517911893
 21
149.4036741671
 31
0.0
  0
LINE
  5
3C8
330
1F
100
AcDbEntity
  8
0
  6
Continuous
 62
     7
370
    15
100
AcDbLine
 10
44.3364448367
 20
149.4036741671
 30
0.0
 11
37.517911893
 21
149.4036741671
 31
0.0
  0
LINE
  5
3C9
330
1F
100
AcDbEntity
  8
0
  6
Continuous
 62
     7
370
    15
100
AcDbLine
 10
44.3364448367
 20
161.603672069
 30
0.0
 11
37.517911893
 21
161.603672069
 31
0.0
  0
LINE
  5
3CA
330
1F
100
AcDbEntity
  8
0
  6
Continuous
 62
     7
370
    15
100
AcDbLine
 10
64.7920436679
 20
161.603672069
 30
0.0
 11
64.7920436679
 21
149.4036741671
 31
0.0
  0
LINE
  5
3CB
330
1F
100
AcDbEntity
  8
0
  6
Continuous
 62
     7
370
    15
100
AcDbLine
 10
64.7920436679
 20
149.4036741671
 30
0.0
 11
57.9735107242
 21
149.4036741671
 31
0.0
  0
LINE
  5
3CC
330
1F
100
AcDbEntity
  8
0
  6
Continuous
 62
     7
370
    15
100
AcDbLine
 10
64.7920436679
 20
161.603672069
 30
0.0
 11
57.9735107242
 21
161.603672069
 31
0.0
  0
LINE
  5
3CD
330
1F
100
AcDbEntity
  8
0
  6
Continuous
 62
     7
370
    15
100
AcDbLine
 10
119.9549503146
 20
-359.0693049016
 30
0.0
 11
119.9549503146
 21
-350.5693249288
 31
0.0
  0
LINE
  5
3CE
330
1F
100
AcDbEntity
  8
0
  6
Continuous
 62
     7
370
    15
100
AcDbLine
 10
780.9549934684
 20
-350.5693249288
 30
0.0
 11
119.9549503146
 21
-350.5693249288
 31
0.0
  0
LINE
  5
3CF
330
1F
100
AcDbEntity
  8
0
  6
Continuous
 62
     7
370
    15
100
AcDbLine
 10
780.9549934684
 20
-350.5693249288
 30
0.0
 11
780.9549934684
 21
-359.0693049016
 31
0.0
  0
ARC
  5
3D0
330
1F
100
AcDbEntity
  8
0
  6
Continuous
 62
     7
370
    15
100
AcDbCircle
 10
775.9549834193
 20
-359.0693149116
 30
0.0
 40
5.0
100
AcDbArc
 50
270.0
 51
0.0
  0
LINE
  5
3D1
330
1F
100
AcDbEntity
  8
0
  6
Continuous
 62
     7
370
    15
100
AcDbLine
 10
775.9549982368
 20
-364.0693001333
 30
0.0
 11
124.9549455463
 21
-364.0693001333
 31
0.0
  0
ARC
  5
3D2
330
1F
100
AcDbEntity
  8
0
  6
Continuous
 62
     7
370
    15
100
AcDbCircle
 10
124.9549834193
 20
-359.0693149116
 30
0.0
 40
5.0
100
AcDbArc
 50
180.0
 51
270.0
  0
LINE
  5
3D3
330
1F
100
AcDbEntity
  8
0
  6
Continuous
 62
     7
370
    15
100
AcDbLine
 10
780.9549934684
 20
-347.0693401876
 30
0.0
 11
780.9549934684
 21
-350.5693249288
 31
0.0
  0
LINE
  5
3D4
330
1F
100
AcDbEntity
  8
0
  6
Continuous
 62
     7
370
    15
100
AcDbLine
 10
172.5549764453
 20
-347.0693401876
 30
0.0
 11
172.9549832164
 21
-347.0693401876
 31
0.0
  0
LINE
  5
3D5
330
1F
100
AcDbEntity
  8
0
  6
Continuous
 62
     7
370
    15
100
AcDbLine
 10
746.0842795192
 20
-347.0693401876
 30
0.0
 11
780.9549934684
 21
-347.0693401876
 31
0.0
  0
LINE
  5
3D6
330
1F
100
AcDbEntity
  8
0
  6
Continuous
 62
     7
370
    15
100
AcDbLine
 10
119.9549503146
 20
-350.5693249288
 30
0.0
 11
119.9549503146
 21
-347.0693401876
 31
0.0
  0
LINE
  5
3D7
330
1F
100
AcDbEntity
  8
0
  6
Continuous
 62
     7
370
    15
100
AcDbLine
 10
624.9550051509
 20
-382.069306809
 30
0.0
 11
624.9550051509
 21
-364.0693001333
 31
0.0
  0
ARC
  5
3D8
330
1F
100
AcDbEntity
  8
0
  6
Continuous
 62
     7
370
    15
100
AcDbCircle
 10
619.9549834193
 20
-382.0693149116
 30
0.0
 40
5.0
100
AcDbArc
 50
270.0
 51
0.0
  0
LINE
  5
3D9
330
1F
100
AcDbEntity
  8
0
  6
Continuous
 62
     7
370
    15
100
AcDbLine
 10
258.7331600009
 20
-387.0693020406
 30
0.0
 11
619.9550099193
 21
-387.0693020406
 31
0.0
  0
ARC
  5
3DA
330
1F
100
AcDbEntity
  8
0
  6
Continuous
 62
     7
370
    15
100
AcDbCircle
 10
258.7331580124
 20
-382.0693149116
 30
0.0
 40
4.99999999999992
100
AcDbArc
 50
225.0
 51
270.0
  0
LINE
  5
3DB
330
1F
100
AcDbEntity
  8
0
  6
Continuous
 62
     7
370
    15
100
AcDbLine
 10
233.6620755016
 20
-364.0693001333
 30
0.0
 11
255.1976508914
 21
-385.6048755231
 31
0.0
  0
LINE
  5
3DC
330
1F
100
AcDbEntity
  8
0
  6
Continuous
 62
     7
370
    15
100
AcDbLine
 10
217.9549999057
 20
-385.6048755231
 30
0.0
 11
219.9549741565
 21
-385.6048755231
 31
0.0
  0
LINE
  5
3DD
330
1F
100
AcDbEntity
  8
0
  6
Continuous
 62
     7
370
    15
100
AcDbLine
 10
217.9549999057
 20
-385.6048755231
 30
0.0
 11
217.9549999057
 21
-364.0693001333
 31
0.0
  0
LINE
  5
3DE
330
1F
100
AcDbEntity
  8
0
  6
Continuous
 62
     7
370
    15
100
AcDbLine
 10
219.9549741565
 20
-364.0693001333
 30
0.0
 11
219.9549741565
 21
-385.6048755231
 31
0.0
  0
LINE
  5
3DF
330
1F
100
AcDbEntity
  8
0
  6
Continuous
 62
     7
370
    15
100
AcDbLine
 10
219.9549741565
 20
-387.0693020406
 30
0.0
 11
217.9549999057
 21
-387.0693020406
 31
0.0
  0
LINE
  5
3E0
330
1F
100
AcDbEntity
  8
0
  6
Continuous
 62
     7
370
    15
100
AcDbLine
 10
217.9549999057
 20
-387.0693020406
 30
0.0
 11
217.9549999057
 21
-385.6048755231
 31
0.0
  0
LINE
  5
3E1
330
1F
100
AcDbEntity
  8
0
  6
Continuous
 62
     7
370
    15
100
AcDbLine
 10
219.9549741565
 20
-385.6048755231
 30
0.0
 11
219.9549741565
 21
-387.0693020406
 31
0.0
  0
LINE
  5
3E2
330
1F
100
AcDbEntity
  8
0
  6
Continuous
 62
     7
370
    15
100
AcDbLine
 10
749.4049734889
 20
-346.5693168226
 30
0.0
 11
746.9549841701
 21
-346.5693168226
 31
0.0
  0
LINE
  5
3E3
330
1F
100
AcDbEntity
  8
0
  6
Continuous
 62
     7
370
    15
100
AcDbLine
 10
746.9549841701
 20
-346.5693168226
 30
0.0
 11
746.9549841701
 21
-346.1985759321
 31
0.0
  0
LINE
  5
3E4
330
1F
100
AcDbEntity
  8
0
  6
Continuous
 62
     7
370
    15
100
AcDbLine
 10
783.5049695789
 20
-346.5693168226
 30
0.0
 11
783.5049695789
 21
-344.1193275037
 31
0.0
  0
LINE
  5
3E5
330
1F
100
AcDbEntity
  8
0
  6
Continuous
 62
     7
370
    15
100
AcDbLine
 10
749.4049734889
 20
-346.5693168226
 30
0.0
 11
783.5049695789
 21
-346.5693168226
 31
0.0
  0
LINE
  5
3E6
330
1F
100
AcDbEntity
  8
0
  6
Continuous
 62
     7
370
    15
100
AcDbLine
 10
785.9549887
 20
1053.7307091174
 30
0.0
 11
785.9549887
 21
-344.1193275037
 31
0.0
  0
LINE
  5
3E7
330
1F
100
AcDbEntity
  8
0
  6
Continuous
 62
     7
370
    15
100
AcDbLine
 10
785.9549887
 20
-344.1193275037
 30
0.0
 11
783.5049695789
 21
-344.1193275037
 31
0.0
  0
ARC
  5
3E8
330
1F
100
AcDbEntity
  8
0
  6
Continuous
 62
     7
370
    15
100
AcDbCircle
 10
783.5049834193
 20
-344.1193149116
 30
0.0
 40
1.25
100
AcDbArc
 50
270.0
 51
0.0
  0
ARC
  5
3E9
330
1F
100
AcDbEntity
  8
0
  6
Continuous
 62
     7
370
    15
100
AcDbCircle
 10
783.5049834193
 20
-344.1193149116
 30
0.0
 40
2.450000000000159
100
AcDbArc
 50
270.0
 51
0.0
  0
LINE
  5
3EA
330
1F
100
AcDbEntity
  8
0
  6
Continuous
 62
     7
370
    15
100
AcDbLine
 10
783.5049695789
 20
-345.2986054006
 30
0.0
 11
784.3259043514
 21
-345.0417689863
 31
0.0
  0
SPLINE
  5
3EB
330
1F
100
AcDbEntity
  8
0
  6
Continuous
 62
     7
370
    15
100
AcDbSpline
210
0.0
220
0.0
230
1.0
 70
     8
 71
     3
 72
    11
 73
     7
 74
     0
 42
0.00000001
 43
0.00000001
 40
0.0
 40
0.0
 40
0.0
 40
0.0
 40
0.2727012977891778
 40
0.5235951856366952
 40
0.7744228658413638
 40
1.0
 40
1.0
 40
1.0
 40
1.0
 10
783.5049695788697
 20
-345.2986054005979
 30
0.0
 10
783.6838030305508
 20
-345.1912914406349
 30
0.0
 10
784.0271689590968
 20
-344.9852452162721
 30
0.0
 10
784.4430555020015
 20
-344.6809115269206
 30
0.0
 10
784.7073237854
 20
-344.3949654728677
 30
0.0
 10
784.7396783430806
 20
-344.2079018940944
 30
0.0
 10
784.7549981890992
 20
-344.1193275037168
 30
0.0
  0
LINE
  5
3EC
330
1F
100
AcDbEntity
  8
0
  6
Continuous
 62
     7
370
    15
100
AcDbLine
 10
220.4549975215
 20
-517.5693206373
 30
0.0
 11
128.4549302875
 21
-517.5693206373
 31
0.0
  0
LINE
  5
3ED
330
1F
100
AcDbEntity
  8
0
  6
Continuous
 62
     7
370
    15
100
AcDbLine
 10
220.4549975215
 20
-519.5693246904
 30
0.0
 11
128.4549302875
 21
-519.5693246904
 31
0.0
  0
LINE
  5
3EE
330
1F
100
AcDbEntity
  8
0
  6
Continuous
 62
     7
370
    15
100
AcDbLine
 10
729.4549710571
 20
-517.5693206373
 30
0.0
 11
637.45499323
 21
-517.5693206373
 31
0.0
  0
LINE
  5
3EF
330
1F
100
AcDbEntity
  8
0
  6
Continuous
 62
     7
370
    15
100
AcDbLine
 10
729.4549710571
 20
-519.5693246904
 30
0.0
 11
637.45499323
 21
-519.5693246904
 31
0.0
  0
LINE
  5
3F0
330
1F
100
AcDbEntity
  8
0
  6
Continuous
 62
     7
370
    15
100
AcDbLine
 10
205.4146594821
 20
-445.5693237367
 30
0.0
 11
143.4953279315
 21
-445.5693237367
 31
0.0
  0
LINE
  5
3F1
330
1F
100
AcDbEntity
  8
0
  6
Continuous
 62
     7
370
    15
100
AcDbLine
 10
714.4146330177
 20
-445.5693237367
 30
0.0
 11
652.4953312694
 21
-445.5693237367
 31
0.0
  0
LINE
  5
3F2
330
1F
100
AcDbEntity
  8
0
  6
Continuous
 62
     7
370
    15
100
AcDbLine
 10
814.5549959956
 20
-349.4693212095
 30
0.0
 11
822.3549790202
 21
-349.4693212095
 31
0.0
  0
LINE
  5
3F3
330
1F
100
AcDbEntity
  8
0
  6
Continuous
 62
     7
370
    15
100
AcDbLine
 10
831.8549759208
 20
1062.6405306277
 30
0.0
 11
831.9549925147
 21
1062.4563522753
 31
0.0
  0
LWPOLYLINE
  5
3F4
330
1F
100
AcDbEntity
  8
0
  6
Continuous
 62
     7
370
    15
100
AcDbPolyline
 90
        3
 70
   128
 43
0.0
 10
831.9549925147
 20
1060.3049822268
 10
831.926918727
 20
1060.2494306979
 10
831.8549759208
 20
1060.1208038745
  0
LINE
  5
3F5
330
1F
100
AcDbEntity
  8
0
  6
Continuous
 62
     8
370
    15
100
AcDbLine
 10
790.454990369
 20
221.914631885
 30
0.0
 11
791.2338740646
 21
221.8307085452
 31
0.0
  0
LINE
  5
3F6
330
1F
100
AcDbEntity
  8
0
  6
Continuous
 62
     8
370
    15
100
AcDbLine
 10
792.3549778282
 20
221.7098303256
 30
0.0
 11
792.4256987392
 21
221.702200931
 31
0.0
  0
LINE
  5
3F7
330
1F
100
AcDbEntity
  8
0
  6
Continuous
 62
     8
370
    15
100
AcDbLine
 10
792.877174121
 20
193.8559837756
 30
0.0
 11
791.9874555885
 21
193.7024422106
 31
0.0
  0
LINE
  5
3F8
330
1F
100
AcDbEntity
  8
0
  6
Continuous
 62
     8
370
    15
100
AcDbLine
 10
790.4281086742
 20
193.4335060534
 30
0.0
 11
787.4549693881
 21
192.9205484805
 31
0.0
  0
LINE
  5
3F9
330
1F
100
AcDbEntity
  8
0
  6
Continuous
 62
     8
370
    15
100
AcDbLine
 10
786.0699064552
 20
-292.8193382802
 30
0.0
 11
786.0699064552
 21
-296.6980509344
 31
0.0
  0
LINE
  5
3FA
330
1F
100
AcDbEntity
  8
0
  6
Continuous
 62
     8
370
    15
100
AcDbLine
 10
786.0699064552
 20
-288.9405660215
 30
0.0
 11
786.0699064552
 21
-292.8193382802
 31
0.0
  0
LINE
  5
3FB
330
1F
100
AcDbEntity
  8
0
  6
Continuous
 62
     8
370
    15
100
AcDbLine
 10
98.6549920856
 20
-150.850015122
 30
0.0
 11
98.6549920856
 21
-175.0943235937
 31
0.0
  0
LINE
  5
3FC
330
1F
100
AcDbEntity
  8
0
  6
Continuous
 62
     8
370
    15
100
AcDbLine
 10
98.6549920856
 20
-148.0443052831
 30
0.0
 11
98.6549920856
 21
-150.850015122
 31
0.0
  0
LINE
  5
3FD
330
1F
100
AcDbEntity
  8
0
  6
Continuous
 62
     8
370
    15
100
AcDbLine
 10
788.5059482871
 20
-50.3787569585
 30
0.0
 11
788.5059482871
 21
-19.1178493085
 31
0.0
  0
LINE
  5
3FE
330
1F
100
AcDbEntity
  8
0
  6
Continuous
 62
     8
370
    15
100
AcDbLine
 10
788.5059482871
 20
-83.0207638326
 30
0.0
 11
788.5059482871
 21
-50.3787569585
 31
0.0
  0
ARC
  5
3FF
330
1F
100
AcDbEntity
  8
0
  6
Continuous
 62
     8
370
    15
100
AcDbCircle
 10
51.1549834193
 20
298.9306850884
 30
0.0
 40
8.648876558411569
100
AcDbArc
 50
337.664679734
 51
202.335320266
  0
ARC
  5
400
330
1F
100
AcDbEntity
  8
0
  6
Continuous
 62
     8
370
    15
100
AcDbCircle
 10
51.1549834193
 20
298.9306850884
 30
0.0
 40
11.35112344158843
100
AcDbArc
 50
90.0
 51
225.1885452802
  0
ARC
  5
401
330
1F
100
AcDbEntity
  8
0
  6
Continuous
 62
     8
370
    15
100
AcDbCircle
 10
51.1549834193
 20
298.9306850884
 30
0.0
 40
11.35112344158843
100
AcDbArc
 50
314.8114547198
 51
90.0
  0
LINE
  5
402
330
1F
100
AcDbEntity
  8
0
  6
Continuous
 62
     8
370
    15
100
AcDbLine
 10
43.154961568
 20
-14.0763096395
 30
0.0
 11
55.1549262821
 21
-14.0763096395
 31
0.0
  0
LINE
  5
403
330
1F
100
AcDbEntity
  8
0
  6
Continuous
 62
     8
370
    15
100
AcDbLine
 10
31.154996854
 20
-14.0763096395
 30
0.0
 11
43.154961568
 21
-14.0763096395
 31
0.0
  0
LINE
  5
404
330
1F
100
AcDbEntity
  8
0
  6
Continuous
 62
     8
370
    15
100
AcDbLine
 10
54.506070119
 20
-15.0126390043
 30
0.0
 11
31.803853017
 21
-15.0126390043
 31
0.0
  0
LINE
  5
405
330
1F
100
AcDbEntity
  8
0
  6
Continuous
 62
     8
370
    15
100
AcDbLine
 10
34.5060891925
 20
-16.0259775701
 30
0.0
 11
51.8038339435
 21
-16.0259775701
 31
0.0
  0
LINE
  5
406
330
1F
100
AcDbEntity
  8
0
  6
Continuous
 62
     8
370
    15
100
AcDbLine
 10
50.4620141803
 20
-16.9623069349
 30
0.0
 11
35.1549453555
 21
-16.9623069349
 31
0.0
  0
LINE
  5
407
330
1F
100
AcDbEntity
  8
0
  6
Continuous
 62
     8
370
    15
100
AcDbLine
 10
99.6550388156
 20
331.8910427508
 30
0.0
 11
99.6550388156
 21
88.4377785143
 31
0.0
  0
LINE
  5
408
330
1F
100
AcDbEntity
  8
0
  6
Continuous
 62
     8
370
    15
100
AcDbLine
 10
2.6550359546
 20
87.8013797221
 30
0.0
 11
2.6550359546
 21
330.9306927142
 31
0.0
  0
LINE
  5
409
330
1F
100
AcDbEntity
  8
0
  6
Continuous
 62
     8
370
    15
100
AcDbLine
 10
748.204982978
 20
-346.5693168226
 30
0.0
 11
748.204982978
 21
-347.0693401876
 31
0.0
  0
LINE
  5
40A
330
1F
100
AcDbEntity
  8
0
  6
Continuous
 62
     8
370
    15
100
AcDbLine
 10
795.7549757778
 20
674.2439098773
 30
0.0
 11
795.7549757778
 21
682.2439260897
 31
0.0
  0
SPLINE
  5
40B
330
1F
100
AcDbEntity
  8
0
  6
Continuous
 62
     8
370
    15
100
AcDbSpline
210
0.0
220
0.0
230
1.0
 70
     8
 71
     3
 72
    15
 73
    11
 74
     0
 42
0.00000001
 43
0.00000001
 40
0.0
 40
0.0
 40
0.0
 40
0.0
 40
0.1428809451360297
 40
0.2862039621667338
 40
0.4280257762906799
 40
0.5721055113041273
 40
0.7111316321895336
 40
0.8570339865256659
 40
0.9428839678673648
 40
1.0
 40
1.0
 40
1.0
 40
1.0
 10
886.2373001395539
 20
677.6306457934022
 30
0.0
 10
886.2461933028507
 20
676.391051813932
 30
0.0
 10
886.2640071447828
 20
673.9080285663972
 30
0.0
 10
886.4068510405078
 20
670.3415318426951
 30
0.0
 10
886.6340863069322
 20
667.0523181480088
 30
0.0
 10
886.9469229698732
 20
664.2081083386965
 30
0.0
 10
887.3438728201705
 20
661.8507226180217
 30
0.0
 10
887.7503215787392
 20
660.3584380167431
 30
0.0
 10
888.0979604569212
 20
659.5153289842683
 30
0.0
 10
888.2825996712525
 20
659.2877543470756
 30
0.0
 10
888.3563644706086
 20
659.1968365130067
 30
0.0
  0
SPLINE
  5
40C
330
1F
100
AcDbEntity
  8
0
  6
Continuous
 62
     8
370
    15
100
AcDbSpline
210
0.0
220
0.0
230
1.0
 70
     8
 71
     3
 72
    11
 73
     7
 74
     0
 42
0.00000001
 43
0.00000001
 40
0.0
 40
0.0
 40
0.0
 40
0.0
 40
0.1760559916274613
 40
0.4959220401352875
 40
0.7479596069232571
 40
1.0
 40
1.0
 40
1.0
 40
1.0
 10
889.8216850577667
 20
658.9861936983707
 30
0.0
 10
890.1986941311451
 20
659.0363744175138
 30
0.0
 10
891.2606693987342
 20
659.1777256114308
 30
0.0
 10
892.5770518949176
 20
660.2542324592426
 30
0.0
 10
893.5909130522972
 20
661.7640276856384
 30
0.0
 10
893.7805686289364
 20
662.8621688605061
 30
0.0
 10
893.8753969489411
 20
663.4112425264955
 30
0.0
  0
SPLINE
  5
40D
330
1F
100
AcDbEntity
  8
0
  6
Continuous
 62
     8
370
    15
100
AcDbSpline
210
0.0
220
0.0
230
1.0
 70
     8
 71
     3
 72
    15
 73
    11
 74
     0
 42
0.00000001
 43
0.00000001
 40
0.0
 40
0.0
 40
0.0
 40
0.0
 40
0.1289802637853417
 40
0.2545054221462907
 40
0.3765753957752869
 40
0.4951901347229151
 40
0.610349693939596
 40
0.7220545884065454
 40
0.8450670870517825
 40
1.0
 40
1.0
 40
1.0
 40
1.0
 10
893.8753969489411
 20
663.4112425264955
 30
0.0
 10
894.6635268569771
 20
663.4048797318142
 30
0.0
 10
896.2186743583395
 20
663.3923245881135
 30
0.0
 10
898.1404990346878
 20
663.4198470932939
 30
0.0
 10
899.746730523038
 20
663.4786488698279
 30
0.0
 10
901.0320951951751
 20
663.5692916732712
 30
0.0
 10
902.0304652961615
 20
663.6879543861751
 30
0.0
 10
902.7772522267776
 20
663.8408192365266
 30
0.0
 10
903.37742156208
 20
664.0398012420275
 30
0.0
 10
903.3861658239845
 20
664.2334747312333
 30
0.0
 10
903.3910400687531
 20
664.3414326128602
 30
0.0
  0
SPLINE
  5
40E
330
1F
100
AcDbEntity
  8
0
  6
Continuous
 62
     8
370
    15
100
AcDbSpline
210
0.0
220
0.0
230
1.0
 70
     8
 71
     3
 72
    14
 73
    10
 74
     0
 42
0.00000001
 43
0.00000001
 40
0.0
 40
0.0
 40
0.0
 40
0.0
 40
0.0920634396347792
 40
0.2185301616134593
 40
0.3333840740762872
 40
0.4902393490178813
 40
0.6536270171512226
 40
0.8235472834965555
 40
1.0
 40
1.0
 40
1.0
 40
1.0
 10
903.4698374091462
 20
690.9296341356874
 30
0.0
 10
903.4607536853139
 20
690.992999993296
 30
0.0
 10
903.439191731459
 20
691.1434109616337
 30
0.0
 10
903.0679957706977
 20
691.3312164068242
 30
0.0
 10
902.3592086026667
 20
691.5228677205876
 30
0.0
 10
901.2021771514535
 20
691.6844092061596
 30
0.0
 10
899.3977252558774
 20
691.8054238900921
 30
0.0
 10
897.0259614983767
 20
691.8704821477022
 30
0.0
 10
894.9387067172945
 20
691.8570241662738
 30
0.0
 10
893.8753969489411
 20
691.8501682695985
 30
0.0
  0
SPLINE
  5
40F
330
1F
100
AcDbEntity
  8
0
  6
Continuous
 62
     8
370
    15
100
AcDbSpline
210
0.0
220
0.0
230
1.0
 70
     8
 71
     3
 72
    11
 73
     7
 74
     0
 42
0.00000001
 43
0.00000001
 40
0.0
 40
0.0
 40
0.0
 40
0.0
 40
0.1891368031401234
 40
0.428692889468469
 40
0.7255002330404648
 40
1.0
 40
1.0
 40
1.0
 40
1.0
 10
833.4573871909455
 20
637.76467518183
 30
0.0
 10
833.4584900305358
 20
637.8046252825241
 30
0.0
 10
833.4609896999958
 20
637.8951752115522
 30
0.0
 10
833.4639204752193
 20
638.5527704088461
 30
0.0
 10
833.4675438428571
 20
639.5454789228247
 30
0.0
 10
833.4687556683056
 20
640.4743304011222
 30
0.0
 10
833.469337922223
 20
640.9206219133973
 30
0.0
  0
SPLINE
  5
410
330
1F
100
AcDbEntity
  8
0
  6
Continuous
 62
     8
370
    15
100
AcDbSpline
210
0.0
220
0.0
230
1.0
 70
     8
 71
     3
 72
    11
 73
     7
 74
     0
 42
0.00000001
 43
0.00000001
 40
0.0
 40
0.0
 40
0.0
 40
0.0
 40
0.189129176272051
 40
0.4287029291901562
 40
0.725497575443592
 40
1.0
 40
1.0
 40
1.0
 40
1.0
 10
833.4573871909455
 20
717.4966164049745
 30
0.0
 10
833.4584900561691
 20
717.4567196706619
 30
0.0
 10
833.4609899430781
 20
717.3662849360422
 30
0.0
 10
833.4639201725829
 20
716.7084826483217
 30
0.0
 10
833.4675439723667
 20
715.7159415767965
 30
0.0
 10
833.4687556996184
 20
714.7870917603101
 30
0.0
 10
833.469337922223
 20
714.3407888826966
 30
0.0
  0
SPLINE
  5
411
330
1F
100
AcDbEntity
  8
0
  6
Continuous
 62
     8
370
    15
100
AcDbSpline
210
0.0
220
0.0
230
1.0
 70
     8
 71
     3
 72
     9
 73
     5
 74
     0
 42
0.00000001
 43
0.00000001
 40
0.0
 40
0.0
 40
0.0
 40
0.0
 40
0.5031947646762699
 40
1.0
 40
1.0
 40
1.0
 40
1.0
 10
851.3253695784882
 20
659.7746439394593
 30
0.0
 10
851.4307846334724
 20
659.3219863167321
 30
0.0
 10
851.640276190985
 20
658.4224188837949
 30
0.0
 10
851.669753616816
 20
658.2758994814659
 30
0.0
 10
851.6843981562928
 20
658.2031078753114
 30
0.0
  0
SPLINE
  5
412
330
1F
100
AcDbEntity
  8
0
  6
Continuous
 62
     8
370
    15
100
AcDbSpline
210
0.0
220
0.0
230
1.0
 70
     8
 71
     3
 72
    10
 73
     6
 74
     0
 42
0.00000001
 43
0.00000001
 40
0.0
 40
0.0
 40
0.0
 40
0.0
 40
0.0002241096388413
 40
0.4972130627718301
 40
1.0
 40
1.0
 40
1.0
 40
1.0
 10
851.6843981562928
 20
697.058183711493
 30
0.0
 10
851.684408094662
 20
697.05826321328
 30
0.0
 10
851.7064575120895
 20
697.234647090539
 30
0.0
 10
851.6242350611235
 20
696.7302785337688
 30
0.0
 10
851.4253758197569
 20
695.902870207572
 30
0.0
 10
851.3253695784882
 20
695.4867668566346
 30
0.0
  0
LINE
  5
413
330
1F
100
AcDbEntity
  8
0
  6
Continuous
 62
     8
370
    15
100
AcDbLine
 10
803.4549720107
 20
196.3306494174
 30
0.0
 11
792.4256987392
 21
196.3306494174
 31
0.0
  0
LINE
  5
414
330
1F
100
AcDbEntity
  8
0
  6
Continuous
 62
     8
370
    15
100
AcDbLine
 10
785.9549887
 20
210.8858652529
 30
0.0
 11
786.1549920856
 21
210.7704706607
 31
0.0
  0
LINE
  5
415
330
1F
100
AcDbEntity
  8
0
  6
Continuous
 62
     8
370
    15
100
AcDbLine
 10
803.4549720107
 20
228.2306976733
 30
0.0
 11
785.9549887
 21
228.2306976733
 31
0.0
  0
LINE
  5
416
330
1F
100
AcDbEntity
  8
0
  6
Continuous
 62
     8
370
    15
100
AcDbLine
 10
788.6549897014
 20
181.9306440768
 30
0.0
 11
788.4549863159
 21
181.9306440768
 31
0.0
  0
LINE
  5
417
330
1F
100
AcDbEntity
  8
0
  6
Continuous
 62
     8
370
    15
100
AcDbLine
 10
787.4210841476
 20
-150.5040101591
 30
0.0
 11
785.9549887
 21
-147.048132855
 31
0.0
  0
LINE
  5
418
330
1F
100
AcDbEntity
  8
0
  6
Continuous
 62
     8
370
    15
100
AcDbLine
 10
785.9549887
 20
-151.1484555784
 30
0.0
 11
787.4210841476
 21
-150.5040101591
 31
0.0
  0
LINE
  5
419
330
1F
100
AcDbEntity
  8
0
  6
Continuous
 62
     8
370
    15
100
AcDbLine
 10
788.8576454936
 20
-149.8412661138
 30
0.0
 11
785.9549887
 21
-142.9991297307
 31
0.0
  0
ARC
  5
41A
330
1F
100
AcDbEntity
  8
0
  6
Continuous
 62
     8
370
    15
100
AcDbCircle
 10
787.4768993128
 20
-150.426966502
 30
0.0
 40
1.499834977846985
100
AcDbArc
 50
352.4790076896
 51
22.9862297987
  0
ARC
  5
41B
330
1F
100
AcDbEntity
  8
0
  6
Continuous
 62
     8
370
    15
100
AcDbCircle
 10
787.5798544128
 20
-149.6471576165
 30
0.0
 40
1.499868717192616
100
AcDbArc
 50
352.4814237496
 51
22.9881017131
  0
ARC
  5
41C
330
1F
100
AcDbEntity
  8
0
  6
Continuous
 62
     8
370
    15
100
AcDbCircle
 10
725.4952903893
 20
-173.2295688946
 30
0.0
 40
67.91132123373369
100
AcDbArc
 50
20.8472869302
 51
23.0970615011
  0
LINE
  5
41D
330
1F
100
AcDbEntity
  8
0
  6
Continuous
 62
     8
370
    15
100
AcDbLine
 10
749.4049734889
 20
1050.4807062564
 30
0.0
 11
749.4049734889
 21
-346.5693168226
 31
0.0
  0
LINE
  5
41E
330
1F
100
AcDbEntity
  8
0
  6
Continuous
 62
     8
370
    15
100
AcDbLine
 10
783.5049695789
 20
-344.1193275037
 30
0.0
 11
783.5049695789
 21
1050.6298370776
 31
0.0
  0
LINE
  5
41F
330
1F
100
AcDbEntity
  8
0
  6
Continuous
 62
     8
370
    15
100
AcDbLine
 10
206.2910861789
 20
-440.3092138353
 30
0.0
 11
142.6189012348
 21
-440.3092138353
 31
0.0
  0
LINE
  5
420
330
1F
100
AcDbEntity
  8
0
  6
Continuous
 62
     8
370
    15
100
AcDbLine
 10
206.3549823581
 20
-439.536737639
 30
0.0
 11
142.5550050556
 21
-439.536737639
 31
0.0
  0
LINE
  5
421
330
1F
100
AcDbEntity
  8
0
  6
Continuous
 62
     8
370
    15
100
AcDbLine
 10
715.2910597144
 20
-440.3092138353
 30
0.0
 11
651.6189045726
 21
-440.3092138353
 31
0.0
  0
LINE
  5
422
330
1F
100
AcDbEntity
  8
0
  6
Continuous
 62
     8
370
    15
100
AcDbLine
 10
715.354985696
 20
-439.536737639
 30
0.0
 11
651.5550083934
 21
-439.536737639
 31
0.0
  0
ENDSEC
  0
SECTION
  2
OBJECTS
  0
DICTIONARY
  5
C
330
0
100
AcDbDictionary
281
     1
  3
ACAD_GROUP
350
D
  3
ACAD_LAYOUT
350
1A
  3
ACAD_MATERIAL
350
3B
  3
ACAD_MLEADERSTYLE
350
424
  3
ACAD_MLINESTYLE
350
17
  3
ACAD_PLOTSETTINGS
350
19
  3
ACAD_PLOTSTYLENAME
350
E
  3
ACAD_TABLESTYLE
350
423
  3
ACAD_VISUALSTYLE
350
2A
  0
DICTIONARY
  5
D
102
{ACAD_REACTORS
330
C
102
}
330
C
100
AcDbDictionary
281
     1
  0
DICTIONARY
  5
1A
102
{ACAD_REACTORS
330
C
102
}
330
C
100
AcDbDictionary
281
     1
  3
Layout1
350
1E
  3
Layout2
350
26
  3
Model
350
22
  0
DICTIONARY
  5
3B
102
{ACAD_REACTORS
330
C
102
}
330
C
100
AcDbDictionary
281
     1
  3
ByBlock
350
3D
  3
ByLayer
350
3C
  3
Global
350
3E
  0
DICTIONARY
  5
424
102
{ACAD_REACTORS
330
C
102
}
330
C
100
AcDbDictionary
281
     1
  0
DICTIONARY
  5
17
102
{ACAD_REACTORS
330
C
102
}
330
C
100
AcDbDictionary
281
     1
  3
Standard
350
18
  0
DICTIONARY
  5
19
102
{ACAD_REACTORS
330
C
102
}
330
C
100
AcDbDictionary
281
     1
  0
ACDBDICTIONARYWDFLT
  5
E
102
{ACAD_REACTORS
330
C
102
}
330
C
100
AcDbDictionary
281
     1
  3
Normal
350
F
100
AcDbDictionaryWithDefault
340
F
  0
DICTIONARY
  5
423
102
{ACAD_REACTORS
330
C
102
}
330
C
100
AcDbDictionary
281
     1
  0
DICTIONARY
  5
2A
102
{ACAD_REACTORS
330
C
102
}
330
C
100
AcDbDictionary
281
     1
  3
2dWireframe
350
2F
  3
3D Hidden
350
31
  3
3dWireframe
350
30
  3
Basic
350
32
  3
Brighten
350
36
  3
ColorChange
350
3A
  3
Conceptual
350
34
  3
Dim
350
35
  3
Facepattern
350
39
  3
Flat
350
2B
  3
FlatWithEdges
350
2C
  3
Gouraud
350
2D
  3
GouraudWithEdges
350
2E
  3
Linepattern
350
38
  3
Realistic
350
33
  3
Thicken
350
37
  0
LAYOUT
  5
1E
102
{ACAD_REACTORS
330
1A
102
}
330
1A
100
AcDbPlotSettings
  1

  2
none_device
  4

  6

 40
0.0
 41
0.0
 42
0.0
 43
0.0
 44
0.0
 45
0.0
 46
0.0
 47
0.0
 48
0.0
 49
0.0
140
0.0
141
0.0
142
1.0
143
1.0
 70
   688
 72
     0
 73
     0
 74
     5
  7

 75
    16
 76
     0
 77
     2
 78
   300
147
1.0
148
0.0
149
0.0
100
AcDbLayout
  1
Layout1
 70
     1
 71
     1
 10
0.0
 20
0.0
 11
420.0
 21
297.0
 12
0.0
 22
0.0
 32
0.0
 14
1.0000000000E+20
 24
1.0000000000E+20
 34
1.0000000000E+20
 15
-1.0000000000E+20
 25
-1.0000000000E+20
 35
-1.0000000000E+20
146
0.0
 13
0.0
 23
0.0
 33
0.0
 16
1.0
 26
0.0
 36
0.0
 17
0.0
 27
1.0
 37
0.0
 76
     0
330
1B
  0
LAYOUT
  5
26
102
{ACAD_REACTORS
330
1A
102
}
330
1A
100
AcDbPlotSettings
  1

  2
none_device
  4

  6

 40
0.0
 41
0.0
 42
0.0
 43
0.0
 44
0.0
 45
0.0
 46
0.0
 47
0.0
 48
0.0
 49
0.0
140
0.0
141
0.0
142
1.0
143
1.0
 70
   688
 72
     0
 73
     0
 74
     5
  7

 75
    16
 76
     0
 77
     2
 78
   300
147
1.0
148
0.0
149
0.0
100
AcDbLayout
  1
Layout2
 70
     1
 71
     2
 10
0.0
 20
0.0
 11
0.0
 21
0.0
 12
0.0
 22
0.0
 32
0.0
 14
0.0
 24
0.0
 34
0.0
 15
0.0
 25
0.0
 35
0.0
146
0.0
 13
0.0
 23
0.0
 33
0.0
 16
1.0
 26
0.0
 36
0.0
 17
0.0
 27
1.0
 37
0.0
 76
     0
330
23
  0
LAYOUT
  5
22
102
{ACAD_REACTORS
330
1A
102
}
330
1A
100
AcDbPlotSettings
  1

  2
none_device
  4

  6

 40
0.0
 41
0.0
 42
0.0
 43
0.0
 44
0.0
 45
0.0
 46
0.0
 47
0.0
 48
0.0
 49
0.0
140
0.0
141
0.0
142
1.0
143
1.0
 70
  1712
 72
     0
 73
     0
 74
     0
  7

 75
     0
 76
     0
 77
     2
 78
   300
147
1.0
148
0.0
149
0.0
100
AcDbLayout
  1
Model
 70
     1
 71
     0
 10
0.0
 20
0.0
 11
841.0
 21
594.0
 12
0.0
 22
0.0
 32
0.0
 14
0.0
 24
0.0
 34
0.0
 15
841.0
 25
594.0
 35
0.0
146
0.0
 13
0.0
 23
0.0
 33
0.0
 16
1.0
 26
0.0
 36
0.0
 17
0.0
 27
1.0
 37
0.0
 76
     0
330
1F
331
29
  0
MATERIAL
  5
3D
102
{ACAD_REACTORS
330
3B
102
}
330
3B
100
AcDbMaterial
  1
ByBlock
 72
     1
 94
      127
  0
MATERIAL
  5
3C
102
{ACAD_REACTORS
330
3B
102
}
330
3B
100
AcDbMaterial
  1
ByLayer
 72
     1
 94
      127
  0
MATERIAL
  5
3E
102
{ACAD_REACTORS
330
3B
102
}
330
3B
100
AcDbMaterial
  1
Global
 72
     1
 94
      127
  0
MLINESTYLE
  5
18
102
{ACAD_REACTORS
330
17
102
}
330
17
100
AcDbMlineStyle
  2
Standard
 70
     0
  3

 62
   256
 51
90.0
 52
90.0
 71
     2
 49
0.5
 62
   256
  6
BYLAYER
 49
-0.5
 62
   256
  6
BYLAYER
  0
ACDBPLACEHOLDER
  5
F
102
{ACAD_REACTORS
330
E
102
}
330
E
  0
VISUALSTYLE
  5
2F
102
{ACAD_REACTORS
330
2A
102
}
330
2A
100
AcDbVisualStyle
  2
2dWireframe
 70
     4
 71
     0
 72
     2
 73
     0
 90
        0
 40
-0.6
 41
-30.0
 62
     5
 63
     7
421
 16777215
 74
     1
 91
        4
 64
     7
 65
   257
 75
     1
175
     1
 42
1.0
 92
        0
 66
   257
 43
1.0
 76
     1
 77
     6
 78
     2
 67
     7
 79
     5
170
     0
171
     0
290
     0
174
     0
 93
        1
 44
0.0
173
     0
291
     0
 45
0.0
  0
VISUALSTYLE
  5
31
102
{ACAD_REACTORS
330
2A
102
}
330
2A
100
AcDbVisualStyle
  2
3D Hidden
 70
     6
 71
     1
 72
     2
 73
     2
 90
        0
 40
-0.6
 41
-30.0
 62
     5
 63
     7
421
 16777215
 74
     2
 91
        2
 64
     7
 65
   257
 75
     2
175
     1
 42
40.0
 92
        0
 66
   257
 43
1.0
 76
     1
 77
     6
 78
     2
 67
     7
 79
     3
170
     0
171
     0
290
     0
174
     0
 93
        1
 44
0.0
173
     0
291
     0
 45
0.0
  0
VISUALSTYLE
  5
30
102
{ACAD_REACTORS
330
2A
102
}
330
2A
100
AcDbVisualStyle
  2
3dWireframe
 70
     5
 71
     0
 72
     2
 73
     0
 90
        0
 40
-0.6
 41
-30.0
 62
     5
 63
     7
421
 16777215
 74
     1
 91
        4
 64
     7
 65
   257
 75
     1
175
     1
 42
1.0
 92
        0
 66
   257
 43
1.0
 76
     1
 77
     6
 78
     2
 67
     7
 79
     5
170
     0
171
     0
290
     0
174
     0
 93
        1
 44
0.0
173
     0
291
     0
 45
0.0
  0
VISUALSTYLE
  5
32
102
{ACAD_REACTORS
330
2A
102
}
330
2A
100
AcDbVisualStyle
  2
Basic
 70
     7
 71
     1
 72
     0
 73
     1
 90
        0
 40
-0.6
 41
-30.0
 62
     5
 63
     7
421
 16777215
 74
     0
 91
        4
 64
     7
 65
   257
 75
     1
175
     1
 42
1.0
 92
        8
 66
     7
 43
1.0
 76
     1
 77
     6
 78
     2
 67
     7
 79
     5
170
     0
171
     0
290
     0
174
     0
 93
        1
 44
0.0
173
     0
291
     1
 45
0.0
  0
VISUALSTYLE
  5
36
102
{ACAD_REACTORS
330
2A
102
}
330
2A
100
AcDbVisualStyle
  2
Brighten
 70
    12
 71
     2
 72
     2
 73
     0
 90
        0
 40
-0.6
 41
-30.0
 62
     5
 63
     7
421
 16777215
 74
     1
 91
        4
 64
     7
 65
   257
 75
     1
175
     1
 42
1.0
 92
        8
 66
     7
 43
1.0
 76
     1
 77
     6
 78
     2
 67
     7
 79
     5
170
     0
171
     0
290
     0
174
     0
 93
        1
 44
50.0
173
     0
291
     1
 45
0.0
  0
VISUALSTYLE
  5
3A
102
{ACAD_REACTORS
330
2A
102
}
330
2A
100
AcDbVisualStyle
  2
ColorChange
 70
    16
 71
     2
 72
     2
 73
     3
 90
        0
 40
-0.6
 41
-30.0
 62
     5
 63
     8
421
  8421504
 74
     1
 91
        4
 64
     7
 65
   257
 75
     1
175
     1
 42
1.0
 92
        8
 66
     8
424
  8421504
 43
1.0
 76
     1
 77
     6
 78
     2
 67
     7
 79
     5
170
     0
171
     0
290
     0
174
     0
 93
        1
 44
0.0
173
     0
291
     1
 45
0.0
  0
VISUALSTYLE
  5
34
102
{ACAD_REACTORS
330
2A
102
}
330
2A
100
AcDbVisualStyle
  2
Conceptual
 70
     9
 71
     3
 72
     2
 73
     0
 90
        0
 40
-0.6
 41
-30.0
 62
     5
 63
     7
421
 16777215
 74
     2
 91
        2
 64
     7
 65
   257
 75
     1
175
     1
 42
40.0
 92
        8
 66
     7
 43
1.0
 76
     1
 77
     6
 78
     2
 67
     7
 79
     3
170
     0
171
     0
290
     0
174
     0
 93
        1
 44
0.0
173
     0
291
     0
 45
0.0
  0
VISUALSTYLE
  5
35
102
{ACAD_REACTORS
330
2A
102
}
330
2A
100
AcDbVisualStyle
  2
Dim
 70
    11
 71
     2
 72
     2
 73
     0
 90
        0
 40
-0.6
 41
-30.0
 62
     5
 63
     7
421
 16777215
 74
     1
 91
        4
 64
     7
 65
   257
 75
     1
175
     1
 42
1.0
 92
        8
 66
     7
 43
1.0
 76
     1
 77
     6
 78
     2
 67
     7
 79
     5
170
     0
171
     0
290
     0
174
     0
 93
        1
 44
-50.0
173
     0
291
     1
 45
0.0
  0
VISUALSTYLE
  5
39
102
{ACAD_REACTORS
330
2A
102
}
330
2A
100
AcDbVisualStyle
  2
Facepattern
 70
    15
 71
     2
 72
     2
 73
     0
 90
        0
 40
-0.6
 41
-30.0
 62
     5
 63
     7
421
 16777215
 74
     1
 91
        4
 64
     7
 65
   257
 75
     1
175
     1
 42
1.0
 92
        8
 66
     7
 43
1.0
 76
     1
 77
     6
 78
     2
 67
     7
 79
     5
170
     0
171
     0
290
     0
174
     0
 93
        1
 44
0.0
173
     0
291
     1
 45
0.0
  0
VISUALSTYLE
  5
2B
102
{ACAD_REACTORS
330
2A
102
}
330
2A
100
AcDbVisualStyle
  2
Flat
 70
     0
 71
     2
 72
     1
 73
     1
 90
        2
 40
-0.6
 41
30.0
 62
     5
 63
     7
421
 16777215
 74
     0
 91
        4
 64
     7
 65
   257
 75
     1
175
     1
 42
1.0
 92
        8
 66
     7
 43
1.0
 76
     1
 77
     6
 78
     2
 67
     7
 79
     5
170
     0
171
     0
290
     0
174
     0
 93
       13
 44
0.0
173
     0
291
     1
 45
0.0
  0
VISUALSTYLE
  5
2C
102
{ACAD_REACTORS
330
2A
102
}
330
2A
100
AcDbVisualStyle
  2
FlatWithEdges
 70
     1
 71
     2
 72
     1
 73
     1
 90
        2
 40
-0.6
 41
30.0
 62
     5
 63
     7
421
 16777215
 74
     1
 91
        4
 64
     7
 65
   257
 75
     1
175
     1
 42
1.0
 92
        0
 66
   257
 43
1.0
 76
     1
 77
     6
 78
     2
 67
     7
 79
     5
170
     0
171
     0
290
     0
174
     0
 93
       13
 44
0.0
173
     0
291
     1
 45
0.0
  0
VISUALSTYLE
  5
2D
102
{ACAD_REACTORS
330
2A
102
}
330
2A
100
AcDbVisualStyle
  2
Gouraud
 70
     2
 71
     2
 72
     2
 73
     1
 90
        2
 40
-0.6
 41
30.0
 62
     5
 63
     7
421
 16777215
 74
     0
 91
        4
 64
     7
 65
   257
 75
     1
175
     1
 42
1.0
 92
        0
 66
     7
 43
1.0
 76
     1
 77
     6
 78
     2
 67
     7
 79
     5
170
     0
171
     0
290
     0
174
     0
 93
       13
 44
0.0
173
     0
291
     1
 45
0.0
  0
VISUALSTYLE
  5
2E
102
{ACAD_REACTORS
330
2A
102
}
330
2A
100
AcDbVisualStyle
  2
GouraudWithEdges
 70
     3
 71
     2
 72
     2
 73
     1
 90
        2
 40
-0.6
 41
30.0
 62
     5
 63
     7
421
 16777215
 74
     1
 91
        4
 64
     7
 65
   257
 75
     1
175
     1
 42
1.0
 92
        0
 66
   257
 43
1.0
 76
     1
 77
     6
 78
     2
 67
     7
 79
     5
170
     0
171
     0
290
     0
174
     0
 93
       13
 44
0.0
173
     0
291
     1
 45
0.0
  0
VISUALSTYLE
  5
38
102
{ACAD_REACTORS
330
2A
102
}
330
2A
100
AcDbVisualStyle
  2
Linepattern
 70
    14
 71
     2
 72
     2
 73
     0
 90
        0
 40
-0.6
 41
-30.0
 62
     5
 63
     7
421
 16777215
 74
     1
 91
        4
 64
     7
 65
   257
 75
     7
175
     7
 42
1.0
 92
        8
 66
     7
 43
1.0
 76
     1
 77
     6
 78
     2
 67
     7
 79
     5
170
     0
171
     0
290
     0
174
     0
 93
        1
 44
0.0
173
     0
291
     1
 45
0.0
  0
VISUALSTYLE
  5
33
102
{ACAD_REACTORS
330
2A
102
}
330
2A
100
AcDbVisualStyle
  2
Realistic
 70
     8
 71
     2
 72
     2
 73
     0
 90
        0
 40
-0.6
 41
-30.0
 62
     5
 63
     7
421
 16777215
 74
     1
 91
        0
 64
     7
 65
   257
 75
     1
175
     1
 42
1.0
 92
        8
 66
     8
424
  7895160
 43
1.0
 76
     1
 77
     6
 78
     2
 67
     7
 79
     5
170
     0
171
     0
290
     0
174
     0
 93
       13
 44
0.0
173
     0
291
     0
 45
0.0
  0
VISUALSTYLE
  5
37
102
{ACAD_REACTORS
330
2A
102
}
330
2A
100
AcDbVisualStyle
  2
Thicken
 70
    13
 71
     2
 72
     2
 73
     0
 90
        0
 40
-0.6
 41
-30.0
 62
     5
 63
     7
421
 16777215
 74
     1
 91
        4
 64
     7
 65
   257
 75
     1
175
     1
 42
1.0
 92
       12
 66
     7
 43
1.0
 76
     1
 77
     6
 78
     2
 67
     7
 79
     5
170
     0
171
     0
290
     0
174
     0
 93
        1
 44
0.0
173
     0
291
     1
 45
0.0
  0
ENDSEC
  0
EOF
