  0
SECTION
  2
HEADER
  9
$ACADVER
  1
AC1021
  9
$ACADMAINTVER
 70
    25
  9
$DWGCODEPAGE
  3
ANSI_1252
  9
$INSBASE
 10
0.0
 20
0.0
 30
0.0
  9
$EXTMIN
 10
0.0
 20
0.0
 30
0.0
  9
$EXTMAX
 10
841.0
 20
594.0
 30
0.0
  9
$LIMMIN
 10
0.0
 20
0.0
  9
$LIMMAX
 10
841.0
 20
594.0
  9
$ORTHOMODE
 70
     0
  9
$REGENMODE
 70
     1
  9
$FILLMODE
 70
     1
  9
$QTEXTMODE
 70
     0
  9
$MIRRTEXT
 70
     1
  9
$LTSCALE
 40
1.0
  9
$ATTMODE
 70
     1
  9
$TEXTSIZE
 40
3.5
  9
$TRACEWID
 40
1.0
  9
$TEXTSTYLE
  7
Standard
  9
$CLAYER
  8
0
  9
$CELTYPE
  6
ByLayer
  9
$CECOLOR
 62
   256
  9
$CELTSCALE
 40
1.0
  9
$DISPSILH
 70
     0
  9
$DIMSCALE
 40
1.0
  9
$DIMASZ
 40
3.302
  9
$DIMEXO
 40
1.0
  9
$DIMDLI
 40
3.75
  9
$DIMRND
 40
0.0
  9
$DIMDLE
 40
0.0
  9
$DIMEXE
 40
1.0
  9
$DIMTP
 40
0.0
  9
$DIMTM
 40
0.0
  9
$DIMTXT
 40
3.5
  9
$DIMCEN
 40
2.5
  9
$DIMTSZ
 40
0.0
  9
$DIMTOL
 70
     0
  9
$DIMLIM
 70
     0
  9
$DIMTIH
 70
     1
  9
$DIMTOH
 70
     1
  9
$DIMSE1
 70
     0
  9
$DIMSE2
 70
     0
  9
$DIMTAD
 70
     1
  9
$DIMZIN
 70
     0
  9
$DIMBLK
  1

  9
$DIMASO
 70
     1
  9
$DIMSHO
 70
     1
  9
$DIMPOST
  1

  9
$DIMAPOST
  1

  9
$DIMALT
 70
     0
  9
$DIMALTD
 70
     3
  9
$DIMALTF
 40
0.0393700787
  9
$DIMLFAC
 40
1.0
  9
$DIMTOFL
 70
     1
  9
$DIMTVP
 40
0.0
  9
$DIMTIX
 70
     0
  9
$DIMSOXD
 70
     0
  9
$DIMSAH
 70
     0
  9
$DIMBLK1
  1

  9
$DIMBLK2
  1

  9
$DIMSTYLE
  2
ISO-25
  9
$DIMCLRD
 70
     0
  9
$DIMCLRE
 70
     0
  9
$DIMCLRT
 70
     0
  9
$DIMTFAC
 40
1.0
  9
$DIMGAP
 40
1.524
  9
$DIMJUST
 70
     0
  9
$DIMSD1
 70
     0
  9
$DIMSD2
 70
     0
  9
$DIMTOLJ
 70
     0
  9
$DIMTZIN
 70
     0
  9
$DIMALTZ
 70
     0
  9
$DIMALTTZ
 70
     0
  9
$DIMUPT
 70
     0
  9
$DIMDEC
 70
     1
  9
$DIMTDEC
 70
     1
  9
$DIMALTU
 70
     2
  9
$DIMALTTD
 70
     3
  9
$DIMTXSTY
  7
Standard
  9
$DIMAUNIT
 70
     0
  9
$DIMADEC
 70
     1
  9
$DIMALTRND
 40
0.0
  9
$DIMAZIN
 70
     0
  9
$DIMDSEP
 70
    44
  9
$DIMATFIT
 70
     3
  9
$DIMFRAC
 70
     0
  9
$DIMLDRBLK
  1

  9
$DIMLUNIT
 70
     2
  9
$DIMLWD
 70
    -2
  9
$DIMLWE
 70
    -2
  9
$DIMTMOVE
 70
     0
  9
$DIMFXL
 40
1.0
  9
$DIMFXLON
 70
     0
  9
$DIMJOGANG
 40
0.7853981634
  9
$DIMTFILL
 70
     0
  9
$DIMTFILLCLR
 70
     0
  9
$DIMARCSYM
 70
     0
  9
$DIMLTYPE
  6

  9
$DIMLTEX1
  6

  9
$DIMLTEX2
  6

  9
$LUNITS
 70
     2
  9
$LUPREC
 70
     1
  9
$SKETCHINC
 40
1.0
  9
$FILLETRAD
 40
10.0
  9
$AUNITS
 70
     0
  9
$AUPREC
 70
     1
  9
$MENU
  1
.
  9
$ELEVATION
 40
0.0
  9
$PELEVATION
 40
0.0
  9
$THICKNESS
 40
0.0
  9
$LIMCHECK
 70
     0
  9
$CHAMFERA
 40
10.0
  9
$CHAMFERB
 40
10.0
  9
$CHAMFERC
 40
20.0
  9
$CHAMFERD
 40
0.0
  9
$SKPOLY
 70
     0
  9
$TDCREATE
 40
2455870.357265972
  9
$TDUCREATE
 40
2455870.357265972
  9
$TDUPDATE
 40
2455870.357265984
  9
$TDUUPDATE
 40
2455870.357265984
  9
$TDINDWG
 40
0.0000000116
  9
$TDUSRTIMER
 40
0.0000000116
  9
$USRTIMER
 70
     1
  9
$ANGBASE
 50
0.0
  9
$ANGDIR
 70
     0
  9
$PDMODE
 70
     0
  9
$PDSIZE
 40
-1.0
  9
$PLINEWID
 40
0.0
  9
$SPLFRAME
 70
     0
  9
$SPLINETYPE
 70
     6
  9
$SPLINESEGS
 70
     8
  9
$HANDSEED
  5
3DA
  9
$SURFTAB1
 70
     6
  9
$SURFTAB2
 70
     6
  9
$SURFTYPE
 70
     6
  9
$SURFU
 70
     6
  9
$SURFV
 70
     6
  9
$UCSBASE
  2

  9
$UCSNAME
  2

  9
$UCSORG
 10
0.0
 20
0.0
 30
0.0
  9
$UCSXDIR
 10
1.0
 20
0.0
 30
0.0
  9
$UCSYDIR
 10
0.0
 20
1.0
 30
0.0
  9
$UCSORTHOREF
  2

  9
$UCSORTHOVIEW
 70
     0
  9
$UCSORGTOP
 10
0.0
 20
0.0
 30
0.0
  9
$UCSORGBOTTOM
 10
0.0
 20
0.0
 30
0.0
  9
$UCSORGLEFT
 10
0.0
 20
0.0
 30
0.0
  9
$UCSORGRIGHT
 10
0.0
 20
0.0
 30
0.0
  9
$UCSORGFRONT
 10
0.0
 20
0.0
 30
0.0
  9
$UCSORGBACK
 10
0.0
 20
0.0
 30
0.0
  9
$PUCSBASE
  2

  9
$PUCSNAME
  2

  9
$PUCSORG
 10
0.0
 20
0.0
 30
0.0
  9
$PUCSXDIR
 10
1.0
 20
0.0
 30
0.0
  9
$PUCSYDIR
 10
0.0
 20
1.0
 30
0.0
  9
$PUCSORTHOREF
  2

  9
$PUCSORTHOVIEW
 70
     0
  9
$PUCSORGTOP
 10
0.0
 20
0.0
 30
0.0
  9
$PUCSORGBOTTOM
 10
0.0
 20
0.0
 30
0.0
  9
$PUCSORGLEFT
 10
0.0
 20
0.0
 30
0.0
  9
$PUCSORGRIGHT
 10
0.0
 20
0.0
 30
0.0
  9
$PUCSORGFRONT
 10
0.0
 20
0.0
 30
0.0
  9
$PUCSORGBACK
 10
0.0
 20
0.0
 30
0.0
  9
$USERI1
 70
     0
  9
$USERI2
 70
     0
  9
$USERI3
 70
     0
  9
$USERI4
 70
     0
  9
$USERI5
 70
     0
  9
$USERR1
 40
0.0
  9
$USERR2
 40
0.0
  9
$USERR3
 40
0.0
  9
$USERR4
 40
0.0
  9
$USERR5
 40
0.0
  9
$WORLDVIEW
 70
     1
  9
$SHADEDGE
 70
     3
  9
$SHADEDIF
 70
    70
  9
$TILEMODE
 70
     1
  9
$MAXACTVP
 70
    64
  9
$PINSBASE
 10
0.0
 20
0.0
 30
0.0
  9
$PLIMCHECK
 70
     0
  9
$PEXTMIN
 10
1.0000000000E+20
 20
1.0000000000E+20
 30
1.0000000000E+20
  9
$PEXTMAX
 10
-1.0000000000E+20
 20
-1.0000000000E+20
 30
-1.0000000000E+20
  9
$PLIMMIN
 10
0.0
 20
0.0
  9
$PLIMMAX
 10
420.0
 20
297.0
  9
$UNITMODE
 70
     0
  9
$VISRETAIN
 70
     1
  9
$PLINEGEN
 70
     0
  9
$PSLTSCALE
 70
     1
  9
$TREEDEPTH
 70
  3020
  9
$CMLSTYLE
  2
Standard
  9
$CMLJUST
 70
     0
  9
$CMLSCALE
 40
20.0
  9
$PROXYGRAPHICS
 70
     1
  9
$MEASUREMENT
 70
     1
  9
$CELWEIGHT
370
    -1
  9
$ENDCAPS
280
     0
  9
$JOINSTYLE
280
     0
  9
$LWDISPLAY
290
     1
  9
$INSUNITS
 70
     4
  9
$HYPERLINKBASE
  1

  9
$STYLESHEET
  1

  9
$XEDIT
290
     1
  9
$CEPSNTYPE
380
     0
  9
$PSTYLEMODE
290
     1
  9
$FINGERPRINTGUID
  2
{C3C06EBB-E7B0-4171-AA97-D9DD3B931792}
  9
$VERSIONGUID
  2
{FAEB1C32-E019-11D5-929B-00C0DF256EC4}
  9
$EXTNAMES
290
     1
  9
$PSVPSCALE
 40
0.0
  9
$OLESTARTUP
290
     0
  9
$SORTENTS
280
   127
  9
$INDEXCTL
280
     0
  9
$HIDETEXT
280
     1
  9
$XCLIPFRAME
290
     0
  9
$HALOGAP
280
     0
  9
$OBSCOLOR
 70
   257
  9
$OBSLTYPE
280
     0
  9
$INTERSECTIONDISPLAY
280
     0
  9
$INTERSECTIONCOLOR
 70
   257
  9
$DIMASSOC
280
     2
  9
$PROJECTNAME
  1

  9
$CAMERADISPLAY
290
     0
  9
$LENSLENGTH
 40
50.0
  9
$CAMERAHEIGHT
 40
0.0
  9
$STEPSPERSEC
 40
2.0
  9
$STEPSIZE
 40
6.0
  9
$3DDWFPREC
 40
2.0
  9
$PSOLWIDTH
 40
5.0
  9
$PSOLHEIGHT
 40
80.0
  9
$LOFTANG1
 40
1.5707963268
  9
$LOFTANG2
 40
1.5707963268
  9
$LOFTMAG1
 40
0.0
  9
$LOFTMAG2
 40
0.0
  9
$LOFTPARAM
 70
     7
  9
$LOFTNORMALS
280
     1
  9
$LATITUDE
 40
37.795
  9
$LONGITUDE
 40
-122.394
  9
$NORTHDIRECTION
 40
0.0
  9
$TIMEZONE
 70
 -8000
  9
$LIGHTGLYPHDISPLAY
280
     1
  9
$TILEMODELIGHTSYNCH
280
     1
  9
$SOLIDHIST
280
     1
  9
$SHOWHIST
280
     1
  9
$DWFFRAME
280
     2
  9
$DGNFRAME
280
     2
  9
$REALWORLDSCALE
290
     1
  9
$INTERFERECOLOR
 62
   256
  9
$CSHADOW
280
     0
  9
$SHADOWPLANELOCATION
 40
0.0
  0
ENDSEC
  0
SECTION
  2
CLASSES
  0
CLASS
  1
ACDBDICTIONARYWDFLT
  2
AcDbDictionaryWithDefault
  3
ObjectDBX Classes
 90
        0
 91
        4
280
     0
281
     0
  0
CLASS
  1
VISUALSTYLE
  2
AcDbVisualStyle
  3
ObjectDBX Classes
 90
     4095
 91
        4
280
     0
281
     0
  0
CLASS
  1
MATERIAL
  2
AcDbMaterial
  3
ObjectDBX Classes
 90
     1153
 91
        4
280
     0
281
     0
  0
ENDSEC
  0
SECTION
  2
TABLES
  0
TABLE
  2
VPORT
  5
8
330
0
100
AcDbSymbolTable
 70
     1
  0
VPORT
  5
29
330
8
100
AcDbSymbolTableRecord
100
AcDbViewportTableRecord
  2
*Active
 70
     0
 10
0.0
 20
0.0
 11
1.0
 21
1.0
 12
420.5
 22
297.0
 13
0.0
 23
0.0
 14
10.0
 24
10.0
 15
10.0
 25
10.0
 16
0.0
 26
0.0
 36
1.0
 17
0.0
 27
0.0
 37
0.0
 40
594.0
 41
1.4158249158
 42
50.0
 43
0.0
 44
0.0
 50
0.0
 51
0.0
 71
     0
 72
  2000
 73
     1
 74
     3
 75
     0
 76
     0
 77
     0
 78
     0
281
     0
 65
     1
110
0.0
120
0.0
130
0.0
111
1.0
121
0.0
131
0.0
112
0.0
122
1.0
132
0.0
 79
     0
146
0.0
 60
     3
 61
     5
292
     1
282
     1
141
0.0
142
0.0
 63
   250
  0
ENDTAB
  0
TABLE
  2
LTYPE
  5
5
330
0
100
AcDbSymbolTable
 70
     6
  0
LTYPE
  5
14
330
5
100
AcDbSymbolTableRecord
100
AcDbLinetypeTableRecord
  2
ByBlock
 70
     0
  3

 72
    65
 73
     0
 40
0.0
  0
LTYPE
  5
15
330
5
100
AcDbSymbolTableRecord
100
AcDbLinetypeTableRecord
  2
ByLayer
 70
     0
  3

 72
    65
 73
     0
 40
0.0
  0
LTYPE
  5
16
330
5
100
AcDbSymbolTableRecord
100
AcDbLinetypeTableRecord
  2
Continuous
 70
     0
  3
Solid line
 72
    65
 73
     0
 40
0.0
  0
LTYPE
  5
3F
330
5
100
AcDbSymbolTableRecord
100
AcDbLinetypeTableRecord
  2
HIDDEN
 70
     0
  3
Hidden __ __ __ __ __ __ __ __ __ __ __ __ __ __
 72
    65
 73
     2
 40
1.905
 49
1.27
 74
     0
 49
-0.635
 74
     0
  0
LTYPE
  5
40
330
5
100
AcDbSymbolTableRecord
100
AcDbLinetypeTableRecord
  2
PHANTOM
 70
     0
  3
Phantom ______  __  __  ______  __  __  ______
 72
    65
 73
     6
 40
12.7
 49
6.35
 74
     0
 49
-1.27
 74
     0
 49
1.27
 74
     0
 49
-1.27
 74
     0
 49
1.27
 74
     0
 49
-1.27
 74
     0
  0
LTYPE
  5
41
330
5
100
AcDbSymbolTableRecord
100
AcDbLinetypeTableRecord
  2
CENTER
 70
     0
  3
Center ____ _ ____ _ ____ _ ____ _ ____ _ ____
 72
    65
 73
     4
 40
10.16
 49
6.35
 74
     0
 49
-1.27
 74
     0
 49
1.27
 74
     0
 49
-1.27
 74
     0
  0
LTYPE
  5
42
330
5
100
AcDbSymbolTableRecord
100
AcDbLinetypeTableRecord
  2
CENTERX2
 70
     0
  3
Center (2x) ________  __  ________  __  _____
 72
    65
 73
     4
 40
20.32
 49
12.7
 74
     0
 49
-2.54
 74
     0
 49
2.54
 74
     0
 49
-2.54
 74
     0
  0
LTYPE
  5
43
330
5
100
AcDbSymbolTableRecord
100
AcDbLinetypeTableRecord
  2
DOT2
 70
     0
  3
Dot (.5x) ........................................
 72
    65
 73
     2
 40
0.635
 49
0.0
 74
     0
 49
-0.635
 74
     0
  0
ENDTAB
  0
TABLE
  2
LAYER
  5
2
330
0
100
AcDbSymbolTable
 70
     4
  0
LAYER
  5
10
330
2
100
AcDbSymbolTableRecord
100
AcDbLayerTableRecord
  2
0
 70
     0
 62
     7
  6
Continuous
370
    -3
390
F
347
3E
  0
LAYER
  5
44
330
2
100
AcDbSymbolTableRecord
100
AcDbLayerTableRecord
  2
FORMAT
 70
     0
 62
     7
  6
Continuous
370
    -3
390
F
347
3E
  0
LAYER
  5
45
330
2
100
AcDbSymbolTableRecord
100
AcDbLayerTableRecord
  2
SLD-0
 70
     0
 62
     1
  6
Continuous
370
    -3
390
F
347
3E
  0
LAYER
  5
46
330
2
100
AcDbSymbolTableRecord
100
AcDbLayerTableRecord
  2
WATERMARK
 70
     0
 62
    20
  6
Continuous
370
    -3
390
F
347
3E
  0
ENDTAB
  0
TABLE
  2
STYLE
  5
3
330
0
100
AcDbSymbolTable
 70
     1
  0
STYLE
  5
11
330
3
100
AcDbSymbolTableRecord
100
AcDbTextStyleTableRecord
  2
Standard
 70
     0
 40
0.0
 41
1.0
 50
0.0
 71
     0
 42
2.5
  3
txt
  4

  0
ENDTAB
  0
TABLE
  2
VIEW
  5
6
330
0
100
AcDbSymbolTable
 70
     0
  0
ENDTAB
  0
TABLE
  2
UCS
  5
7
330
0
100
AcDbSymbolTable
 70
     0
  0
ENDTAB
  0
TABLE
  2
APPID
  5
9
330
0
100
AcDbSymbolTable
 70
     1
  0
APPID
  5
12
330
9
100
AcDbSymbolTableRecord
100
AcDbRegAppTableRecord
  2
ACAD
 70
     0
  0
ENDTAB
  0
TABLE
  2
DIMSTYLE
  5
A
330
0
100
AcDbSymbolTable
 70
     1
100
AcDbDimStyleTable
  0
DIMSTYLE
105
27
330
A
100
AcDbSymbolTableRecord
100
AcDbDimStyleTableRecord
  2
ISO-25
 70
     0
 41
2.5
 42
0.625
 43
3.75
 44
1.25
 73
     0
 74
     0
 77
     1
 78
     8
140
2.5
141
2.5
143
0.0393700787
147
0.625
171
     3
172
     1
178
     0
271
     2
272
     2
274
     3
278
    44
283
     0
284
     8
340
11
  0
ENDTAB
  0
TABLE
  2
BLOCK_RECORD
  5
1
330
0
100
AcDbSymbolTable
 70
     1
  0
BLOCK_RECORD
  5
1F
330
1
100
AcDbSymbolTableRecord
100
AcDbBlockTableRecord
  2
*Model_Space
340
22
 70
     0
280
     1
281
     0
  0
BLOCK_RECORD
  5
1B
330
1
100
AcDbSymbolTableRecord
100
AcDbBlockTableRecord
  2
*Paper_Space
340
1E
 70
     0
280
     1
281
     0
  0
BLOCK_RECORD
  5
23
330
1
100
AcDbSymbolTableRecord
100
AcDbBlockTableRecord
  2
*Paper_Space0
340
26
 70
     0
280
     1
281
     0
  0
ENDTAB
  0
ENDSEC
  0
SECTION
  2
BLOCKS
  0
BLOCK
  5
20
330
1F
100
AcDbEntity
  8
0
100
AcDbBlockBegin
  2
*Model_Space
 70
     0
 10
0.0
 20
0.0
 30
0.0
  3
*Model_Space
  1

  0
ENDBLK
  5
21
330
1F
100
AcDbEntity
  8
0
100
AcDbBlockEnd
  0
BLOCK
  5
1C
330
1B
100
AcDbEntity
 67
     1
  8
0
100
AcDbBlockBegin
  2
*Paper_Space
 70
     0
 10
0.0
 20
0.0
 30
0.0
  3
*Paper_Space
  1

  0
ENDBLK
  5
1D
330
1B
100
AcDbEntity
 67
     1
  8
0
100
AcDbBlockEnd
  0
BLOCK
  5
24
330
23
100
AcDbEntity
  8
0
100
AcDbBlockBegin
  2
*Paper_Space0
 70
     0
 10
0.0
 20
0.0
 30
0.0
  3
*Paper_Space0
  1

  0
ENDBLK
  5
25
330
23
100
AcDbEntity
  8
0
100
AcDbBlockEnd
  0
ENDSEC
  0
SECTION
  2
ENTITIES
  0
ARC
  5
47
330
1F
100
AcDbEntity
  8
0
  6
Continuous
 62
     7
370
    15
100
AcDbCircle
 10
211.6496040237
 20
211.0153398059
 30
0.0
 40
0.4999999999999432
100
AcDbArc
 50
4.9999999999
 51
90.0
  0
ARC
  5
48
330
1F
100
AcDbEntity
  8
0
  6
Continuous
 62
     7
370
    15
100
AcDbCircle
 10
225.5595221899
 20
211.0153398059
 30
0.0
 40
0.4999999999999432
100
AcDbArc
 50
90.0
 51
175.0000000001
  0
LINE
  5
49
330
1F
100
AcDbEntity
  8
0
  6
Continuous
 62
     7
370
    15
100
AcDbLine
 10
212.147694407
 20
211.058892735
 30
0.0
 11
212.1938582044
 21
210.5311532102
 31
0.0
  0
LINE
  5
4A
330
1F
100
AcDbEntity
  8
0
  6
Continuous
 62
     7
370
    15
100
AcDbLine
 10
225.0152643304
 20
210.5311532102
 30
0.0
 11
225.0614281278
 21
211.058892735
 31
0.0
  0
LINE
  5
4B
330
1F
100
AcDbEntity
  8
0
  6
Continuous
 62
     7
370
    15
100
AcDbLine
 10
212.1938582044
 20
210.5311532102
 30
0.0
 11
213.2772322278
 21
209.6221823774
 31
0.0
  0
LINE
  5
4C
330
1F
100
AcDbEntity
  8
0
  6
Continuous
 62
     7
370
    15
100
AcDbLine
 10
223.931890307
 20
209.6221823774
 30
0.0
 11
225.0152643304
 21
210.5311532102
 31
0.0
  0
LINE
  5
4D
330
1F
100
AcDbEntity
  8
0
  6
Continuous
 62
     7
370
    15
100
AcDbLine
 10
212.3681719881
 20
208.5388083539
 30
0.0
 11
213.4515460115
 21
207.6297183118
 31
0.0
  0
LINE
  5
4E
330
1F
100
AcDbEntity
  8
0
  6
Continuous
 62
     7
370
    15
100
AcDbLine
 10
223.7576063257
 20
207.6297183118
 30
0.0
 11
224.8409505468
 21
208.5388083539
 31
0.0
  0
LINE
  5
4F
330
1F
100
AcDbEntity
  8
0
  6
Continuous
 62
     7
370
    15
100
AcDbLine
 10
224.8409505468
 20
208.5388083539
 30
0.0
 11
223.931890307
 21
209.6221823774
 31
0.0
  0
LINE
  5
50
330
1F
100
AcDbEntity
  8
0
  6
Continuous
 62
     7
370
    15
100
AcDbLine
 10
213.2772322278
 20
209.6221823774
 30
0.0
 11
212.3681719881
 21
208.5388083539
 31
0.0
  0
LINE
  5
51
330
1F
100
AcDbEntity
  8
0
  6
Continuous
 62
     7
370
    15
100
AcDbLine
 10
212.5424857717
 20
206.5464634977
 30
0.0
 11
213.6258299928
 21
205.6373734556
 31
0.0
  0
LINE
  5
52
330
1F
100
AcDbEntity
  8
0
  6
Continuous
 62
     7
370
    15
100
AcDbLine
 10
223.583292542
 20
205.6373734556
 30
0.0
 11
224.6666367631
 21
206.5464634977
 31
0.0
  0
LINE
  5
53
330
1F
100
AcDbEntity
  8
0
  6
Continuous
 62
     7
370
    15
100
AcDbLine
 10
224.6666367631
 20
206.5464634977
 30
0.0
 11
223.7576063257
 21
207.6297183118
 31
0.0
  0
LINE
  5
54
330
1F
100
AcDbEntity
  8
0
  6
Continuous
 62
     7
370
    15
100
AcDbLine
 10
213.4515460115
 20
207.6297183118
 30
0.0
 11
212.5424857717
 21
206.5464634977
 31
0.0
  0
LINE
  5
55
330
1F
100
AcDbEntity
  8
0
  6
Continuous
 62
     7
370
    15
100
AcDbLine
 10
212.7167995553
 20
204.5539994321
 30
0.0
 11
213.8001437765
 21
203.6450285993
 31
0.0
  0
LINE
  5
56
330
1F
100
AcDbEntity
  8
0
  6
Continuous
 62
     7
370
    15
100
AcDbLine
 10
223.4089787584
 20
203.6450285993
 30
0.0
 11
224.4923229795
 21
204.5539994321
 31
0.0
  0
LINE
  5
57
330
1F
100
AcDbEntity
  8
0
  6
Continuous
 62
     7
370
    15
100
AcDbLine
 10
224.4923229795
 20
204.5539994321
 30
0.0
 11
223.583292542
 21
205.6373734556
 31
0.0
  0
LINE
  5
58
330
1F
100
AcDbEntity
  8
0
  6
Continuous
 62
     7
370
    15
100
AcDbLine
 10
213.6258299928
 20
205.6373734556
 30
0.0
 11
212.7167995553
 21
204.5539994321
 31
0.0
  0
LINE
  5
59
330
1F
100
AcDbEntity
  8
0
  6
Continuous
 62
     7
370
    15
100
AcDbLine
 10
206.4802165609
 20
212.310471066
 30
0.0
 11
208.1045623403
 21
211.5153451047
 31
0.0
  0
LINE
  5
5A
330
1F
100
AcDbEntity
  8
0
  6
Continuous
 62
     7
370
    15
100
AcDbLine
 10
229.1045601945
 20
211.5153451047
 30
0.0
 11
230.728905974
 21
212.310471066
 31
0.0
  0
ARC
  5
5B
330
1F
100
AcDbEntity
  8
0
  6
Continuous
 62
     7
370
    15
100
AcDbCircle
 10
575.6708211291
 20
199.5753398059
 30
0.0
 40
4.250000000000067
100
AcDbArc
 50
356.6277133135
 51
28.5347534996
  0
ARC
  5
5C
330
1F
100
AcDbEntity
  8
0
  6
Continuous
 62
     7
370
    15
100
AcDbCircle
 10
101.7506721998
 20
199.5753398059
 30
0.0
 40
4.250000000000001
100
AcDbArc
 50
158.2016092741
 51
183.3722866865
  0
SPLINE
  5
5D
330
1F
100
AcDbEntity
  8
0
  6
Continuous
 62
     7
370
    15
100
AcDbSpline
210
0.0
220
0.0
230
1.0
 70
     8
 71
     3
 72
    11
 73
     7
 74
     0
 42
0.00000001
 43
0.00000001
 40
0.0
 40
0.0
 40
0.0
 40
0.0
 40
0.2030294483072635
 40
0.6212978845200191
 40
0.8725739284382359
 40
0.9999999999999999
 40
0.9999999999999999
 40
0.9999999999999999
 40
0.9999999999999999
 10
580.8306153398008
 20
199.3253607831336
 30
0.0
 10
580.8468358906053
 20
199.5871985236042
 30
0.0
 10
580.8964729949004
 20
200.3884578266174
 30
0.0
 10
580.4821959308053
 20
201.4724448372972
 30
0.0
 10
579.9150464457193
 20
202.3395114937113
 30
0.0
 10
579.5330939697143
 20
202.6440700218042
 30
0.0
 10
579.4045742135496
 20
202.7465481839515
 30
0.0
  0
LINE
  5
5E
330
1F
100
AcDbEntity
  8
0
  6
Continuous
 62
     7
370
    15
100
AcDbLine
 10
349.6045883279
 20
1143.8296218
 30
0.0
 11
349.6045883279
 21
1157.5253386579
 31
0.0
  0
LINE
  5
5F
330
1F
100
AcDbEntity
  8
0
  6
Continuous
 62
     7
370
    15
100
AcDbLine
 10
349.6045883279
 20
1124.8252768598
 30
0.0
 11
349.6045883279
 21
1139.400519856
 31
0.0
  0
LINE
  5
60
330
1F
100
AcDbEntity
  8
0
  6
Continuous
 62
     7
370
    15
100
AcDbLine
 10
327.604573546
 20
1139.414109715
 30
0.0
 11
327.604573546
 21
1124.8252768598
 31
0.0
  0
LINE
  5
61
330
1F
100
AcDbEntity
  8
0
  6
Continuous
 62
     7
370
    15
100
AcDbLine
 10
327.604573546
 20
1157.5253386579
 30
0.0
 11
327.604573546
 21
1143.7936205945
 31
0.0
  0
LINE
  5
62
330
1F
100
AcDbEntity
  8
0
  6
Continuous
 62
     7
370
    15
100
AcDbLine
 10
501.6045387369
 20
-326.674662105
 30
0.0
 11
501.6045387369
 21
-326.17463874
 31
0.0
  0
LINE
  5
63
330
1F
100
AcDbEntity
  8
0
  6
Continuous
 62
     7
370
    15
100
AcDbLine
 10
493.604582129
 20
-326.17463874
 30
0.0
 11
493.604582129
 21
-326.674662105
 31
0.0
  0
LINE
  5
64
330
1F
100
AcDbEntity
  8
0
  6
Continuous
 62
     7
370
    15
100
AcDbLine
 10
576.6045864206
 20
-326.674662105
 30
0.0
 11
576.6045864206
 21
-326.17463874
 31
0.0
  0
LINE
  5
65
330
1F
100
AcDbEntity
  8
0
  6
Continuous
 62
     7
370
    15
100
AcDbLine
 10
568.6045702081
 20
-326.17463874
 30
0.0
 11
568.6045702081
 21
-326.674662105
 31
0.0
  0
LINE
  5
66
330
1F
100
AcDbEntity
  8
0
  6
Continuous
 62
     7
370
    15
100
AcDbLine
 10
193.4545751195
 20
-325.1746516146
 30
0.0
 11
193.4545751195
 21
-324.7746448435
 31
0.0
  0
LINE
  5
67
330
1F
100
AcDbEntity
  8
0
  6
Continuous
 62
     7
370
    15
100
AcDbLine
 10
183.7545748334
 20
-324.7746448435
 30
0.0
 11
183.7545748334
 21
-325.1746516146
 31
0.0
  0
LWPOLYLINE
  5
68
330
1F
100
AcDbEntity
  8
0
  6
Continuous
 62
     7
370
    15
100
AcDbPolyline
 90
        3
 70
   128
 43
0.0
 10
193.4545751195
 20
-324.7746448435
 10
193.448793469
 20
-324.7161130824
 10
193.4374089818
 20
-324.6746878543
  0
LWPOLYLINE
  5
69
330
1F
100
AcDbEntity
  8
0
  6
Continuous
 62
     7
370
    15
100
AcDbPolyline
 90
        3
 70
   128
 43
0.0
 10
183.7717111688
 20
-324.6746878543
 10
183.7603266817
 20
-324.7161130824
 10
183.7545748334
 20
-324.7746448435
  0
ARC
  5
6A
330
1F
100
AcDbEntity
  8
0
  6
Continuous
 62
     7
370
    15
100
AcDbCircle
 10
193.1545631068
 20
-325.1746601941
 30
0.0
 40
0.3000000000000114
100
AcDbArc
 50
270.0
 51
0.0
  0
ARC
  5
6B
330
1F
100
AcDbEntity
  8
0
  6
Continuous
 62
     7
370
    15
100
AcDbCircle
 10
184.0545631068
 20
-325.1746601941
 30
0.0
 40
0.3000000000000398
100
AcDbArc
 50
180.0
 51
270.0
  0
LINE
  5
6C
330
1F
100
AcDbEntity
  8
0
  6
Continuous
 62
     7
370
    15
100
AcDbLine
 10
192.6045532804
 20
-327.1746854701
 30
0.0
 11
192.6045532804
 21
-326.674662105
 31
0.0
  0
LINE
  5
6D
330
1F
100
AcDbEntity
  8
0
  6
Continuous
 62
     7
370
    15
100
AcDbLine
 10
184.6045668703
 20
-326.674662105
 30
0.0
 11
184.6045668703
 21
-327.1746854701
 31
0.0
  0
ARC
  5
6E
330
1F
100
AcDbEntity
  8
0
  6
Continuous
 62
     7
370
    15
100
AcDbCircle
 10
208.305124657
 20
689.8391291802
 30
0.0
 40
5.000000000000231
100
AcDbArc
 50
287.6399304426
 51
359.9577691762
  0
ARC
  5
6F
330
1F
100
AcDbEntity
  8
0
  6
Continuous
 62
     7
370
    15
100
AcDbCircle
 10
208.305124657
 20
705.2115504317
 30
0.0
 40
5.000000000000342
100
AcDbArc
 50
0.0627249056
 51
72.3652311741
  0
LINE
  5
70
330
1F
100
AcDbEntity
  8
0
  6
Continuous
 62
     7
370
    15
100
AcDbLine
 10
79.9689407926
 20
660.9796662412
 30
0.0
 11
83.3289738279
 21
670.2069420896
 31
0.0
  0
LINE
  5
71
330
1F
100
AcDbEntity
  8
0
  6
Continuous
 62
     7
370
    15
100
AcDbLine
 10
44.3826581817
 20
670.0352807126
 30
0.0
 11
47.7410222869
 21
660.8125348173
 31
0.0
  0
LINE
  5
72
330
1F
100
AcDbEntity
  8
0
  6
Continuous
 62
     7
370
    15
100
AcDbLine
 10
44.3202372175
 20
670.206703671
 30
0.0
 11
44.3826581817
 21
670.0352807126
 31
0.0
  0
LINE
  5
73
330
1F
100
AcDbEntity
  8
0
  6
Continuous
 62
     7
370
    15
100
AcDbLine
 10
628.7745650392
 20
-325.1746516146
 30
0.0
 11
628.2745416742
 21
-324.6746878543
 31
0.0
  0
LINE
  5
74
330
1F
100
AcDbEntity
  8
0
  6
Continuous
 62
     7
370
    15
100
AcDbLine
 10
612.2745688539
 20
-324.6746878543
 30
0.0
 11
611.7745454889
 21
-325.1746516146
 31
0.0
  0
LINE
  5
75
330
1F
100
AcDbEntity
  8
0
  6
Continuous
 62
     7
370
    15
100
AcDbLine
 10
611.7745454889
 20
-325.1746516146
 30
0.0
 11
611.7745454889
 21
-326.5746455111
 31
0.0
  0
LINE
  5
76
330
1F
100
AcDbEntity
  8
0
  6
Continuous
 62
     7
370
    15
100
AcDbLine
 10
628.7745650392
 20
-326.5746455111
 30
0.0
 11
628.7745650392
 21
-325.1746516146
 31
0.0
  0
LINE
  5
77
330
1F
100
AcDbEntity
  8
0
  6
Continuous
 62
     7
370
    15
100
AcDbLine
 10
628.7745650392
 20
1072.8253502927
 30
0.0
 11
628.7745650392
 21
1074.3253607831
 31
0.0
  0
LINE
  5
78
330
1F
100
AcDbEntity
  8
0
  6
Continuous
 62
     7
370
    15
100
AcDbLine
 10
611.7745454889
 20
1074.3253607831
 30
0.0
 11
611.7745454889
 21
1072.8253502927
 31
0.0
  0
LINE
  5
79
330
1F
100
AcDbEntity
  8
0
  6
Continuous
 62
     7
370
    15
100
AcDbLine
 10
628.7745650392
 20
1074.3253607831
 30
0.0
 11
628.2745416742
 21
1074.8253245435
 31
0.0
  0
LINE
  5
7A
330
1F
100
AcDbEntity
  8
0
  6
Continuous
 62
     7
370
    15
100
AcDbLine
 10
612.2745688539
 20
1074.8253245435
 30
0.0
 11
611.7745454889
 21
1074.3253607831
 31
0.0
  0
LINE
  5
7B
330
1F
100
AcDbEntity
  8
0
  6
Continuous
 62
     7
370
    15
100
AcDbLine
 10
611.7745454889
 20
1072.8253502927
 30
0.0
 11
612.2745688539
 21
1072.3253865323
 31
0.0
  0
LINE
  5
7C
330
1F
100
AcDbEntity
  8
0
  6
Continuous
 62
     7
370
    15
100
AcDbLine
 10
628.2745416742
 20
1072.3253865323
 30
0.0
 11
628.7745650392
 21
1072.8253502927
 31
0.0
  0
LINE
  5
7D
330
1F
100
AcDbEntity
  8
0
  6
Continuous
 62
     7
370
    15
100
AcDbLine
 10
628.7745650392
 20
199.8253245435
 30
0.0
 11
628.7745650392
 21
201.3253350339
 31
0.0
  0
LINE
  5
7E
330
1F
100
AcDbEntity
  8
0
  6
Continuous
 62
     7
370
    15
100
AcDbLine
 10
611.7745454889
 20
201.3253350339
 30
0.0
 11
611.7745454889
 21
199.8253245435
 31
0.0
  0
LINE
  5
7F
330
1F
100
AcDbEntity
  8
0
  6
Continuous
 62
     7
370
    15
100
AcDbLine
 10
611.7745454889
 20
199.8253245435
 30
0.0
 11
612.074535666
 21
199.525393971
 31
0.0
  0
LINE
  5
80
330
1F
100
AcDbEntity
  8
0
  6
Continuous
 62
     7
370
    15
100
AcDbLine
 10
628.2745416742
 20
199.3253607831
 30
0.0
 11
628.7745650392
 21
199.8253245435
 31
0.0
  0
LINE
  5
81
330
1F
100
AcDbEntity
  8
0
  6
Continuous
 62
     7
370
    15
100
AcDbLine
 10
628.7745650392
 20
201.3253350339
 30
0.0
 11
628.2745416742
 21
201.8252987943
 31
0.0
  0
LINE
  5
82
330
1F
100
AcDbEntity
  8
0
  6
Continuous
 62
     7
370
    15
100
AcDbLine
 10
612.2745688539
 20
201.8252987943
 30
0.0
 11
611.7745454889
 21
201.3253350339
 31
0.0
  0
LINE
  5
83
330
1F
100
AcDbEntity
  8
0
  6
Continuous
 62
     7
370
    15
100
AcDbLine
 10
611.7745454889
 20
211.8252892576
 30
0.0
 11
611.7745454889
 21
210.3253979764
 31
0.0
  0
LINE
  5
84
330
1F
100
AcDbEntity
  8
0
  6
Continuous
 62
     7
370
    15
100
AcDbLine
 10
628.7745650392
 20
210.3253979764
 30
0.0
 11
628.7745650392
 21
211.8252892576
 31
0.0
  0
LINE
  5
85
330
1F
100
AcDbEntity
  8
0
  6
Continuous
 62
     7
370
    15
100
AcDbLine
 10
628.7745650392
 20
211.8252892576
 30
0.0
 11
628.2745416742
 21
212.3253722272
 31
0.0
  0
LINE
  5
86
330
1F
100
AcDbEntity
  8
0
  6
Continuous
 62
     7
370
    15
100
AcDbLine
 10
612.2745688539
 20
212.3253722272
 30
0.0
 11
611.7745454889
 21
211.8252892576
 31
0.0
  0
LINE
  5
87
330
1F
100
AcDbEntity
  8
0
  6
Continuous
 62
     7
370
    15
100
AcDbLine
 10
611.7745454889
 20
210.3253979764
 30
0.0
 11
612.2745688539
 21
209.8253150068
 31
0.0
  0
LINE
  5
88
330
1F
100
AcDbEntity
  8
0
  6
Continuous
 62
     7
370
    15
100
AcDbLine
 10
628.2745416742
 20
209.8253150068
 30
0.0
 11
628.7745650392
 21
210.3253979764
 31
0.0
  0
ARC
  5
89
330
1F
100
AcDbEntity
  8
0
  6
Continuous
 62
     7
370
    15
100
AcDbCircle
 10
139.5045631068
 20
-326.6746601941
 30
0.0
 40
0.5000000000002842
100
AcDbArc
 50
270.0
 51
0.0
  0
ARC
  5
8A
330
1F
100
AcDbEntity
  8
0
  6
Continuous
 62
     7
370
    15
100
AcDbCircle
 10
127.7045631068
 20
-326.6746601941
 30
0.0
 40
0.5000000000002842
100
AcDbArc
 50
180.0
 51
270.0
  0
LINE
  5
8B
330
1F
100
AcDbEntity
  8
0
  6
Continuous
 62
     7
370
    15
100
AcDbLine
 10
140.004556952
 20
-326.674662105
 30
0.0
 11
140.004556952
 21
-326.4246802249
 31
0.0
  0
LINE
  5
8C
330
1F
100
AcDbEntity
  8
0
  6
Continuous
 62
     7
370
    15
100
AcDbLine
 10
127.2045488935
 20
-326.4246802249
 30
0.0
 11
127.2045488935
 21
-326.674662105
 31
0.0
  0
ARC
  5
8D
330
1F
100
AcDbEntity
  8
0
  6
Continuous
 62
     7
370
    15
100
AcDbCircle
 10
139.5045631068
 20
-326.4246601941
 30
0.0
 40
0.4999999999999432
100
AcDbArc
 50
0.0
 51
90.0
  0
ARC
  5
8E
330
1F
100
AcDbEntity
  8
0
  6
Continuous
 62
     7
370
    15
100
AcDbCircle
 10
127.7045631068
 20
-326.4246601941
 30
0.0
 40
0.4999999999999432
100
AcDbArc
 50
90.0
 51
180.0
  0
ARC
  5
8F
330
1F
100
AcDbEntity
  8
0
  6
Continuous
 62
     7
370
    15
100
AcDbCircle
 10
138.8045631068
 20
-325.4246601941
 30
0.0
 40
0.5000000000002842
100
AcDbArc
 50
180.0
 51
270.0
  0
ARC
  5
90
330
1F
100
AcDbEntity
  8
0
  6
Continuous
 62
     7
370
    15
100
AcDbCircle
 10
128.4045631068
 20
-325.4246601941
 30
0.0
 40
0.5000000000002842
100
AcDbArc
 50
270.0
 51
0.0
  0
LINE
  5
91
330
1F
100
AcDbEntity
  8
0
  6
Continuous
 62
     7
370
    15
100
AcDbLine
 10
138.3045728784
 20
-325.4246334948
 30
0.0
 11
138.3045728784
 21
-324.6746878543
 31
0.0
  0
LINE
  5
92
330
1F
100
AcDbEntity
  8
0
  6
Continuous
 62
     7
370
    15
100
AcDbLine
 10
128.9045627695
 20
-324.6746878543
 30
0.0
 11
128.9045627695
 21
-325.4246334948
 31
0.0
  0
LINE
  5
93
330
1F
100
AcDbEntity
  8
0
  6
Continuous
 62
     7
370
    15
100
AcDbLine
 10
618.8045557123
 20
-329.6746830859
 30
0.0
 11
618.8045557123
 21
-329.574666492
 31
0.0
  0
LINE
  5
94
330
1F
100
AcDbEntity
  8
0
  6
Continuous
 62
     7
370
    15
100
AcDbLine
 10
608.4045584779
 20
-329.1746597209
 30
0.0
 11
608.4045584779
 21
-329.6746830859
 31
0.0
  0
LINE
  5
95
330
1F
100
AcDbEntity
  8
0
  6
Continuous
 62
     7
370
    15
100
AcDbLine
 10
548.8045628648
 20
-329.6746830859
 30
0.0
 11
548.8045628648
 21
-329.1746597209
 31
0.0
  0
LINE
  5
96
330
1F
100
AcDbEntity
  8
0
  6
Continuous
 62
     7
370
    15
100
AcDbLine
 10
538.4045656305
 20
-329.1746597209
 30
0.0
 11
538.4045656305
 21
-329.6746830859
 31
0.0
  0
LINE
  5
97
330
1F
100
AcDbEntity
  8
0
  6
Continuous
 62
     7
370
    15
100
AcDbLine
 10
68.8045586925
 20
-329.6746830859
 30
0.0
 11
68.8045586925
 21
-329.1746597209
 31
0.0
  0
LINE
  5
98
330
1F
100
AcDbEntity
  8
0
  6
Continuous
 62
     7
370
    15
100
AcDbLine
 10
58.4045614582
 20
-329.1746597209
 30
0.0
 11
58.4045614582
 21
-329.6746830859
 31
0.0
  0
LINE
  5
99
330
1F
100
AcDbEntity
  8
0
  6
Continuous
 62
     7
370
    15
100
AcDbLine
 10
58.8045682292
 20
-327.1746854701
 30
0.0
 11
58.8045682292
 21
-326.674662105
 31
0.0
  0
LINE
  5
9A
330
1F
100
AcDbEntity
  8
0
  6
Continuous
 62
     7
370
    15
100
AcDbLine
 10
48.4045560937
 20
-326.674662105
 30
0.0
 11
48.4045560937
 21
-327.1746854701
 31
0.0
  0
LINE
  5
9B
330
1F
100
AcDbEntity
  8
0
  6
Continuous
 62
     7
370
    15
100
AcDbLine
 10
71.8045647722
 20
-327.1746854701
 30
0.0
 11
71.8045647722
 21
-326.674662105
 31
0.0
  0
LINE
  5
9C
330
1F
100
AcDbEntity
  8
0
  6
Continuous
 62
     7
370
    15
100
AcDbLine
 10
61.4045675378
 20
-326.674662105
 30
0.0
 11
61.4045675378
 21
-327.1746854701
 31
0.0
  0
LINE
  5
9D
330
1F
100
AcDbEntity
  8
0
  6
Continuous
 62
     7
370
    15
100
AcDbLine
 10
144.6045752149
 20
-499.6746699729
 30
0.0
 11
144.6045752149
 21
-497.6746659197
 31
0.0
  0
LINE
  5
9E
330
1F
100
AcDbEntity
  8
0
  6
Continuous
 62
     7
370
    15
100
AcDbLine
 10
52.6045675855
 20
-497.6746659197
 30
0.0
 11
52.6045675855
 21
-499.6746699729
 31
0.0
  0
LINE
  5
9F
330
1F
100
AcDbEntity
  8
0
  6
Continuous
 62
     7
370
    15
100
AcDbLine
 10
624.6045644861
 20
-499.6746699729
 30
0.0
 11
624.6045644861
 21
-497.6746659197
 31
0.0
  0
LINE
  5
A0
330
1F
100
AcDbEntity
  8
0
  6
Continuous
 62
     7
370
    15
100
AcDbLine
 10
532.6045568567
 20
-497.6746659197
 30
0.0
 11
532.6045568567
 21
-499.6746699729
 31
0.0
  0
LINE
  5
A1
330
1F
100
AcDbEntity
  8
0
  6
Continuous
 62
     7
370
    15
100
AcDbLine
 10
126.9045587163
 20
-497.6746659197
 30
0.0
 11
126.9045587163
 21
-425.6746690192
 31
0.0
  0
LINE
  5
A2
330
1F
100
AcDbEntity
  8
0
  6
Continuous
 62
     7
370
    15
100
AcDbLine
 10
70.3045691829
 20
-425.6746690192
 30
0.0
 11
70.3045691829
 21
-497.6746659197
 31
0.0
  0
LINE
  5
A3
330
1F
100
AcDbEntity
  8
0
  6
Continuous
 62
     7
370
    15
100
AcDbLine
 10
606.9045479875
 20
-497.6746659197
 30
0.0
 11
606.9045479875
 21
-425.6746690192
 31
0.0
  0
LINE
  5
A4
330
1F
100
AcDbEntity
  8
0
  6
Continuous
 62
     7
370
    15
100
AcDbLine
 10
550.3045733552
 20
-425.6746690192
 30
0.0
 11
550.3045733552
 21
-497.6746659197
 31
0.0
  0
ARC
  5
A5
330
1F
100
AcDbEntity
  8
0
  6
Continuous
 62
     7
370
    15
100
AcDbCircle
 10
65.2045631068
 20
-333.1746601941
 30
0.0
 40
1.500000000000057
100
AcDbArc
 50
0.0
 51
90.0
  0
LINE
  5
A6
330
1F
100
AcDbEntity
  8
0
  6
Continuous
 62
     7
370
    15
100
AcDbLine
 10
130.5045600515
 20
-419.6420829215
 30
0.0
 11
130.5045600515
 21
-339.1746501841
 31
0.0
  0
LINE
  5
A7
330
1F
100
AcDbEntity
  8
0
  6
Continuous
 62
     7
370
    15
100
AcDbLine
 10
66.7045678478
 20
-333.1746678271
 30
0.0
 11
66.7045678478
 21
-419.6420829215
 31
0.0
  0
ARC
  5
A8
330
1F
100
AcDbEntity
  8
0
  6
Continuous
 62
     7
370
    15
100
AcDbCircle
 10
125.8045631068
 20
-419.6420942484
 30
0.0
 40
4.699999999999989
100
AcDbArc
 50
350.5402980318
 51
0.0
  0
ARC
  5
A9
330
1F
100
AcDbEntity
  8
0
  6
Continuous
 62
     7
370
    15
100
AcDbCircle
 10
71.4045631068
 20
-419.6420942484
 30
0.0
 40
4.700000000000053
100
AcDbArc
 50
180.0
 51
189.4597019682
  0
LINE
  5
AA
330
1F
100
AcDbEntity
  8
0
  6
Continuous
 62
     7
370
    15
100
AcDbLine
 10
66.7684789281
 20
-420.4145591178
 30
0.0
 11
67.6449056249
 21
-425.6746690192
 31
0.0
  0
LINE
  5
AB
330
1F
100
AcDbEntity
  8
0
  6
Continuous
 62
     7
370
    15
100
AcDbLine
 10
129.5642073732
 20
-425.6746690192
 30
0.0
 11
130.4406638723
 21
-420.4145591178
 31
0.0
  0
ARC
  5
AC
330
1F
100
AcDbEntity
  8
0
  6
Continuous
 62
     7
370
    15
100
AcDbCircle
 10
612.0045631069
 20
-333.1746601943
 30
0.0
 40
1.500000000000057
100
AcDbArc
 50
90.0
 51
180.0
  0
ARC
  5
AD
330
1F
100
AcDbEntity
  8
0
  6
Continuous
 62
     7
370
    15
100
AcDbCircle
 10
545.2045631069
 20
-333.1746601943
 30
0.0
 40
1.500000000000114
100
AcDbArc
 50
0.0
 51
90.0
  0
LINE
  5
AE
330
1F
100
AcDbEntity
  8
0
  6
Continuous
 62
     7
370
    15
100
AcDbLine
 10
610.5045493226
 20
-419.6420829215
 30
0.0
 11
610.5045493226
 21
-333.1746678271
 31
0.0
  0
LINE
  5
AF
330
1F
100
AcDbEntity
  8
0
  6
Continuous
 62
     7
370
    15
100
AcDbLine
 10
546.7045720201
 20
-333.1746678271
 30
0.0
 11
546.7045720201
 21
-419.6420829215
 31
0.0
  0
ARC
  5
B0
330
1F
100
AcDbEntity
  8
0
  6
Continuous
 62
     7
370
    15
100
AcDbCircle
 10
605.8045631069
 20
-419.6420942486
 30
0.0
 40
4.699999999999932
100
AcDbArc
 50
350.5402980318
 51
0.0
  0
ARC
  5
B1
330
1F
100
AcDbEntity
  8
0
  6
Continuous
 62
     7
370
    15
100
AcDbCircle
 10
551.4045631069
 20
-419.6420942486
 30
0.0
 40
4.700000000000122
100
AcDbArc
 50
180.0
 51
189.4597019682
  0
LINE
  5
B2
330
1F
100
AcDbEntity
  8
0
  6
Continuous
 62
     7
370
    15
100
AcDbLine
 10
546.7684681993
 20
-420.4145591178
 30
0.0
 11
547.6448948961
 21
-425.6746690192
 31
0.0
  0
LINE
  5
B3
330
1F
100
AcDbEntity
  8
0
  6
Continuous
 62
     7
370
    15
100
AcDbLine
 10
609.5642264467
 20
-425.6746690192
 30
0.0
 11
610.4406531435
 21
-420.4145591178
 31
0.0
  0
LINE
  5
B4
330
1F
100
AcDbEntity
  8
0
  6
Continuous
 62
     7
370
    15
100
AcDbLine
 10
624.1745765787
 20
-329.574666492
 30
0.0
 11
624.1745765787
 21
-328.0746560015
 31
0.0
  0
LINE
  5
B5
330
1F
100
AcDbEntity
  8
0
  6
Continuous
 62
     7
370
    15
100
AcDbLine
 10
616.3745339494
 20
-328.0746560015
 30
0.0
 11
616.3745339494
 21
-329.574666492
 31
0.0
  0
LINE
  5
B6
330
1F
100
AcDbEntity
  8
0
  6
Continuous
 62
     7
370
    15
100
AcDbLine
 10
615.2745898347
 20
204.8253197751
 30
0.0
 11
615.2745898347
 21
201.8252987943
 31
0.0
  0
LINE
  5
B7
330
1F
100
AcDbEntity
  8
0
  6
Continuous
 62
     7
370
    15
100
AcDbLine
 10
625.274580298
 20
201.8252987943
 30
0.0
 11
625.274580298
 21
204.8253197751
 31
0.0
  0
LINE
  5
B8
330
1F
100
AcDbEntity
  8
0
  6
Continuous
 62
     7
370
    15
100
AcDbLine
 10
615.1045377832
 20
1077.325381764
 30
0.0
 11
615.1045377832
 21
1074.8253245435
 31
0.0
  0
LINE
  5
B9
330
1F
100
AcDbEntity
  8
0
  6
Continuous
 62
     7
370
    15
100
AcDbLine
 10
625.1045878511
 20
1074.8253245435
 30
0.0
 11
625.1045878511
 21
1077.325381764
 31
0.0
  0
SPLINE
  5
BA
330
1F
100
AcDbEntity
  8
0
  6
Continuous
 62
     7
370
    15
100
AcDbSpline
210
0.0
220
0.0
230
1.0
 70
     8
 71
     3
 72
     9
 73
     5
 74
     0
 42
0.00000001
 43
0.00000001
 40
0.0
 40
0.0
 40
0.0
 40
0.0
 40
0.4960236559013273
 40
1.0
 40
1.0
 40
1.0
 40
1.0
 10
218.604576168582
 20
211.5153451047279
 30
0.0
 10
219.6188886383721
 20
211.555060498806
 30
0.0
 10
221.6637759289733
 20
211.6351280391451
 30
0.0
 10
223.660449781536
 20
212.0841663697922
 30
0.0
 10
224.6667261701079
 20
212.3104710660316
 30
0.0
  0
SPLINE
  5
BB
330
1F
100
AcDbEntity
  8
0
  6
Continuous
 62
     7
370
    15
100
AcDbSpline
210
0.0
220
0.0
230
1.0
 70
     8
 71
     3
 72
     9
 73
     5
 74
     0
 42
0.00000001
 43
0.00000001
 40
0.0
 40
0.0
 40
0.0
 40
0.0
 40
0.4966628379213457
 40
1.0
 40
1.0
 40
1.0
 40
1.0
 10
224.6667261701079
 20
212.3104710660318
 30
0.0
 10
225.1625141160926
 20
212.0871370612892
 30
0.0
 10
226.1607525751237
 20
211.6374678134808
 30
0.0
 10
227.1831967991088
 20
211.5562334025759
 30
0.0
 10
227.6978309731932
 20
211.5153451047279
 30
0.0
  0
LINE
  5
BC
330
1F
100
AcDbEntity
  8
0
  6
Continuous
 62
     7
370
    15
100
AcDbLine
 10
227.6978309732
 20
211.5153451047
 30
0.0
 11
218.6045761686
 21
211.5153451047
 31
0.0
  0
SPLINE
  5
BD
330
1F
100
AcDbEntity
  8
0
  6
Continuous
 62
     7
370
    15
100
AcDbSpline
210
0.0
220
0.0
230
1.0
 70
     8
 71
     3
 72
     9
 73
     5
 74
     0
 42
0.00000001
 43
0.00000001
 40
0.0
 40
0.0
 40
0.0
 40
0.0
 40
0.4960245908933791
 40
1.0
 40
1.0
 40
1.0
 40
1.0
 10
209.5112915616484
 20
211.5153451047279
 30
0.0
 10
210.0184449141397
 20
211.5550602636741
 30
0.0
 10
211.0408808211535
 20
211.6351271790556
 30
0.0
 10
212.0392452455241
 20
212.0841663607385
 30
0.0
 10
212.5423963647337
 20
212.3104710660316
 30
0.0
  0
SPLINE
  5
BE
330
1F
100
AcDbEntity
  8
0
  6
Continuous
 62
     7
370
    15
100
AcDbSpline
210
0.0
220
0.0
230
1.0
 70
     8
 71
     3
 72
     9
 73
     5
 74
     0
 42
0.00000001
 43
0.00000001
 40
0.0
 40
0.0
 40
0.0
 40
0.0
 40
0.4966608547553687
 40
1.0
 40
1.0
 40
1.0
 40
1.0
 10
212.5423963647337
 20
212.3104710660316
 30
0.0
 10
213.5339470291167
 20
212.0871370422904
 30
0.0
 10
215.5303811247156
 20
211.6374659606999
 30
0.0
 10
217.575292316971
 20
211.5562328894012
 30
0.0
 10
218.604576168582
 20
211.5153451047279
 30
0.0
  0
LINE
  5
BF
330
1F
100
AcDbEntity
  8
0
  6
Continuous
 62
     7
370
    15
100
AcDbLine
 10
218.6045761686
 20
211.5153451047
 30
0.0
 11
209.5112915616
 21
211.5153451047
 31
0.0
  0
SPLINE
  5
C0
330
1F
100
AcDbEntity
  8
0
  6
Continuous
 62
     7
370
    15
100
AcDbSpline
210
0.0
220
0.0
230
1.0
 70
     8
 71
     3
 72
     9
 73
     5
 74
     0
 42
0.00000001
 43
0.00000001
 40
0.0
 40
0.0
 40
0.0
 40
0.0
 40
0.4960236572466847
 40
0.9999999999999999
 40
0.9999999999999999
 40
0.9999999999999999
 40
0.9999999999999999
 10
227.6978309731932
 20
211.5153451047279
 30
0.0
 10
228.2049872074299
 20
211.5550604984673
 30
0.0
 10
229.2274308486302
 20
211.635128037907
 30
0.0
 10
230.2257677789686
 20
212.0841663697788
 30
0.0
 10
230.7289059739561
 20
212.3104710660316
 30
0.0
  0
LINE
  5
C1
330
1F
100
AcDbEntity
  8
0
  6
Continuous
 62
     7
370
    15
100
AcDbLine
 10
224.6667261701
 20
212.3253722272
 30
0.0
 11
224.6667261701
 21
212.310471066
 31
0.0
  0
LINE
  5
C2
330
1F
100
AcDbEntity
  8
0
  6
Continuous
 62
     7
370
    15
100
AcDbLine
 10
230.728905974
 20
212.3253722272
 30
0.0
 11
230.728905974
 21
212.310471066
 31
0.0
  0
LINE
  5
C3
330
1F
100
AcDbEntity
  8
0
  6
Continuous
 62
     7
370
    15
100
AcDbLine
 10
212.5423963647
 20
212.310471066
 30
0.0
 11
212.5423963647
 21
212.3253722272
 31
0.0
  0
SPLINE
  5
C4
330
1F
100
AcDbEntity
  8
0
  6
Continuous
 62
     7
370
    15
100
AcDbSpline
210
0.0
220
0.0
230
1.0
 70
     8
 71
     3
 72
     9
 73
     5
 74
     0
 42
0.00000001
 43
0.00000001
 40
0.0
 40
0.0
 40
0.0
 40
0.0
 40
0.4966637234143482
 40
1.0
 40
1.0
 40
1.0
 40
1.0
 10
206.4802165608855
 20
212.3104710660316
 30
0.0
 10
206.9759916573504
 20
212.0871370697728
 30
0.0
 10
207.9742024649704
 20
211.6374686407534
 30
0.0
 10
208.9966544077713
 20
211.556233631709
 30
0.0
 10
209.5112915616484
 20
211.5153451047279
 30
0.0
  0
LINE
  5
C5
330
1F
100
AcDbEntity
  8
0
  6
Continuous
 62
     7
370
    15
100
AcDbLine
 10
206.4802165609
 20
212.310471066
 30
0.0
 11
206.4802165609
 21
212.3253722272
 31
0.0
  0
LINE
  5
C6
330
1F
100
AcDbEntity
  8
0
  6
Continuous
 62
     7
370
    15
100
AcDbLine
 10
212.1938582044
 20
210.5311532102
 30
0.0
 11
225.0152643304
 21
210.5311532102
 31
0.0
  0
LINE
  5
C7
330
1F
100
AcDbEntity
  8
0
  6
Continuous
 62
     7
370
    15
100
AcDbLine
 10
213.2772322278
 20
209.6221823774
 30
0.0
 11
223.931890307
 21
209.6221823774
 31
0.0
  0
LINE
  5
C8
330
1F
100
AcDbEntity
  8
0
  6
Continuous
 62
     7
370
    15
100
AcDbLine
 10
213.4515460115
 20
207.6297183118
 30
0.0
 11
223.7576063257
 21
207.6297183118
 31
0.0
  0
LINE
  5
C9
330
1F
100
AcDbEntity
  8
0
  6
Continuous
 62
     7
370
    15
100
AcDbLine
 10
212.3681719881
 20
208.5388083539
 30
0.0
 11
224.8409505468
 21
208.5388083539
 31
0.0
  0
LINE
  5
CA
330
1F
100
AcDbEntity
  8
0
  6
Continuous
 62
     7
370
    15
100
AcDbLine
 10
213.6258299928
 20
205.6373734556
 30
0.0
 11
223.583292542
 21
205.6373734556
 31
0.0
  0
LINE
  5
CB
330
1F
100
AcDbEntity
  8
0
  6
Continuous
 62
     7
370
    15
100
AcDbLine
 10
212.5424857717
 20
206.5464634977
 30
0.0
 11
224.6666367631
 21
206.5464634977
 31
0.0
  0
LINE
  5
CC
330
1F
100
AcDbEntity
  8
0
  6
Continuous
 62
     7
370
    15
100
AcDbLine
 10
213.8001437765
 20
203.6450285993
 30
0.0
 11
223.4089787584
 21
203.6450285993
 31
0.0
  0
LINE
  5
CD
330
1F
100
AcDbEntity
  8
0
  6
Continuous
 62
     7
370
    15
100
AcDbLine
 10
212.7167995553
 20
204.5539994321
 30
0.0
 11
224.4923229795
 21
204.5539994321
 31
0.0
  0
LINE
  5
CE
330
1F
100
AcDbEntity
  8
0
  6
Continuous
 62
     7
370
    15
100
AcDbLine
 10
209.5112915616
 20
211.5153451047
 30
0.0
 11
208.1045623403
 21
211.5153451047
 31
0.0
  0
LINE
  5
CF
330
1F
100
AcDbEntity
  8
0
  6
Continuous
 62
     7
370
    15
100
AcDbLine
 10
229.1045601945
 20
211.5153451047
 30
0.0
 11
227.6978309732
 21
211.5153451047
 31
0.0
  0
ELLIPSE
  5
D0
330
1F
100
AcDbEntity
  8
0
  6
Continuous
 62
     7
370
    15
100
AcDbEllipse
 10
215.3548120093
 20
212.817910773
 30
0.0
 11
-0.09133997167515417
 21
-0.4993463423997753
 31
0.0
210
0.0
220
0.0
230
1.0
 40
0.9849664182
 41
6.219192558367624
 42
6.461442079533601
  0
ELLIPSE
  5
D1
330
1F
100
AcDbEntity
  8
0
  6
Continuous
 62
     7
370
    15
100
AcDbEllipse
 10
221.8543142043
 20
212.817910773
 30
0.0
 11
-0.09133997167518261
 21
0.4993463423998037
 31
0.0
210
0.0
220
0.0
230
1.0
 40
0.9849664182
 41
2.963335881236175
 42
3.205585402399922
  0
LINE
  5
D2
330
1F
100
AcDbEntity
  8
0
  6
Continuous
 62
     7
370
    15
100
AcDbLine
 10
221.8569930177
 20
212.310471066
 30
0.0
 11
215.3521295171
 21
212.310471066
 31
0.0
  0
LINE
  5
D3
330
1F
100
AcDbEntity
  8
0
  6
Continuous
 62
     7
370
    15
100
AcDbLine
 10
634.6045549493
 20
-326.5746455111
 30
0.0
 11
634.6045549493
 21
-328.0746560015
 31
0.0
  0
LINE
  5
D4
330
1F
100
AcDbEntity
  8
0
  6
Continuous
 62
     7
370
    15
100
AcDbLine
 10
634.6045549493
 20
-328.0746560015
 30
0.0
 11
629.6045597177
 21
-328.0746560015
 31
0.0
  0
LINE
  5
D5
330
1F
100
AcDbEntity
  8
0
  6
Continuous
 62
     7
370
    15
100
AcDbLine
 10
629.6045597177
 20
-326.5746455111
 30
0.0
 11
634.6045549493
 21
-326.5746455111
 31
0.0
  0
LINE
  5
D6
330
1F
100
AcDbEntity
  8
0
  6
Continuous
 62
     7
370
    15
100
AcDbLine
 10
616.6756566148
 20
-328.0746560015
 30
0.0
 11
629.6045597177
 21
-328.0746560015
 31
0.0
  0
LINE
  5
D7
330
1F
100
AcDbEntity
  8
0
  6
Continuous
 62
     7
370
    15
100
AcDbLine
 10
616.6756566148
 20
-326.5746455111
 30
0.0
 11
629.6045597177
 21
-326.5746455111
 31
0.0
  0
LINE
  5
D8
330
1F
100
AcDbEntity
  8
0
  6
Continuous
 62
     7
370
    15
100
AcDbLine
 10
616.6756566148
 20
-328.0746560015
 30
0.0
 11
613.1400879007
 21
-328.0746560015
 31
0.0
  0
LINE
  5
D9
330
1F
100
AcDbEntity
  8
0
  6
Continuous
 62
     7
370
    15
100
AcDbLine
 10
613.1400879007
 20
-326.5746455111
 30
0.0
 11
616.6756566148
 21
-326.5746455111
 31
0.0
  0
LINE
  5
DA
330
1F
100
AcDbEntity
  8
0
  6
Continuous
 62
     7
370
    15
100
AcDbLine
 10
601.0690148454
 20
-328.0746560015
 30
0.0
 11
613.1400879007
 21
-328.0746560015
 31
0.0
  0
LINE
  5
DB
330
1F
100
AcDbEntity
  8
0
  6
Continuous
 62
     7
370
    15
100
AcDbLine
 10
601.0690148454
 20
-326.5746455111
 30
0.0
 11
613.1400879007
 21
-326.5746455111
 31
0.0
  0
LINE
  5
DC
330
1F
100
AcDbEntity
  8
0
  6
Continuous
 62
     7
370
    15
100
AcDbLine
 10
599.6045883279
 20
-328.0746560015
 30
0.0
 11
599.6045883279
 21
-326.5746455111
 31
0.0
  0
LINE
  5
DD
330
1F
100
AcDbEntity
  8
0
  6
Continuous
 62
     7
370
    15
100
AcDbLine
 10
601.0690148454
 20
-328.0746560015
 30
0.0
 11
599.6045883279
 21
-328.0746560015
 31
0.0
  0
LINE
  5
DE
330
1F
100
AcDbEntity
  8
0
  6
Continuous
 62
     7
370
    15
100
AcDbLine
 10
599.6045883279
 20
-326.5746455111
 30
0.0
 11
601.0690148454
 21
-326.5746455111
 31
0.0
  0
LINE
  5
DF
330
1F
100
AcDbEntity
  8
0
  6
Continuous
 62
     7
370
    15
100
AcDbLine
 10
634.6045549493
 20
-326.5746455111
 30
0.0
 11
634.6045549493
 21
-324.8246531405
 31
0.0
  0
LINE
  5
E0
330
1F
100
AcDbEntity
  8
0
  6
Continuous
 62
     7
370
    15
100
AcDbLine
 10
599.6045883279
 20
-324.8246531405
 30
0.0
 11
599.6045883279
 21
-326.5746455111
 31
0.0
  0
LINE
  5
E1
330
1F
100
AcDbEntity
  8
0
  6
Continuous
 62
     7
370
    15
100
AcDbLine
 10
634.6045549493
 20
-324.6746878543
 30
0.0
 11
634.6045549493
 21
-324.8246531405
 31
0.0
  0
LINE
  5
E2
330
1F
100
AcDbEntity
  8
0
  6
Continuous
 62
     7
370
    15
100
AcDbLine
 10
599.6045883279
 20
-324.8246531405
 30
0.0
 11
599.6045883279
 21
-324.6746878543
 31
0.0
  0
LINE
  5
E3
330
1F
100
AcDbEntity
  8
0
  6
Continuous
 62
     7
370
    15
100
AcDbLine
 10
638.4045894723
 20
1077.325381764
 30
0.0
 11
638.4045894723
 21
1079.7753710828
 31
0.0
  0
LINE
  5
E4
330
1F
100
AcDbEntity
  8
0
  6
Continuous
 62
     7
370
    15
100
AcDbLine
 10
638.4045894723
 20
1077.325381764
 30
0.0
 11
38.8045575004
 21
1077.325381764
 31
0.0
  0
LINE
  5
E5
330
1F
100
AcDbEntity
  8
0
  6
Continuous
 62
     7
370
    15
100
AcDbLine
 10
38.8045575004
 20
1077.325381764
 30
0.0
 11
38.8045575004
 21
1079.7753710828
 31
0.0
  0
LINE
  5
E6
330
1F
100
AcDbEntity
  8
0
  6
Continuous
 62
     7
370
    15
100
AcDbLine
 10
38.8045575004
 20
1079.7753710828
 30
0.0
 11
38.8045575004
 21
1102.425374516
 31
0.0
  0
LINE
  5
E7
330
1F
100
AcDbEntity
  8
0
  6
Continuous
 62
     7
370
    15
100
AcDbLine
 10
638.4045894723
 20
1079.7753710828
 30
0.0
 11
638.4045894723
 21
1102.425374516
 31
0.0
  0
LINE
  5
E8
330
1F
100
AcDbEntity
  8
0
  6
Continuous
 62
     7
370
    15
100
AcDbLine
 10
40.0545563083
 20
1124.8252768598
 30
0.0
 11
38.8045575004
 21
1124.8252768598
 31
0.0
  0
LINE
  5
E9
330
1F
100
AcDbEntity
  8
0
  6
Continuous
 62
     7
370
    15
100
AcDbLine
 10
637.1545608621
 20
1124.8252768598
 30
0.0
 11
40.0545563083
 21
1124.8252768598
 31
0.0
  0
LINE
  5
EA
330
1F
100
AcDbEntity
  8
0
  6
Continuous
 62
     7
370
    15
100
AcDbLine
 10
638.4045894723
 20
1124.8252768598
 30
0.0
 11
637.1545608621
 21
1124.8252768598
 31
0.0
  0
LINE
  5
EB
330
1F
100
AcDbEntity
  8
0
  6
Continuous
 62
     7
370
    15
100
AcDbLine
 10
38.8045575004
 20
1102.425374516
 30
0.0
 11
38.8045575004
 21
1124.8252768598
 31
0.0
  0
LINE
  5
EC
330
1F
100
AcDbEntity
  8
0
  6
Continuous
 62
     7
370
    15
100
AcDbLine
 10
638.4045894723
 20
1102.425374516
 30
0.0
 11
638.4045894723
 21
1124.8252768598
 31
0.0
  0
LINE
  5
ED
330
1F
100
AcDbEntity
  8
0
  6
Continuous
 62
     7
370
    15
100
AcDbLine
 10
639.604550181
 20
1079.7753710828
 30
0.0
 11
639.604550181
 21
1078.6253590665
 31
0.0
  0
LINE
  5
EE
330
1F
100
AcDbEntity
  8
0
  6
Continuous
 62
     7
370
    15
100
AcDbLine
 10
639.604550181
 20
1078.6253590665
 30
0.0
 11
638.4045894723
 21
1078.6253590665
 31
0.0
  0
LINE
  5
EF
330
1F
100
AcDbEntity
  8
0
  6
Continuous
 62
     7
370
    15
100
AcDbLine
 10
37.6045669895
 20
1079.7753710828
 30
0.0
 11
37.6045669895
 21
1102.425374516
 31
0.0
  0
LINE
  5
F0
330
1F
100
AcDbEntity
  8
0
  6
Continuous
 62
     7
370
    15
100
AcDbLine
 10
37.6045669895
 20
1078.6253590665
 30
0.0
 11
38.8045575004
 21
1078.6253590665
 31
0.0
  0
LINE
  5
F1
330
1F
100
AcDbEntity
  8
0
  6
Continuous
 62
     7
370
    15
100
AcDbLine
 10
37.6045669895
 20
1078.6253590665
 30
0.0
 11
37.6045669895
 21
1079.7753710828
 31
0.0
  0
LINE
  5
F2
330
1F
100
AcDbEntity
  8
0
  6
Continuous
 62
     7
370
    15
100
AcDbLine
 10
639.604550181
 20
1122.2753901563
 30
0.0
 11
638.4045894723
 21
1122.2753901563
 31
0.0
  0
LINE
  5
F3
330
1F
100
AcDbEntity
  8
0
  6
Continuous
 62
     7
370
    15
100
AcDbLine
 10
639.604550181
 20
1122.2753901563
 30
0.0
 11
639.604550181
 21
1102.425374516
 31
0.0
  0
LINE
  5
F4
330
1F
100
AcDbEntity
  8
0
  6
Continuous
 62
     7
370
    15
100
AcDbLine
 10
639.604550181
 20
1102.425374516
 30
0.0
 11
639.604550181
 21
1079.7753710828
 31
0.0
  0
LINE
  5
F5
330
1F
100
AcDbEntity
  8
0
  6
Continuous
 62
     7
370
    15
100
AcDbLine
 10
37.6045669895
 20
1122.2753901563
 30
0.0
 11
38.8045575004
 21
1122.2753901563
 31
0.0
  0
LINE
  5
F6
330
1F
100
AcDbEntity
  8
0
  6
Continuous
 62
     7
370
    15
100
AcDbLine
 10
37.6045669895
 20
1102.425374516
 30
0.0
 11
37.6045669895
 21
1122.2753901563
 31
0.0
  0
LINE
  5
F7
330
1F
100
AcDbEntity
  8
0
  6
Continuous
 62
     7
370
    15
100
AcDbLine
 10
639.604550181
 20
1122.3752875409
 30
0.0
 11
639.604550181
 21
1122.2753901563
 31
0.0
  0
ARC
  5
F8
330
1F
100
AcDbEntity
  8
0
  6
Continuous
 62
     7
370
    15
100
AcDbCircle
 10
637.1545631068
 20
1122.3753398061
 30
0.0
 40
2.449999999999818
100
AcDbArc
 50
0.0
 51
59.3225755274
  0
LINE
  5
F9
330
1F
100
AcDbEntity
  8
0
  6
Continuous
 62
     7
370
    15
100
AcDbLine
 10
37.6045669895
 20
1122.2753901563
 30
0.0
 11
37.6045669895
 21
1122.3752875409
 31
0.0
  0
ARC
  5
FA
330
1F
100
AcDbEntity
  8
0
  6
Continuous
 62
     7
370
    15
100
AcDbCircle
 10
40.0545631068
 20
1122.3753398061
 30
0.0
 40
2.450000000000034
100
AcDbArc
 50
120.6774244726
 51
180.0
  0
LINE
  5
FB
330
1F
100
AcDbEntity
  8
0
  6
Continuous
 62
     7
370
    15
100
AcDbLine
 10
37.6045669895
 20
1073.6253638349
 30
0.0
 11
38.8045575004
 21
1073.6253638349
 31
0.0
  0
LINE
  5
FC
330
1F
100
AcDbEntity
  8
0
  6
Continuous
 62
     7
370
    15
100
AcDbLine
 10
38.8045575004
 20
1073.6253638349
 30
0.0
 11
38.8045575004
 21
1077.325381764
 31
0.0
  0
LINE
  5
FD
330
1F
100
AcDbEntity
  8
0
  6
Continuous
 62
     7
370
    15
100
AcDbLine
 10
37.6045669895
 20
1073.6253638349
 30
0.0
 11
37.6045669895
 21
1078.6253590665
 31
0.0
  0
LINE
  5
FE
330
1F
100
AcDbEntity
  8
0
  6
Continuous
 62
     7
370
    15
100
AcDbLine
 10
639.604550181
 20
1073.6253638349
 30
0.0
 11
638.4045894723
 21
1073.6253638349
 31
0.0
  0
LINE
  5
FF
330
1F
100
AcDbEntity
  8
0
  6
Continuous
 62
     7
370
    15
100
AcDbLine
 10
639.604550181
 20
1078.6253590665
 30
0.0
 11
639.604550181
 21
1073.6253638349
 31
0.0
  0
LINE
  5
100
330
1F
100
AcDbEntity
  8
0
  6
Continuous
 62
     7
370
    15
100
AcDbLine
 10
638.4045894723
 20
1077.325381764
 30
0.0
 11
638.4045894723
 21
1073.6253638349
 31
0.0
  0
LINE
  5
101
330
1F
100
AcDbEntity
  8
0
  6
Continuous
 62
     7
370
    15
100
AcDbLine
 10
37.6045669895
 20
1069.8253293119
 30
0.0
 11
38.604569016
 21
1069.8253293119
 31
0.0
  0
LINE
  5
102
330
1F
100
AcDbEntity
  8
0
  6
Continuous
 62
     7
370
    15
100
AcDbLine
 10
38.8045575004
 20
1071.2738413892
 30
0.0
 11
38.8045575004
 21
1073.6253638349
 31
0.0
  0
LINE
  5
103
330
1F
100
AcDbEntity
  8
0
  6
Continuous
 62
     7
370
    15
100
AcDbLine
 10
37.6045669895
 20
1069.8253293119
 30
0.0
 11
37.6045669895
 21
1073.6253638349
 31
0.0
  0
LINE
  5
104
330
1F
100
AcDbEntity
  8
0
  6
Continuous
 62
     7
370
    15
100
AcDbLine
 10
639.604550181
 20
1069.8253293119
 30
0.0
 11
638.6045630556
 21
1069.8253293119
 31
0.0
  0
LINE
  5
105
330
1F
100
AcDbEntity
  8
0
  6
Continuous
 62
     7
370
    15
100
AcDbLine
 10
639.604550181
 20
1073.6253638349
 30
0.0
 11
639.604550181
 21
1069.8253293119
 31
0.0
  0
LINE
  5
106
330
1F
100
AcDbEntity
  8
0
  6
Continuous
 62
     7
370
    15
100
AcDbLine
 10
638.4045894723
 20
1073.6253638349
 30
0.0
 11
638.4045894723
 21
1071.2738413892
 31
0.0
  0
SPLINE
  5
107
330
1F
100
AcDbEntity
  8
0
  6
Continuous
 62
     7
370
    15
100
AcDbSpline
210
0.0
220
0.0
230
1.0
 70
    11
 71
     3
 72
    27
 73
    23
 74
     0
 42
0.00000001
 43
0.00000001
 40
0.0
 40
0.0
 40
0.0
 40
0.0
 40
0.0489594421868909
 40
0.0977550684910338
 40
0.1505872478404492
 40
0.2069132115004685
 40
0.2591956710419194
 40
0.3069572874894994
 40
0.3554158827601717
 40
0.4084726236417821
 40
0.4648332967397696
 40
0.5166640209958068
 40
0.5628727779239596
 40
0.6112679442801122
 40
0.6657533669307379
 40
0.7216082574091468
 40
0.772319576381752
 40
0.8197247949046714
 40
0.8691894539999273
 40
0.9235857364334898
 40
0.9795692622758806
 40
1.0
 40
1.0
 40
1.0
 40
1.0
 10
329.3819840531797
 20
1141.525306232963
 30
0.0
 10
329.4148632549893
 20
1140.951507337375
 30
0.0
 10
329.4805116464183
 20
1139.805829449049
 30
0.0
 10
330.0134399060585
 20
1138.254824340033
 30
0.0
 10
330.9090243613861
 20
1136.97034519257
 30
0.0
 10
332.2392148220332
 20
1136.140286311128
 30
0.0
 10
333.8438728434412
 20
1135.936919943619
 30
0.0
 10
335.4578869968347
 20
1136.308841645007
 30
0.0
 10
336.9723624085884
 20
1137.161227462773
 30
0.0
 10
338.2863622271708
 20
1138.489694109929
 30
0.0
 10
339.1333168053271
 20
1140.218450245591
 30
0.0
 10
339.2614814660673
 20
1142.061420581333
 30
0.0
 10
338.7578373190365
 20
1143.72510805216
 30
0.0
 10
337.7604414920482
 20
1145.180442146047
 30
0.0
 10
336.3012968201564
 20
1146.358549968086
 30
0.0
 10
334.5712811360828
 20
1147.029412275159
 30
0.0
 10
332.9261049170402
 20
1147.064175736108
 30
0.0
 10
331.5622179313738
 20
1146.558048542354
 30
0.0
 10
330.4796389100889
 20
1145.576829871071
 30
0.0
 10
329.7193719852111
 20
1144.126646141256
 30
0.0
 10
329.4104223141462
 20
1142.655755402721
 30
0.0
 10
329.3879834815798
 20
1141.76378948135
 30
0.0
 10
329.3819840531798
 20
1141.525306232963
 30
0.0
  0
SPLINE
  5
108
330
1F
100
AcDbEntity
  8
0
  6
Continuous
 62
     7
370
    15
100
AcDbSpline
210
0.0
220
0.0
230
1.0
 70
    11
 71
     3
 72
    27
 73
    23
 74
     0
 42
0.00000001
 43
0.00000001
 40
0.0
 40
0.0
 40
0.0
 40
0.0
 40
0.0493963630993518
 40
0.0986792517655928
 40
0.1509647071841989
 40
0.2072433529579136
 40
0.2600859013065493
 40
0.3066477294071179
 40
0.3543446392295668
 40
0.4080866891105406
 40
0.464257432249591
 40
0.5157473578078605
 40
0.5632778492154131
 40
0.6122028390557729
 40
0.6659450663767428
 40
0.7222025969498247
 40
0.7730238570940792
 40
0.8190537058840403
 40
0.8682157832526852
 40
0.9233374994874393
 40
0.9787391967248744
 40
1.0
 40
1.0
 40
1.0
 40
1.0
 10
348.4079654794187
 20
1147.025384434257
 30
0.0
 10
348.1209410204885
 20
1146.971644234398
 30
0.0
 10
347.5475514616521
 20
1146.864287287872
 30
0.0
 10
346.4914579746949
 20
1146.03512649555
 30
0.0
 10
345.4719102355776
 20
1144.770430290594
 30
0.0
 10
344.7090762336368
 20
1143.082581468656
 30
0.0
 10
344.5147115259977
 20
1141.233381607196
 30
0.0
 10
344.8768242270266
 20
1139.538959216593
 30
0.0
 10
345.6276009476283
 20
1138.055865257015
 30
0.0
 10
346.6693426518517
 20
1136.828020649563
 30
0.0
 10
347.7828598488127
 20
1136.075103929549
 30
0.0
 10
348.675425839151
 20
1135.956408919192
 30
0.0
 10
349.2446243117068
 20
1136.395712492354
 30
0.0
 10
349.5408628060111
 20
1137.31176104505
 30
0.0
 10
349.62050696295
 20
1138.702150034695
 30
0.0
 10
349.5897816325876
 20
1140.467595548717
 30
0.0
 10
349.5876513719989
 20
1142.297883025437
 30
0.0
 10
349.6134489606977
 20
1143.9315282288
 30
0.0
 10
349.5835021626903
 20
1145.359791151648
 30
0.0
 10
349.356963810422
 20
1146.478777046289
 30
0.0
 10
348.9053627558639
 20
1146.978074143871
 30
0.0
 10
348.5159588296739
 20
1147.015112571095
 30
0.0
 10
348.4079654794187
 20
1147.025384434257
 30
0.0
  0
SPLINE
  5
109
330
1F
100
AcDbEntity
  8
0
  6
Continuous
 62
     7
370
    15
100
AcDbSpline
210
0.0
220
0.0
230
1.0
 70
     8
 71
     3
 72
    10
 73
     6
 74
     0
 42
0.00000001
 43
0.00000001
 40
0.0
 40
0.0
 40
0.0
 40
0.0
 40
0.3648328991955105
 40
0.7284410663482541
 40
1.0
 40
1.0
 40
1.0
 40
1.0
 10
332.6092179398985
 20
1141.525306232963
 30
0.0
 10
332.5561742859555
 20
1140.95421293032
 30
0.0
 10
332.450265043871
 20
1139.813943466467
 30
0.0
 10
331.795435524399
 20
1138.394747995964
 30
0.0
 10
331.2433302435148
 20
1137.746820645169
 30
0.0
 10
331.0072835069151
 20
1137.469806202445
 30
0.0
  0
SPLINE
  5
10A
330
1F
100
AcDbEntity
  8
0
  6
Continuous
 62
     7
370
    15
100
AcDbSpline
210
0.0
220
0.0
230
1.0
 70
     8
 71
     3
 72
    11
 73
     7
 74
     0
 42
0.00000001
 43
0.00000001
 40
0.0
 40
0.0
 40
0.0
 40
0.0
 40
0.2152355239860004
 40
0.6120572783791263
 40
0.9658365764138291
 40
1.0
 40
1.0
 40
1.0
 40
1.0
 10
327.6127393823118
 20
1139.414109715018
 30
0.0
 10
327.6120782764984
 20
1139.704657044149
 30
0.0
 10
327.610198314411
 20
1140.53087571017
 30
0.0
 10
327.6317792468058
 20
1142.050877219895
 30
0.0
 10
327.5943373237915
 20
1143.264043627418
 30
0.0
 10
327.6068675597918
 20
1143.750758953086
 30
0.0
 10
327.6079710107298
 20
1143.793620594535
 30
0.0
  0
SPLINE
  5
10B
330
1F
100
AcDbEntity
  8
0
  6
Continuous
 62
     7
370
    15
100
AcDbSpline
210
0.0
220
0.0
230
1.0
 70
     8
 71
     3
 72
    11
 73
     7
 74
     0
 42
0.00000001
 43
0.00000001
 40
0.0
 40
0.0
 40
0.0
 40
0.0
 40
0.0357205258166046
 40
0.4367056700730308
 40
0.8493933935839764
 40
1.0
 40
1.0
 40
1.0
 40
1.0
 10
330.9928889852018
 20
1145.640649326835
 30
0.0
 10
331.0253654719527
 20
1145.610214068004
 30
0.0
 10
331.4224107444924
 20
1145.238124077795
 30
0.0
 10
332.089050238648
 20
1144.096059881013
 30
0.0
 10
332.5660719842234
 20
1142.658146210562
 30
0.0
 10
332.6001157442941
 20
1141.764293431261
 30
0.0
 10
332.6092179398985
 20
1141.525306232963
 30
0.0
  0
SPLINE
  5
10C
330
1F
100
AcDbEntity
  8
0
  6
Continuous
 62
     7
370
    15
100
AcDbSpline
210
0.0
220
0.0
230
1.0
 70
     8
 71
     3
 72
     9
 73
     5
 74
     0
 42
0.00000001
 43
0.00000001
 40
0.0
 40
0.0
 40
0.0
 40
0.0
 40
0.7335540444248833
 40
1.0
 40
1.0
 40
1.0
 40
1.0
 10
338.0237634759397
 20
1141.525306232963
 30
0.0
 10
338.0598997266598
 20
1142.110726448899
 30
0.0
 10
338.1091616058554
 20
1142.908786551472
 30
0.0
 10
338.5206586247565
 20
1143.577340204851
 30
0.0
 10
338.6303003411741
 20
1143.755473621879
 30
0.0
  0
SPLINE
  5
10D
330
1F
100
AcDbEntity
  8
0
  6
Continuous
 62
     7
370
    15
100
AcDbSpline
210
0.0
220
0.0
230
1.0
 70
     8
 71
     3
 72
     9
 73
     5
 74
     0
 42
0.00000001
 43
0.00000001
 40
0.0
 40
0.0
 40
0.0
 40
0.0
 40
0.6798119969472896
 40
1.0
 40
1.0
 40
1.0
 40
1.0
 10
338.5898883920164
 20
1139.383115299735
 30
0.0
 10
338.3737371306091
 20
1139.849848435374
 30
0.0
 10
338.05577972124
 20
1140.536410510969
 30
0.0
 10
338.031528443978
 20
1141.285467251151
 30
0.0
 10
338.0237634759399
 20
1141.525306232963
 30
0.0
  0
LINE
  5
10E
330
1F
100
AcDbEntity
  8
0
  6
Continuous
 62
     7
370
    15
100
AcDbLine
 10
327.604573546
 20
1157.5253386579
 30
0.0
 11
349.6045883279
 21
1157.5253386579
 31
0.0
  0
SPLINE
  5
10F
330
1F
100
AcDbEntity
  8
0
  6
Continuous
 62
     7
370
    15
100
AcDbSpline
210
0.0
220
0.0
230
1.0
 70
     8
 71
     3
 72
    12
 73
     8
 74
     0
 42
0.00000001
 43
0.00000001
 40
0.0
 40
0.0
 40
0.0
 40
0.0
 40
0.1930727901271491
 40
0.3854192109477734
 40
0.596038827297845
 40
0.8231414820554872
 40
1.0
 40
1.0
 40
1.0
 40
1.0
 10
329.7528441529723
 20
1141.525306232963
 30
0.0
 10
329.7837900839242
 20
1140.958303719168
 30
0.0
 10
329.8455655225122
 20
1139.826431841582
 30
0.0
 10
330.3478854980647
 20
1138.286932269231
 30
0.0
 10
331.2127579356315
 20
1137.0125638425
 30
0.0
 10
332.4417978353731
 20
1136.155534445053
 30
0.0
 10
333.4882227355672
 20
1136.092598126951
 30
0.0
 10
333.9463587384672
 20
1136.065043934379
 30
0.0
  0
SPLINE
  5
110
330
1F
100
AcDbEntity
  8
0
  6
Continuous
 62
     7
370
    15
100
AcDbSpline
210
0.0
220
0.0
230
1.0
 70
     8
 71
     3
 72
    13
 73
     9
 74
     0
 42
0.00000001
 43
0.00000001
 40
0.0
 40
0.0
 40
0.0
 40
0.0
 40
0.0732245332319334
 40
0.2600065078285867
 40
0.453950529430708
 40
0.669406725600777
 40
0.8960472604470596
 40
1.0
 40
1.0
 40
1.0
 40
1.0
 10
333.9461799245329
 20
1146.958388813529
 30
0.0
 10
333.7506473315855
 20
1146.976401981401
 30
0.0
 10
333.0563479702241
 20
1147.040363343343
 30
0.0
 10
332.0101054357335
 20
1146.602756397587
 30
0.0
 10
330.9175944489871
 20
1145.709538519546
 30
0.0
 10
330.1417100219625
 20
1144.305804945022
 30
0.0
 10
329.7916160094415
 20
1142.798419111106
 30
0.0
 10
329.762119213767
 20
1141.829862176853
 30
0.0
 10
329.7528441529722
 20
1141.525306232963
 30
0.0
  0
SPLINE
  5
111
330
1F
100
AcDbEntity
  8
0
  6
Continuous
 62
     7
370
    15
100
AcDbSpline
210
0.0
220
0.0
230
1.0
 70
     8
 71
     3
 72
    17
 73
    13
 74
     0
 42
0.00000001
 43
0.00000001
 40
0.0
 40
0.0
 40
0.0
 40
0.0
 40
0.0284716576788119
 40
0.1301351821400945
 40
0.2344012630914352
 40
0.3499546614400861
 40
0.4731404605192671
 40
0.584121342124685
 40
0.6816865116040421
 40
0.7856215750710374
 40
0.9046234356406472
 40
1.0
 40
1.0
 40
1.0
 40
1.0
 10
347.7594669442625
 20
1136.081971653495
 30
0.0
 10
347.8369506136929
 20
1136.06482987439
 30
0.0
 10
348.191104613012
 20
1135.986480079266
 30
0.0
 10
348.5691030144503
 20
1136.380900755977
 30
0.0
 10
348.8698990106092
 20
1137.217462802961
 30
0.0
 10
348.9238749806438
 20
1138.574018870426
 30
0.0
 10
348.8654672022772
 20
1140.315226373641
 30
0.0
 10
348.8541819798473
 20
1142.14941947586
 30
0.0
 10
348.9032769297086
 20
1143.781500152918
 30
0.0
 10
348.9094905870688
 20
1145.198899577775
 30
0.0
 10
348.7937728886205
 20
1146.33144643334
 30
0.0
 10
348.4427706630022
 20
1146.656277425645
 30
0.0
 10
348.2866104226561
 20
1146.800794132743
 30
0.0
  0
SPLINE
  5
112
330
1F
100
AcDbEntity
  8
0
  6
Continuous
 62
     7
370
    15
100
AcDbSpline
210
0.0
220
0.0
230
1.0
 70
     8
 71
     3
 72
    11
 73
     7
 74
     0
 42
0.00000001
 43
0.00000001
 40
0.0
 40
0.0
 40
0.0
 40
0.0
 40
0.3174271948777848
 40
0.6336624206868899
 40
0.9799380090813488
 40
0.9999999999999999
 40
0.9999999999999999
 40
0.9999999999999999
 40
0.9999999999999999
 10
333.3379443269224
 20
1141.525306232963
 30
0.0
 10
333.2842969924117
 20
1140.955373355126
 30
0.0
 10
333.1772037741934
 20
1139.817647751185
 30
0.0
 10
332.4121744492709
 20
1138.323275521629
 30
0.0
 10
331.7296754011227
 20
1137.356922862454
 30
0.0
 10
331.347909712331
 20
1137.078321348346
 30
0.0
 10
331.3270028214903
 20
1137.063064106498
 30
0.0
  0
SPLINE
  5
113
330
1F
100
AcDbEntity
  8
0
  6
Continuous
 62
     7
370
    15
100
AcDbSpline
210
0.0
220
0.0
230
1.0
 70
     8
 71
     3
 72
    11
 73
     7
 74
     0
 42
0.00000001
 43
0.00000001
 40
0.0
 40
0.0
 40
0.0
 40
0.0
 40
0.0980770949240121
 40
0.453948788885438
 40
0.8282980685512632
 40
1.0
 40
1.0
 40
1.0
 40
1.0
 10
331.3368077855558
 20
1145.947255619559
 30
0.0
 10
331.4396042877896
 20
1145.860853858581
 30
0.0
 10
331.9153968031247
 20
1145.460944228464
 30
0.0
 10
332.6987030017823
 20
1144.285637946432
 30
0.0
 10
333.2726181570652
 20
1142.800490957444
 30
0.0
 10
333.3223169073078
 20
1141.830357743243
 30
0.0
 10
333.3379443269224
 20
1141.525306232963
 30
0.0
  0
SPLINE
  5
114
330
1F
100
AcDbEntity
  8
0
  6
Continuous
 62
     7
370
    15
100
AcDbSpline
210
0.0
220
0.0
230
1.0
 70
     8
 71
     3
 72
     9
 73
     5
 74
     0
 42
0.00000001
 43
0.00000001
 40
0.0
 40
0.0
 40
0.0
 40
0.0
 40
0.633626530197798
 40
0.9999999999999999
 40
0.9999999999999999
 40
0.9999999999999999
 40
0.9999999999999999
 10
337.6528437715025
 20
1141.525306232963
 30
0.0
 10
337.6981650600221
 20
1142.100875497774
 30
0.0
 10
337.769691876466
 20
1143.009248549375
 30
0.0
 10
338.2554117276179
 20
1143.76895988472
 30
0.0
 10
338.4333665948362
 20
1144.047297962699
 30
0.0
  0
SPLINE
  5
115
330
1F
100
AcDbEntity
  8
0
  6
Continuous
 62
     7
370
    15
100
AcDbSpline
210
0.0
220
0.0
230
1.0
 70
     8
 71
     3
 72
    13
 73
     9
 74
     0
 42
0.00000001
 43
0.00000001
 40
0.0
 40
0.0
 40
0.0
 40
0.0
 40
0.1474597138483558
 40
0.3594025390080351
 40
0.5538215767738557
 40
0.7225833832157218
 40
0.8989921689081128
 40
1.0
 40
1.0
 40
1.0
 40
1.0
 10
346.2047393899412
 20
1145.584144123588
 30
0.0
 10
346.4368320193603
 20
1145.278614595776
 30
0.0
 10
347.0025097771785
 20
1144.533949594254
 30
0.0
 10
347.4084539527695
 20
1142.922580329126
 30
0.0
 10
347.505488268883
 20
1141.084574682486
 30
0.0
 10
347.2456111167007
 20
1139.443541951287
 30
0.0
 10
346.844195523955
 20
1138.214241712494
 30
0.0
 10
346.3677306062731
 20
1137.683364880107
 30
0.0
 10
346.1942489724607
 20
1137.490071781669
 30
0.0
  0
SPLINE
  5
116
330
1F
100
AcDbEntity
  8
0
  6
Continuous
 62
     7
370
    15
100
AcDbSpline
210
0.0
220
0.0
230
1.0
 70
     8
 71
     3
 72
     9
 73
     5
 74
     0
 42
0.00000001
 43
0.00000001
 40
0.0
 40
0.0
 40
0.0
 40
0.0
 40
0.6570915736074621
 40
1.0
 40
1.0
 40
1.0
 40
1.0
 10
338.4080942254516
 20
1139.000930317436
 30
0.0
 10
338.1315610572378
 20
1139.526101427962
 30
0.0
 10
337.7107168715554
 20
1140.325337229517
 30
0.0
 10
337.6676215279597
 20
1141.218897043323
 30
0.0
 10
337.6528437715025
 20
1141.525306232963
 30
0.0
  0
LINE
  5
117
330
1F
100
AcDbEntity
  8
0
  6
Continuous
 62
     7
370
    15
100
AcDbLine
 10
99.4752760511
 20
1072.3253865323
 30
0.0
 11
99.4752760511
 21
1076.0252852521
 31
0.0
  0
LINE
  5
118
330
1F
100
AcDbEntity
  8
0
  6
Continuous
 62
     7
370
    15
100
AcDbLine
 10
577.7338560205
 20
1072.3253865323
 30
0.0
 11
577.7338560205
 21
1076.0252852521
 31
0.0
  0
LINE
  5
119
330
1F
100
AcDbEntity
  8
0
  6
Continuous
 62
     7
370
    15
100
AcDbLine
 10
99.4752760511
 20
1076.0252852521
 30
0.0
 11
99.4752760511
 21
1077.325381764
 31
0.0
  0
LINE
  5
11A
330
1F
100
AcDbEntity
  8
0
  6
Continuous
 62
     7
370
    15
100
AcDbLine
 10
577.7338560205
 20
1077.325381764
 30
0.0
 11
577.7338560205
 21
1076.0252852521
 31
0.0
  0
LINE
  5
11B
330
1F
100
AcDbEntity
  8
0
  6
Continuous
 62
     7
370
    15
100
AcDbLine
 10
577.8045471292
 20
1072.3253865323
 30
0.0
 11
577.8045471292
 21
1077.325381764
 31
0.0
  0
LINE
  5
11C
330
1F
100
AcDbEntity
  8
0
  6
Continuous
 62
     7
370
    15
100
AcDbLine
 10
578.6045606714
 20
1072.3253865323
 30
0.0
 11
578.6045606714
 21
1077.325381764
 31
0.0
  0
LINE
  5
11D
330
1F
100
AcDbEntity
  8
0
  6
Continuous
 62
     7
370
    15
100
AcDbLine
 10
99.4045551401
 20
1072.3253865323
 30
0.0
 11
99.4045551401
 21
1077.325381764
 31
0.0
  0
LINE
  5
11E
330
1F
100
AcDbEntity
  8
0
  6
Continuous
 62
     7
370
    15
100
AcDbLine
 10
98.6045714002
 20
1072.3253865323
 30
0.0
 11
98.6045714002
 21
1077.325381764
 31
0.0
  0
LINE
  5
11F
330
1F
100
AcDbEntity
  8
0
  6
Continuous
 62
     7
370
    15
100
AcDbLine
 10
599.2045815568
 20
1072.3253865323
 30
0.0
 11
599.2045815568
 21
1077.325381764
 31
0.0
  0
LINE
  5
120
330
1F
100
AcDbEntity
  8
0
  6
Continuous
 62
     7
370
    15
100
AcDbLine
 10
78.0045654159
 20
1077.325381764
 30
0.0
 11
78.0045654159
 21
1072.3253865323
 31
0.0
  0
LINE
  5
121
330
1F
100
AcDbEntity
  8
0
  6
Continuous
 62
     7
370
    15
100
AcDbLine
 10
579.4045742135
 20
212.3253722272
 30
0.0
 11
579.4045742135
 21
202.325381764
 31
0.0
  0
LINE
  5
122
330
1F
100
AcDbEntity
  8
0
  6
Continuous
 62
     7
370
    15
100
AcDbLine
 10
579.4045742135
 20
202.325381764
 30
0.0
 11
578.6045606714
 21
202.325381764
 31
0.0
  0
LINE
  5
123
330
1F
100
AcDbEntity
  8
0
  6
Continuous
 62
     7
370
    15
100
AcDbLine
 10
578.6045606714
 20
212.3253722272
 30
0.0
 11
578.6045606714
 21
202.325381764
 31
0.0
  0
LINE
  5
124
330
1F
100
AcDbEntity
  8
0
  6
Continuous
 62
     7
370
    15
100
AcDbLine
 10
579.4045742135
 20
202.325381764
 30
0.0
 11
579.4045742135
 21
199.3253607831
 31
0.0
  0
LINE
  5
125
330
1F
100
AcDbEntity
  8
0
  6
Continuous
 62
     7
370
    15
100
AcDbLine
 10
578.6045606714
 20
202.325381764
 30
0.0
 11
578.6045606714
 21
199.3253607831
 31
0.0
  0
LINE
  5
126
330
1F
100
AcDbEntity
  8
0
  6
Continuous
 62
     7
370
    15
100
AcDbLine
 10
97.804557858
 20
202.325381764
 30
0.0
 11
98.6045714002
 21
202.325381764
 31
0.0
  0
LINE
  5
127
330
1F
100
AcDbEntity
  8
0
  6
Continuous
 62
     7
370
    15
100
AcDbLine
 10
97.804557858
 20
199.3253607831
 30
0.0
 11
97.804557858
 21
202.325381764
 31
0.0
  0
LINE
  5
128
330
1F
100
AcDbEntity
  8
0
  6
Continuous
 62
     7
370
    15
100
AcDbLine
 10
98.6045714002
 20
199.3253607831
 30
0.0
 11
98.6045714002
 21
202.325381764
 31
0.0
  0
LINE
  5
129
330
1F
100
AcDbEntity
  8
0
  6
Continuous
 62
     7
370
    15
100
AcDbLine
 10
97.804557858
 20
202.325381764
 30
0.0
 11
97.804557858
 21
212.3253722272
 31
0.0
  0
LINE
  5
12A
330
1F
100
AcDbEntity
  8
0
  6
Continuous
 62
     7
370
    15
100
AcDbLine
 10
98.6045714002
 20
202.325381764
 30
0.0
 11
98.6045714002
 21
212.3253722272
 31
0.0
  0
LINE
  5
12B
330
1F
100
AcDbEntity
  8
0
  6
Continuous
 62
     7
370
    15
100
AcDbLine
 10
98.6045714002
 20
205.025352963
 30
0.0
 11
99.8045619112
 21
205.025352963
 31
0.0
  0
LINE
  5
12C
330
1F
100
AcDbEntity
  8
0
  6
Continuous
 62
     7
370
    15
100
AcDbLine
 10
99.8045619112
 20
212.3253722272
 30
0.0
 11
99.8045619112
 21
205.025352963
 31
0.0
  0
LINE
  5
12D
330
1F
100
AcDbEntity
  8
0
  6
Continuous
 62
     7
370
    15
100
AcDbLine
 10
99.8045619112
 20
205.025352963
 30
0.0
 11
99.8045619112
 21
199.3253607831
 31
0.0
  0
LINE
  5
12E
330
1F
100
AcDbEntity
  8
0
  6
Continuous
 62
     7
370
    15
100
AcDbLine
 10
577.4045403581
 20
205.025352963
 30
0.0
 11
578.6045606714
 21
205.025352963
 31
0.0
  0
LINE
  5
12F
330
1F
100
AcDbEntity
  8
0
  6
Continuous
 62
     7
370
    15
100
AcDbLine
 10
577.4045403581
 20
205.025352963
 30
0.0
 11
577.4045403581
 21
212.3253722272
 31
0.0
  0
LINE
  5
130
330
1F
100
AcDbEntity
  8
0
  6
Continuous
 62
     7
370
    15
100
AcDbLine
 10
577.4045403581
 20
199.3253607831
 30
0.0
 11
577.4045403581
 21
205.025352963
 31
0.0
  0
LINE
  5
131
330
1F
100
AcDbEntity
  8
0
  6
Continuous
 62
     7
370
    15
100
AcDbLine
 10
598.0045612436
 20
-325.3039340892
 30
0.0
 11
598.0045612436
 21
-324.6746878543
 31
0.0
  0
SPLINE
  5
132
330
1F
100
AcDbEntity
  8
0
  6
Continuous
 62
     7
370
    15
100
AcDbSpline
210
0.0
220
0.0
230
1.0
 70
     8
 71
     3
 72
    10
 73
     6
 74
     0
 42
0.00000001
 43
0.00000001
 40
0.0
 40
0.0
 40
0.0
 40
0.0
 40
0.4286748328017243
 40
0.8574975536731422
 40
1.0
 40
1.0
 40
1.0
 40
1.0
 10
598.0045612435789
 20
-325.3039340891503
 30
0.0
 10
597.976673898138
 20
-325.2140097696073
 30
0.0
 10
597.9208895864308
 20
-325.0341301076268
 30
0.0
 10
597.6354444027361
 20
-324.8243682109519
 30
0.0
 10
597.3724788947986
 20
-324.7045687619043
 30
0.0
 10
597.306888876483
 20
-324.6746878542565
 30
0.0
  0
SPLINE
  5
133
330
1F
100
AcDbEntity
  8
0
  6
Continuous
 62
     7
370
    15
100
AcDbSpline
210
0.0
220
0.0
230
1.0
 70
     8
 71
     3
 72
    12
 73
     8
 74
     0
 42
0.00000001
 43
0.00000001
 40
0.0
 40
0.0
 40
0.0
 40
0.0
 40
0.0656465792611849
 40
0.3427300803050906
 40
0.6198213509052061
 40
0.8969132818197942
 40
1.0
 40
1.0
 40
1.0
 40
1.0
 10
596.1603935342283
 20
-324.6746878542565
 30
0.0
 10
596.1817127884342
 20
-324.7321227259006
 30
0.0
 10
596.2930171364783
 20
-325.0319808204495
 30
0.0
 10
596.494211559821
 20
-325.5014269608977
 30
0.0
 10
596.7638643221318
 20
-325.9692655652284
 30
0.0
 10
596.9777656943282
 20
-326.1572439278818
 30
0.0
 10
597.1005603965715
 20
-326.170928202881
 30
0.0
 10
597.1338565927
 20
-326.1746387400292
 30
0.0
  0
SPLINE
  5
134
330
1F
100
AcDbEntity
  8
0
  6
Continuous
 62
     7
370
    15
100
AcDbSpline
210
0.0
220
0.0
230
1.0
 70
     8
 71
     3
 72
    10
 73
     6
 74
     0
 42
0.00000001
 43
0.00000001
 40
0.0
 40
0.0
 40
0.0
 40
0.0
 40
0.293757125418502
 40
0.6490924385927543
 40
1.0
 40
1.0
 40
1.0
 40
1.0
 10
596.3014181237669
 20
-324.6746878542565
 30
0.0
 10
596.3829365614531
 20
-324.7927912051442
 30
0.0
 10
596.5630615590434
 20
-325.0537550606574
 30
0.0
 10
596.8405835420584
 20
-325.3175590319412
 30
0.0
 10
597.0365083558515
 20
-325.3557226338638
 30
0.0
 10
597.1338565927
 20
-325.3746848024987
 30
0.0
  0
LINE
  5
135
330
1F
100
AcDbEntity
  8
0
  6
Continuous
 62
     7
370
    15
100
AcDbLine
 10
597.1338565927
 20
-326.17463874
 30
0.0
 11
597.1338565927
 21
-325.3746848025
 31
0.0
  0
LINE
  5
136
330
1F
100
AcDbEntity
  8
0
  6
Continuous
 62
     7
370
    15
100
AcDbLine
 10
598.0045612436
 20
-325.3039340892
 30
0.0
 11
597.2045477014
 21
-325.3039340892
 31
0.0
  0
SPLINE
  5
137
330
1F
100
AcDbEntity
  8
0
  6
Continuous
 62
     7
370
    15
100
AcDbSpline
210
0.0
220
0.0
230
1.0
 70
     8
 71
     3
 72
    10
 73
     6
 74
     0
 42
0.00000001
 43
0.00000001
 40
0.0
 40
0.0
 40
0.0
 40
0.0
 40
0.469779458969751
 40
0.9398118254979074
 40
1.0
 40
1.0
 40
1.0
 40
1.0
 10
597.2045477014036
 20
-325.3039340891503
 30
0.0
 10
597.1836016954569
 20
-325.2054250400181
 30
0.0
 10
597.1416984072013
 20
-325.0083539090327
 30
0.0
 10
596.9573170956796
 20
-324.7984391341591
 30
0.0
 10
596.8018087296368
 20
-324.6873034600795
 30
0.0
 10
596.7841561418028
 20
-324.6746878542565
 30
0.0
  0
SPLINE
  5
138
330
1F
100
AcDbEntity
  8
0
  6
Continuous
 62
     7
370
    15
100
AcDbSpline
210
0.0
220
0.0
230
1.0
 70
     8
 71
     3
 72
    11
 73
     7
 74
     0
 42
0.00000001
 43
0.00000001
 40
0.0
 40
0.0
 40
0.0
 40
0.0
 40
0.2775856365681548
 40
0.5552816843105842
 40
0.832942805046072
 40
1.0
 40
1.0
 40
1.0
 40
1.0
 10
482.6752956490965
 20
-326.1746387400292
 30
0.0
 10
482.7651920903054
 20
-326.1490818298871
 30
0.0
 10
482.9450207295147
 20
-326.0979578442045
 30
0.0
 10
483.2149004744102
 20
-325.6958062448231
 30
0.0
 10
483.4488886094168
 20
-325.1999573632979
 30
0.0
 10
483.5929670959052
 20
-324.818122903958
 30
0.0
 10
483.6470897775145
 20
-324.6746878542565
 30
0.0
  0
LINE
  5
139
330
1F
100
AcDbEntity
  8
0
  6
Continuous
 62
     7
370
    15
100
AcDbLine
 10
482.6752956491
 20
-326.17463874
 30
0.0
 11
482.6752956491
 21
-325.3746848025
 31
0.0
  0
SPLINE
  5
13A
330
1F
100
AcDbEntity
  8
0
  6
Continuous
 62
     7
370
    15
100
AcDbSpline
210
0.0
220
0.0
230
1.0
 70
     8
 71
     3
 72
    10
 73
     6
 74
     0
 42
0.00000001
 43
0.00000001
 40
0.0
 40
0.0
 40
0.0
 40
0.0
 40
0.3552505929678599
 40
0.7107100993817563
 40
1.0
 40
1.0
 40
1.0
 40
1.0
 10
482.6752956490965
 20
-325.3746848024987
 30
0.0
 10
482.7738161227544
 20
-325.3552814706454
 30
0.0
 10
482.9709150073459
 20
-325.3164633963545
 30
0.0
 10
483.2483431415615
 20
-325.0509148543064
 30
0.0
 10
483.4271900344087
 20
-324.7912125771057
 30
0.0
 10
483.5074360948057
 20
-324.6746878542565
 30
0.0
  0
LINE
  5
13B
330
1F
100
AcDbEntity
  8
0
  6
Continuous
 62
     7
370
    15
100
AcDbLine
 10
482.6752956491
 20
-326.17463874
 30
0.0
 11
597.1338565927
 21
-326.17463874
 31
0.0
  0
SPLINE
  5
13C
330
1F
100
AcDbEntity
  8
0
  6
Continuous
 62
     7
370
    15
100
AcDbSpline
210
0.0
220
0.0
230
1.0
 70
     8
 71
     3
 72
    10
 73
     6
 74
     0
 42
0.00000001
 43
0.00000001
 40
0.0
 40
0.0
 40
0.0
 40
0.0
 40
0.4120388581719188
 40
0.8405692963428075
 40
0.9999999999999999
 40
0.9999999999999999
 40
0.9999999999999999
 40
0.9999999999999999
 10
482.4871833901854
 20
-324.6746878542565
 30
0.0
 10
482.3264867421883
 20
-324.7611388173938
 30
0.0
 10
481.9986616702257
 20
-324.9375008857065
 30
0.0
 10
481.8226470344406
 20
-325.1478389831054
 30
0.0
 10
481.8084426412047
 20
-325.2706364919869
 30
0.0
 10
481.8045909982176
 20
-325.3039340891503
 30
0.0
  0
LINE
  5
13D
330
1F
100
AcDbEntity
  8
0
  6
Continuous
 62
     7
370
    15
100
AcDbLine
 10
481.8045909982
 20
-324.6746878543
 30
0.0
 11
481.8045909982
 21
-325.3039340892
 31
0.0
  0
SPLINE
  5
13E
330
1F
100
AcDbEntity
  8
0
  6
Continuous
 62
     7
370
    15
100
AcDbSpline
210
0.0
220
0.0
230
1.0
 70
     8
 71
     3
 72
    10
 73
     6
 74
     0
 42
0.00000001
 43
0.00000001
 40
0.0
 40
0.0
 40
0.0
 40
0.0
 40
0.0657748826893821
 40
0.5358315808036999
 40
1.0
 40
1.0
 40
1.0
 40
1.0
 10
483.0254729371519
 20
-324.6746878542565
 30
0.0
 10
483.0062245291885
 20
-324.6884757092787
 30
0.0
 10
482.8494183982571
 20
-324.800797736325
 30
0.0
 10
482.6660650922664
 20
-325.0106745641564
 30
0.0
 10
482.6249653060189
 20
-325.2065925278679
 30
0.0
 10
482.6045449357481
 20
-325.3039340891503
 30
0.0
  0
LINE
  5
13F
330
1F
100
AcDbEntity
  8
0
  6
Continuous
 62
     7
370
    15
100
AcDbLine
 10
481.8045909982
 20
-325.3039340892
 30
0.0
 11
482.6045449357
 21
-325.3039340892
 31
0.0
  0
LINE
  5
140
330
1F
100
AcDbEntity
  8
0
  6
Continuous
 62
     7
370
    15
100
AcDbLine
 10
490.6045611482
 20
-328.1746725955
 30
0.0
 11
485.6045659166
 21
-328.1746725955
 31
0.0
  0
LINE
  5
141
330
1F
100
AcDbEntity
  8
0
  6
Continuous
 62
     7
370
    15
100
AcDbLine
 10
485.6045659166
 20
-328.1746725955
 30
0.0
 11
485.6045659166
 21
-326.674662105
 31
0.0
  0
LINE
  5
142
330
1F
100
AcDbEntity
  8
0
  6
Continuous
 62
     7
370
    15
100
AcDbLine
 10
490.6045611482
 20
-326.674662105
 30
0.0
 11
485.6045659166
 21
-326.674662105
 31
0.0
  0
LINE
  5
143
330
1F
100
AcDbEntity
  8
0
  6
Continuous
 62
     7
370
    15
100
AcDbLine
 10
594.6045334917
 20
-328.1746725955
 30
0.0
 11
594.6045334917
 21
-326.674662105
 31
0.0
  0
LINE
  5
144
330
1F
100
AcDbEntity
  8
0
  6
Continuous
 62
     7
370
    15
100
AcDbLine
 10
594.6045334917
 20
-328.1746725955
 30
0.0
 11
589.60453826
 21
-328.1746725955
 31
0.0
  0
LINE
  5
145
330
1F
100
AcDbEntity
  8
0
  6
Continuous
 62
     7
370
    15
100
AcDbLine
 10
594.6045334917
 20
-326.674662105
 30
0.0
 11
589.60453826
 21
-326.674662105
 31
0.0
  0
LINE
  5
146
330
1F
100
AcDbEntity
  8
0
  6
Continuous
 62
     7
370
    15
100
AcDbLine
 10
589.60453826
 20
-328.1746725955
 30
0.0
 11
490.6045611482
 21
-328.1746725955
 31
0.0
  0
LINE
  5
147
330
1F
100
AcDbEntity
  8
0
  6
Continuous
 62
     7
370
    15
100
AcDbLine
 10
589.60453826
 20
-326.674662105
 30
0.0
 11
490.6045611482
 21
-326.674662105
 31
0.0
  0
LINE
  5
148
330
1F
100
AcDbEntity
  8
0
  6
Continuous
 62
     7
370
    15
100
AcDbLine
 10
594.6045334917
 20
-326.674662105
 30
0.0
 11
594.6045334917
 21
-326.17463874
 31
0.0
  0
LINE
  5
149
330
1F
100
AcDbEntity
  8
0
  6
Continuous
 62
     7
370
    15
100
AcDbLine
 10
485.6045659166
 20
-326.17463874
 30
0.0
 11
485.6045659166
 21
-326.674662105
 31
0.0
  0
ELLIPSE
  5
14A
330
1F
100
AcDbEntity
  8
0
  6
Continuous
 62
     7
370
    15
100
AcDbEllipse
 10
151.2745631067
 20
164.5655418311
 30
0.0
 11
0.0
 21
2.121320343559631
 31
0.0
210
0.0
220
0.0
230
1.0
 40
0.7071067812
 41
4.712388980384699
 42
6.283185307179586
  0
LINE
  5
14B
330
1F
100
AcDbEntity
  8
0
  6
Continuous
 62
     7
370
    15
100
AcDbLine
 10
151.2745733839
 20
166.6868109784
 30
0.0
 11
75.2745683771
 21
166.6868109784
 31
0.0
  0
ELLIPSE
  5
14C
330
1F
100
AcDbEntity
  8
0
  6
Continuous
 62
     7
370
    15
100
AcDbEllipse
 10
75.2745631067
 20
164.5655418311
 30
0.0
 11
0.0
 21
-2.121320343559631
 31
0.0
210
0.0
220
0.0
230
1.0
 40
0.7071067812
 41
3.141592653589898
 42
4.712388980384699
  0
LINE
  5
14D
330
1F
100
AcDbEntity
  8
0
  6
Continuous
 62
     7
370
    15
100
AcDbLine
 10
73.7745578866
 20
135.8753819547
 30
0.0
 11
73.7745578866
 21
164.5656008802
 31
0.0
  0
ARC
  5
14E
330
1F
100
AcDbEntity
  8
0
  6
Continuous
 62
     7
370
    15
100
AcDbCircle
 10
75.2745631067
 20
135.8753398057
 30
0.0
 40
1.5
100
AcDbArc
 50
180.0
 51
270.0
  0
LINE
  5
14F
330
1F
100
AcDbEntity
  8
0
  6
Continuous
 62
     7
370
    15
100
AcDbLine
 10
151.2745733839
 20
134.3753714643
 30
0.0
 11
75.2745683771
 21
134.3753714643
 31
0.0
  0
ARC
  5
150
330
1F
100
AcDbEntity
  8
0
  6
Continuous
 62
     7
370
    15
100
AcDbCircle
 10
151.2745631067
 20
135.8753398057
 30
0.0
 40
1.500000000000057
100
AcDbArc
 50
270.0
 51
0.0
  0
LINE
  5
151
330
1F
100
AcDbEntity
  8
0
  6
Continuous
 62
     7
370
    15
100
AcDbLine
 10
156.7745621782
 20
131.3753504835
 30
0.0
 11
69.7745646816
 21
131.3753504835
 31
0.0
  0
ARC
  5
152
330
1F
100
AcDbEntity
  8
0
  6
Continuous
 62
     7
370
    15
100
AcDbCircle
 10
69.7745631067
 20
132.8753398057
 30
0.0
 40
1.500000000000057
100
AcDbArc
 50
180.0
 51
270.0
  0
LINE
  5
153
330
1F
100
AcDbEntity
  8
0
  6
Continuous
 62
     7
370
    15
100
AcDbLine
 10
68.2745690923
 20
132.8753609739
 30
0.0
 11
68.2745690923
 21
169.8753018461
 31
0.0
  0
ARC
  5
154
330
1F
100
AcDbEntity
  8
0
  6
Continuous
 62
     7
370
    15
100
AcDbCircle
 10
69.7745631067
 20
169.8753398057
 30
0.0
 40
1.500000000000057
100
AcDbArc
 50
90.0
 51
180.0
  0
LINE
  5
155
330
1F
100
AcDbEntity
  8
0
  6
Continuous
 62
     7
370
    15
100
AcDbLine
 10
69.7745646816
 20
171.3753123365
 30
0.0
 11
156.7745621782
 21
171.3753123365
 31
0.0
  0
ARC
  5
156
330
1F
100
AcDbEntity
  8
0
  6
Continuous
 62
     7
370
    15
100
AcDbCircle
 10
156.7745631067
 20
169.8753398057
 30
0.0
 40
1.500000000000057
100
AcDbArc
 50
0.0
 51
90.0
  0
LINE
  5
157
330
1F
100
AcDbEntity
  8
0
  6
Continuous
 62
     7
370
    15
100
AcDbLine
 10
158.2745726686
 20
169.8753018461
 30
0.0
 11
158.2745726686
 21
132.8753609739
 31
0.0
  0
ARC
  5
158
330
1F
100
AcDbEntity
  8
0
  6
Continuous
 62
     7
370
    15
100
AcDbCircle
 10
156.7745631067
 20
132.8753398057
 30
0.0
 40
1.500000000000057
100
AcDbArc
 50
270.0
 51
0.0
  0
LINE
  5
159
330
1F
100
AcDbEntity
  8
0
  6
Continuous
 62
     7
370
    15
100
AcDbLine
 10
152.7745540719
 20
164.5656008802
 30
0.0
 11
152.7745540719
 21
135.8753819547
 31
0.0
  0
LINE
  5
15A
330
1F
100
AcDbEntity
  8
0
  6
Continuous
 62
     7
370
    15
100
AcDbLine
 10
73.7745578866
 20
161.7888588987
 30
0.0
 11
152.7745540719
 21
161.7888588987
 31
0.0
  0
SPLINE
  5
15B
330
1F
100
AcDbEntity
  8
0
  6
Continuous
 62
     7
370
    15
100
AcDbSpline
210
0.0
220
0.0
230
1.0
 70
     8
 71
     3
 72
    12
 73
     8
 74
     0
 42
0.00000001
 43
0.00000001
 40
0.0
 40
0.0
 40
0.0
 40
0.0
 40
0.2286639909082245
 40
0.4574152938718266
 40
0.6861507133232929
 40
0.9148972886841324
 40
0.9999999999999999
 40
0.9999999999999999
 40
0.9999999999999999
 40
0.9999999999999999
 10
40.57456213049604
 20
198.4546561322547
 30
0.0
 10
40.60030239084134
 20
198.3647396834572
 30
0.0
 10
40.65179274007991
 20
198.1848724525593
 30
0.0
 10
41.05137240559487
 20
197.9149329762787
 30
0.0
 10
41.63276915099468
 20
197.6453746891523
 30
0.0
 10
42.19826367777757
 20
197.4315120948434
 30
0.0
 10
42.53362398507277
 20
197.3086371436151
 30
0.0
 10
42.62455957941724
 20
197.2753186307291
 30
0.0
  0
LINE
  5
15C
330
1F
100
AcDbEntity
  8
0
  6
Continuous
 62
     7
370
    15
100
AcDbLine
 10
40.5745621305
 20
198.4546561323
 30
0.0
 11
41.3745607715
 21
198.4546561323
 31
0.0
  0
SPLINE
  5
15D
330
1F
100
AcDbEntity
  8
0
  6
Continuous
 62
     7
370
    15
100
AcDbSpline
210
0.0
220
0.0
230
1.0
 70
     8
 71
     3
 72
    11
 73
     7
 74
     0
 42
0.00000001
 43
0.00000001
 40
0.0
 40
0.0
 40
0.0
 40
0.0
 40
0.2506726625117396
 40
0.5014797171464003
 40
0.7523103919251192
 40
1.0
 40
1.0
 40
1.0
 40
1.0
 10
41.37456077151014
 20
198.4546561322547
 30
0.0
 10
41.39345442721199
 20
198.3561034426565
 30
0.0
 10
41.43125186799501
 20
198.1589452268045
 30
0.0
 10
41.7220154760457
 20
197.86328645764
 30
0.0
 10
42.13569247677229
 20
197.5685795702751
 30
0.0
 10
42.4622898178838
 20
197.3726607968714
 30
0.0
 10
42.62455957941724
 20
197.2753186307288
 30
0.0
  0
SPLINE
  5
15E
330
1F
100
AcDbEntity
  8
0
  6
Continuous
 62
     7
370
    15
100
AcDbSpline
210
0.0
220
0.0
230
1.0
 70
     8
 71
     3
 72
    12
 73
     8
 74
     0
 42
0.00000001
 43
0.00000001
 40
0.0
 40
0.0
 40
0.0
 40
0.0
 40
0.2286724560790633
 40
0.4574171353617197
 40
0.6861561651582826
 40
0.9149017711025581
 40
1.0
 40
1.0
 40
1.0
 40
1.0
 10
634.5245655160398
 20
197.2753186307288
 30
0.0
 10
634.7700410277234
 20
197.365233195606
 30
0.0
 10
635.2610695813199
 20
197.5450907236994
 30
0.0
 10
635.9042036930771
 20
197.8150506175567
 30
0.0
 10
636.3683896906405
 20
198.0845967653354
 30
0.0
 10
636.5572144695267
 20
198.2984574146849
 30
0.0
 10
636.5708506392685
 20
198.4213374240276
 30
0.0
 10
636.5745480637999
 20
198.4546561322547
 30
0.0
  0
LINE
  5
15F
330
1F
100
AcDbEntity
  8
0
  6
Continuous
 62
     7
370
    15
100
AcDbLine
 10
636.5745480638
 20
198.4546561323
 30
0.0
 11
636.5745480638
 21
-323.8039235987
 31
0.0
  0
SPLINE
  5
160
330
1F
100
AcDbEntity
  8
0
  6
Continuous
 62
     7
370
    15
100
AcDbSpline
210
0.0
220
0.0
230
1.0
 70
     8
 71
     3
 72
    12
 73
     8
 74
     0
 42
0.00000001
 43
0.00000001
 40
0.0
 40
0.0
 40
0.0
 40
0.0
 40
0.2286582536840188
 40
0.4574155202941072
 40
0.6861619341272894
 40
0.9148925456031307
 40
0.9999999999999999
 40
0.9999999999999999
 40
0.9999999999999999
 40
0.9999999999999999
 10
636.5745480637999
 20
-323.8039235987328
 30
0.0
 10
636.5488219769966
 20
-323.7140291838668
 30
0.0
 10
636.4973586635557
 20
-323.5342014283189
 30
0.0
 10
636.0977203750117
 20
-323.2642778791168
 30
0.0
 10
635.5163603354397
 20
-322.9946206810665
 30
0.0
 10
634.9508531891369
 20
-322.78083247366
 30
0.0
 10
634.6155058997634
 20
-322.6579651850483
 30
0.0
 10
634.5245655160398
 20
-322.6246457018517
 30
0.0
  0
LINE
  5
161
330
1F
100
AcDbEntity
  8
0
  6
Continuous
 62
     7
370
    15
100
AcDbLine
 10
636.5745480638
 20
-323.8039235987
 30
0.0
 11
635.7745345216
 21
-323.8039235987
 31
0.0
  0
SPLINE
  5
162
330
1F
100
AcDbEntity
  8
0
  6
Continuous
 62
     7
370
    15
100
AcDbSpline
210
0.0
220
0.0
230
1.0
 70
     8
 71
     3
 72
    11
 73
     7
 74
     0
 42
0.00000001
 43
0.00000001
 40
0.0
 40
0.0
 40
0.0
 40
0.0
 40
0.250657271067825
 40
0.5014865957305414
 40
0.7522969334805544
 40
1.0
 40
1.0
 40
1.0
 40
1.0
 10
635.7745345216246
 20
-323.8039235987328
 30
0.0
 10
635.7556642190528
 20
-323.7053992102944
 30
0.0
 10
635.7179106611493
 20
-323.5082828053172
 30
0.0
 10
635.4271241296253
 20
-323.2125442089436
 30
0.0
 10
635.0134438669832
 20
-322.9179046263727
 30
0.0
 10
634.6868463975588
 20
-322.721991629919
 30
0.0
 10
634.5245655160398
 20
-322.6246457018517
 30
0.0
  0
SPLINE
  5
163
330
1F
100
AcDbEntity
  8
0
  6
Continuous
 62
     7
370
    15
100
AcDbSpline
210
0.0
220
0.0
230
1.0
 70
     8
 71
     3
 72
    12
 73
     8
 74
     0
 42
0.00000001
 43
0.00000001
 40
0.0
 40
0.0
 40
0.0
 40
0.0
 40
0.2286700820099395
 40
0.4574138999591417
 40
0.6861666492326092
 40
0.9149066181946945
 40
1.0
 40
1.0
 40
1.0
 40
1.0
 10
42.62455957941724
 20
-322.6246457018517
 30
0.0
 10
42.37909216645963
 20
-322.7145704294095
 30
0.0
 10
41.88807818821233
 20
-322.8944488812537
 30
0.0
 10
41.24489579142698
 20
-323.1642631987988
 30
0.0
 10
40.78074449188662
 20
-323.4340261802244
 30
0.0
 10
40.59195065862436
 20
-323.6478184014977
 30
0.0
 10
40.57827120422369
 20
-323.7706254563284
 30
0.0
 10
40.57456213049604
 20
-323.8039235987328
 30
0.0
  0
SPLINE
  5
164
330
1F
100
AcDbEntity
  8
0
  6
Continuous
 62
     7
370
    15
100
AcDbSpline
210
0.0
220
0.0
230
1.0
 70
     8
 71
     3
 72
    11
 73
     7
 74
     0
 42
0.00000001
 43
0.00000001
 40
0.0
 40
0.0
 40
0.0
 40
0.0
 40
0.2506755493337949
 40
0.5014990186102469
 40
0.7523086209782829
 40
1.0
 40
1.0
 40
1.0
 40
1.0
 10
42.62455957941724
 20
-322.6246457018517
 30
0.0
 10
42.46032177078823
 20
-322.7231907411135
 30
0.0
 10
42.13174923922286
 20
-322.9203389696106
 30
0.0
 10
41.7177106029018
 20
-323.2161084735795
 30
0.0
 10
41.43014578031062
 20
-323.5106370393513
 30
0.0
 10
41.39301168070347
 20
-323.7065699454447
 30
0.0
 10
41.37456077151014
 20
-323.8039235987328
 30
0.0
  0
LINE
  5
165
330
1F
100
AcDbEntity
  8
0
  6
Continuous
 62
     7
370
    15
100
AcDbLine
 10
40.5745621305
 20
-323.8039235987
 30
0.0
 11
41.3745607715
 21
-323.8039235987
 31
0.0
  0
SPLINE
  5
166
330
1F
100
AcDbEntity
  8
0
  6
Continuous
 62
     7
370
    15
100
AcDbSpline
210
0.0
220
0.0
230
1.0
 70
     8
 71
     3
 72
    12
 73
     8
 74
     0
 42
0.00000001
 43
0.00000001
 40
0.0
 40
0.0
 40
0.0
 40
0.0
 40
0.2286605398772021
 40
0.4574080272186969
 40
0.6861506939874369
 40
0.9148835912279161
 40
1.0
 40
1.0
 40
1.0
 40
1.0
 10
635.703843412921
 20
199.3253607831336
 30
0.0
 10
635.613919433545
 20
199.2996367297409
 30
0.0
 10
635.4340372814779
 20
199.2481788414642
 30
0.0
 10
635.1642067511693
 20
198.8485290849354
 30
0.0
 10
634.8945740071741
 20
198.2671533665399
 30
0.0
 10
634.6806284444569
 20
197.7016845113924
 30
0.0
 10
634.5578603970711
 20
197.3662806639065
 30
0.0
 10
634.52456551604
 20
197.2753186307291
 30
0.0
  0
LINE
  5
167
330
1F
100
AcDbEntity
  8
0
  6
Continuous
 62
     7
370
    15
100
AcDbLine
 10
635.7038434129
 20
199.3253607831
 30
0.0
 11
635.7038434129
 21
198.525347241
 31
0.0
  0
SPLINE
  5
168
330
1F
100
AcDbEntity
  8
0
  6
Continuous
 62
     7
370
    15
100
AcDbSpline
210
0.0
220
0.0
230
1.0
 70
     8
 71
     3
 72
    11
 73
     7
 74
     0
 42
0.00000001
 43
0.00000001
 40
0.0
 40
0.0
 40
0.0
 40
0.0
 40
0.2506813119578283
 40
0.5014864082072035
 40
0.7523171493372899
 40
1.0
 40
1.0
 40
1.0
 40
1.0
 10
635.703843412921
 20
198.5253472409583
 30
0.0
 10
635.6052937206964
 20
198.5064252912308
 30
0.0
 10
635.4081456732508
 20
198.4685720482784
 30
0.0
 10
635.112449457162
 20
198.1778876582563
 30
0.0
 10
634.8178516490613
 20
197.7641418699783
 30
0.0
 10
634.621915143234
 20
197.4375723302627
 30
0.0
 10
634.5245655160398
 20
197.2753186307288
 30
0.0
  0
SPLINE
  5
169
330
1F
100
AcDbEntity
  8
0
  6
Continuous
 62
     7
370
    15
100
AcDbSpline
210
0.0
220
0.0
230
1.0
 70
     8
 71
     3
 72
    12
 73
     8
 74
     0
 42
0.00000001
 43
0.00000001
 40
0.0
 40
0.0
 40
0.0
 40
0.0
 40
0.2286735808731517
 40
0.4574133528897097
 40
0.6861595388807897
 40
0.9149062699789632
 40
0.9999999999999999
 40
0.9999999999999999
 40
0.9999999999999999
 40
0.9999999999999999
 10
634.52456551604
 20
-322.6246457018516
 30
0.0
 10
634.6144872823137
 20
-322.8701194928635
 30
0.0
 10
634.7943568433365
 20
-323.3611381289676
 30
0.0
 10
635.0642086729639
 20
-324.0042992915464
 30
0.0
 10
635.3338505512445
 20
-324.468478268422
 30
0.0
 10
635.5477433279294
 20
-324.6572457666446
 30
0.0
 10
635.6705468472629
 20
-324.6709674103157
 30
0.0
 10
635.703843412921
 20
-324.6746878542565
 30
0.0
  0
SPLINE
  5
16A
330
1F
100
AcDbEntity
  8
0
  6
Continuous
 62
     7
370
    15
100
AcDbSpline
210
0.0
220
0.0
230
1.0
 70
     8
 71
     3
 72
    11
 73
     7
 74
     0
 42
0.00000001
 43
0.00000001
 40
0.0
 40
0.0
 40
0.0
 40
0.0
 40
0.2506734936778668
 40
0.5014813799242644
 40
0.7523117335074404
 40
1.0
 40
1.0
 40
1.0
 40
1.0
 10
634.5245655160398
 20
-322.6246457018517
 30
0.0
 10
634.623116455339
 20
-322.7888819996045
 30
0.0
 10
634.8202711696545
 20
-323.1174426464533
 30
0.0
 10
635.1159557588379
 20
-323.5315111973447
 30
0.0
 10
635.4105619011149
 20
-323.8191088869386
 30
0.0
 10
635.6064945535614
 20
-323.8562304943166
 30
0.0
 10
635.7038434129211
 20
-323.8746743120811
 30
0.0
  0
LINE
  5
16B
330
1F
100
AcDbEntity
  8
0
  6
Continuous
 62
     7
370
    15
100
AcDbLine
 10
635.7038434129
 20
-324.6746878543
 30
0.0
 11
635.7038434129
 21
-323.8746743121
 31
0.0
  0
SPLINE
  5
16C
330
1F
100
AcDbEntity
  8
0
  6
Continuous
 62
     7
370
    15
100
AcDbSpline
210
0.0
220
0.0
230
1.0
 70
     8
 71
     3
 72
    12
 73
     8
 74
     0
 42
0.00000001
 43
0.00000001
 40
0.0
 40
0.0
 40
0.0
 40
0.0
 40
0.2286708269810753
 40
0.4574108607461645
 40
0.6861588164252408
 40
0.9149048205783511
 40
1.0
 40
1.0
 40
1.0
 40
1.0
 10
42.62455957941724
 20
197.2753186307291
 30
0.0
 10
42.53464405066643
 20
197.5207921612501
 30
0.0
 10
42.35478578040364
 20
198.0118135143827
 30
0.0
 10
42.08492682463216
 20
198.6549850382835
 30
0.0
 10
41.81521104914232
 20
199.1191071236678
 30
0.0
 10
41.60142376793347
 20
199.3080332335487
 30
0.0
 10
41.47857587029657
 20
199.3216647276277
 30
0.0
 10
41.44526678137495
 20
199.3253607831336
 30
0.0
  0
LINE
  5
16D
330
1F
100
AcDbEntity
  8
0
  6
Continuous
 62
     7
370
    15
100
AcDbLine
 10
635.7038434129
 20
199.3253607831
 30
0.0
 11
41.4452667814
 21
199.3253607831
 31
0.0
  0
LINE
  5
16E
330
1F
100
AcDbEntity
  8
0
  6
Continuous
 62
     7
370
    15
100
AcDbLine
 10
41.4452667814
 20
-324.6746878543
 30
0.0
 11
635.7038434129
 21
-324.6746878543
 31
0.0
  0
SPLINE
  5
16F
330
1F
100
AcDbEntity
  8
0
  6
Continuous
 62
     7
370
    15
100
AcDbSpline
210
0.0
220
0.0
230
1.0
 70
     8
 71
     3
 72
    12
 73
     8
 74
     0
 42
0.00000001
 43
0.00000001
 40
0.0
 40
0.0
 40
0.0
 40
0.0
 40
0.2286645534858059
 40
0.457406226076126
 40
0.6861514872171111
 40
0.9148980413600426
 40
1.0
 40
1.0
 40
1.0
 40
1.0
 10
41.44526678137495
 20
-324.6746878542565
 30
0.0
 10
41.53518885406965
 20
-324.6489342978369
 30
0.0
 10
41.71506332645825
 20
-324.5974184993875
 30
0.0
 10
41.98491804528659
 20
-324.197867191512
 30
0.0
 10
42.25460039620499
 20
-323.6164779963793
 30
0.0
 10
42.46844005227574
 20
-323.0509693598497
 30
0.0
 10
42.59125700555566
 20
-322.7155867607275
 30
0.0
 10
42.62455957941724
 20
-322.6246457018517
 30
0.0
  0
LINE
  5
170
330
1F
100
AcDbEntity
  8
0
  6
Continuous
 62
     7
370
    15
100
AcDbLine
 10
41.4452667814
 20
-324.6746878543
 30
0.0
 11
41.4452667814
 21
-323.8746743121
 31
0.0
  0
SPLINE
  5
171
330
1F
100
AcDbEntity
  8
0
  6
Continuous
 62
     7
370
    15
100
AcDbSpline
210
0.0
220
0.0
230
1.0
 70
     8
 71
     3
 72
    11
 73
     7
 74
     0
 42
0.00000001
 43
0.00000001
 40
0.0
 40
0.0
 40
0.0
 40
0.0
 40
0.2506698473152548
 40
0.5014938449007383
 40
0.7522954736937062
 40
0.9999999999999999
 40
0.9999999999999999
 40
0.9999999999999999
 40
0.9999999999999999
 10
41.44526678137495
 20
-323.8746743120812
 30
0.0
 10
41.54380904965466
 20
-323.8557805299571
 30
0.0
 10
41.74095418511526
 20
-323.8179813469136
 30
0.0
 10
42.0366773757348
 20
-323.5272129143713
 30
0.0
 10
42.33128092235305
 20
-323.1135116933321
 30
0.0
 10
42.52720577219621
 20
-322.7869246960612
 30
0.0
 10
42.62455957941724
 20
-322.6246457018517
 30
0.0
  0
SPLINE
  5
172
330
1F
100
AcDbEntity
  8
0
  6
Continuous
 62
     7
370
    15
100
AcDbSpline
210
0.0
220
0.0
230
1.0
 70
     8
 71
     3
 72
    11
 73
     7
 74
     0
 42
0.00000001
 43
0.00000001
 40
0.0
 40
0.0
 40
0.0
 40
0.0
 40
0.250671282281857
 40
0.5014871023155832
 40
0.752302869624286
 40
1.0
 40
1.0
 40
1.0
 40
1.0
 10
42.62455957941724
 20
197.2753186307288
 30
0.0
 10
42.52601697375729
 20
197.4395548689652
 30
0.0
 10
42.3288749424996
 20
197.768122044506
 30
0.0
 10
42.03315560155551
 20
198.1821886679971
 30
0.0
 10
41.73855643198493
 20
198.469698499193
 30
0.0
 10
41.54262141625414
 20
198.506875184666
 30
0.0
 10
41.44526678137495
 20
198.5253472409583
 30
0.0
  0
LINE
  5
173
330
1F
100
AcDbEntity
  8
0
  6
Continuous
 62
     7
370
    15
100
AcDbLine
 10
41.4452667814
 20
199.3253607831
 30
0.0
 11
41.4452667814
 21
198.525347241
 31
0.0
  0
SPLINE
  5
174
330
1F
100
AcDbEntity
  8
0
  6
Continuous
 62
     7
370
    15
100
AcDbSpline
210
0.0
220
0.0
230
1.0
 70
     8
 71
     3
 72
    11
 73
     7
 74
     0
 42
0.00000001
 43
0.00000001
 40
0.0
 40
0.0
 40
0.0
 40
0.0
 40
0.2506732046803393
 40
0.5014808017742702
 40
0.7523120190633464
 40
1.0
 40
1.0
 40
1.0
 40
1.0
 10
634.5245655160398
 20
197.2753186307288
 30
0.0
 10
634.6888000075155
 20
197.3738713048681
 30
0.0
 10
635.0173570408423
 20
197.5710294897944
 30
0.0
 10
635.4314533396835
 20
197.8666884910066
 30
0.0
 10
635.7189485636092
 20
198.1613936494571
 30
0.0
 10
635.7560839168948
 20
198.3573137395834
 30
0.0
 10
635.7745345216247
 20
198.4546561322549
 30
0.0
  0
LINE
  5
175
330
1F
100
AcDbEntity
  8
0
  6
Continuous
 62
     7
370
    15
100
AcDbLine
 10
636.5745480638
 20
198.4546561323
 30
0.0
 11
635.7745345216
 21
198.4546561323
 31
0.0
  0
LINE
  5
176
330
1F
100
AcDbEntity
  8
0
  6
Continuous
 62
     7
370
    15
100
AcDbLine
 10
40.5745621305
 20
198.4546561323
 30
0.0
 11
40.5745621305
 21
-323.8039235987
 31
0.0
  0
LINE
  5
177
330
1F
100
AcDbEntity
  8
0
  6
Continuous
 62
     7
370
    15
100
AcDbLine
 10
92.4045558553
 20
212.3253722272
 30
0.0
 11
92.4045558553
 21
199.3253607831
 31
0.0
  0
LINE
  5
178
330
1F
100
AcDbEntity
  8
0
  6
Continuous
 62
     7
370
    15
100
AcDbLine
 10
584.8045762163
 20
199.3253607831
 30
0.0
 11
584.8045762163
 21
212.3253722272
 31
0.0
  0
LINE
  5
179
330
1F
100
AcDbEntity
  8
0
  6
Continuous
 62
     7
370
    15
100
AcDbLine
 10
481.6045578104
 20
-325.4746417918
 30
0.0
 11
138.3070762735
 21
-325.4746417918
 31
0.0
  0
LINE
  5
17A
330
1F
100
AcDbEntity
  8
0
  6
Continuous
 62
     7
370
    15
100
AcDbLine
 10
128.9020593744
 20
-325.4746417918
 30
0.0
 11
108.87528616
 21
-325.4746417918
 31
0.0
  0
LINE
  5
17B
330
1F
100
AcDbEntity
  8
0
  6
Continuous
 62
     7
370
    15
100
AcDbLine
 10
481.6045578104
 20
-326.674662105
 30
0.0
 11
140.004556952
 21
-326.674662105
 31
0.0
  0
LINE
  5
17C
330
1F
100
AcDbEntity
  8
0
  6
Continuous
 62
     7
370
    15
100
AcDbLine
 10
127.2045488935
 20
-326.674662105
 30
0.0
 11
108.87528616
 21
-326.674662105
 31
0.0
  0
LINE
  5
17D
330
1F
100
AcDbEntity
  8
0
  6
Continuous
 62
     7
370
    15
100
AcDbLine
 10
108.87528616
 20
-326.674662105
 30
0.0
 11
108.87528616
 21
-325.4746417918
 31
0.0
  0
LINE
  5
17E
330
1F
100
AcDbEntity
  8
0
  6
Continuous
 62
     7
370
    15
100
AcDbLine
 10
108.804565249
 20
-325.4039506831
 30
0.0
 11
108.804565249
 21
-324.6746878543
 31
0.0
  0
LINE
  5
17F
330
1F
100
AcDbEntity
  8
0
  6
Continuous
 62
     7
370
    15
100
AcDbLine
 10
107.6045747381
 20
-325.4039506831
 30
0.0
 11
107.6045747381
 21
-324.6746878543
 31
0.0
  0
LINE
  5
180
330
1F
100
AcDbEntity
  8
0
  6
Continuous
 62
     7
370
    15
100
AcDbLine
 10
107.6045747381
 20
-325.4039506831
 30
0.0
 11
108.804565249
 21
-325.4039506831
 31
0.0
  0
SPLINE
  5
181
330
1F
100
AcDbEntity
  8
0
  6
Continuous
 62
     7
370
    15
100
AcDbSpline
210
0.0
220
0.0
230
1.0
 70
     8
 71
     3
 72
    11
 73
     7
 74
     0
 42
0.00000001
 43
0.00000001
 40
0.0
 40
0.0
 40
0.0
 40
0.0
 40
0.0478299335437632
 40
0.376251774168566
 40
0.7046842615794014
 40
1.0
 40
1.0
 40
1.0
 40
1.0
 10
109.775822935626
 20
-324.6746878542565
 30
0.0
 10
109.7614473412568
 20
-324.6980886645756
 30
0.0
 10
109.6483624489019
 20
-324.8821699657026
 30
0.0
 10
109.4368921919732
 20
-325.1592290450317
 30
0.0
 10
109.1508978529351
 20
-325.4277687390705
 30
0.0
 10
108.9638463405809
 20
-325.4595804351096
 30
0.0
 10
108.875286160037
 20
-325.474641791787
 30
0.0
  0
SPLINE
  5
182
330
1F
100
AcDbEntity
  8
0
  6
Continuous
 62
     7
370
    15
100
AcDbSpline
210
0.0
220
0.0
230
1.0
 70
     8
 71
     3
 72
    10
 73
     6
 74
     0
 42
0.00000001
 43
0.00000001
 40
0.0
 40
0.0
 40
0.0
 40
0.0
 40
0.4411094868134628
 40
0.8469536472224136
 40
1.0
 40
1.0
 40
1.0
 40
1.0
 10
108.804565249011
 20
-325.4039506830834
 30
0.0
 10
108.8283033201901
 20
-325.296641583297
 30
0.0
 10
108.8738816778635
 20
-325.0906024112522
 30
0.0
 10
109.1101447219162
 20
-324.8476023354266
 30
0.0
 10
109.3075445636844
 20
-324.7118595923004
 30
0.0
 10
109.3616004567595
 20
-324.6746878542565
 30
0.0
  0
SPLINE
  5
183
330
1F
100
AcDbEntity
  8
0
  6
Continuous
 62
     7
370
    15
100
AcDbSpline
210
0.0
220
0.0
230
1.0
 70
     8
 71
     3
 72
    11
 73
     7
 74
     0
 42
0.00000001
 43
0.00000001
 40
0.0
 40
0.0
 40
0.0
 40
0.0
 40
0.2833268970156461
 40
0.5580432447061345
 40
0.7754295555067462
 40
0.9999999999999999
 40
0.9999999999999999
 40
0.9999999999999999
 40
0.9999999999999999
 10
111.3587732892485
 20
-292.6762919344567
 30
0.0
 10
111.3198437857611
 20
-292.9734129557992
 30
0.0
 10
111.2431678800503
 20
-293.5586252337961
 30
0.0
 10
110.7087713264141
 20
-294.2077532671653
 30
0.0
 10
110.0575161536598
 20
-294.6030147164471
 30
0.0
 10
109.5952822088686
 20
-294.6505187481609
 30
0.0
 10
109.360408363864
 20
-294.6746568598412
 30
0.0
  0
LINE
  5
184
330
1F
100
AcDbEntity
  8
0
  6
Continuous
 62
     7
370
    15
100
AcDbLine
 10
111.3587732892
 20
-236.6734366336
 30
0.0
 11
111.3587732892
 21
-292.6762919345
 31
0.0
  0
SPLINE
  5
185
330
1F
100
AcDbEntity
  8
0
  6
Continuous
 62
     7
370
    15
100
AcDbSpline
210
0.0
220
0.0
230
1.0
 70
     8
 71
     3
 72
    11
 73
     7
 74
     0
 42
0.00000001
 43
0.00000001
 40
0.0
 40
0.0
 40
0.0
 40
0.0
 40
0.2833069870931984
 40
0.5580352297402839
 40
0.7754265149151793
 40
0.9999999999999999
 40
0.9999999999999999
 40
0.9999999999999999
 40
0.9999999999999999
 10
109.360408363864
 20
-234.6746544756554
 30
0.0
 10
109.6575337744828
 20
-234.7135989824078
 30
0.0
 10
110.2427874192221
 20
-234.7903087275349
 30
0.0
 10
110.89189037525
 20
-235.3248844143178
 30
0.0
 10
111.2870367695247
 20
-235.9762808401682
 30
0.0
 10
111.3346034533643
 20
-236.4385473306331
 30
0.0
 10
111.3587732892485
 20
-236.6734366335534
 30
0.0
  0
LINE
  5
186
330
1F
100
AcDbEntity
  8
0
  6
Continuous
 62
     7
370
    15
100
AcDbLine
 10
73.3610804658
 20
-234.6746544757
 30
0.0
 11
109.3604083639
 21
-234.6746544757
 31
0.0
  0
SPLINE
  5
187
330
1F
100
AcDbEntity
  8
0
  6
Continuous
 62
     7
370
    15
100
AcDbSpline
210
0.0
220
0.0
230
1.0
 70
     8
 71
     3
 72
    11
 73
     7
 74
     0
 42
0.00000001
 43
0.00000001
 40
0.0
 40
0.0
 40
0.0
 40
0.0
 40
0.2833571656777427
 40
0.55810695974678
 40
0.7754832253612259
 40
1.0
 40
1.0
 40
1.0
 40
1.0
 10
71.35876673273755
 20
-236.66902588984
 30
0.0
 10
71.39833832865816
 20
-236.3719704399564
 30
0.0
 10
71.47627947773304
 20
-235.7868830164065
 30
0.0
 10
72.01199300326321
 20
-235.1388274479866
 30
0.0
 10
72.66397266904929
 20
-234.7448637217115
 30
0.0
 10
73.12622138871633
 20
-234.6983083191644
 30
0.0
 10
73.36108046583844
 20
-234.6746544756553
 30
0.0
  0
LINE
  5
188
330
1F
100
AcDbEntity
  8
0
  6
Continuous
 62
     7
370
    15
100
AcDbLine
 10
71.3587667327
 20
-292.6807026782
 30
0.0
 11
71.3587667327
 21
-236.6690258898
 31
0.0
  0
SPLINE
  5
189
330
1F
100
AcDbEntity
  8
0
  6
Continuous
 62
     7
370
    15
100
AcDbSpline
210
0.0
220
0.0
230
1.0
 70
     8
 71
     3
 72
    11
 73
     7
 74
     0
 42
0.00000001
 43
0.00000001
 40
0.0
 40
0.0
 40
0.0
 40
0.0
 40
0.2832778649057324
 40
0.5580019847905101
 40
0.7754087782741147
 40
1.0
 40
1.0
 40
1.0
 40
1.0
 10
73.36108046583844
 20
-294.6746568598412
 30
0.0
 10
73.06396742122773
 20
-294.6363744423186
 30
0.0
 10
72.47871283857587
 20
-294.5609655678297
 30
0.0
 10
71.82851511677846
 20
-294.028036830515
 30
0.0
 10
71.431996900854
 20
-293.3776099873349
 30
0.0
 10
71.38343987777674
 20
-292.9155088456303
 30
0.0
 10
71.35876673273755
 20
-292.6807026781701
 30
0.0
  0
LINE
  5
18A
330
1F
100
AcDbEntity
  8
0
  6
Continuous
 62
     7
370
    15
100
AcDbLine
 10
109.3604083639
 20
-294.6746568598
 30
0.0
 11
73.3610804658
 21
-294.6746568598
 31
0.0
  0
SPLINE
  5
18B
330
1F
100
AcDbEntity
  8
0
  6
Continuous
 62
     7
370
    15
100
AcDbSpline
210
0.0
220
0.0
230
1.0
 70
     8
 71
     3
 72
    11
 73
     7
 74
     0
 42
0.00000001
 43
0.00000001
 40
0.0
 40
0.0
 40
0.0
 40
0.0
 40
0.2833069870931984
 40
0.5580352297402839
 40
0.7754265149151793
 40
0.9999999999999999
 40
0.9999999999999999
 40
0.9999999999999999
 40
0.9999999999999999
 10
109.360408363864
 20
-234.6746544756554
 30
0.0
 10
109.6575337744828
 20
-234.7135989824078
 30
0.0
 10
110.2427874192221
 20
-234.7903087275349
 30
0.0
 10
110.89189037525
 20
-235.3248844143178
 30
0.0
 10
111.2870367695247
 20
-235.9762808401682
 30
0.0
 10
111.3346034533643
 20
-236.4385473306331
 30
0.0
 10
111.3587732892485
 20
-236.6734366335534
 30
0.0
  0
SPLINE
  5
18C
330
1F
100
AcDbEntity
  8
0
  6
Continuous
 62
     7
370
    15
100
AcDbSpline
210
0.0
220
0.0
230
1.0
 70
     8
 71
     3
 72
    11
 73
     7
 74
     0
 42
0.00000001
 43
0.00000001
 40
0.0
 40
0.0
 40
0.0
 40
0.0
 40
0.2833268970156461
 40
0.5580432447061345
 40
0.7754295555067462
 40
0.9999999999999999
 40
0.9999999999999999
 40
0.9999999999999999
 40
0.9999999999999999
 10
111.3587732892485
 20
-292.6762919344567
 30
0.0
 10
111.3198437857611
 20
-292.9734129557992
 30
0.0
 10
111.2431678800503
 20
-293.5586252337961
 30
0.0
 10
110.7087713264141
 20
-294.2077532671653
 30
0.0
 10
110.0575161536598
 20
-294.6030147164471
 30
0.0
 10
109.5952822088686
 20
-294.6505187481609
 30
0.0
 10
109.360408363864
 20
-294.6746568598412
 30
0.0
  0
SPLINE
  5
18D
330
1F
100
AcDbEntity
  8
0
  6
Continuous
 62
     7
370
    15
100
AcDbSpline
210
0.0
220
0.0
230
1.0
 70
     8
 71
     3
 72
    11
 73
     7
 74
     0
 42
0.00000001
 43
0.00000001
 40
0.0
 40
0.0
 40
0.0
 40
0.0
 40
0.2832778649057324
 40
0.5580019847905101
 40
0.7754087782741147
 40
1.0
 40
1.0
 40
1.0
 40
1.0
 10
73.36108046583844
 20
-294.6746568598412
 30
0.0
 10
73.06396742122773
 20
-294.6363744423186
 30
0.0
 10
72.47871283857587
 20
-294.5609655678297
 30
0.0
 10
71.82851511677846
 20
-294.028036830515
 30
0.0
 10
71.431996900854
 20
-293.3776099873349
 30
0.0
 10
71.38343987777674
 20
-292.9155088456303
 30
0.0
 10
71.35876673273755
 20
-292.6807026781701
 30
0.0
  0
SPLINE
  5
18E
330
1F
100
AcDbEntity
  8
0
  6
Continuous
 62
     7
370
    15
100
AcDbSpline
210
0.0
220
0.0
230
1.0
 70
     8
 71
     3
 72
    11
 73
     7
 74
     0
 42
0.00000001
 43
0.00000001
 40
0.0
 40
0.0
 40
0.0
 40
0.0
 40
0.2833571656777427
 40
0.55810695974678
 40
0.7754832253612259
 40
1.0
 40
1.0
 40
1.0
 40
1.0
 10
71.35876673273755
 20
-236.66902588984
 30
0.0
 10
71.39833832865816
 20
-236.3719704399564
 30
0.0
 10
71.47627947773304
 20
-235.7868830164065
 30
0.0
 10
72.01199300326321
 20
-235.1388274479866
 30
0.0
 10
72.66397266904929
 20
-234.7448637217115
 30
0.0
 10
73.12622138871633
 20
-234.6983083191644
 30
0.0
 10
73.36108046583844
 20
-234.6746544756553
 30
0.0
  0
SPLINE
  5
18F
330
1F
100
AcDbEntity
  8
0
  6
Continuous
 62
     7
370
    15
100
AcDbSpline
210
0.0
220
0.0
230
1.0
 70
     8
 71
     3
 72
    13
 73
     9
 74
     0
 42
0.00000001
 43
0.00000001
 40
0.0
 40
0.0
 40
0.0
 40
0.0
 40
0.1275348218190821
 40
0.2545890763320601
 40
0.4999486864924663
 40
0.7453395051698284
 40
0.8725014042615692
 40
1.0
 40
1.0
 40
1.0
 40
1.0
 10
73.36108046583844
 20
-234.6746544756554
 30
0.0
 10
73.22792109466187
 20
-234.6819279263069
 30
0.0
 10
72.96210411362681
 20
-234.6964474203292
 30
0.0
 10
72.46174002163802
 20
-234.8569205828243
 30
0.0
 10
71.91282452316756
 20
-235.2227273467009
 30
0.0
 10
71.54477637399637
 20
-235.7702920660637
 30
0.0
 10
71.38232581904514
 20
-236.2701214833283
 30
0.0
 10
71.36662668032278
 20
-236.5359406043678
 30
0.0
 10
71.35876673273755
 20
-236.66902588984
 30
0.0
  0
SPLINE
  5
190
330
1F
100
AcDbEntity
  8
0
  6
Continuous
 62
     7
370
    15
100
AcDbSpline
210
0.0
220
0.0
230
1.0
 70
     8
 71
     3
 72
    13
 73
     9
 74
     0
 42
0.00000001
 43
0.00000001
 40
0.0
 40
0.0
 40
0.0
 40
0.0
 40
0.1275851869685392
 40
0.2546667631265613
 40
0.5000465988233571
 40
0.7453948494455914
 40
0.8725417551652026
 40
1.0
 40
1.0
 40
1.0
 40
1.0
 10
71.35876673273755
 20
-292.68070267817
 30
0.0
 10
71.36660885886926
 20
-292.8138716325378
 30
0.0
 10
71.38226215628896
 20
-293.0796838899293
 30
0.0
 10
71.54486330359028
 20
-293.579413279985
 30
0.0
 10
71.91280386410071
 20
-294.1268457231482
 30
0.0
 10
72.46184626478691
 20
-294.492525739951
 30
0.0
 10
72.96220375141228
 20
-294.6528789978404
 30
0.0
 10
73.22801321433047
 20
-294.6673916569969
 30
0.0
 10
73.36108046583844
 20
-294.6746568598412
 30
0.0
  0
SPLINE
  5
191
330
1F
100
AcDbEntity
  8
0
  6
Continuous
 62
     7
370
    15
100
AcDbSpline
210
0.0
220
0.0
230
1.0
 70
     8
 71
     3
 72
    13
 73
     9
 74
     0
 42
0.00000001
 43
0.00000001
 40
0.0
 40
0.0
 40
0.0
 40
0.0
 40
0.1275700817024532
 40
0.2546471689511872
 40
0.5000033236902399
 40
0.7453462393508978
 40
0.8725143661481332
 40
1.0
 40
1.0
 40
1.0
 40
1.0
 10
109.360408363864
 20
-294.6746568598412
 30
0.0
 10
109.493593773744
 20
-294.6671021631381
 30
0.0
 10
109.7594498986202
 20
-294.65202196485
 30
0.0
 10
110.2595720492339
 20
-294.4905522169744
 30
0.0
 10
110.807774698796
 20
-294.1236903297612
 30
0.0
 10
111.1747508164433
 20
-293.5754043563725
 30
0.0
 10
111.3360337211032
 20
-293.0752349356274
 30
0.0
 10
111.3511871353469
 20
-292.8093834243866
 30
0.0
 10
111.3587732892485
 20
-292.6762919344567
 30
0.0
  0
SPLINE
  5
192
330
1F
100
AcDbEntity
  8
0
  6
Continuous
 62
     7
370
    15
100
AcDbSpline
210
0.0
220
0.0
230
1.0
 70
     8
 71
     3
 72
    13
 73
     9
 74
     0
 42
0.00000001
 43
0.00000001
 40
0.0
 40
0.0
 40
0.0
 40
0.0
 40
0.1275686484629327
 40
0.2546521214347863
 40
0.5000196193071924
 40
0.7453743057646619
 40
0.8725271700807596
 40
1.0
 40
1.0
 40
1.0
 40
1.0
 10
111.3587732892485
 20
-236.6734366335534
 30
0.0
 10
111.3512056798608
 20
-236.5402415164038
 30
0.0
 10
111.3360992425977
 20
-236.274357856464
 30
0.0
 10
111.1746376752464
 20
-235.7741710856954
 30
0.0
 10
110.8078228841751
 20
-235.2258228208267
 30
0.0
 10
110.2595202970968
 20
-234.8587580902152
 30
0.0
 10
109.7593545555147
 20
-234.6973387463534
 30
0.0
 10
109.4935017856397
 20
-234.6822222310844
 30
0.0
 10
109.360408363864
 20
-234.6746544756554
 30
0.0
  0
SPLINE
  5
193
330
1F
100
AcDbEntity
  8
0
  6
Continuous
 62
     7
370
    15
100
AcDbSpline
210
0.0
220
0.0
230
1.0
 70
     8
 71
     3
 72
    13
 73
     9
 74
     0
 42
0.00000001
 43
0.00000001
 40
0.0
 40
0.0
 40
0.0
 40
0.0
 40
0.1275348218190821
 40
0.2545890763320601
 40
0.4999486864924663
 40
0.7453395051698284
 40
0.8725014042615692
 40
1.0
 40
1.0
 40
1.0
 40
1.0
 10
73.36108046583844
 20
-234.6746544756554
 30
0.0
 10
73.22792109466187
 20
-234.6819279263069
 30
0.0
 10
72.96210411362681
 20
-234.6964474203292
 30
0.0
 10
72.46174002163802
 20
-234.8569205828243
 30
0.0
 10
71.91282452316756
 20
-235.2227273467009
 30
0.0
 10
71.54477637399637
 20
-235.7702920660637
 30
0.0
 10
71.38232581904514
 20
-236.2701214833283
 30
0.0
 10
71.36662668032278
 20
-236.5359406043678
 30
0.0
 10
71.35876673273755
 20
-236.66902588984
 30
0.0
  0
SPLINE
  5
194
330
1F
100
AcDbEntity
  8
0
  6
Continuous
 62
     7
370
    15
100
AcDbSpline
210
0.0
220
0.0
230
1.0
 70
     8
 71
     3
 72
    13
 73
     9
 74
     0
 42
0.00000001
 43
0.00000001
 40
0.0
 40
0.0
 40
0.0
 40
0.0
 40
0.1275700817024532
 40
0.2546471689511872
 40
0.5000033236902399
 40
0.7453462393508978
 40
0.8725143661481332
 40
1.0
 40
1.0
 40
1.0
 40
1.0
 10
109.360408363864
 20
-294.6746568598412
 30
0.0
 10
109.493593773744
 20
-294.6671021631381
 30
0.0
 10
109.7594498986202
 20
-294.65202196485
 30
0.0
 10
110.2595720492339
 20
-294.4905522169744
 30
0.0
 10
110.807774698796
 20
-294.1236903297612
 30
0.0
 10
111.1747508164433
 20
-293.5754043563725
 30
0.0
 10
111.3360337211032
 20
-293.0752349356274
 30
0.0
 10
111.3511871353469
 20
-292.8093834243866
 30
0.0
 10
111.3587732892485
 20
-292.6762919344567
 30
0.0
  0
SPLINE
  5
195
330
1F
100
AcDbEntity
  8
0
  6
Continuous
 62
     7
370
    15
100
AcDbSpline
210
0.0
220
0.0
230
1.0
 70
     8
 71
     3
 72
    13
 73
     9
 74
     0
 42
0.00000001
 43
0.00000001
 40
0.0
 40
0.0
 40
0.0
 40
0.0
 40
0.1275851869685392
 40
0.2546667631265613
 40
0.5000465988233571
 40
0.7453948494455914
 40
0.8725417551652026
 40
1.0
 40
1.0
 40
1.0
 40
1.0
 10
71.35876673273755
 20
-292.68070267817
 30
0.0
 10
71.36660885886926
 20
-292.8138716325378
 30
0.0
 10
71.38226215628896
 20
-293.0796838899293
 30
0.0
 10
71.54486330359028
 20
-293.579413279985
 30
0.0
 10
71.91280386410071
 20
-294.1268457231482
 30
0.0
 10
72.46184626478691
 20
-294.492525739951
 30
0.0
 10
72.96220375141228
 20
-294.6528789978404
 30
0.0
 10
73.22801321433047
 20
-294.6673916569969
 30
0.0
 10
73.36108046583844
 20
-294.6746568598412
 30
0.0
  0
SPLINE
  5
196
330
1F
100
AcDbEntity
  8
0
  6
Continuous
 62
     7
370
    15
100
AcDbSpline
210
0.0
220
0.0
230
1.0
 70
     8
 71
     3
 72
    13
 73
     9
 74
     0
 42
0.00000001
 43
0.00000001
 40
0.0
 40
0.0
 40
0.0
 40
0.0
 40
0.1275686484629327
 40
0.2546521214347863
 40
0.5000196193071924
 40
0.7453743057646619
 40
0.8725271700807596
 40
1.0
 40
1.0
 40
1.0
 40
1.0
 10
111.3587732892485
 20
-236.6734366335534
 30
0.0
 10
111.3512056798608
 20
-236.5402415164038
 30
0.0
 10
111.3360992425977
 20
-236.274357856464
 30
0.0
 10
111.1746376752464
 20
-235.7741710856954
 30
0.0
 10
110.8078228841751
 20
-235.2258228208267
 30
0.0
 10
110.2595202970968
 20
-234.8587580902152
 30
0.0
 10
109.7593545555147
 20
-234.6973387463534
 30
0.0
 10
109.4935017856397
 20
-234.6822222310844
 30
0.0
 10
109.360408363864
 20
-234.6746544756554
 30
0.0
  0
LINE
  5
197
330
1F
100
AcDbEntity
  8
0
  6
Continuous
 62
     7
370
    15
100
AcDbLine
 10
636.5545805078
 20
1076.9546408735
 30
0.0
 11
637.0402391534
 21
1076.7728467069
 31
0.0
  0
SPLINE
  5
198
330
1F
100
AcDbEntity
  8
0
  6
Continuous
 62
     7
370
    15
100
AcDbSpline
210
0.0
220
0.0
230
1.0
 70
     8
 71
     3
 72
     9
 73
     5
 74
     0
 42
0.00000001
 43
0.00000001
 40
0.0
 40
0.0
 40
0.0
 40
0.0
 40
0.6151055356325968
 40
1.0
 40
1.0
 40
1.0
 40
1.0
 10
638.4045894723387
 20
1076.611675747428
 30
0.0
 10
638.3187078084295
 20
1076.797254678656
 30
0.0
 10
638.1790867858016
 20
1077.098957265411
 30
0.0
 10
637.9086421547822
 20
1077.28621071262
 30
0.0
 10
637.8045495133849
 20
1077.358283527885
 30
0.0
  0
SPLINE
  5
199
330
1F
100
AcDbEntity
  8
0
  6
Continuous
 62
     7
370
    15
100
AcDbSpline
210
0.0
220
0.0
230
1.0
 70
     8
 71
     3
 72
     9
 73
     5
 74
     0
 42
0.00000001
 43
0.00000001
 40
0.0
 40
0.0
 40
0.0
 40
0.0
 40
0.5047098001606088
 40
1.0
 40
1.0
 40
1.0
 40
1.0
 10
636.5545805078001
 20
-327.1746854700707
 30
0.0
 10
636.8026136961639
 20
-327.1516557362144
 30
0.0
 10
637.29405093056
 20
-327.1060260816108
 30
0.0
 10
637.694251128443
 20
-326.817544302885
 30
0.0
 10
637.8924663644285
 20
-326.6746621050499
 30
0.0
  0
LINE
  5
19A
330
1F
100
AcDbEntity
  8
0
  6
Continuous
 62
     7
370
    15
100
AcDbLine
 10
636.5545805078
 20
-327.1746854701
 30
0.0
 11
636.5545805078
 21
-326.674662105
 31
0.0
  0
LINE
  5
19B
330
1F
100
AcDbEntity
  8
0
  6
Continuous
 62
     7
370
    15
100
AcDbLine
 10
636.5545805078
 20
1077.0253319822
 30
0.0
 11
636.2497623544
 21
1077.0253319822
 31
0.0
  0
LINE
  5
19C
330
1F
100
AcDbEntity
  8
0
  6
Continuous
 62
     7
370
    15
100
AcDbLine
 10
636.5545805078
 20
-327.1746854701
 30
0.0
 11
634.6045549493
 21
-327.1746854701
 31
0.0
  0
LINE
  5
19D
330
1F
100
AcDbEntity
  8
0
  6
Continuous
 62
     7
370
    15
100
AcDbLine
 10
637.8045495134
 20
-327.1746854701
 30
0.0
 11
638.6045630556
 21
-327.1746854701
 31
0.0
  0
LINE
  5
19E
330
1F
100
AcDbEntity
  8
0
  6
Continuous
 62
     7
370
    15
100
AcDbLine
 10
638.6045630556
 20
-327.1746854701
 30
0.0
 11
638.6045630556
 21
-326.674662105
 31
0.0
  0
LINE
  5
19F
330
1F
100
AcDbEntity
  8
0
  6
Continuous
 62
     7
370
    15
100
AcDbLine
 10
637.8045495134
 20
-326.7272334017
 30
0.0
 11
637.8045495134
 21
-327.1746854701
 31
0.0
  0
LINE
  5
1A0
330
1F
100
AcDbEntity
  8
0
  6
Continuous
 62
     7
370
    15
100
AcDbLine
 10
636.5545805078
 20
-327.1746854701
 30
0.0
 11
637.8045495134
 21
-327.1746854701
 31
0.0
  0
LINE
  5
1A1
330
1F
100
AcDbEntity
  8
0
  6
Continuous
 62
     7
370
    15
100
AcDbLine
 10
40.6545664649
 20
1076.9546408735
 30
0.0
 11
41.0545583349
 21
1076.9546408735
 31
0.0
  0
SPLINE
  5
1A2
330
1F
100
AcDbEntity
  8
0
  6
Continuous
 62
     7
370
    15
100
AcDbSpline
210
0.0
220
0.0
230
1.0
 70
     8
 71
     3
 72
     9
 73
     5
 74
     0
 42
0.00000001
 43
0.00000001
 40
0.0
 40
0.0
 40
0.0
 40
0.0
 40
0.3496989363593317
 40
1.0
 40
1.0
 40
1.0
 40
1.0
 10
40.24286228232099
 20
1076.800622471366
 30
0.0
 10
40.28896340939247
 20
1076.818635777229
 30
0.0
 10
40.42079431385981
 20
1076.870146674149
 30
0.0
 10
40.5624485587951
 20
1076.921345937834
 30
0.0
 10
40.65456646494581
 20
1076.954640873466
 30
0.0
  0
SPLINE
  5
1A3
330
1F
100
AcDbEntity
  8
0
  6
Continuous
 62
     7
370
    15
100
AcDbSpline
210
0.0
220
0.0
230
1.0
 70
     8
 71
     3
 72
    10
 73
     6
 74
     0
 42
0.00000001
 43
0.00000001
 40
0.0
 40
0.0
 40
0.0
 40
0.0
 40
0.2903624084383198
 40
0.8075799139969622
 40
1.0
 40
1.0
 40
1.0
 40
1.0
 10
39.363157330081
 20
-326.6746621050499
 30
0.0
 10
39.466219166159
 20
-326.7664139855193
 30
0.0
 10
39.75286325746508
 20
-327.0216018940952
 30
0.0
 10
40.229686848817
 20
-327.1554519724357
 30
0.0
 10
40.56393437532468
 20
-327.1705827265753
 30
0.0
 10
40.65456646494581
 20
-327.1746854700707
 30
0.0
  0
LINE
  5
1A4
330
1F
100
AcDbEntity
  8
0
  6
Continuous
 62
     7
370
    15
100
AcDbLine
 10
40.6545664649
 20
-327.1746854701
 30
0.0
 11
40.6545664649
 21
-326.674662105
 31
0.0
  0
SPLINE
  5
1A5
330
1F
100
AcDbEntity
  8
0
  6
Continuous
 62
     7
370
    15
100
AcDbSpline
210
0.0
220
0.0
230
1.0
 70
     8
 71
     3
 72
    10
 73
     6
 74
     0
 42
0.00000001
 43
0.00000001
 40
0.0
 40
0.0
 40
0.0
 40
0.0
 40
0.1173354507253968
 40
0.8566601312415787
 40
1.0
 40
1.0
 40
1.0
 40
1.0
 10
39.4045676570387
 20
1077.377953060661
 30
0.0
 10
39.37095777368005
 20
1077.358687236127
 30
0.0
 10
39.12557373236037
 20
1077.218028435468
 30
0.0
 10
38.90177523140454
 20
1076.933969102403
 30
0.0
 10
38.81813948558904
 20
1076.654958910335
 30
0.0
 10
38.80455750040723
 20
1076.609649189506
 30
0.0
  0
LINE
  5
1A6
330
1F
100
AcDbEntity
  8
0
  6
Continuous
 62
     7
370
    15
100
AcDbLine
 10
45.1045598369
 20
-327.1746854701
 30
0.0
 11
40.6545664649
 21
-327.1746854701
 31
0.0
  0
LINE
  5
1A7
330
1F
100
AcDbEntity
  8
0
  6
Continuous
 62
     7
370
    15
100
AcDbLine
 10
39.404567657
 20
-327.1746854701
 30
0.0
 11
38.604569016
 21
-327.1746854701
 31
0.0
  0
LINE
  5
1A8
330
1F
100
AcDbEntity
  8
0
  6
Continuous
 62
     7
370
    15
100
AcDbLine
 10
38.604569016
 20
-326.674662105
 30
0.0
 11
38.604569016
 21
-327.1746854701
 31
0.0
  0
LINE
  5
1A9
330
1F
100
AcDbEntity
  8
0
  6
Continuous
 62
     7
370
    15
100
AcDbLine
 10
39.404567657
 20
-327.1746854701
 30
0.0
 11
39.404567657
 21
-326.7076234736
 31
0.0
  0
LINE
  5
1AA
330
1F
100
AcDbEntity
  8
0
  6
Continuous
 62
     7
370
    15
100
AcDbLine
 10
107.6045747381
 20
-325.4039506831
 30
0.0
 11
107.6045747381
 21
-327.1746854701
 31
0.0
  0
LINE
  5
1AB
330
1F
100
AcDbEntity
  8
0
  6
Continuous
 62
     7
370
    15
100
AcDbLine
 10
108.4045584779
 20
-325.4039506831
 30
0.0
 11
108.4045584779
 21
-327.1746854701
 31
0.0
  0
LINE
  5
1AC
330
1F
100
AcDbEntity
  8
0
  6
Continuous
 62
     7
370
    15
100
AcDbLine
 10
39.404567657
 20
-327.1746854701
 30
0.0
 11
40.6545664649
 21
-327.1746854701
 31
0.0
  0
SPLINE
  5
1AD
330
1F
100
AcDbEntity
  8
0
  6
Continuous
 62
     7
370
    15
100
AcDbSpline
210
0.0
220
0.0
230
1.0
 70
     8
 71
     3
 72
    13
 73
     9
 74
     0
 42
0.00000001
 43
0.00000001
 40
0.0
 40
0.0
 40
0.0
 40
0.0
 40
0.167199724184546
 40
0.3338861354008683
 40
0.5000058004366476
 40
0.6661335903000573
 40
0.8328106383655853
 40
1.0
 40
1.0
 40
1.0
 40
1.0
 10
195.9709938149901
 20
714.1744275174475
 30
0.0
 10
188.5959147884764
 20
714.4246450592216
 30
0.0
 10
173.8683986609931
 20
714.924311960228
 30
0.0
 10
151.7155173305387
 20
715.4939452731442
 30
0.0
 10
129.6170607201538
 20
715.9303197405349
 30
0.0
 10
107.5828329132901
 20
716.2181471436975
 30
0.0
 10
85.60838606506532
 20
716.3741219184776
 30
0.0
 10
71.10472835194348
 20
716.3591589475211
 30
0.0
 10
63.84177166037275
 20
716.351665981803
 30
0.0
  0
LINE
  5
1AE
330
1F
100
AcDbEntity
  8
0
  6
Continuous
 62
     7
370
    15
100
AcDbLine
 10
195.970993815
 20
714.1744275174
 30
0.0
 11
195.980143128
 21
714.1749043546
 31
0.0
  0
LINE
  5
1AF
330
1F
100
AcDbEntity
  8
0
  6
Continuous
 62
     7
370
    15
100
AcDbLine
 10
195.980143128
 20
680.8758158765
 30
0.0
 11
195.970993815
 21
680.8762927137
 31
0.0
  0
SPLINE
  5
1B0
330
1F
100
AcDbEntity
  8
0
  6
Continuous
 62
     7
370
    15
100
AcDbSpline
210
0.0
220
0.0
230
1.0
 70
     8
 71
     3
 72
    13
 73
     9
 74
     0
 42
0.00000001
 43
0.00000001
 40
0.0
 40
0.0
 40
0.0
 40
0.0
 40
0.1671963718516487
 40
0.3338803880587287
 40
0.4999942097626323
 40
0.6661277741828342
 40
0.8328072576102721
 40
1.0
 40
1.0
 40
1.0
 40
1.0
 10
63.84177166037275
 20
678.6989350400305
 30
0.0
 10
71.10502793927098
 20
678.6914939885811
 30
0.0
 10
85.60928301437687
 20
678.6766346879994
 30
0.0
 10
107.58376581851
 20
678.8325399935187
 30
0.0
 10
129.618290670941
 20
679.1204474409977
 30
0.0
 10
151.7164451197703
 20
679.5567313505595
 30
0.0
 10
173.8693176478142
 20
680.1264131968308
 30
0.0
 10
188.5962219106129
 20
680.6260768318273
 30
0.0
 10
195.9709938149901
 20
680.8762927136755
 30
0.0
  0
LINE
  5
1B1
330
1F
100
AcDbEntity
  8
0
  6
Continuous
 62
     7
370
    15
100
AcDbLine
 10
197.3045881372
 20
681.1046977125
 30
0.0
 11
197.3116512876
 21
681.1062474332
 31
0.0
  0
LINE
  5
1B2
330
1F
100
AcDbEntity
  8
0
  6
Continuous
 62
     7
370
    15
100
AcDbLine
 10
195.970993815
 20
680.8762927137
 30
0.0
 11
197.3045881372
 21
681.1046977125
 31
0.0
  0
LINE
  5
1B3
330
1F
100
AcDbEntity
  8
0
  6
Continuous
 62
     7
370
    15
100
AcDbLine
 10
195.970993815
 20
714.1744275174
 30
0.0
 11
197.3045881372
 21
713.9459033094
 31
0.0
  0
LINE
  5
1B4
330
1F
100
AcDbEntity
  8
0
  6
Continuous
 62
     7
370
    15
100
AcDbLine
 10
197.3116512876
 20
713.9444727979
 30
0.0
 11
197.3045881372
 21
713.9459033094
 31
0.0
  0
LINE
  5
1B5
330
1F
100
AcDbEntity
  8
0
  6
Continuous
 62
     7
370
    15
100
AcDbLine
 10
197.3045881372
 20
681.1046977125
 30
0.0
 11
209.8084207159
 21
685.071267613
 31
0.0
  0
LINE
  5
1B6
330
1F
100
AcDbEntity
  8
0
  6
Continuous
 62
     7
370
    15
100
AcDbLine
 10
209.8084207159
 20
709.9794526182
 30
0.0
 11
197.3045881372
 21
713.9459033094
 31
0.0
  0
LINE
  5
1B7
330
1F
100
AcDbEntity
  8
0
  6
Continuous
 62
     7
370
    15
100
AcDbLine
 10
209.8084207159
 20
709.9794526182
 30
0.0
 11
209.8184939008
 21
709.9770684324
 31
0.0
  0
LINE
  5
1B8
330
1F
100
AcDbEntity
  8
0
  6
Continuous
 62
     7
370
    15
100
AcDbLine
 10
213.3051272016
 20
705.2153725705
 30
0.0
 11
213.3043523412
 21
705.2115578733
 31
0.0
  0
LINE
  5
1B9
330
1F
100
AcDbEntity
  8
0
  6
Continuous
 62
     7
370
    15
100
AcDbLine
 10
213.3043523412
 20
689.8391623578
 30
0.0
 11
213.3043523412
 21
705.2115578733
 31
0.0
  0
SPLINE
  5
1BA
330
1F
100
AcDbEntity
  8
0
  6
Continuous
 62
     7
370
    15
100
AcDbSpline
210
0.0
220
0.0
230
1.0
 70
     8
 71
     3
 72
    16
 73
    12
 74
     0
 42
0.00000001
 43
0.00000001
 40
0.0
 40
0.0
 40
0.0
 40
0.0
 40
0.125193251964561
 40
0.2507738503177097
 40
0.3750390845152198
 40
0.5012827242906485
 40
0.6230983531352898
 40
0.7509389843071789
 40
0.8261613194830255
 40
0.9091779857376785
 40
1.0
 40
1.0
 40
1.0
 40
1.0
 10
45.04497009329511
 20
697.5253005109167
 30
0.0
 10
45.11593585478735
 20
696.2857138129466
 30
0.0
 10
45.25808694496886
 20
693.8027051509413
 30
0.0
 10
46.39029877620116
 20
690.2360991595004
 30
0.0
 10
48.14859825050166
 20
686.9472989290699
 30
0.0
 10
50.50409686613855
 20
684.1015421198247
 30
0.0
 10
53.380657638324
 20
681.7498455326527
 30
0.0
 10
56.21298093168714
 20
680.2385537993061
 30
0.0
 10
58.8662432068674
 20
679.331501029336
 30
0.0
 10
61.25560219699189
 20
678.8086335549168
 30
0.0
 10
62.95429148473192
 20
678.736579617711
 30
0.0
 10
63.84177166037275
 20
678.6989350400305
 30
0.0
  0
SPLINE
  5
1BB
330
1F
100
AcDbEntity
  8
0
  6
Continuous
 62
     7
370
    15
100
AcDbSpline
210
0.0
220
0.0
230
1.0
 70
     8
 71
     3
 72
    17
 73
    13
 74
     0
 42
0.00000001
 43
0.00000001
 40
0.0
 40
0.0
 40
0.0
 40
0.0
 40
0.0907515493649786
 40
0.1737927025057954
 40
0.2490575695912934
 40
0.3349406953425483
 40
0.4181880125528743
 40
0.498763604635616
 40
0.6249293075919352
 40
0.7491131405194635
 40
0.8747491281495687
 40
1.0
 40
1.0
 40
1.0
 40
1.0
 10
63.84177166037275
 20
716.351665981803
 30
0.0
 10
62.95477283769735
 20
716.3140661255986
 30
0.0
 10
61.25613602553393
 20
716.2420609568799
 30
0.0
 10
58.86638405760492
 20
715.7192504704307
 30
0.0
 10
56.60060735437461
 20
714.9447128984268
 30
0.0
 10
54.44360707723883
 20
713.882637629641
 30
0.0
 10
52.39905658524757
 20
712.5161281749381
 30
0.0
 10
50.24569530871847
 20
710.6361868754445
 30
0.0
 10
48.15035629623254
 20
708.1060155532201
 30
0.0
 10
46.39173413837872
 20
704.8179820024161
 30
0.0
 10
45.25833318566031
 20
701.2504185235222
 30
0.0
 10
45.11601830546169
 20
698.7657351707784
 30
0.0
 10
45.04497009329511
 20
697.5253005109167
 30
0.0
  0
SPLINE
  5
1BC
330
1F
100
AcDbEntity
  8
0
  6
Continuous
 62
     7
370
    15
100
AcDbSpline
210
0.0
220
0.0
230
1.0
 70
     8
 71
     3
 72
    14
 73
    10
 74
     0
 42
0.00000001
 43
0.00000001
 40
0.0
 40
0.0
 40
0.0
 40
0.0
 40
0.1361883880586021
 40
0.272369068595639
 40
0.4140872057933597
 40
0.5557979052184024
 40
0.6959300542890081
 40
0.8360614032065947
 40
1.0
 40
1.0
 40
1.0
 40
1.0
 10
48.40068179182722
 20
708.8728327832556
 30
0.0
 10
47.82453765748151
 20
707.9403355342916
 30
0.0
 10
46.67228199541263
 20
706.075393810633
 30
0.0
 10
45.52842214476544
 20
702.9284286782524
 30
0.0
 10
44.89218326025745
 20
699.6062632729878
 30
0.0
 10
44.82374849169618
 20
696.1859132882662
 30
0.0
 10
45.35063438342979
 20
692.8260490017207
 30
0.0
 10
46.4436704061697
 20
689.401983812507
 30
0.0
 10
47.71516075676963
 20
687.3072553673447
 30
0.0
 10
48.40068179182722
 20
686.1778874478674
 30
0.0
  0
SPLINE
  5
1BD
330
1F
100
AcDbEntity
  8
0
  6
Continuous
 62
     7
370
    15
100
AcDbSpline
210
0.0
220
0.0
230
1.0
 70
     8
 71
     3
 72
    12
 73
     8
 74
     0
 42
0.00000001
 43
0.00000001
 40
0.0
 40
0.0
 40
0.0
 40
0.0
 40
0.0041228016975504
 40
0.2447262904150011
 40
0.4823380653929953
 40
0.7199482247627821
 40
1.0
 40
1.0
 40
1.0
 40
1.0
 10
65.94966012053204
 20
716.3509507260657
 30
0.0
 10
65.93048096062392
 20
716.3546314216476
 30
0.0
 10
64.7920210001588
 20
716.5731146381667
 30
0.0
 10
62.47316254533908
 20
716.4840503762766
 30
0.0
 10
59.12053729558359
 20
716.0086586082133
 30
0.0
 10
55.68490960355099
 20
714.8972862691807
 30
0.0
 10
53.58381530924294
 20
713.6197241286808
 30
0.0
 10
52.44713681750013
 20
712.9285712323523
 30
0.0
  0
SPLINE
  5
1BE
330
1F
100
AcDbEntity
  8
0
  6
Continuous
 62
     7
370
    15
100
AcDbSpline
210
0.0
220
0.0
230
1.0
 70
     8
 71
     3
 72
    12
 73
     8
 74
     0
 42
0.00000001
 43
0.00000001
 40
0.0
 40
0.0
 40
0.0
 40
0.0
 40
0.2368686744966858
 40
0.4737356486694626
 40
0.7192750800888442
 40
0.9648108054667117
 40
0.9999999999999999
 40
0.9999999999999999
 40
0.9999999999999999
 40
0.9999999999999999
 10
52.44713681750013
 20
682.1220297894812
 30
0.0
 10
53.38346218559042
 20
681.5421669316793
 30
0.0
 10
55.25610620050902
 20
680.3824453785288
 30
0.0
 10
58.41616407666383
 20
679.2216152549169
 30
0.0
 10
61.74154280988076
 20
678.6265584834283
 30
0.0
 10
64.21184661287893
 20
678.4626772925316
 30
0.0
 10
65.49835819859962
 20
678.6732542319997
 30
0.0
 10
65.659623919055
 20
678.6996502957678
 30
0.0
  0
SPLINE
  5
1BF
330
1F
100
AcDbEntity
  8
0
  6
Continuous
 62
     7
370
    15
100
AcDbSpline
210
0.0
220
0.0
230
1.0
 70
     8
 71
     3
 72
    10
 73
     6
 74
     0
 42
0.00000001
 43
0.00000001
 40
0.0
 40
0.0
 40
0.0
 40
0.0
 40
0.4996535591267179
 40
0.7498792913520473
 40
1.0
 40
1.0
 40
1.0
 40
1.0
 10
48.60898512415601
 20
709.160127171073
 30
0.0
 10
48.57339771884783
 20
709.1129211369076
 30
0.0
 10
48.51998819581738
 20
709.0420743935977
 30
0.0
 10
48.45121191230106
 20
708.9457989220535
 30
0.0
 10
48.41748306897464
 20
708.8971514257909
 30
0.0
 10
48.40062218718244
 20
708.8728327832556
 30
0.0
  0
SPLINE
  5
1C0
330
1F
100
AcDbEntity
  8
0
  6
Continuous
 62
     7
370
    15
100
AcDbSpline
210
0.0
220
0.0
230
1.0
 70
     8
 71
     3
 72
    10
 73
     6
 74
     0
 42
0.00000001
 43
0.00000001
 40
0.0
 40
0.0
 40
0.0
 40
0.0
 40
0.2499800155678951
 40
0.6248988285511352
 40
0.9999999999999999
 40
0.9999999999999999
 40
0.9999999999999999
 40
0.9999999999999999
 10
48.40062218718244
 20
686.1778874478674
 30
0.0
 10
48.41746537839492
 20
686.1535668577992
 30
0.0
 10
48.45956990596611
 20
686.0927703648916
 30
0.0
 10
48.5287388323335
 20
685.9967291678566
 30
0.0
 10
48.58223202480338
 20
685.9258980303764
 30
0.0
 10
48.60898512415601
 20
685.8904738507605
 30
0.0
  0
SPLINE
  5
1C1
330
1F
100
AcDbEntity
  8
0
  6
Continuous
 62
     7
370
    15
100
AcDbSpline
210
0.0
220
0.0
230
1.0
 70
     8
 71
     3
 72
    10
 73
     6
 74
     0
 42
0.00000001
 43
0.00000001
 40
0.0
 40
0.0
 40
0.0
 40
0.0
 40
0.4998586930848618
 40
0.749928449893794
 40
1.0
 40
1.0
 40
1.0
 40
1.0
 10
52.21926826052381
 20
682.2872538647986
 30
0.0
 10
52.25677262783457
 20
682.2590944261726
 30
0.0
 10
52.31303971377454
 20
682.2168473582503
 30
0.0
 10
52.38929392083036
 20
682.1621782706437
 30
0.0
 10
52.42783593766348
 20
682.135412648526
 30
0.0
 10
52.44710701517774
 20
682.1220297894812
 30
0.0
  0
SPLINE
  5
1C2
330
1F
100
AcDbEntity
  8
0
  6
Continuous
 62
     7
370
    15
100
AcDbSpline
210
0.0
220
0.0
230
1.0
 70
     8
 71
     3
 72
    10
 73
     6
 74
     0
 42
0.00000001
 43
0.00000001
 40
0.0
 40
0.0
 40
0.0
 40
0.0
 40
0.2500032154314876
 40
0.6249102574839754
 40
1.0
 40
1.0
 40
1.0
 40
1.0
 10
52.44710701517774
 20
712.9285712323523
 30
0.0
 10
52.427856726732
 20
712.9151801283293
 30
0.0
 10
52.37973853477796
 20
712.8817076057916
 30
0.0
 10
52.30357194536595
 20
712.8269498028296
 30
0.0
 10
52.24737405210461
 20
712.7846309481407
 30
0.0
 10
52.21926826052381
 20
712.7634663663245
 30
0.0
  0
ARC
  5
1C3
330
1F
100
AcDbEntity
  8
0
  6
Continuous
 62
     7
370
    15
100
AcDbCircle
 10
63.8245631068
 20
697.5253398059
 30
0.0
 40
19.15416666666655
100
AcDbArc
 50
217.4038449158
 51
232.7073515859
  0
ARC
  5
1C4
330
1F
100
AcDbEntity
  8
0
  6
Continuous
 62
     7
370
    15
100
AcDbCircle
 10
63.8245631068
 20
697.5253398059
 30
0.0
 40
19.15416666666675
100
AcDbArc
 50
127.2926484185
 51
142.5962166302
  0
LINE
  5
1C5
330
1F
100
AcDbEntity
  8
0
  6
Continuous
 62
     7
370
    15
100
AcDbLine
 10
43.8403006177
 20
672.9360003553
 30
0.0
 11
43.8403006177
 21
722.1147198758
 31
0.0
  0
LINE
  5
1C6
330
1F
100
AcDbEntity
  8
0
  6
Continuous
 62
     7
370
    15
100
AcDbLine
 10
83.8088210206
 20
722.1147198758
 30
0.0
 11
83.8088210206
 21
716.3448710523
 31
0.0
  0
LINE
  5
1C7
330
1F
100
AcDbEntity
  8
0
  6
Continuous
 62
     7
370
    15
100
AcDbLine
 10
83.8088210206
 20
678.7057299695
 30
0.0
 11
83.8088210206
 21
672.9360003553
 31
0.0
  0
CIRCLE
  5
1C8
330
1F
100
AcDbEntity
  8
0
  6
Continuous
 62
     7
370
    15
100
AcDbCircle
 10
63.8245631068
 20
667.5253398059
 30
0.0
 40
2.75
  0
CIRCLE
  5
1C9
330
1F
100
AcDbEntity
  8
0
  6
Continuous
 62
     7
370
    15
100
AcDbCircle
 10
63.8245631068
 20
727.5253398059
 30
0.0
 40
2.75
  0
LINE
  5
1CA
330
1F
100
AcDbEntity
  8
0
  6
Continuous
 62
     7
370
    15
100
AcDbLine
 10
74.9819691759
 20
737.5253815732
 30
0.0
 11
52.6671524625
 21
737.5253815732
 31
0.0
  0
LINE
  5
1CB
330
1F
100
AcDbEntity
  8
0
  6
Continuous
 62
     7
370
    15
100
AcDbLine
 10
52.6671524625
 20
657.5253386579
 30
0.0
 11
74.9819691759
 21
657.5253386579
 31
0.0
  0
LINE
  5
1CC
330
1F
100
AcDbEntity
  8
0
  6
Continuous
 62
     7
370
    15
100
AcDbLine
 10
44.32296413
 20
724.8509306989
 30
0.0
 11
43.8403006177
 21
722.1147198758
 31
0.0
  0
LINE
  5
1CD
330
1F
100
AcDbEntity
  8
0
  6
Continuous
 62
     7
370
    15
100
AcDbLine
 10
83.3261575084
 20
670.1997895322
 30
0.0
 11
83.8088210206
 21
672.9360003553
 31
0.0
  0
LINE
  5
1CE
330
1F
100
AcDbEntity
  8
0
  6
Continuous
 62
     7
370
    15
100
AcDbLine
 10
83.8088210206
 20
722.1147198758
 30
0.0
 11
83.3261575084
 21
724.8509306989
 31
0.0
  0
LINE
  5
1CF
330
1F
100
AcDbEntity
  8
0
  6
Continuous
 62
     7
370
    15
100
AcDbLine
 10
43.8403006177
 20
672.9360003553
 30
0.0
 11
44.32296413
 21
670.1997895322
 31
0.0
  0
LINE
  5
1D0
330
1F
100
AcDbEntity
  8
0
  6
Continuous
 62
     7
370
    15
100
AcDbLine
 10
47.7402623277
 20
734.2354436002
 30
0.0
 11
44.32296413
 21
724.8509306989
 31
0.0
  0
LINE
  5
1D1
330
1F
100
AcDbEntity
  8
0
  6
Continuous
 62
     7
370
    15
100
AcDbLine
 10
83.3261575084
 20
724.8509306989
 30
0.0
 11
79.9088742118
 21
734.2354436002
 31
0.0
  0
SPLINE
  5
1D2
330
1F
100
AcDbEntity
  8
0
  6
Continuous
 62
     7
370
    15
100
AcDbSpline
210
0.0
220
0.0
230
1.0
 70
     8
 71
     3
 72
    11
 73
     7
 74
     0
 42
0.00000001
 43
0.00000001
 40
0.0
 40
0.0
 40
0.0
 40
0.0
 40
0.2902979215673953
 40
0.4999811231434371
 40
0.7597460217561935
 40
1.0
 40
1.0
 40
1.0
 40
1.0
 10
52.44047599844648
 20
737.5253815732336
 30
0.0
 10
51.84762889186189
 20
737.465289204131
 30
0.0
 10
50.82656625179172
 20
737.3617919071671
 30
0.0
 10
49.45400293957248
 20
736.611453179709
 30
0.0
 10
48.37678550546137
 20
735.6085313230096
 30
0.0
 10
47.94684456917464
 20
734.6810762957872
 30
0.0
 10
47.74026232771589
 20
734.2354436002112
 30
0.0
  0
LINE
  5
1D3
330
1F
100
AcDbEntity
  8
0
  6
Continuous
 62
     7
370
    15
100
AcDbLine
 10
52.4404759984
 20
737.5253815732
 30
0.0
 11
52.6671524625
 21
737.5253815732
 31
0.0
  0
SPLINE
  5
1D4
330
1F
100
AcDbEntity
  8
0
  6
Continuous
 62
     7
370
    15
100
AcDbSpline
210
0.0
220
0.0
230
1.0
 70
     8
 71
     3
 72
    11
 73
     7
 74
     0
 42
0.00000001
 43
0.00000001
 40
0.0
 40
0.0
 40
0.0
 40
0.0
 40
0.2902984884444979
 40
0.499971263744048
 40
0.7597463821139958
 40
0.9999999999999999
 40
0.9999999999999999
 40
0.9999999999999999
 40
0.9999999999999999
 10
75.20864563994122
 20
657.5253386578896
 30
0.0
 10
75.80148738553704
 20
657.585448024558
 30
0.0
 10
76.82251866383938
 20
657.6889723528345
 30
0.0
 10
78.19520945284059
 20
658.4391117591
 30
0.0
 10
79.27229541443998
 20
659.4422043812069
 30
0.0
 10
79.70227688003456
 20
660.3696553436223
 30
0.0
 10
79.90887421183301
 20
660.8152766309119
 30
0.0
  0
LINE
  5
1D5
330
1F
100
AcDbEntity
  8
0
  6
Continuous
 62
     7
370
    15
100
AcDbLine
 10
74.9819691759
 20
657.5253386579
 30
0.0
 11
75.2086456399
 21
657.5253386579
 31
0.0
  0
SPLINE
  5
1D6
330
1F
100
AcDbEntity
  8
0
  6
Continuous
 62
     7
370
    15
100
AcDbSpline
210
0.0
220
0.0
230
1.0
 70
     8
 71
     3
 72
    11
 73
     7
 74
     0
 42
0.00000001
 43
0.00000001
 40
0.0
 40
0.0
 40
0.0
 40
0.0
 40
0.2903012857921242
 40
0.4999700031618153
 40
0.7597472268861541
 40
1.0
 40
1.0
 40
1.0
 40
1.0
 10
52.44047599844648
 20
657.5253386578894
 30
0.0
 10
51.84762744951698
 20
657.585444363326
 30
0.0
 10
50.82659686718954
 20
657.6889611274881
 30
0.0
 10
49.45392262978987
 20
658.4391268572298
 30
0.0
 10
48.37682330971571
 20
659.4421942181243
 30
0.0
 10
47.94685303519841
 20
660.3696538624562
 30
0.0
 10
47.74026232771589
 20
660.8152766309121
 30
0.0
  0
LINE
  5
1D7
330
1F
100
AcDbEntity
  8
0
  6
Continuous
 62
     7
370
    15
100
AcDbLine
 10
52.4404759984
 20
657.5253386579
 30
0.0
 11
52.6671524625
 21
657.5253386579
 31
0.0
  0
SPLINE
  5
1D8
330
1F
100
AcDbEntity
  8
0
  6
Continuous
 62
     7
370
    15
100
AcDbSpline
210
0.0
220
0.0
230
1.0
 70
     8
 71
     3
 72
    11
 73
     7
 74
     0
 42
0.00000001
 43
0.00000001
 40
0.0
 40
0.0
 40
0.0
 40
0.0
 40
0.2402532831405464
 40
0.5000174302010115
 40
0.7096956877391156
 40
1.0
 40
1.0
 40
1.0
 40
1.0
 10
79.90887421183301
 20
734.2354436002112
 30
0.0
 10
79.70229215570512
 20
734.6810766618779
 30
0.0
 10
79.27235160513074
 20
735.6085324510113
 30
0.0
 10
78.19513788384558
 20
736.6114425077554
 30
0.0
 10
76.82258152427369
 20
737.361807134409
 30
0.0
 10
75.80150951959091
 20
737.4652940707778
 30
0.0
 10
75.20864563994122
 20
737.5253815732339
 30
0.0
  0
LINE
  5
1D9
330
1F
100
AcDbEntity
  8
0
  6
Continuous
 62
     7
370
    15
100
AcDbLine
 10
74.9819691759
 20
737.5253815732
 30
0.0
 11
75.2086456399
 21
737.5253815732
 31
0.0
  0
LINE
  5
1DA
330
1F
100
AcDbEntity
  8
0
  6
Continuous
 62
     7
370
    15
100
AcDbLine
 10
44.3227704149
 20
670.1996703229
 30
0.0
 11
44.32296413
 21
670.1997895322
 31
0.0
  0
LINE
  5
1DB
330
1F
100
AcDbEntity
  8
0
  6
Continuous
 62
     7
370
    15
100
AcDbLine
 10
83.3263512235
 20
670.1996703229
 30
0.0
 11
83.3261575084
 21
670.1997895322
 31
0.0
  0
LINE
  5
1DC
330
1F
100
AcDbEntity
  8
0
  6
Continuous
 62
     7
370
    15
100
AcDbLine
 10
79.9088742118
 20
660.8152766309
 30
0.0
 11
79.9090679269
 21
660.8151574216
 31
0.0
  0
LINE
  5
1DD
330
1F
100
AcDbEntity
  8
0
  6
Continuous
 62
     7
370
    15
100
AcDbLine
 10
47.7402623277
 20
660.8152766309
 30
0.0
 11
47.7400686126
 21
660.8151574216
 31
0.0
  0
CIRCLE
  5
1DE
330
1F
100
AcDbEntity
  8
0
  6
Continuous
 62
     7
370
    15
100
AcDbCircle
 10
63.8245631068
 20
667.5023398059
 30
0.0
 40
2.100000000000064
  0
CIRCLE
  5
1DF
330
1F
100
AcDbEntity
  8
0
  6
Continuous
 62
     7
370
    15
100
AcDbCircle
 10
63.8245631068
 20
727.5023398059
 30
0.0
 40
2.100000000000017
  0
LINE
  5
1E0
330
1F
100
AcDbEntity
  8
0
  6
Continuous
 62
     7
370
    15
100
AcDbLine
 10
611.7745454889
 20
-325.1746516146
 30
0.0
 11
628.7745650392
 21
-325.1746516146
 31
0.0
  0
SPLINE
  5
1E1
330
1F
100
AcDbEntity
  8
0
  6
Continuous
 62
     7
370
    15
100
AcDbSpline
210
0.0
220
0.0
230
1.0
 70
     8
 71
     3
 72
     9
 73
     5
 74
     0
 42
0.00000001
 43
0.00000001
 40
0.0
 40
0.0
 40
0.0
 40
0.0
 40
0.9544332242201746
 40
1.0
 40
1.0
 40
1.0
 40
1.0
 10
626.8604214768858
 20
-324.6746878542565
 30
0.0
 10
626.9137169017472
 20
-324.7382801876307
 30
0.0
 10
626.9695567693349
 20
-324.804908561162
 30
0.0
 10
627.0253674174174
 20
-324.8716215420367
 30
0.0
 10
627.0279105287046
 20
-324.8746614374779
 30
0.0
  0
LINE
  5
1E2
330
1F
100
AcDbEntity
  8
0
  6
Continuous
 62
     7
370
    15
100
AcDbLine
 10
627.2467191797
 20
-324.8746614375
 30
0.0
 11
627.0279105287
 21
-324.8746614375
 31
0.0
  0
SPLINE
  5
1E3
330
1F
100
AcDbEntity
  8
0
  6
Continuous
 62
     7
370
    15
100
AcDbSpline
210
0.0
220
0.0
230
1.0
 70
     8
 71
     3
 72
     9
 73
     5
 74
     0
 42
0.00000001
 43
0.00000001
 40
0.0
 40
0.0
 40
0.0
 40
0.0
 40
0.0455667757798254
 40
1.0
 40
1.0
 40
1.0
 40
1.0
 10
627.2467191796752
 20
-324.8746614374779
 30
0.0
 10
627.244176068388
 20
-324.8716215420367
 30
0.0
 10
627.1883654203056
 20
-324.8049085611608
 30
0.0
 10
627.1325255527179
 20
-324.7382801876301
 30
0.0
 10
627.0792301278562
 20
-324.6746878542565
 30
0.0
  0
LINE
  5
1E4
330
1F
100
AcDbEntity
  8
0
  6
Continuous
 62
     7
370
    15
100
AcDbLine
 10
627.0792301279
 20
-324.8746614375
 30
0.0
 11
627.0792301279
 21
-324.6746878543
 31
0.0
  0
LINE
  5
1E5
330
1F
100
AcDbEntity
  8
0
  6
Continuous
 62
     7
370
    15
100
AcDbLine
 10
612.1458824258
 20
1072.8253502927
 30
0.0
 11
611.7745454889
 21
1072.8253502927
 31
0.0
  0
LINE
  5
1E6
330
1F
100
AcDbEntity
  8
0
  6
Continuous
 62
     7
370
    15
100
AcDbLine
 10
628.7745650392
 20
1072.8253502927
 30
0.0
 11
612.1458824258
 21
1072.8253502927
 31
0.0
  0
LINE
  5
1E7
330
1F
100
AcDbEntity
  8
0
  6
Continuous
 62
     7
370
    15
100
AcDbLine
 10
612.1458824258
 20
1074.3253607831
 30
0.0
 11
611.7745454889
 21
1074.3253607831
 31
0.0
  0
LINE
  5
1E8
330
1F
100
AcDbEntity
  8
0
  6
Continuous
 62
     7
370
    15
100
AcDbLine
 10
628.7745650392
 20
1074.3253607831
 30
0.0
 11
612.1458824258
 21
1074.3253607831
 31
0.0
  0
LINE
  5
1E9
330
1F
100
AcDbEntity
  8
0
  6
Continuous
 62
     7
370
    15
100
AcDbLine
 10
612.6240308862
 20
1074.8253245435
 30
0.0
 11
612.2745688539
 21
1074.8253245435
 31
0.0
  0
LINE
  5
1EA
330
1F
100
AcDbEntity
  8
0
  6
Continuous
 62
     7
370
    15
100
AcDbLine
 10
628.2745416742
 20
1074.8253245435
 30
0.0
 11
612.6240308862
 21
1074.8253245435
 31
0.0
  0
SPLINE
  5
1EB
330
1F
100
AcDbEntity
  8
0
  6
Continuous
 62
     7
370
    15
100
AcDbSpline
210
0.0
220
0.0
230
1.0
 70
     8
 71
     3
 72
     9
 73
     5
 74
     0
 42
0.00000001
 43
0.00000001
 40
0.0
 40
0.0
 40
0.0
 40
0.0
 40
0.9545789790702881
 40
1.0
 40
1.0
 40
1.0
 40
1.0
 10
622.8037293534728
 20
1072.32538653234
 30
0.0
 10
622.8222337274537
 20
1072.389075980209
 30
0.0
 10
622.8416185812861
 20
1072.455795915663
 30
0.0
 10
622.8613072314083
 20
1072.522280703957
 30
0.0
 10
622.8622015099974
 20
1072.525300510917
 30
0.0
  0
LINE
  5
1EC
330
1F
100
AcDbEntity
  8
0
  6
Continuous
 62
     7
370
    15
100
AcDbLine
 10
622.4796588998
 20
1072.5253005109
 30
0.0
 11
622.86220151
 21
1072.5253005109
 31
0.0
  0
SPLINE
  5
1ED
330
1F
100
AcDbEntity
  8
0
  6
Continuous
 62
     7
370
    15
100
AcDbSpline
210
0.0
220
0.0
230
1.0
 70
     8
 71
     3
 72
     9
 73
     5
 74
     0
 42
0.00000001
 43
0.00000001
 40
0.0
 40
0.0
 40
0.0
 40
0.0
 40
0.0454177835324152
 40
1.0
 40
1.0
 40
1.0
 40
1.0
 10
622.4796588998289
 20
1072.525300510917
 30
0.0
 10
622.4787646197543
 20
1072.522280698812
 30
0.0
 10
622.459074533511
 20
1072.455791058196
 30
0.0
 10
622.4396904472917
 20
1072.389073718421
 30
0.0
 10
622.4211867433042
 20
1072.32538653234
 30
0.0
  0
LINE
  5
1EE
330
1F
100
AcDbEntity
  8
0
  6
Continuous
 62
     7
370
    15
100
AcDbLine
 10
622.8037293535
 20
1072.5253005109
 30
0.0
 11
622.8037293535
 21
1072.3253865323
 31
0.0
  0
LINE
  5
1EF
330
1F
100
AcDbEntity
  8
0
  6
Continuous
 62
     7
370
    15
100
AcDbLine
 10
628.7745650392
 20
199.8253245435
 30
0.0
 11
611.7745454889
 21
199.8253245435
 31
0.0
  0
LINE
  5
1F0
330
1F
100
AcDbEntity
  8
0
  6
Continuous
 62
     7
370
    15
100
AcDbLine
 10
628.7745650392
 20
201.3253350339
 30
0.0
 11
611.7745454889
 21
201.3253350339
 31
0.0
  0
SPLINE
  5
1F1
330
1F
100
AcDbEntity
  8
0
  6
Continuous
 62
     7
370
    15
100
AcDbSpline
210
0.0
220
0.0
230
1.0
 70
     8
 71
     3
 72
     9
 73
     5
 74
     0
 42
0.00000001
 43
0.00000001
 40
0.0
 40
0.0
 40
0.0
 40
0.0
 40
0.9542676091315856
 40
1.0
 40
1.0
 40
1.0
 40
1.0
 10
612.2770722489805
 20
199.3253607831336
 30
0.0
 10
612.2133059446289
 20
199.3888705827969
 30
0.0
 10
612.1464836992321
 20
199.4554240307558
 30
0.0
 10
612.080019044059
 20
199.5223340173403
 30
0.0
 10
612.0769794564695
 20
199.5253939709998
 30
0.0
  0
LINE
  5
1F2
330
1F
100
AcDbEntity
  8
0
  6
Continuous
 62
     7
370
    15
100
AcDbLine
 10
612.074535666
 20
199.525393971
 30
0.0
 11
612.0769794565
 21
199.525393971
 31
0.0
  0
LINE
  5
1F3
330
1F
100
AcDbEntity
  8
0
  6
Continuous
 62
     7
370
    15
100
AcDbLine
 10
628.2745416742
 20
201.8252987943
 30
0.0
 11
612.2745688539
 21
201.8252987943
 31
0.0
  0
LINE
  5
1F4
330
1F
100
AcDbEntity
  8
0
  6
Continuous
 62
     7
370
    15
100
AcDbLine
 10
611.7745454889
 20
211.8252892576
 30
0.0
 11
628.7745650392
 21
211.8252892576
 31
0.0
  0
LINE
  5
1F5
330
1F
100
AcDbEntity
  8
0
  6
Continuous
 62
     7
370
    15
100
AcDbLine
 10
611.7745454889
 20
210.3253979764
 30
0.0
 11
628.7745650392
 21
210.3253979764
 31
0.0
  0
SPLINE
  5
1F6
330
1F
100
AcDbEntity
  8
0
  6
Continuous
 62
     7
370
    15
100
AcDbSpline
210
0.0
220
0.0
230
1.0
 70
     8
 71
     3
 72
     9
 73
     5
 74
     0
 42
0.00000001
 43
0.00000001
 40
0.0
 40
0.0
 40
0.0
 40
0.0
 40
0.9545888307060276
 40
1.0
 40
1.0
 40
1.0
 40
1.0
 10
626.8604214768858
 20
212.3253722272254
 30
0.0
 10
626.9136256239815
 20
212.2616309607913
 30
0.0
 10
626.9693607691919
 20
212.1948574302575
 30
0.0
 10
627.0253672107076
 20
212.1283588190508
 30
0.0
 10
627.0279105287048
 20
212.1253390393594
 30
0.0
  0
LINE
  5
1F7
330
1F
100
AcDbEntity
  8
0
  6
Continuous
 62
     7
370
    15
100
AcDbLine
 10
627.2467191797
 20
212.1253390394
 30
0.0
 11
627.0279105287
 21
212.1253390394
 31
0.0
  0
SPLINE
  5
1F8
330
1F
100
AcDbEntity
  8
0
  6
Continuous
 62
     7
370
    15
100
AcDbSpline
210
0.0
220
0.0
230
1.0
 70
     8
 71
     3
 72
     9
 73
     5
 74
     0
 42
0.00000001
 43
0.00000001
 40
0.0
 40
0.0
 40
0.0
 40
0.0
 40
0.0454111692939724
 40
1.0
 40
1.0
 40
1.0
 40
1.0
 10
627.2467191796751
 20
212.1253390393592
 30
0.0
 10
627.2441758616782
 20
212.1283588190508
 30
0.0
 10
627.1881694201631
 20
212.1948574302602
 30
0.0
 10
627.1324342749522
 20
212.2616309607924
 30
0.0
 10
627.0792301278562
 20
212.3253722272254
 30
0.0
  0
LINE
  5
1F9
330
1F
100
AcDbEntity
  8
0
  6
Continuous
 62
     7
370
    15
100
AcDbLine
 10
627.0792301279
 20
212.1253390394
 30
0.0
 11
627.0792301279
 21
212.3253722272
 31
0.0
  0
SPLINE
  5
1FA
330
1F
100
AcDbEntity
  8
0
  6
Continuous
 62
     7
370
    15
100
AcDbSpline
210
0.0
220
0.0
230
1.0
 70
     8
 71
     3
 72
    11
 73
     7
 74
     0
 42
0.00000001
 43
0.00000001
 40
0.0
 40
0.0
 40
0.0
 40
0.0
 40
0.2500080133096333
 40
0.5000010525537821
 40
0.7500149795547004
 40
1.0
 40
1.0
 40
1.0
 40
1.0
 10
636.7745812516661
 20
1071.118273266349
 30
0.0
 10
636.7377525517729
 20
1071.014668695238
 30
0.0
 10
636.6640973578172
 20
1070.807465758343
 30
0.0
 10
636.0975307584082
 20
1070.496866363674
 30
0.0
 10
635.2876935665694
 20
1070.186037833564
 30
0.0
 10
634.6456134371598
 20
1069.978940095854
 30
0.0
 10
634.3245919328185
 20
1069.875397213493
 30
0.0
  0
SPLINE
  5
1FB
330
1F
100
AcDbEntity
  8
0
  6
Continuous
 62
     7
370
    15
100
AcDbSpline
210
0.0
220
0.0
230
1.0
 70
     8
 71
     3
 72
    11
 73
     7
 74
     0
 42
0.00000001
 43
0.00000001
 40
0.0
 40
0.0
 40
0.0
 40
0.0
 40
0.2500151405636115
 40
0.4999997516097787
 40
0.7500210875902825
 40
1.0
 40
1.0
 40
1.0
 40
1.0
 10
635.5745609384031
 20
1071.118273266349
 30
0.0
 10
635.5557847842401
 20
1071.014670989715
 30
0.0
 10
635.5182347686828
 20
1070.807479087392
 30
0.0
 10
635.2291265966307
 20
1070.496851597581
 30
0.0
 10
634.8159888911803
 20
1070.186049684625
 30
0.0
 10
634.4883816534309
 20
1069.978942179713
 30
0.0
 10
634.3245919328184
 20
1069.875397213493
 30
0.0
  0
LINE
  5
1FC
330
1F
100
AcDbEntity
  8
0
  6
Continuous
 62
     7
370
    15
100
AcDbLine
 10
636.7745812517
 20
1071.1182732663
 30
0.0
 11
635.5745609384
 21
1071.1182732663
 31
0.0
  0
SPLINE
  5
1FD
330
1F
100
AcDbEntity
  8
0
  6
Continuous
 62
     7
370
    15
100
AcDbSpline
210
0.0
220
0.0
230
1.0
 70
     8
 71
     3
 72
    12
 73
     8
 74
     0
 42
0.00000001
 43
0.00000001
 40
0.0
 40
0.0
 40
0.0
 40
0.0
 40
0.2256343587289241
 40
0.4513292075972198
 40
0.6770226247138116
 40
0.9027171998120284
 40
1.0
 40
1.0
 40
1.0
 40
1.0
 10
43.22456973604871
 20
1069.875397213493
 30
0.0
 10
43.13104491793241
 20
1070.164867722427
 30
0.0
 10
42.94397020870417
 20
1070.743886344219
 30
0.0
 10
42.66334914411496
 20
1071.505298487094
 30
0.0
 10
42.38287444127287
 20
1072.060345012143
 30
0.0
 10
42.15502676958982
 20
1072.300501822665
 30
0.0
 10
42.02177142084429
 20
1072.319626162026
 30
0.0
 10
41.98163407854749
 20
1072.32538653234
 30
0.0
  0
LINE
  5
1FE
330
1F
100
AcDbEntity
  8
0
  6
Continuous
 62
     7
370
    15
100
AcDbLine
 10
635.5674679857
 20
1072.3253865323
 30
0.0
 11
41.9816340785
 21
1072.3253865323
 31
0.0
  0
SPLINE
  5
1FF
330
1F
100
AcDbEntity
  8
0
  6
Continuous
 62
     7
370
    15
100
AcDbSpline
210
0.0
220
0.0
230
1.0
 70
     8
 71
     3
 72
    12
 73
     8
 74
     0
 42
0.00000001
 43
0.00000001
 40
0.0
 40
0.0
 40
0.0
 40
0.0
 40
0.2256505511571791
 40
0.4513428227157598
 40
0.6770481433645452
 40
0.9027336290252197
 40
1.0
 40
1.0
 40
1.0
 40
1.0
 10
635.5674679856749
 20
1072.32538653234
 30
0.0
 10
635.4739520974031
 20
1072.295411918899
 30
0.0
 10
635.2869030307606
 20
1072.235457150028
 30
0.0
 10
635.0062469729127
 20
1071.770163260373
 30
0.0
 10
634.7258036802299
 20
1071.091315605115
 30
0.0
 10
634.4979513097373
 20
1070.412168282397
 30
0.0
 10
634.3647187915776
 20
1069.999641642901
 30
0.0
 10
634.3245919328184
 20
1069.875397213493
 30
0.0
  0
CIRCLE
  5
200
330
1F
100
AcDbEntity
  8
0
  6
Continuous
 62
     7
370
    15
100
AcDbCircle
 10
63.8245631068
 20
727.5253398059
 30
0.0
 40
2.649999999999991
  0
CIRCLE
  5
201
330
1F
100
AcDbEntity
  8
0
  6
Continuous
 62
     7
370
    15
100
AcDbCircle
 10
63.8245631068
 20
667.5253398059
 30
0.0
 40
2.649999999999991
  0
LINE
  5
202
330
1F
100
AcDbEntity
  8
0
  6
Continuous
 62
     7
370
    15
100
AcDbLine
 10
635.5674679857
 20
1072.3253865323
 30
0.0
 11
635.5674679857
 21
1071.1253066144
 31
0.0
  0
SPLINE
  5
203
330
1F
100
AcDbEntity
  8
0
  6
Continuous
 62
     7
370
    15
100
AcDbSpline
210
0.0
220
0.0
230
1.0
 70
     8
 71
     3
 72
    11
 73
     7
 74
     0
 42
0.00000001
 43
0.00000001
 40
0.0
 40
0.0
 40
0.0
 40
0.0
 40
0.2684761733245765
 40
0.5230073347010874
 40
0.777495037072934
 40
1.0
 40
1.0
 40
1.0
 40
1.0
 10
635.5674679856749
 20
1071.125306614432
 30
0.0
 10
635.4561466146098
 20
1071.10360969116
 30
0.0
 10
635.2392860535585
 20
1071.061342811862
 30
0.0
 10
634.9172365676878
 20
1070.747001793211
 30
0.0
 10
634.6140148851789
 20
1070.333124531426
 30
0.0
 10
634.4166552089279
 20
1070.020996849285
 30
0.0
 10
634.3245919328184
 20
1069.875397213493
 30
0.0
  0
LINE
  5
204
330
1F
100
AcDbEntity
  8
0
  6
Continuous
 62
     7
370
    15
100
AcDbLine
 10
636.7745812517
 20
213.5960240445
 30
0.0
 11
636.7745812517
 21
1071.1182732663
 31
0.0
  0
SPLINE
  5
205
330
1F
100
AcDbEntity
  8
0
  6
Continuous
 62
     7
370
    15
100
AcDbSpline
210
0.0
220
0.0
230
1.0
 70
     8
 71
     3
 72
    12
 73
     8
 74
     0
 42
0.00000001
 43
0.00000001
 40
0.0
 40
0.0
 40
0.0
 40
0.0
 40
0.2524701587126514
 40
0.5031305214633962
 40
0.733714716966959
 40
0.9316877172395874
 40
1.0
 40
1.0
 40
1.0
 40
1.0
 10
634.3245919328184
 20
214.7753615460731
 30
0.0
 10
634.6308017917142
 20
214.6232512385112
 30
0.0
 10
635.2410264882451
 20
214.3201210042143
 30
0.0
 10
636.029067041998
 20
213.9153348901828
 30
0.0
 10
636.5665979289481
 20
213.6896658414898
 30
0.0
 10
636.7589171145377
 20
213.6140344728293
 30
0.0
 10
636.7713832219309
 20
213.5997010990006
 30
0.0
 10
636.7745812516661
 20
213.5960240445472
 30
0.0
  0
SPLINE
  5
206
330
1F
100
AcDbEntity
  8
0
  6
Continuous
 62
     7
370
    15
100
AcDbSpline
210
0.0
220
0.0
230
1.0
 70
     8
 71
     3
 72
    11
 73
     7
 74
     0
 42
0.00000001
 43
0.00000001
 40
0.0
 40
0.0
 40
0.0
 40
0.0
 40
0.2499972716302374
 40
0.500000830094905
 40
0.7499942509585754
 40
1.0
 40
1.0
 40
1.0
 40
1.0
 10
43.22456973604871
 20
1069.875397213493
 30
0.0
 10
42.90352446127965
 20
1069.978937247198
 30
0.0
 10
42.2614258382194
 20
1070.186019918394
 30
0.0
 10
41.45161788342866
 20
1070.496876876892
 30
0.0
 10
40.88502664933424
 20
1070.807462324818
 30
0.0
 10
40.81138649903826
 20
1071.014667916191
 30
0.0
 10
40.77456551603986
 20
1071.118273266349
 30
0.0
  0
LINE
  5
207
330
1F
100
AcDbEntity
  8
0
  6
Continuous
 62
     7
370
    15
100
AcDbLine
 10
40.774565516
 20
1071.1182732663
 30
0.0
 11
41.974556027
 21
1071.1182732663
 31
0.0
  0
SPLINE
  5
208
330
1F
100
AcDbEntity
  8
0
  6
Continuous
 62
     7
370
    15
100
AcDbSpline
210
0.0
220
0.0
230
1.0
 70
     8
 71
     3
 72
    11
 73
     7
 74
     0
 42
0.00000001
 43
0.00000001
 40
0.0
 40
0.0
 40
0.0
 40
0.0
 40
0.2499875052594765
 40
0.5000022588378313
 40
0.7499848049959866
 40
1.0
 40
1.0
 40
1.0
 40
1.0
 10
43.22456973604871
 20
1069.875397213493
 30
0.0
 10
43.06076823786897
 20
1069.978940377382
 30
0.0
 10
42.73314738735534
 20
1070.186037991235
 30
0.0
 10
42.32001938865571
 20
1070.496856231464
 30
0.0
 10
42.03091835448092
 20
1070.807479933114
 30
0.0
 10
41.9933442873176
 20
1071.014670978885
 30
0.0
 10
41.97455602698042
 20
1071.118273266349
 30
0.0
  0
SPLINE
  5
209
330
1F
100
AcDbEntity
  8
0
  6
Continuous
 62
     7
370
    15
100
AcDbSpline
210
0.0
220
0.0
230
1.0
 70
     8
 71
     3
 72
    13
 73
     9
 74
     0
 42
0.00000001
 43
0.00000001
 40
0.0
 40
0.0
 40
0.0
 40
0.0
 40
0.1342999556808722
 40
0.2621064125462232
 40
0.3841108998982525
 40
0.5010886000806419
 40
0.7091588083035897
 40
1.0
 40
1.0
 40
1.0
 40
1.0
 10
40.77456551603986
 20
213.5960240445472
 30
0.0
 10
40.78626668478024
 20
213.6046930160545
 30
0.0
 10
40.80910326239184
 20
213.6216118081021
 30
0.0
 10
40.98274305092031
 20
213.6908810461885
 30
0.0
 10
41.22933358734798
 20
213.7921364080636
 30
0.0
 10
41.61579370258872
 20
213.9671001418196
 30
0.0
 10
42.26237355656276
 20
214.2975245958739
 30
0.0
 10
42.87022296155457
 20
214.5993891345759
 30
0.0
 10
43.22456973604871
 20
214.7753615460731
 30
0.0
  0
LINE
  5
20A
330
1F
100
AcDbEntity
  8
0
  6
Continuous
 62
     7
370
    15
100
AcDbLine
 10
40.774565516
 20
1071.1182732663
 30
0.0
 11
40.774565516
 21
213.5960240445
 31
0.0
  0
SPLINE
  5
20B
330
1F
100
AcDbEntity
  8
0
  6
Continuous
 62
     7
370
    15
100
AcDbSpline
210
0.0
220
0.0
230
1.0
 70
     8
 71
     3
 72
    11
 73
     7
 74
     0
 42
0.00000001
 43
0.00000001
 40
0.0
 40
0.0
 40
0.0
 40
0.0
 40
0.2684491767023252
 40
0.5229758448746574
 40
0.7774913021716692
 40
1.0
 40
1.0
 40
1.0
 40
1.0
 10
43.22456973604871
 20
1069.875397213493
 30
0.0
 10
43.11324803691102
 20
1070.05138328207
 30
0.0
 10
42.8963780864251
 20
1070.394228300373
 30
0.0
 10
42.57430237725946
 20
1070.813233976634
 30
0.0
 10
42.27108751766784
 20
1071.078522501399
 30
0.0
 10
42.07370396139665
 20
1071.110425437621
 30
0.0
 10
41.98163407854749
 20
1071.125306614433
 30
0.0
  0
LINE
  5
20C
330
1F
100
AcDbEntity
  8
0
  6
Continuous
 62
     7
370
    15
100
AcDbLine
 10
41.9816340785
 20
1072.3253865323
 30
0.0
 11
41.9816340785
 21
1071.1253066144
 31
0.0
  0
LWPOLYLINE
  5
20D
330
1F
100
AcDbEntity
  8
0
  6
Continuous
 62
     7
370
    15
100
AcDbPolyline
 90
        2
 70
   128
 43
0.0
 10
43.224569736
 20
214.7753615461
 10
43.224569736
 20
214.7753615461
  0
SPLINE
  5
20E
330
1F
100
AcDbEntity
  8
0
  6
Continuous
 62
     7
370
    15
100
AcDbSpline
210
0.0
220
0.0
230
1.0
 70
     8
 71
     3
 72
    13
 73
     9
 74
     0
 42
0.00000001
 43
0.00000001
 40
0.0
 40
0.0
 40
0.0
 40
0.0
 40
0.1190678481056769
 40
0.2344906229676391
 40
0.3484412869739599
 40
0.4631419642649282
 40
0.681232646774211
 40
1.0
 40
1.0
 40
1.0
 40
1.0
 10
41.97455602698042
 20
213.5960240445472
 30
0.0
 10
41.98061885400522
 20
213.6047626092579
 30
0.0
 10
41.99255890422548
 20
213.6219722213857
 30
0.0
 10
42.08255896588475
 20
213.6922614866966
 30
0.0
 10
42.2100533309826
 20
213.7950095803901
 30
0.0
 10
42.41212863705135
 20
213.9749940614271
 30
0.0
 10
42.7430606205117
 20
214.3070240490009
 30
0.0
 10
43.04518119955348
 20
214.6008801593771
 30
0.0
 10
43.22456973604871
 20
214.7753615460731
 30
0.0
  0
LINE
  5
20F
330
1F
100
AcDbEntity
  8
0
  6
Continuous
 62
     7
370
    15
100
AcDbLine
 10
40.774565516
 20
213.5960240445
 30
0.0
 11
41.974556027
 21
213.5960240445
 31
0.0
  0
LINE
  5
210
330
1F
100
AcDbEntity
  8
0
  6
Continuous
 62
     7
370
    15
100
AcDbLine
 10
635.5038698297
 20
212.3253722272
 30
0.0
 11
42.045276938
 21
212.3253722272
 31
0.0
  0
SPLINE
  5
211
330
1F
100
AcDbEntity
  8
0
  6
Continuous
 62
     7
370
    15
100
AcDbSpline
210
0.0
220
0.0
230
1.0
 70
     8
 71
     3
 72
    12
 73
     8
 74
     0
 42
0.00000001
 43
0.00000001
 40
0.0
 40
0.0
 40
0.0
 40
0.0
 40
0.2245703846787572
 40
0.4491920533928385
 40
0.6738073572563978
 40
0.8984258351968466
 40
1.0
 40
1.0
 40
1.0
 40
1.0
 10
43.22456973604871
 20
214.7753615460731
 30
0.0
 10
43.1362561071621
 20
214.4872476011082
 30
0.0
 10
42.95960868163928
 20
213.9109539160123
 30
0.0
 10
42.69461940358221
 20
213.1521052998562
 30
0.0
 10
42.4297482481944
 20
212.5969877400119
 30
0.0
 10
42.21276690515374
 20
212.3516686469503
 30
0.0
 10
42.08504779732925
 20
212.3316163696503
 30
0.0
 10
42.04527693800642
 20
212.3253722272254
 30
0.0
  0
SPLINE
  5
212
330
1F
100
AcDbEntity
  8
0
  6
Continuous
 62
     7
370
    15
100
AcDbSpline
210
0.0
220
0.0
230
1.0
 70
     8
 71
     3
 72
    11
 73
     7
 74
     0
 42
0.00000001
 43
0.00000001
 40
0.0
 40
0.0
 40
0.0
 40
0.0
 40
0.2500011836367481
 40
0.4999948890499737
 40
0.7500004298513716
 40
1.0
 40
1.0
 40
1.0
 40
1.0
 10
635.5038698296995
 20
212.3253722272254
 30
0.0
 10
635.4055776101534
 20
212.3621782494763
 30
0.0
 10
635.208996111252
 20
212.4357891930087
 30
0.0
 10
634.9141955638858
 20
213.0023496523233
 30
0.0
 10
634.6194008286637
 20
213.8122337707871
 30
0.0
 10
634.4228607824598
 20
214.4543215100734
 30
0.0
 10
634.3245919328185
 20
214.7753615460733
 30
0.0
  0
LINE
  5
213
330
1F
100
AcDbEntity
  8
0
  6
Continuous
 62
     7
370
    15
100
AcDbLine
 10
42.045276938
 20
213.5253329358
 30
0.0
 11
42.045276938
 21
212.3253722272
 31
0.0
  0
SPLINE
  5
214
330
1F
100
AcDbEntity
  8
0
  6
Continuous
 62
     7
370
    15
100
AcDbSpline
210
0.0
220
0.0
230
1.0
 70
     8
 71
     3
 72
    11
 73
     7
 74
     0
 42
0.00000001
 43
0.00000001
 40
0.0
 40
0.0
 40
0.0
 40
0.0
 40
0.2699204264471803
 40
0.5207910027894154
 40
0.7716032569937692
 40
1.0
 40
1.0
 40
1.0
 40
1.0
 10
43.22456973604871
 20
214.7753615460731
 30
0.0
 10
43.11837401545071
 20
214.5983644164291
 30
0.0
 10
42.91347742222101
 20
214.2568618712114
 30
0.0
 10
42.61023350280058
 20
213.8411529183917
 30
0.0
 10
42.3231303809084
 20
213.5740614750777
 30
0.0
 10
42.13496080825374
 20
213.5410612419045
 30
0.0
 10
42.04527693800642
 20
213.5253329358436
 30
0.0
  0
SPLINE
  5
215
330
1F
100
AcDbEntity
  8
0
  6
Continuous
 62
     7
370
    15
100
AcDbSpline
210
0.0
220
0.0
230
1.0
 70
     8
 71
     3
 72
    11
 73
     7
 74
     0
 42
0.00000001
 43
0.00000001
 40
0.0
 40
0.0
 40
0.0
 40
0.0
 40
0.2500059917405618
 40
0.4999955339316035
 40
0.7499943787759845
 40
1.0
 40
1.0
 40
1.0
 40
1.0
 10
635.5038698296995
 20
213.5253329358436
 30
0.0
 10
635.4055783941624
 20
213.5441119770861
 30
0.0
 10
635.209001990332
 20
213.5816688239732
 30
0.0
 10
634.9141977303484
 20
213.8707405317589
 30
0.0
 10
634.6193917675791
 20
214.2839449142112
 30
0.0
 10
634.4228594322491
 20
214.6115545221275
 30
0.0
 10
634.3245919328184
 20
214.7753615460731
 30
0.0
  0
LINE
  5
216
330
1F
100
AcDbEntity
  8
0
  6
Continuous
 62
     7
370
    15
100
AcDbLine
 10
635.5038698297
 20
213.5253329358
 30
0.0
 11
635.5038698297
 21
212.3253722272
 31
0.0
  0
LINE
  5
217
330
1F
100
AcDbEntity
  8
0
  6
Continuous
 62
     7
370
    15
100
AcDbLine
 10
636.7745812517
 20
213.5960240445
 30
0.0
 11
635.5745609384
 21
213.5960240445
 31
0.0
  0
SPLINE
  5
218
330
1F
100
AcDbEntity
  8
0
  6
Continuous
 62
     7
370
    15
100
AcDbSpline
210
0.0
220
0.0
230
1.0
 70
     8
 71
     3
 72
    12
 73
     8
 74
     0
 42
0.00000001
 43
0.00000001
 40
0.0
 40
0.0
 40
0.0
 40
0.0
 40
0.338965979805019
 40
0.559031189848514
 40
0.7313798045736983
 40
0.9043038775387273
 40
1.0
 40
1.0
 40
1.0
 40
1.0
 10
634.3245919328184
 20
214.7753615460731
 30
0.0
 10
634.5151998791077
 20
214.5899930821352
 30
0.0
 10
634.829555281588
 20
214.2842787652728
 30
0.0
 10
635.197215118828
 20
213.9152589994727
 30
0.0
 10
635.4397351533179
 20
213.7119415829188
 30
0.0
 10
635.559288959101
 20
213.621101684685
 30
0.0
 10
635.5705493991726
 20
213.602611267803
 30
0.0
 10
635.5745609384031
 20
213.5960240445472
 30
0.0
  0
LINE
  5
219
330
1F
100
AcDbEntity
  8
0
  6
Continuous
 62
     7
370
    15
100
AcDbLine
 10
609.1045554262
 20
209.8253150068
 30
0.0
 11
629.6045597177
 21
209.8253150068
 31
0.0
  0
LINE
  5
21A
330
1F
100
AcDbEntity
  8
0
  6
Continuous
 62
     7
370
    15
100
AcDbLine
 10
609.1045554262
 20
207.3253769956
 30
0.0
 11
629.6045597177
 21
207.3253769956
 31
0.0
  0
LINE
  5
21B
330
1F
100
AcDbEntity
  8
0
  6
Continuous
 62
     7
370
    15
100
AcDbLine
 10
634.6045549493
 20
209.8253150068
 30
0.0
 11
634.6045549493
 21
207.3253769956
 31
0.0
  0
LINE
  5
21C
330
1F
100
AcDbEntity
  8
0
  6
Continuous
 62
     7
370
    15
100
AcDbLine
 10
634.6045549493
 20
207.3253769956
 30
0.0
 11
629.6045597177
 21
207.3253769956
 31
0.0
  0
LINE
  5
21D
330
1F
100
AcDbEntity
  8
0
  6
Continuous
 62
     7
370
    15
100
AcDbLine
 10
629.6045597177
 20
209.8253150068
 30
0.0
 11
634.6045549493
 21
209.8253150068
 31
0.0
  0
LINE
  5
21E
330
1F
100
AcDbEntity
  8
0
  6
Continuous
 62
     7
370
    15
100
AcDbLine
 10
609.1045554262
 20
207.3253769956
 30
0.0
 11
604.1045601945
 21
207.3253769956
 31
0.0
  0
LINE
  5
21F
330
1F
100
AcDbEntity
  8
0
  6
Continuous
 62
     7
370
    15
100
AcDbLine
 10
604.1045601945
 20
207.3253769956
 30
0.0
 11
604.1045601945
 21
209.8253150068
 31
0.0
  0
LINE
  5
220
330
1F
100
AcDbEntity
  8
0
  6
Continuous
 62
     7
370
    15
100
AcDbLine
 10
604.1045601945
 20
209.8253150068
 30
0.0
 11
609.1045554262
 21
209.8253150068
 31
0.0
  0
LINE
  5
221
330
1F
100
AcDbEntity
  8
0
  6
Continuous
 62
     7
370
    15
100
AcDbLine
 10
604.1045601945
 20
199.3253607831
 30
0.0
 11
604.1045601945
 21
204.3253560148
 31
0.0
  0
LINE
  5
222
330
1F
100
AcDbEntity
  8
0
  6
Continuous
 62
     7
370
    15
100
AcDbLine
 10
606.6045578104
 20
199.3253607831
 30
0.0
 11
606.6045578104
 21
204.3253560148
 31
0.0
  0
ARC
  5
223
330
1F
100
AcDbEntity
  8
0
  6
Continuous
 62
     7
370
    15
100
AcDbCircle
 10
609.6045631068
 20
204.3253398059
 30
0.0
 40
5.500000000000001
100
AcDbArc
 50
146.9442688491
 51
180.0
  0
ARC
  5
224
330
1F
100
AcDbEntity
  8
0
  6
Continuous
 62
     7
370
    15
100
AcDbCircle
 10
609.6045631068
 20
204.3253398059
 30
0.0
 40
3.000000000000114
100
AcDbArc
 50
90.0
 51
180.0
  0
LINE
  5
225
330
1F
100
AcDbEntity
  8
0
  6
Continuous
 62
     7
370
    15
100
AcDbLine
 10
602.1045859437
 20
204.3253560148
 30
0.0
 11
604.1045601945
 21
204.3253560148
 31
0.0
  0
LINE
  5
226
330
1F
100
AcDbEntity
  8
0
  6
Continuous
 62
     7
370
    15
100
AcDbLine
 10
606.6045578104
 20
204.3253560148
 30
0.0
 11
609.6045787912
 21
204.3253560148
 31
0.0
  0
LINE
  5
227
330
1F
100
AcDbEntity
  8
0
  6
Continuous
 62
     7
370
    15
100
AcDbLine
 10
596.6045673471
 20
199.3253607831
 30
0.0
 11
596.6045673471
 21
207.3253769956
 31
0.0
  0
LINE
  5
228
330
1F
100
AcDbEntity
  8
0
  6
Continuous
 62
     7
370
    15
100
AcDbLine
 10
602.1045859437
 20
207.3253769956
 30
0.0
 11
602.1045859437
 21
204.3253560148
 31
0.0
  0
LINE
  5
229
330
1F
100
AcDbEntity
  8
0
  6
Continuous
 62
     7
370
    15
100
AcDbLine
 10
596.6045673471
 20
207.3253769956
 30
0.0
 11
602.1045859437
 21
207.3253769956
 31
0.0
  0
LINE
  5
22A
330
1F
100
AcDbEntity
  8
0
  6
Continuous
 62
     7
370
    15
100
AcDbLine
 10
614.6045740228
 20
204.8253197751
 30
0.0
 11
609.6045787912
 21
204.8253197751
 31
0.0
  0
LINE
  5
22B
330
1F
100
AcDbEntity
  8
0
  6
Continuous
 62
     7
370
    15
100
AcDbLine
 10
609.6045787912
 20
204.8253197751
 30
0.0
 11
609.6045787912
 21
207.3253769956
 31
0.0
  0
LINE
  5
22C
330
1F
100
AcDbEntity
  8
0
  6
Continuous
 62
     7
370
    15
100
AcDbLine
 10
634.6045549493
 20
207.3253769956
 30
0.0
 11
634.6045549493
 21
204.8253197751
 31
0.0
  0
LINE
  5
22D
330
1F
100
AcDbEntity
  8
0
  6
Continuous
 62
     7
370
    15
100
AcDbLine
 10
634.6045549493
 20
204.8253197751
 30
0.0
 11
629.6045597177
 21
204.8253197751
 31
0.0
  0
LINE
  5
22E
330
1F
100
AcDbEntity
  8
0
  6
Continuous
 62
     7
370
    15
100
AcDbLine
 10
614.6045740228
 20
207.3253769956
 30
0.0
 11
629.6045597177
 21
207.3253769956
 31
0.0
  0
LINE
  5
22F
330
1F
100
AcDbEntity
  8
0
  6
Continuous
 62
     7
370
    15
100
AcDbLine
 10
614.6045740228
 20
204.8253197751
 30
0.0
 11
629.6045597177
 21
204.8253197751
 31
0.0
  0
LINE
  5
230
330
1F
100
AcDbEntity
  8
0
  6
Continuous
 62
     7
370
    15
100
AcDbLine
 10
634.6045549493
 20
201.8252987943
 30
0.0
 11
634.6045549493
 21
204.8253197751
 31
0.0
  0
LINE
  5
231
330
1F
100
AcDbEntity
  8
0
  6
Continuous
 62
     7
370
    15
100
AcDbLine
 10
609.6045787912
 20
204.8253197751
 30
0.0
 11
609.6045787912
 21
201.8252987943
 31
0.0
  0
LINE
  5
232
330
1F
100
AcDbEntity
  8
0
  6
Continuous
 62
     7
370
    15
100
AcDbLine
 10
634.6045549493
 20
199.3253607831
 30
0.0
 11
634.6045549493
 21
201.8252987943
 31
0.0
  0
LINE
  5
233
330
1F
100
AcDbEntity
  8
0
  6
Continuous
 62
     7
370
    15
100
AcDbLine
 10
609.6045787912
 20
201.8252987943
 30
0.0
 11
609.6045787912
 21
199.3253607831
 31
0.0
  0
LINE
  5
234
330
1F
100
AcDbEntity
  8
0
  6
Continuous
 62
     7
370
    15
100
AcDbLine
 10
139.5045633893
 20
-325.9246568598
 30
0.0
 11
127.7045722585
 21
-325.9246568598
 31
0.0
  0
LINE
  5
235
330
1F
100
AcDbEntity
  8
0
  6
Continuous
 62
     7
370
    15
100
AcDbLine
 10
608.6045916658
 20
-329.1746597209
 30
0.0
 11
616.3745339494
 21
-329.1746597209
 31
0.0
  0
LINE
  5
236
330
1F
100
AcDbEntity
  8
0
  6
Continuous
 62
     7
370
    15
100
AcDbLine
 10
624.1745765787
 20
-329.1746597209
 30
0.0
 11
632.1045573335
 21
-329.1746597209
 31
0.0
  0
LINE
  5
237
330
1F
100
AcDbEntity
  8
0
  6
Continuous
 62
     7
370
    15
100
AcDbLine
 10
635.6045420747
 20
-339.1746501841
 30
0.0
 11
635.6045420747
 21
-330.6746702113
 31
0.0
  0
LINE
  5
238
330
1F
100
AcDbEntity
  8
0
  6
Continuous
 62
     7
370
    15
100
AcDbLine
 10
633.6045678239
 20
-339.1746501841
 30
0.0
 11
633.6045678239
 21
-330.6746702113
 31
0.0
  0
ARC
  5
239
330
1F
100
AcDbEntity
  8
0
  6
Continuous
 62
     7
370
    15
100
AcDbCircle
 10
632.1045631068
 20
-330.6746601941
 30
0.0
 40
1.500000000000114
100
AcDbArc
 50
360.0
 51
90.0
  0
ARC
  5
23A
330
1F
100
AcDbEntity
  8
0
  6
Continuous
 62
     7
370
    15
100
AcDbCircle
 10
632.1045631068
 20
-330.6746601941
 30
0.0
 40
3.500000000000114
100
AcDbArc
 50
0.0
 51
47.9753724208
  0
LINE
  5
23B
330
1F
100
AcDbEntity
  8
0
  6
Continuous
 62
     7
370
    15
100
AcDbLine
 10
603.6045368295
 20
-329.1746597209
 30
0.0
 11
603.6045368295
 21
-328.0746560015
 31
0.0
  0
LINE
  5
23C
330
1F
100
AcDbEntity
  8
0
  6
Continuous
 62
     7
370
    15
100
AcDbLine
 10
608.6045916658
 20
-329.1746597209
 30
0.0
 11
603.6045368295
 21
-329.1746597209
 31
0.0
  0
LINE
  5
23D
330
1F
100
AcDbEntity
  8
0
  6
Continuous
 62
     7
370
    15
100
AcDbLine
 10
635.6045420747
 20
-344.1746454157
 30
0.0
 11
633.6045678239
 21
-344.1746454157
 31
0.0
  0
LINE
  5
23E
330
1F
100
AcDbEntity
  8
0
  6
Continuous
 62
     7
370
    15
100
AcDbLine
 10
635.6045420747
 20
-339.1746501841
 30
0.0
 11
635.6045420747
 21
-344.1746454157
 31
0.0
  0
LINE
  5
23F
330
1F
100
AcDbEntity
  8
0
  6
Continuous
 62
     7
370
    15
100
AcDbLine
 10
633.6045678239
 20
-344.1746454157
 30
0.0
 11
633.6045678239
 21
-339.1746501841
 31
0.0
  0
LINE
  5
240
330
1F
100
AcDbEntity
  8
0
  6
Continuous
 62
     7
370
    15
100
AcDbLine
 10
43.6045642477
 20
-330.6746702113
 30
0.0
 11
43.6045642477
 21
-339.1746501841
 31
0.0
  0
LINE
  5
241
330
1F
100
AcDbEntity
  8
0
  6
Continuous
 62
     7
370
    15
100
AcDbLine
 10
41.6045601945
 20
-330.6746702113
 30
0.0
 11
41.6045601945
 21
-339.1746501841
 31
0.0
  0
LINE
  5
242
330
1F
100
AcDbEntity
  8
0
  6
Continuous
 62
     7
370
    15
100
AcDbLine
 10
73.6045654397
 20
-327.1746854701
 30
0.0
 11
73.6045654397
 21
-329.1746597209
 31
0.0
  0
LINE
  5
243
330
1F
100
AcDbEntity
  8
0
  6
Continuous
 62
     7
370
    15
100
AcDbLine
 10
73.6045654397
 20
-329.1746597209
 30
0.0
 11
68.6045702081
 21
-329.1746597209
 31
0.0
  0
LINE
  5
244
330
1F
100
AcDbEntity
  8
0
  6
Continuous
 62
     7
370
    15
100
AcDbLine
 10
68.6045702081
 20
-327.1746854701
 30
0.0
 11
73.6045654397
 21
-327.1746854701
 31
0.0
  0
LINE
  5
245
330
1F
100
AcDbEntity
  8
0
  6
Continuous
 62
     7
370
    15
100
AcDbLine
 10
43.6045642477
 20
-339.1746501841
 30
0.0
 11
43.6045642477
 21
-344.1746454157
 31
0.0
  0
LINE
  5
246
330
1F
100
AcDbEntity
  8
0
  6
Continuous
 62
     7
370
    15
100
AcDbLine
 10
43.6045642477
 20
-344.1746454157
 30
0.0
 11
41.6045601945
 21
-344.1746454157
 31
0.0
  0
LINE
  5
247
330
1F
100
AcDbEntity
  8
0
  6
Continuous
 62
     7
370
    15
100
AcDbLine
 10
41.6045601945
 20
-344.1746454157
 30
0.0
 11
41.6045601945
 21
-339.1746501841
 31
0.0
  0
ARC
  5
248
330
1F
100
AcDbEntity
  8
0
  6
Continuous
 62
     7
370
    15
100
AcDbCircle
 10
45.1045631068
 20
-330.6746601941
 30
0.0
 40
3.500000000000057
100
AcDbArc
 50
90.0
 51
180.0
  0
ARC
  5
249
330
1F
100
AcDbEntity
  8
0
  6
Continuous
 62
     7
370
    15
100
AcDbCircle
 10
45.1045631068
 20
-330.6746601941
 30
0.0
 40
1.500000000000007
100
AcDbArc
 50
90.0
 51
180.0
  0
LINE
  5
24A
330
1F
100
AcDbEntity
  8
0
  6
Continuous
 62
     7
370
    15
100
AcDbLine
 10
45.1045598369
 20
-329.1746597209
 30
0.0
 11
68.6045702081
 21
-329.1746597209
 31
0.0
  0
LINE
  5
24B
330
1F
100
AcDbEntity
  8
0
  6
Continuous
 62
     7
370
    15
100
AcDbLine
 10
45.1045598369
 20
-327.1746854701
 30
0.0
 11
68.6045702081
 21
-327.1746854701
 31
0.0
  0
LINE
  5
24C
330
1F
100
AcDbEntity
  8
0
  6
Continuous
 62
     7
370
    15
100
AcDbLine
 10
481.6045578104
 20
-324.6746878543
 30
0.0
 11
481.6045578104
 21
-325.6746749797
 31
0.0
  0
LINE
  5
24D
330
1F
100
AcDbEntity
  8
0
  6
Continuous
 62
     7
370
    15
100
AcDbLine
 10
481.6045578104
 20
-329.1746597209
 30
0.0
 11
481.6045578104
 21
-325.6746749797
 31
0.0
  0
LINE
  5
24E
330
1F
100
AcDbEntity
  8
0
  6
Continuous
 62
     7
370
    15
100
AcDbLine
 10
595.6045802217
 20
-326.17463874
 30
0.0
 11
595.6045802217
 21
-329.1746597209
 31
0.0
  0
LINE
  5
24F
330
1F
100
AcDbEntity
  8
0
  6
Continuous
 62
     7
370
    15
100
AcDbLine
 10
595.6045802217
 20
-329.1746597209
 30
0.0
 11
481.6045578104
 21
-329.1746597209
 31
0.0
  0
ARC
  5
250
330
1F
100
AcDbEntity
  8
0
  6
Continuous
 62
     7
370
    15
100
AcDbCircle
 10
79.6045631068
 20
-334.1746601941
 30
0.0
 40
5.000000000000014
100
AcDbArc
 50
180.0
 51
270.0
  0
LINE
  5
251
330
1F
100
AcDbEntity
  8
0
  6
Continuous
 62
     7
370
    15
100
AcDbLine
 10
74.6045674663
 20
-330.6746702113
 30
0.0
 11
74.6045674663
 21
-334.1746549525
 31
0.0
  0
ARC
  5
252
330
1F
100
AcDbEntity
  8
0
  6
Continuous
 62
     7
370
    15
100
AcDbCircle
 10
475.6045631068
 20
-334.1746601941
 30
0.0
 40
5.0
100
AcDbArc
 50
270.0
 51
0.0
  0
LINE
  5
253
330
1F
100
AcDbEntity
  8
0
  6
Continuous
 62
     7
370
    15
100
AcDbLine
 10
480.604570685
 20
-334.1746549525
 30
0.0
 11
480.604570685
 21
-330.6746702113
 31
0.0
  0
LINE
  5
254
330
1F
100
AcDbEntity
  8
0
  6
Continuous
 62
     7
370
    15
100
AcDbLine
 10
79.6045626979
 20
-339.1746501841
 30
0.0
 11
475.6045754533
 21
-339.1746501841
 31
0.0
  0
LINE
  5
255
330
1F
100
AcDbEntity
  8
0
  6
Continuous
 62
     7
370
    15
100
AcDbLine
 10
596.6045673471
 20
-327.1746854701
 30
0.0
 11
596.6045673471
 21
-329.1746597209
 31
0.0
  0
LINE
  5
256
330
1F
100
AcDbEntity
  8
0
  6
Continuous
 62
     7
370
    15
100
AcDbLine
 10
596.6045673471
 20
-329.1746597209
 30
0.0
 11
603.6045368295
 21
-329.1746597209
 31
0.0
  0
LINE
  5
257
330
1F
100
AcDbEntity
  8
0
  6
Continuous
 62
     7
370
    15
100
AcDbLine
 10
596.6045673471
 20
-327.1746854701
 30
0.0
 11
599.6045883279
 21
-327.1746854701
 31
0.0
  0
LINE
  5
258
330
1F
100
AcDbEntity
  8
0
  6
Continuous
 62
     7
370
    15
100
AcDbLine
 10
480.604570685
 20
-327.1746854701
 30
0.0
 11
480.604570685
 21
-330.6746702113
 31
0.0
  0
LINE
  5
259
330
1F
100
AcDbEntity
  8
0
  6
Continuous
 62
     7
370
    15
100
AcDbLine
 10
74.6045674663
 20
-330.6746702113
 30
0.0
 11
74.6045674663
 21
-327.1746854701
 31
0.0
  0
LINE
  5
25A
330
1F
100
AcDbEntity
  8
0
  6
Continuous
 62
     7
370
    15
100
AcDbLine
 10
74.6045674663
 20
-327.1746854701
 30
0.0
 11
480.604570685
 21
-327.1746854701
 31
0.0
  0
LINE
  5
25B
330
1F
100
AcDbEntity
  8
0
  6
Continuous
 62
     7
370
    15
100
AcDbLine
 10
73.6045654397
 20
-329.1746597209
 30
0.0
 11
74.6045674663
 21
-329.1746597209
 31
0.0
  0
LINE
  5
25C
330
1F
100
AcDbEntity
  8
0
  6
Continuous
 62
     7
370
    15
100
AcDbLine
 10
74.6045674663
 20
-327.1746854701
 30
0.0
 11
73.6045654397
 21
-327.1746854701
 31
0.0
  0
LINE
  5
25D
330
1F
100
AcDbEntity
  8
0
  6
Continuous
 62
     7
370
    15
100
AcDbLine
 10
596.6045673471
 20
-329.1746597209
 30
0.0
 11
595.6045802217
 21
-329.1746597209
 31
0.0
  0
LINE
  5
25E
330
1F
100
AcDbEntity
  8
0
  6
Continuous
 62
     7
370
    15
100
AcDbLine
 10
596.6045673471
 20
-327.1746854701
 30
0.0
 11
595.6045802217
 21
-327.1746854701
 31
0.0
  0
LINE
  5
25F
330
1F
100
AcDbEntity
  8
0
  6
Continuous
 62
     7
370
    15
100
AcDbLine
 10
481.6045578104
 20
-329.1746597209
 30
0.0
 11
480.604570685
 21
-329.1746597209
 31
0.0
  0
LINE
  5
260
330
1F
100
AcDbEntity
  8
0
  6
Continuous
 62
     7
370
    15
100
AcDbLine
 10
481.6045578104
 20
-327.1746854701
 30
0.0
 11
480.604570685
 21
-327.1746854701
 31
0.0
  0
LWPOLYLINE
  5
261
330
1F
100
AcDbEntity
  8
0
  6
Continuous
 62
     7
370
    15
100
AcDbPolyline
 90
        3
 70
   128
 43
0.0
 10
595.942300139
 20
-329.1746597209
 10
595.8710129838
 20
-329.3352942385
 10
595.7504327875
 20
-329.6746830859
  0
ARC
  5
262
330
1F
100
AcDbEntity
  8
0
  6
Continuous
 62
     7
370
    15
100
AcDbCircle
 10
599.1045631068
 20
-330.6746601941
 30
0.0
 40
1.500000000000057
100
AcDbArc
 50
90.0
 51
138.1896851162
  0
LINE
  5
263
330
1F
100
AcDbEntity
  8
0
  6
Continuous
 62
     7
370
    15
100
AcDbLine
 10
546.7045720201
 20
-367.1746473231
 30
0.0
 11
130.5045600515
 21
-367.1746473231
 31
0.0
  0
SPLINE
  5
264
330
1F
100
AcDbEntity
  8
0
  6
Continuous
 62
     7
370
    15
100
AcDbSpline
210
0.0
220
0.0
230
1.0
 70
     8
 71
     3
 72
     9
 73
     5
 74
     0
 42
0.00000001
 43
0.00000001
 40
0.0
 40
0.0
 40
0.0
 40
0.0
 40
0.9159585685309588
 40
1.0
 40
1.0
 40
1.0
 40
1.0
 10
595.8229716401548
 20
-329.5037369646691
 30
0.0
 10
595.7774042785416
 20
-329.552218072088
 30
0.0
 10
595.727656000422
 20
-329.6051474392934
 30
0.0
 10
595.6780128964474
 20
-329.6692922630733
 30
0.0
 10
595.6738408189268
 20
-329.6746830858849
 30
0.0
  0
SPLINE
  5
265
330
1F
100
AcDbEntity
  8
0
  6
Continuous
 62
     7
370
    15
100
AcDbSpline
210
0.0
220
0.0
230
1.0
 70
     8
 71
     3
 72
     9
 73
     5
 74
     0
 42
0.00000001
 43
0.00000001
 40
0.0
 40
0.0
 40
0.0
 40
0.0
 40
0.5516747131924749
 40
1.0
 40
1.0
 40
1.0
 40
1.0
 10
602.0545776467771
 20
1075.875319965873
 30
0.0
 10
601.9662615142503
 20
1076.167162044433
 30
0.0
 10
601.8061741830479
 20
1076.696173201881
 30
0.0
 10
601.6461057499843
 20
1077.130611906928
 30
0.0
 10
601.5743430238219
 20
1077.325381763969
 30
0.0
  0
SPLINE
  5
266
330
1F
100
AcDbEntity
  8
0
  6
Continuous
 62
     7
370
    15
100
AcDbSpline
210
0.0
220
0.0
230
1.0
 70
     8
 71
     3
 72
     9
 73
     5
 74
     0
 42
0.00000001
 43
0.00000001
 40
0.0
 40
0.0
 40
0.0
 40
0.0
 40
0.3920006430782555
 40
1.0
 40
1.0
 40
1.0
 40
1.0
 10
636.1254866700621
 20
1077.325381763969
 30
0.0
 10
636.1292796012517
 20
1077.16056643988
 30
0.0
 10
636.1389554302497
 20
1076.740119874295
 30
0.0
 10
636.1486683112875
 20
1076.202308770889
 30
0.0
 10
636.1545737367125
 20
1075.875319965873
 30
0.0
  0
LINE
  5
267
330
1F
100
AcDbEntity
  8
0
  6
Continuous
 62
     7
370
    15
100
AcDbLine
 10
638.6045630556
 20
-324.2246727862
 30
0.0
 11
636.1545737367
 21
-324.2246727862
 31
0.0
  0
LINE
  5
268
330
1F
100
AcDbEntity
  8
0
  6
Continuous
 62
     7
370
    15
100
AcDbLine
 10
636.1545737367
 20
1075.8753199659
 30
0.0
 11
638.4045894723
 21
1075.8753199659
 31
0.0
  0
LINE
  5
269
330
1F
100
AcDbEntity
  8
0
  6
Continuous
 62
     7
370
    15
100
AcDbLine
 10
638.6045630556
 20
1070.5244917951
 30
0.0
 11
638.6045630556
 21
-324.2246727862
 31
0.0
  0
SPLINE
  5
26A
330
1F
100
AcDbEntity
  8
0
  6
Continuous
 62
     7
370
    15
100
AcDbSpline
210
0.0
220
0.0
230
1.0
 70
     8
 71
     3
 72
    12
 73
     8
 74
     0
 42
0.00000001
 43
0.00000001
 40
0.0
 40
0.0
 40
0.0
 40
0.0
 40
0.2245801941371539
 40
0.4491916681812723
 40
0.6738032336915183
 40
0.898414529358115
 40
1.0
 40
1.0
 40
1.0
 40
1.0
 10
599.6045883279295
 20
1077.054657467399
 30
0.0
 10
599.6342487252524
 20
1076.966325754141
 30
0.0
 10
599.6935736510478
 20
1076.789650024635
 30
0.0
 10
600.1546078554795
 20
1076.524587570582
 30
0.0
 10
600.8278098644779
 20
1076.259905038715
 30
0.0
 10
601.5081146459338
 20
1076.042885042806
 30
0.0
 10
601.9248090487988
 20
1075.915111653636
 30
0.0
 10
602.0545776467771
 20
1075.875319965873
 30
0.0
  0
LINE
  5
26B
330
1F
100
AcDbEntity
  8
0
  6
Continuous
 62
     7
370
    15
100
AcDbLine
 10
599.6045883279
 20
1077.0546574674
 30
0.0
 11
600.8045490365
 21
1077.0546574674
 31
0.0
  0
SPLINE
  5
26C
330
1F
100
AcDbEntity
  8
0
  6
Continuous
 62
     7
370
    15
100
AcDbSpline
210
0.0
220
0.0
230
1.0
 70
     8
 71
     3
 72
    11
 73
     7
 74
     0
 42
0.00000001
 43
0.00000001
 40
0.0
 40
0.0
 40
0.0
 40
0.0
 40
0.2726944036612007
 40
0.5235786723479848
 40
0.7744095443969284
 40
0.9999999999999999
 40
0.9999999999999999
 40
0.9999999999999999
 40
0.9999999999999999
 10
600.8045490365477
 20
1077.054657467399
 30
0.0
 10
600.8269114806532
 20
1076.947344678171
 30
0.0
 10
600.8698478175859
 20
1076.74130199099
 30
0.0
 10
601.1844018317282
 20
1076.43695001441
 30
0.0
 10
601.5951540216957
 20
1076.151028696413
 30
0.0
 10
601.9069425395481
 20
1075.963918561537
 30
0.0
 10
602.0545776467771
 20
1075.875319965873
 30
0.0
  0
LINE
  5
26D
330
1F
100
AcDbEntity
  8
0
  6
Continuous
 62
     7
370
    15
100
AcDbLine
 10
599.6045883279
 20
1077.0546574674
 30
0.0
 11
599.6045883279
 21
1072.3253865323
 31
0.0
  0
LINE
  5
26E
330
1F
100
AcDbEntity
  8
0
  6
Continuous
 62
     7
370
    15
100
AcDbLine
 10
599.6045883279
 20
212.3253722272
 30
0.0
 11
599.6045883279
 21
207.3253769956
 31
0.0
  0
SPLINE
  5
26F
330
1F
100
AcDbEntity
  8
0
  6
Continuous
 62
     7
370
    15
100
AcDbSpline
210
0.0
220
0.0
230
1.0
 70
     8
 71
     3
 72
    11
 73
     7
 74
     0
 42
0.00000001
 43
0.00000001
 40
0.0
 40
0.0
 40
0.0
 40
0.0
 40
0.2726969629113483
 40
0.5235992075884719
 40
0.7744364271991182
 40
1.0
 40
1.0
 40
1.0
 40
1.0
 10
602.0545776467771
 20
1075.875319965873
 30
0.0
 10
601.9472599605356
 20
1076.054151772007
 30
0.0
 10
601.7412017233024
 20
1076.397522636807
 30
0.0
 10
601.4369082508753
 20
1076.813443150816
 30
0.0
 10
601.1508586632065
 20
1077.077702409738
 30
0.0
 10
600.9638456306898
 20
1077.110038340928
 30
0.0
 10
600.8752997498962
 20
1077.125348576103
 30
0.0
  0
LINE
  5
270
330
1F
100
AcDbEntity
  8
0
  6
Continuous
 62
     7
370
    15
100
AcDbLine
 10
600.8752997499
 20
1077.325381764
 30
0.0
 11
600.8752997499
 21
1077.1253485761
 31
0.0
  0
LINE
  5
271
330
1F
100
AcDbEntity
  8
0
  6
Continuous
 62
     7
370
    15
100
AcDbLine
 10
636.1545737367
 20
-324.2246727862
 30
0.0
 11
636.1545737367
 21
-326.674662105
 31
0.0
  0
LINE
  5
272
330
1F
100
AcDbEntity
  8
0
  6
Continuous
 62
     7
370
    15
100
AcDbLine
 10
634.6045549493
 20
-326.674662105
 30
0.0
 11
636.1545737367
 21
-326.674662105
 31
0.0
  0
LINE
  5
273
330
1F
100
AcDbEntity
  8
0
  6
Continuous
 62
     7
370
    15
100
AcDbLine
 10
638.4045894723
 20
1076.8331666074
 30
0.0
 11
638.0756910425
 21
1077.325381764
 31
0.0
  0
LINE
  5
274
330
1F
100
AcDbEntity
  8
0
  6
Continuous
 62
     7
370
    15
100
AcDbLine
 10
636.1545737367
 20
1077.325381764
 30
0.0
 11
636.1545737367
 21
1077.1253485761
 31
0.0
  0
SPLINE
  5
275
330
1F
100
AcDbEntity
  8
0
  6
Continuous
 62
     7
370
    15
100
AcDbSpline
210
0.0
220
0.0
230
1.0
 70
     8
 71
     3
 72
    11
 73
     7
 74
     0
 42
0.00000001
 43
0.00000001
 40
0.0
 40
0.0
 40
0.0
 40
0.0
 40
0.2500106135341478
 40
0.5000149629103451
 40
0.7500193122865423
 40
0.9999999999999999
 40
0.9999999999999999
 40
0.9999999999999999
 40
0.9999999999999999
 10
637.4045427422972
 20
1075.875319965873
 30
0.0
 10
637.3857622191138
 20
1076.039126800593
 30
0.0
 10
637.3482016433036
 20
1076.366736365759
 30
0.0
 10
637.05914315664
 20
1076.779949196157
 30
0.0
 10
636.6459472649253
 20
1077.068995366598
 30
0.0
 10
636.3183597451186
 20
1077.106564765589
 30
0.0
 10
636.1545737367126
 20
1077.125348576103
 30
0.0
  0
LINE
  5
276
330
1F
100
AcDbEntity
  8
0
  6
Continuous
 62
     7
370
    15
100
AcDbLine
 10
637.4045427423
 20
-326.674662105
 30
0.0
 11
638.6045630556
 21
-326.674662105
 31
0.0
  0
LINE
  5
277
330
1F
100
AcDbEntity
  8
0
  6
Continuous
 62
     7
370
    15
100
AcDbLine
 10
638.6045630556
 20
-324.2246727862
 30
0.0
 11
638.6045630556
 21
-326.674662105
 31
0.0
  0
LINE
  5
278
330
1F
100
AcDbEntity
  8
0
  6
Continuous
 62
     7
370
    15
100
AcDbLine
 10
637.4045427423
 20
-324.2246727862
 30
0.0
 11
637.4045427423
 21
-326.674662105
 31
0.0
  0
SPLINE
  5
279
330
1F
100
AcDbEntity
  8
0
  6
Continuous
 62
     7
370
    15
100
AcDbSpline
210
0.0
220
0.0
230
1.0
 70
     8
 71
     3
 72
     9
 73
     5
 74
     0
 42
0.00000001
 43
0.00000001
 40
0.0
 40
0.0
 40
0.0
 40
0.0
 40
0.5528632416849047
 40
0.9999999999999999
 40
0.9999999999999999
 40
0.9999999999999999
 40
0.9999999999999999
 10
636.9967873673887
 20
1076.787032612357
 30
0.0
 10
636.8477172431245
 20
1076.836469754644
 30
0.0
 10
636.5780843338903
 20
1076.925889955804
 30
0.0
 10
636.2854301705954
 20
1077.014870842272
 30
0.0
 10
636.1545737367126
 20
1077.054657467399
 30
0.0
  0
LINE
  5
27A
330
1F
100
AcDbEntity
  8
0
  6
Continuous
 62
     7
370
    15
100
AcDbLine
 10
636.1545737367
 20
-326.674662105
 30
0.0
 11
637.4045427423
 21
-326.674662105
 31
0.0
  0
LINE
  5
27B
330
1F
100
AcDbEntity
  8
0
  6
Continuous
 62
     7
370
    15
100
AcDbLine
 10
597.6045544725
 20
-325.6039242663
 30
0.0
 11
599.6045883279
 21
-325.6039242663
 31
0.0
  0
LINE
  5
27C
330
1F
100
AcDbEntity
  8
0
  6
Continuous
 62
     7
370
    15
100
AcDbLine
 10
597.6045544725
 20
-325.6039242663
 30
0.0
 11
597.6045544725
 21
-325.3039340892
 31
0.0
  0
LINE
  5
27D
330
1F
100
AcDbEntity
  8
0
  6
Continuous
 62
     7
370
    15
100
AcDbLine
 10
597.6045544725
 20
207.3253769956
 30
0.0
 11
597.6045544725
 21
212.3253722272
 31
0.0
  0
LINE
  5
27E
330
1F
100
AcDbEntity
  8
0
  6
Continuous
 62
     7
370
    15
100
AcDbLine
 10
72.6045634132
 20
-327.1746854701
 30
0.0
 11
72.6045634132
 21
-326.674662105
 31
0.0
  0
LINE
  5
27F
330
1F
100
AcDbEntity
  8
0
  6
Continuous
 62
     7
370
    15
100
AcDbLine
 10
79.6045626979
 20
-325.6039242663
 30
0.0
 11
79.6045626979
 21
-324.6746878543
 31
0.0
  0
LINE
  5
280
330
1F
100
AcDbEntity
  8
0
  6
Continuous
 62
     7
370
    15
100
AcDbLine
 10
79.6045626979
 20
199.3253607831
 30
0.0
 11
79.6045626979
 21
212.3253722272
 31
0.0
  0
LINE
  5
281
330
1F
100
AcDbEntity
  8
0
  6
Continuous
 62
     7
370
    15
100
AcDbLine
 10
76.3338472228
 20
-325.6039242663
 30
0.0
 11
79.6045626979
 21
-325.6039242663
 31
0.0
  0
SPLINE
  5
282
330
1F
100
AcDbEntity
  8
0
  6
Continuous
 62
     7
370
    15
100
AcDbSpline
210
0.0
220
0.0
230
1.0
 70
     8
 71
     3
 72
     9
 73
     5
 74
     0
 42
0.00000001
 43
0.00000001
 40
0.0
 40
0.0
 40
0.0
 40
0.0
 40
0.6079992881762794
 40
1.0
 40
1.0
 40
1.0
 40
1.0
 10
41.05455833487226
 20
1075.875319965873
 30
0.0
 10
41.06045728377639
 20
1076.202308792487
 30
0.0
 10
41.07015951372767
 20
1076.740119992225
 30
0.0
 10
41.07983694170558
 20
1077.160566452326
 30
0.0
 10
41.08363050036146
 20
1077.325381763969
 30
0.0
  0
SPLINE
  5
283
330
1F
100
AcDbEntity
  8
0
  6
Continuous
 62
     7
370
    15
100
AcDbSpline
210
0.0
220
0.0
230
1.0
 70
     8
 71
     3
 72
    10
 73
     6
 74
     0
 42
0.00000001
 43
0.00000001
 40
0.0
 40
0.0
 40
0.0
 40
0.0
 40
0.2056307013974658
 40
0.752597129316108
 40
1.0
 40
1.0
 40
1.0
 40
1.0
 10
75.63855904154492
 20
1077.325381763969
 30
0.0
 10
75.60536166387533
 20
1077.244722780505
 30
0.0
 10
75.48386107585404
 20
1076.949515309073
 30
0.0
 10
75.32202546245902
 20
1076.419030370119
 30
0.0
 10
75.19433726189823
 20
1076.004441782328
 30
0.0
 10
75.15456932596875
 20
1075.875319965873
 30
0.0
  0
LINE
  5
284
330
1F
100
AcDbEntity
  8
0
  6
Continuous
 62
     7
370
    15
100
AcDbLine
 10
38.8045575004
 20
1075.8753199659
 30
0.0
 11
41.0545583349
 21
1075.8753199659
 31
0.0
  0
LINE
  5
285
330
1F
100
AcDbEntity
  8
0
  6
Continuous
 62
     7
370
    15
100
AcDbLine
 10
41.0545583349
 20
-324.2246727862
 30
0.0
 11
38.604569016
 21
-324.2246727862
 31
0.0
  0
LINE
  5
286
330
1F
100
AcDbEntity
  8
0
  6
Continuous
 62
     7
370
    15
100
AcDbLine
 10
38.604569016
 20
-324.2246727862
 30
0.0
 11
38.604569016
 21
1070.5244917951
 31
0.0
  0
SPLINE
  5
287
330
1F
100
AcDbEntity
  8
0
  6
Continuous
 62
     7
370
    15
100
AcDbSpline
210
0.0
220
0.0
230
1.0
 70
     8
 71
     3
 72
    12
 73
     8
 74
     0
 42
0.00000001
 43
0.00000001
 40
0.0
 40
0.0
 40
0.0
 40
0.0
 40
0.2245769081100679
 40
0.4491921832134433
 40
0.6737962147930299
 40
0.8984144333685672
 40
1.0
 40
1.0
 40
1.0
 40
1.0
 10
75.15456932596875
 20
1075.875319965873
 30
0.0
 10
75.4426891521553
 20
1075.96365287603
 30
0.0
 10
76.01897802727137
 20
1076.140333787245
 30
0.0
 10
76.77779627687542
 20
1076.405379402166
 30
0.0
 10
77.33293106204265
 20
1076.670085134007
 30
0.0
 10
77.57821820462053
 20
1076.887088280438
 30
0.0
 10
77.5983036771995
 20
1077.014865427849
 30
0.0
 10
77.60455864481641
 20
1077.054657467399
 30
0.0
  0
LINE
  5
288
330
1F
100
AcDbEntity
  8
0
  6
Continuous
 62
     7
370
    15
100
AcDbLine
 10
77.6045586448
 20
1077.0546574674
 30
0.0
 11
77.6045586448
 21
1072.3253865323
 31
0.0
  0
LINE
  5
289
330
1F
100
AcDbEntity
  8
0
  6
Continuous
 62
     7
370
    15
100
AcDbLine
 10
77.6045586448
 20
212.3253722272
 30
0.0
 11
77.6045586448
 21
199.3253607831
 31
0.0
  0
LINE
  5
28A
330
1F
100
AcDbEntity
  8
0
  6
Continuous
 62
     7
370
    15
100
AcDbLine
 10
77.6045586448
 20
-324.6746878543
 30
0.0
 11
77.6045586448
 21
-325.4039506831
 31
0.0
  0
SPLINE
  5
28B
330
1F
100
AcDbEntity
  8
0
  6
Continuous
 62
     7
370
    15
100
AcDbSpline
210
0.0
220
0.0
230
1.0
 70
     8
 71
     3
 72
    10
 73
     6
 74
     0
 42
0.00000001
 43
0.00000001
 40
0.0
 40
0.0
 40
0.0
 40
0.0
 40
0.3632886991747123
 40
0.7266408876076006
 40
1.0
 40
1.0
 40
1.0
 40
1.0
 10
77.60455864481641
 20
-325.4039506830834
 30
0.0
 10
77.57377356975576
 20
-325.3156393629079
 30
0.0
 10
77.5121980395564
 20
-325.1390012890454
 30
0.0
 10
77.10469293237998
 20
-324.8958649269902
 30
0.0
 10
76.69517151286404
 20
-324.741123118392
 30
0.0
 10
76.51935177855206
 20
-324.6746878542565
 30
0.0
  0
LINE
  5
28C
330
1F
100
AcDbEntity
  8
0
  6
Continuous
 62
     7
370
    15
100
AcDbLine
 10
76.3338472228
 20
1077.325381764
 30
0.0
 11
76.3338472228
 21
1077.1253485761
 31
0.0
  0
SPLINE
  5
28D
330
1F
100
AcDbEntity
  8
0
  6
Continuous
 62
     7
370
    15
100
AcDbSpline
210
0.0
220
0.0
230
1.0
 70
     8
 71
     3
 72
    11
 73
     7
 74
     0
 42
0.00000001
 43
0.00000001
 40
0.0
 40
0.0
 40
0.0
 40
0.0
 40
0.2726963298026481
 40
0.5235952092434679
 40
0.7744220455251716
 40
1.0
 40
1.0
 40
1.0
 40
1.0
 10
76.33384722284985
 20
1077.125348576102
 30
0.0
 10
76.22653472922003
 20
1077.102993379677
 30
0.0
 10
76.02048755727148
 20
1077.060069905941
 30
0.0
 10
75.71621008333696
 20
1076.745408903214
 30
0.0
 10
75.43017171858286
 20
1076.334775146515
 30
0.0
 10
75.24313250561465
 20
1076.022963138766
 30
0.0
 10
75.15456932596875
 20
1075.875319965873
 30
0.0
  0
SPLINE
  5
28E
330
1F
100
AcDbEntity
  8
0
  6
Continuous
 62
     7
370
    15
100
AcDbSpline
210
0.0
220
0.0
230
1.0
 70
     8
 71
     3
 72
    12
 73
     8
 74
     0
 42
0.00000001
 43
0.00000001
 40
0.0
 40
0.0
 40
0.0
 40
0.0
 40
0.1194800538100313
 40
0.3745439093218348
 40
0.6295902829392891
 40
0.8846505152431029
 40
1.0
 40
1.0
 40
1.0
 40
1.0
 10
75.29535549692822
 20
-324.6746878542565
 30
0.0
 10
75.33673625644732
 20
-324.8087307901537
 30
0.0
 10
75.46645591212814
 20
-325.2289261585599
 30
0.0
 10
75.68449676952338
 20
-325.8460497601276
 30
0.0
 10
75.94938158770003
 20
-326.4035056243341
 30
0.0
 10
76.16636628506679
 20
-326.6482221105748
 30
0.0
 10
76.2940768184857
 20
-326.6683836038331
 30
0.0
 10
76.33384722284985
 20
-326.6746621050499
 30
0.0
  0
LINE
  5
28F
330
1F
100
AcDbEntity
  8
0
  6
Continuous
 62
     7
370
    15
100
AcDbLine
 10
76.3338472228
 20
-326.674662105
 30
0.0
 11
41.0545583349
 21
-326.674662105
 31
0.0
  0
LINE
  5
290
330
1F
100
AcDbEntity
  8
0
  6
Continuous
 62
     7
370
    15
100
AcDbLine
 10
41.0545583349
 20
-326.674662105
 30
0.0
 11
41.0545583349
 21
-324.2246727862
 31
0.0
  0
SPLINE
  5
291
330
1F
100
AcDbEntity
  8
0
  6
Continuous
 62
     7
370
    15
100
AcDbSpline
210
0.0
220
0.0
230
1.0
 70
     8
 71
     3
 72
    11
 73
     7
 74
     0
 42
0.00000001
 43
0.00000001
 40
0.0
 40
0.0
 40
0.0
 40
0.0
 40
0.2726924784862942
 40
0.5235820220862145
 40
0.7744066165052349
 40
1.0
 40
1.0
 40
1.0
 40
1.0
 10
75.15456932596875
 20
1075.875319965873
 30
0.0
 10
75.33339890899914
 20
1075.982634039988
 30
0.0
 10
75.6767598818125
 20
1076.188681967073
 30
0.0
 10
76.09262153231339
 20
1076.493017567024
 30
0.0
 10
76.35690195186517
 20
1076.778956137261
 30
0.0
 10
76.38925046828071
 20
1076.966060046731
 30
0.0
 10
76.40456813387586
 20
1077.054657467399
 30
0.0
  0
LINE
  5
292
330
1F
100
AcDbEntity
  8
0
  6
Continuous
 62
     7
370
    15
100
AcDbLine
 10
77.6045586448
 20
1077.0546574674
 30
0.0
 11
76.4045681339
 21
1077.0546574674
 31
0.0
  0
LINE
  5
293
330
1F
100
AcDbEntity
  8
0
  6
Continuous
 62
     7
370
    15
100
AcDbLine
 10
77.6045586448
 20
-325.4039506831
 30
0.0
 11
76.4045681339
 21
-325.4039506831
 31
0.0
  0
SPLINE
  5
294
330
1F
100
AcDbEntity
  8
0
  6
Continuous
 62
     7
370
    15
100
AcDbSpline
210
0.0
220
0.0
230
1.0
 70
     8
 71
     3
 72
    10
 73
     6
 74
     0
 42
0.00000001
 43
0.00000001
 40
0.0
 40
0.0
 40
0.0
 40
0.0
 40
0.4411253830785313
 40
0.8469747988534436
 40
1.0
 40
1.0
 40
1.0
 40
1.0
 10
76.40456813387586
 20
-325.4039506830833
 30
0.0
 10
76.3808318410486
 20
-325.296640611814
 30
0.0
 10
76.33525740209302
 20
-325.0906018538672
 30
0.0
 10
76.09898570043327
 20
-324.8476210148035
 30
0.0
 10
75.9015835248078
 20
-324.7118604043906
 30
0.0
 10
75.84753292612744
 20
-324.6746878542565
 30
0.0
  0
SPLINE
  5
295
330
1F
100
AcDbEntity
  8
0
  6
Continuous
 62
     7
370
    15
100
AcDbSpline
210
0.0
220
0.0
230
1.0
 70
     8
 71
     3
 72
    11
 73
     7
 74
     0
 42
0.00000001
 43
0.00000001
 40
0.0
 40
0.0
 40
0.0
 40
0.0
 40
0.0478302818249187
 40
0.3762846781184192
 40
0.7046776880459
 40
1.0
 40
1.0
 40
1.0
 40
1.0
 10
75.43329554609967
 20
-324.6746878542565
 30
0.0
 10
75.44767121869467
 20
-324.6980888404602
 30
0.0
 10
75.56076579244086
 20
-324.8821862830294
 30
0.0
 10
75.77220646291316
 20
-325.1591767661218
 30
0.0
 10
76.05823935713462
 20
-325.4277881825686
 30
0.0
 10
76.24528376353202
 20
-325.4595859162838
 30
0.0
 10
76.33384722284985
 20
-325.474641791787
 30
0.0
  0
LINE
  5
296
330
1F
100
AcDbEntity
  8
0
  6
Continuous
 62
     7
370
    15
100
AcDbLine
 10
76.3338472228
 20
-326.674662105
 30
0.0
 11
76.3338472228
 21
-325.4746417918
 31
0.0
  0
LINE
  5
297
330
1F
100
AcDbEntity
  8
0
  6
Continuous
 62
     7
370
    15
100
AcDbLine
 10
41.0545583349
 20
1077.325381764
 30
0.0
 11
41.0545583349
 21
1077.1253485761
 31
0.0
  0
LINE
  5
298
330
1F
100
AcDbEntity
  8
0
  6
Continuous
 62
     7
370
    15
100
AcDbLine
 10
39.1334559303
 20
1077.325381764
 30
0.0
 11
38.8045575004
 21
1076.8331666074
 31
0.0
  0
SPLINE
  5
299
330
1F
100
AcDbEntity
  8
0
  6
Continuous
 62
     7
370
    15
100
AcDbSpline
210
0.0
220
0.0
230
1.0
 70
     8
 71
     3
 72
    11
 73
     7
 74
     0
 42
0.00000001
 43
0.00000001
 40
0.0
 40
0.0
 40
0.0
 40
0.0
 40
0.2499871405017459
 40
0.499984118681004
 40
0.7499874393374788
 40
1.0
 40
1.0
 40
1.0
 40
1.0
 10
41.05455833487226
 20
1077.125348576102
 30
0.0
 10
40.89076669822378
 20
1077.10656650204
 30
0.0
 10
40.56317697927791
 20
1077.069001614789
 30
0.0
 10
40.1499856806955
 20
1076.779944041025
 30
0.0
 10
39.86093687688408
 20
1076.366733640388
 30
0.0
 10
39.82335220845246
 20
1076.039126542042
 30
0.0
 10
39.80455952696516
 20
1075.875319965873
 30
0.0
  0
LINE
  5
29A
330
1F
100
AcDbEntity
  8
0
  6
Continuous
 62
     7
370
    15
100
AcDbLine
 10
39.804559527
 20
-326.674662105
 30
0.0
 11
38.604569016
 21
-326.674662105
 31
0.0
  0
LINE
  5
29B
330
1F
100
AcDbEntity
  8
0
  6
Continuous
 62
     7
370
    15
100
AcDbLine
 10
39.804559527
 20
-326.674662105
 30
0.0
 11
39.804559527
 21
-324.2246727862
 31
0.0
  0
LINE
  5
29C
330
1F
100
AcDbEntity
  8
0
  6
Continuous
 62
     7
370
    15
100
AcDbLine
 10
38.604569016
 20
-326.674662105
 30
0.0
 11
38.604569016
 21
-324.2246727862
 31
0.0
  0
LINE
  5
29D
330
1F
100
AcDbEntity
  8
0
  6
Continuous
 62
     7
370
    15
100
AcDbLine
 10
41.0545583349
 20
1077.0546574674
 30
0.0
 11
40.2237440925
 21
1076.7946620069
 31
0.0
  0
LINE
  5
29E
330
1F
100
AcDbEntity
  8
0
  6
Continuous
 62
     7
370
    15
100
AcDbLine
 10
39.804559527
 20
-326.674662105
 30
0.0
 11
41.0545583349
 21
-326.674662105
 31
0.0
  0
LINE
  5
29F
330
1F
100
AcDbEntity
  8
0
  6
Continuous
 62
     7
370
    15
100
AcDbLine
 10
144.6045752149
 20
-499.6746699729
 30
0.0
 11
52.6045675855
 21
-499.6746699729
 31
0.0
  0
LINE
  5
2A0
330
1F
100
AcDbEntity
  8
0
  6
Continuous
 62
     7
370
    15
100
AcDbLine
 10
144.6045752149
 20
-497.6746659197
 30
0.0
 11
52.6045675855
 21
-497.6746659197
 31
0.0
  0
LINE
  5
2A1
330
1F
100
AcDbEntity
  8
0
  6
Continuous
 62
     7
370
    15
100
AcDbLine
 10
624.6045644861
 20
-499.6746699729
 30
0.0
 11
532.6045568567
 21
-499.6746699729
 31
0.0
  0
LINE
  5
2A2
330
1F
100
AcDbEntity
  8
0
  6
Continuous
 62
     7
370
    15
100
AcDbLine
 10
624.6045644861
 20
-497.6746659197
 30
0.0
 11
532.6045568567
 21
-497.6746659197
 31
0.0
  0
LINE
  5
2A3
330
1F
100
AcDbEntity
  8
0
  6
Continuous
 62
     7
370
    15
100
AcDbLine
 10
53.6045696121
 20
-331.6746573367
 30
0.0
 11
74.6045674663
 21
-331.6746573367
 31
0.0
  0
LINE
  5
2A4
330
1F
100
AcDbEntity
  8
0
  6
Continuous
 62
     7
370
    15
100
AcDbLine
 10
53.6045696121
 20
-331.6746573367
 30
0.0
 11
53.6045696121
 21
-329.6746830859
 31
0.0
  0
LINE
  5
2A5
330
1F
100
AcDbEntity
  8
0
  6
Continuous
 62
     7
370
    15
100
AcDbLine
 10
53.6045696121
 20
-329.6746830859
 30
0.0
 11
74.6045674663
 21
-329.6746830859
 31
0.0
  0
LINE
  5
2A6
330
1F
100
AcDbEntity
  8
0
  6
Continuous
 62
     7
370
    15
100
AcDbLine
 10
129.5642073732
 20
-425.6746690192
 30
0.0
 11
67.6449056249
 21
-425.6746690192
 31
0.0
  0
LINE
  5
2A7
330
1F
100
AcDbEntity
  8
0
  6
Continuous
 62
     7
370
    15
100
AcDbLine
 10
623.6045773607
 20
-331.6746573367
 30
0.0
 11
623.6045773607
 21
-329.6746830859
 31
0.0
  0
LINE
  5
2A8
330
1F
100
AcDbEntity
  8
0
  6
Continuous
 62
     7
370
    15
100
AcDbLine
 10
533.6045439821
 20
-331.6746573367
 30
0.0
 11
623.6045773607
 21
-331.6746573367
 31
0.0
  0
LINE
  5
2A9
330
1F
100
AcDbEntity
  8
0
  6
Continuous
 62
     7
370
    15
100
AcDbLine
 10
533.6045439821
 20
-331.6746573367
 30
0.0
 11
533.6045439821
 21
-329.6746830859
 31
0.0
  0
LINE
  5
2AA
330
1F
100
AcDbEntity
  8
0
  6
Continuous
 62
     7
370
    15
100
AcDbLine
 10
533.6045439821
 20
-329.6746830859
 30
0.0
 11
623.6045773607
 21
-329.6746830859
 31
0.0
  0
LINE
  5
2AB
330
1F
100
AcDbEntity
  8
0
  6
Continuous
 62
     7
370
    15
100
AcDbLine
 10
609.5642264467
 20
-425.6746690192
 30
0.0
 11
547.6448948961
 21
-425.6746690192
 31
0.0
  0
LINE
  5
2AC
330
1F
100
AcDbEntity
  8
0
  6
Continuous
 62
     7
370
    15
100
AcDbLine
 10
620.2745850664
 20
-329.574666492
 30
0.0
 11
624.1745765787
 21
-329.574666492
 31
0.0
  0
LINE
  5
2AD
330
1F
100
AcDbEntity
  8
0
  6
Continuous
 62
     7
370
    15
100
AcDbLine
 10
616.3745339494
 20
-329.574666492
 30
0.0
 11
620.2745850664
 21
-329.574666492
 31
0.0
  0
LINE
  5
2AE
330
1F
100
AcDbEntity
  8
0
  6
Continuous
 62
     8
370
    15
100
AcDbLine
 10
212.147694407
 20
211.058892735
 30
0.0
 11
225.0614281278
 21
211.058892735
 31
0.0
  0
LINE
  5
2AF
330
1F
100
AcDbEntity
  8
0
  6
Continuous
 62
     8
370
    15
100
AcDbLine
 10
215.3548415285
 20
212.3253722272
 30
0.0
 11
215.3521295171
 21
212.310471066
 31
0.0
  0
LINE
  5
2B0
330
1F
100
AcDbEntity
  8
0
  6
Continuous
 62
     8
370
    15
100
AcDbLine
 10
221.8542810064
 20
212.3253722272
 30
0.0
 11
221.8569930177
 21
212.310471066
 31
0.0
  0
LINE
  5
2B1
330
1F
100
AcDbEntity
  8
0
  6
Continuous
 62
     8
370
    15
100
AcDbLine
 10
629.6045597177
 20
-328.0746560015
 30
0.0
 11
629.6045597177
 21
-326.5746455111
 31
0.0
  0
LINE
  5
2B2
330
1F
100
AcDbEntity
  8
0
  6
Continuous
 62
     8
370
    15
100
AcDbLine
 10
616.6756566148
 20
-326.5746455111
 30
0.0
 11
616.6756566148
 21
-328.0746560015
 31
0.0
  0
LINE
  5
2B3
330
1F
100
AcDbEntity
  8
0
  6
Continuous
 62
     8
370
    15
100
AcDbLine
 10
613.1400879007
 20
-328.0746560015
 30
0.0
 11
613.1400879007
 21
-326.5746455111
 31
0.0
  0
LINE
  5
2B4
330
1F
100
AcDbEntity
  8
0
  6
Continuous
 62
     8
370
    15
100
AcDbLine
 10
601.0690148454
 20
-326.5746455111
 30
0.0
 11
601.0690148454
 21
-328.0746560015
 31
0.0
  0
LINE
  5
2B5
330
1F
100
AcDbEntity
  8
0
  6
Continuous
 62
     8
370
    15
100
AcDbLine
 10
634.6045549493
 20
-324.8246531405
 30
0.0
 11
628.4245665651
 21
-324.8246531405
 31
0.0
  0
LINE
  5
2B6
330
1F
100
AcDbEntity
  8
0
  6
Continuous
 62
     8
370
    15
100
AcDbLine
 10
612.124543963
 20
-324.8246531405
 30
0.0
 11
599.6045883279
 21
-324.8246531405
 31
0.0
  0
LINE
  5
2B7
330
1F
100
AcDbEntity
  8
0
  6
Continuous
 62
     8
370
    15
100
AcDbLine
 10
638.4045894723
 20
1079.7753710828
 30
0.0
 11
38.8045575004
 21
1079.7753710828
 31
0.0
  0
LINE
  5
2B8
330
1F
100
AcDbEntity
  8
0
  6
Continuous
 62
     8
370
    15
100
AcDbLine
 10
638.4045894723
 20
1102.425374516
 30
0.0
 11
38.8045575004
 21
1102.425374516
 31
0.0
  0
LINE
  5
2B9
330
1F
100
AcDbEntity
  8
0
  6
Continuous
 62
     8
370
    15
100
AcDbLine
 10
639.604550181
 20
1079.7753710828
 30
0.0
 11
638.4045894723
 21
1079.7753710828
 31
0.0
  0
LINE
  5
2BA
330
1F
100
AcDbEntity
  8
0
  6
Continuous
 62
     8
370
    15
100
AcDbLine
 10
37.6045669895
 20
1079.7753710828
 30
0.0
 11
38.8045575004
 21
1079.7753710828
 31
0.0
  0
LINE
  5
2BB
330
1F
100
AcDbEntity
  8
0
  6
Continuous
 62
     8
370
    15
100
AcDbLine
 10
37.6045669895
 20
1102.425374516
 30
0.0
 11
38.8045575004
 21
1102.425374516
 31
0.0
  0
LINE
  5
2BC
330
1F
100
AcDbEntity
  8
0
  6
Continuous
 62
     8
370
    15
100
AcDbLine
 10
639.604550181
 20
1102.425374516
 30
0.0
 11
638.4045894723
 21
1102.425374516
 31
0.0
  0
LINE
  5
2BD
330
1F
100
AcDbEntity
  8
0
  6
Continuous
 62
     8
370
    15
100
AcDbLine
 10
638.4045894723
 20
1122.3752875409
 30
0.0
 11
639.604550181
 21
1122.3752875409
 31
0.0
  0
LINE
  5
2BE
330
1F
100
AcDbEntity
  8
0
  6
Continuous
 62
     8
370
    15
100
AcDbLine
 10
38.8045575004
 20
1122.3752875409
 30
0.0
 11
37.6045669895
 21
1122.3752875409
 31
0.0
  0
LINE
  5
2BF
330
1F
100
AcDbEntity
  8
0
  6
Continuous
 62
     8
370
    15
100
AcDbLine
 10
577.7338560205
 20
1076.0252852521
 30
0.0
 11
99.4752760511
 21
1076.0252852521
 31
0.0
  0
LINE
  5
2C0
330
1F
100
AcDbEntity
  8
0
  6
Continuous
 62
     8
370
    15
100
AcDbLine
 10
596.9045575242
 20
1072.3253865323
 30
0.0
 11
596.9045575242
 21
1077.325381764
 31
0.0
  0
LINE
  5
2C1
330
1F
100
AcDbEntity
  8
0
  6
Continuous
 62
     8
370
    15
100
AcDbLine
 10
580.904584704
 20
1072.3253865323
 30
0.0
 11
580.904584704
 21
1077.325381764
 31
0.0
  0
LINE
  5
2C2
330
1F
100
AcDbEntity
  8
0
  6
Continuous
 62
     8
370
    15
100
AcDbLine
 10
96.3045771699
 20
1077.325381764
 30
0.0
 11
96.3045771699
 21
1072.3253865323
 31
0.0
  0
LINE
  5
2C3
330
1F
100
AcDbEntity
  8
0
  6
Continuous
 62
     8
370
    15
100
AcDbLine
 10
80.3045596462
 20
1077.325381764
 30
0.0
 11
80.3045596462
 21
1072.3253865323
 31
0.0
  0
LINE
  5
2C4
330
1F
100
AcDbEntity
  8
0
  6
Continuous
 62
     8
370
    15
100
AcDbLine
 10
101.3045724016
 20
212.3253722272
 30
0.0
 11
101.3045724016
 21
199.3253607831
 31
0.0
  0
LINE
  5
2C5
330
1F
100
AcDbEntity
  8
0
  6
Continuous
 62
     8
370
    15
100
AcDbLine
 10
575.9045894723
 20
212.3253722272
 30
0.0
 11
575.9045894723
 21
199.3253607831
 31
0.0
  0
LINE
  5
2C6
330
1F
100
AcDbEntity
  8
0
  6
Continuous
 62
     8
370
    15
100
AcDbLine
 10
490.6045611482
 20
-328.1746725955
 30
0.0
 11
490.6045611482
 21
-326.674662105
 31
0.0
  0
LINE
  5
2C7
330
1F
100
AcDbEntity
  8
0
  6
Continuous
 62
     8
370
    15
100
AcDbLine
 10
589.60453826
 20
-328.1746725955
 30
0.0
 11
589.60453826
 21
-326.674662105
 31
0.0
  0
LINE
  5
2C8
330
1F
100
AcDbEntity
  8
0
  6
Continuous
 62
     8
370
    15
100
AcDbLine
 10
634.524565516
 20
-322.6246457019
 30
0.0
 11
634.524565516
 21
197.2753186307
 31
0.0
  0
LINE
  5
2C9
330
1F
100
AcDbEntity
  8
0
  6
Continuous
 62
     8
370
    15
100
AcDbLine
 10
42.6245595794
 20
197.2753186307
 30
0.0
 11
42.6245595794
 21
-322.6246457019
 31
0.0
  0
LINE
  5
2CA
330
1F
100
AcDbEntity
  8
0
  6
Continuous
 62
     8
370
    15
100
AcDbLine
 10
634.524565516
 20
197.2753186307
 30
0.0
 11
42.6245595794
 21
197.2753186307
 31
0.0
  0
LINE
  5
2CB
330
1F
100
AcDbEntity
  8
0
  6
Continuous
 62
     8
370
    15
100
AcDbLine
 10
42.6245595794
 20
-322.6246457019
 30
0.0
 11
634.524565516
 21
-322.6246457019
 31
0.0
  0
LINE
  5
2CC
330
1F
100
AcDbEntity
  8
0
  6
Continuous
 62
     8
370
    15
100
AcDbLine
 10
89.8545499425
 20
212.3253722272
 30
0.0
 11
89.8545499425
 21
199.3253607831
 31
0.0
  0
LINE
  5
2CD
330
1F
100
AcDbEntity
  8
0
  6
Continuous
 62
     8
370
    15
100
AcDbLine
 10
587.354582129
 20
199.3253607831
 30
0.0
 11
587.354582129
 21
212.3253722272
 31
0.0
  0
LINE
  5
2CE
330
1F
100
AcDbEntity
  8
0
  6
Continuous
 62
     8
370
    15
100
AcDbLine
 10
94.1545482259
 20
199.3253607831
 30
0.0
 11
94.1545482259
 21
212.3253722272
 31
0.0
  0
LINE
  5
2CF
330
1F
100
AcDbEntity
  8
0
  6
Continuous
 62
     8
370
    15
100
AcDbLine
 10
583.0545838457
 20
212.3253722272
 30
0.0
 11
583.0545838457
 21
199.3253607831
 31
0.0
  0
LINE
  5
2D0
330
1F
100
AcDbEntity
  8
0
  6
Continuous
 62
     8
370
    15
100
AcDbLine
 10
193.4545751195
 20
-324.7746448435
 30
0.0
 11
183.7545748334
 21
-324.7746448435
 31
0.0
  0
LINE
  5
2D1
330
1F
100
AcDbEntity
  8
0
  6
Continuous
 62
     8
370
    15
100
AcDbLine
 10
193.4545751195
 20
-325.1746516146
 30
0.0
 11
183.7545748334
 21
-325.1746516146
 31
0.0
  0
SPLINE
  5
2D2
330
1F
100
AcDbEntity
  8
0
  6
Continuous
 62
     8
370
    15
100
AcDbSpline
210
0.0
220
0.0
230
1.0
 70
     8
 71
     3
 72
    11
 73
     7
 74
     0
 42
0.00000001
 43
0.00000001
 40
0.0
 40
0.0
 40
0.0
 40
0.0
 40
0.2371522685317183
 40
0.4977969215471193
 40
0.7485368398951942
 40
0.9999999999999999
 40
0.9999999999999999
 40
0.9999999999999999
 40
0.9999999999999999
 10
71.35876673273755
 20
-236.66902588984
 30
0.0
 10
71.5016947375341
 20
-236.6997341411668
 30
0.0
 10
71.8017092439569
 20
-236.7641926136546
 30
0.0
 10
72.42509690428867
 20
-236.8972141686409
 30
0.0
 10
73.14077016108966
 20
-237.0506129747345
 30
0.0
 10
73.6443344446922
 20
-237.1584071331638
 30
0.0
 10
73.89647918753339
 20
-237.2123818316125
 30
0.0
  0
LINE
  5
2D3
330
1F
100
AcDbEntity
  8
0
  6
Continuous
 62
     8
370
    15
100
AcDbLine
 10
73.8964791875
 20
-237.2123818316
 30
0.0
 11
73.8964791875
 21
-292.1369295039
 31
0.0
  0
SPLINE
  5
2D4
330
1F
100
AcDbEntity
  8
0
  6
Continuous
 62
     8
370
    15
100
AcDbSpline
210
0.0
220
0.0
230
1.0
 70
     8
 71
     3
 72
    11
 73
     7
 74
     0
 42
0.00000001
 43
0.00000001
 40
0.0
 40
0.0
 40
0.0
 40
0.0
 40
0.2371486384958902
 40
0.4977973509729534
 40
0.7485349209227388
 40
1.0
 40
1.0
 40
1.0
 40
1.0
 10
71.35876673273755
 20
-292.68070267817
 30
0.0
 10
71.50168908261145
 20
-292.6499548652358
 30
0.0
 10
71.80169656995471
 20
-292.5854123069316
 30
0.0
 10
72.42509078308778
 20
-292.4522601261685
 30
0.0
 10
73.14077740389918
 20
-292.2988351509433
 30
0.0
 10
73.64433543546056
 20
-292.1909501482909
 30
0.0
 10
73.89647918753339
 20
-292.1369295038842
 30
0.0
  0
LINE
  5
2D5
330
1F
100
AcDbEntity
  8
0
  6
Continuous
 62
     8
370
    15
100
AcDbLine
 10
73.8964791875
 20
-292.1369295039
 30
0.0
 11
108.8210459333
 21
-292.1369295039
 31
0.0
  0
SPLINE
  5
2D6
330
1F
100
AcDbEntity
  8
0
  6
Continuous
 62
     8
370
    15
100
AcDbSpline
210
0.0
220
0.0
230
1.0
 70
     8
 71
     3
 72
    11
 73
     7
 74
     0
 42
0.00000001
 43
0.00000001
 40
0.0
 40
0.0
 40
0.0
 40
0.0
 40
0.2514499944177768
 40
0.5021776881997354
 40
0.7628243161778817
 40
1.0
 40
1.0
 40
1.0
 40
1.0
 10
108.8210459332914
 20
-292.1369295038842
 30
0.0
 10
108.8746180063687
 20
-292.3890860607388
 30
0.0
 10
108.9816082645005
 20
-292.8926748441821
 30
0.0
 10
109.133884555333
 20
-293.6083651868518
 30
0.0
 10
109.265947713429
 20
-294.231736545054
 30
0.0
 10
109.3299269618811
 20
-294.5317313972357
 30
0.0
 10
109.360408363864
 20
-294.6746568598411
 30
0.0
  0
SPLINE
  5
2D7
330
1F
100
AcDbEntity
  8
0
  6
Continuous
 62
     8
370
    15
100
AcDbSpline
210
0.0
220
0.0
230
1.0
 70
     8
 71
     3
 72
    11
 73
     7
 74
     0
 42
0.00000001
 43
0.00000001
 40
0.0
 40
0.0
 40
0.0
 40
0.0
 40
0.251429526968974
 40
0.5021460539019147
 40
0.7627994855904013
 40
1.0
 40
1.0
 40
1.0
 40
1.0
 10
73.89647918753339
 20
-292.1369295038842
 30
0.0
 10
73.84330314716026
 20
-292.3890875537347
 30
0.0
 10
73.73710186222205
 20
-292.8926885874654
 30
0.0
 10
73.58595374218868
 20
-293.6083903760986
 30
0.0
 10
73.45485510949412
 20
-294.2317585495606
 30
0.0
 10
73.39134134432945
 20
-294.5317345150708
 30
0.0
 10
73.36108046583844
 20
-294.6746568598412
 30
0.0
  0
LINE
  5
2D8
330
1F
100
AcDbEntity
  8
0
  6
Continuous
 62
     8
370
    15
100
AcDbLine
 10
108.8210459333
 20
-292.1369295039
 30
0.0
 11
108.8210459333
 21
-237.2123818316
 31
0.0
  0
SPLINE
  5
2D9
330
1F
100
AcDbEntity
  8
0
  6
Continuous
 62
     8
370
    15
100
AcDbSpline
210
0.0
220
0.0
230
1.0
 70
     8
 71
     3
 72
    11
 73
     7
 74
     0
 42
0.00000001
 43
0.00000001
 40
0.0
 40
0.0
 40
0.0
 40
0.0
 40
0.2514391173208695
 40
0.5021677198046558
 40
0.7628207003772521
 40
1.0
 40
1.0
 40
1.0
 40
1.0
 10
108.8210459332914
 20
-237.2123818316125
 30
0.0
 10
109.0731933659908
 20
-237.1588533394259
 30
0.0
 10
109.576775715
 20
-237.0519476154785
 30
0.0
 10
110.2924500682175
 20
-236.8997280339414
 30
0.0
 10
110.9158583075421
 20
-236.7678607115269
 30
0.0
 10
111.2158500101628
 20
-236.70390613539
 30
0.0
 10
111.3587732892485
 20
-236.6734366335534
 30
0.0
  0
SPLINE
  5
2DA
330
1F
100
AcDbEntity
  8
0
  6
Continuous
 62
     8
370
    15
100
AcDbSpline
210
0.0
220
0.0
230
1.0
 70
     8
 71
     3
 72
    11
 73
     7
 74
     0
 42
0.00000001
 43
0.00000001
 40
0.0
 40
0.0
 40
0.0
 40
0.0
 40
0.2514409297366713
 40
0.5021708783673903
 40
0.7628239655878599
 40
1.0
 40
1.0
 40
1.0
 40
1.0
 10
108.8210459332914
 20
-292.1369295038842
 30
0.0
 10
109.0731932855504
 20
-292.1904978964657
 30
0.0
 10
109.576775011463
 20
-292.2974832102075
 30
0.0
 10
110.2924485327999
 20
-292.449820425231
 30
0.0
 10
110.9158540230889
 20
-292.5818180060181
 30
0.0
 10
111.2158493461325
 20
-292.645806499738
 30
0.0
 10
111.3587732892485
 20
-292.6762919344567
 30
0.0
  0
LINE
  5
2DB
330
1F
100
AcDbEntity
  8
0
  6
Continuous
 62
     8
370
    15
100
AcDbLine
 10
108.8210459333
 20
-237.2123818316
 30
0.0
 11
73.8964791875
 21
-237.2123818316
 31
0.0
  0
SPLINE
  5
2DC
330
1F
100
AcDbEntity
  8
0
  6
Continuous
 62
     8
370
    15
100
AcDbSpline
210
0.0
220
0.0
230
1.0
 70
     8
 71
     3
 72
    11
 73
     7
 74
     0
 42
0.00000001
 43
0.00000001
 40
0.0
 40
0.0
 40
0.0
 40
0.0
 40
0.2371759558549125
 40
0.4978228827862624
 40
0.7485685898917872
 40
1.0
 40
1.0
 40
1.0
 40
1.0
 10
109.360408363864
 20
-234.6746544756553
 30
0.0
 10
109.3299273264246
 20
-234.8175801847489
 30
0.0
 10
109.2659488431347
 20
-235.1175755542996
 30
0.0
 10
109.1338764633796
 20
-235.7409575532282
 30
0.0
 10
108.9816225484909
 20
-236.4566649973345
 30
0.0
 10
108.8746201741954
 20
-236.9602470130745
 30
0.0
 10
108.8210459332914
 20
-237.2123818316125
 30
0.0
  0
SPLINE
  5
2DD
330
1F
100
AcDbEntity
  8
0
  6
Continuous
 62
     8
370
    15
100
AcDbSpline
210
0.0
220
0.0
230
1.0
 70
     8
 71
     3
 72
    11
 73
     7
 74
     0
 42
0.00000001
 43
0.00000001
 40
0.0
 40
0.0
 40
0.0
 40
0.0
 40
0.2372007867748482
 40
0.4978545177583729
 40
0.7485890673586499
 40
1.0
 40
1.0
 40
1.0
 40
1.0
 10
73.36108046583844
 20
-234.6746544756554
 30
0.0
 10
73.39134098219368
 20
-234.8175770659685
 30
0.0
 10
73.4548539872808
 20
-235.1175535468423
 30
0.0
 10
73.58596177927711
 20
-235.7409323843994
 30
0.0
 10
73.73708767566167
 20
-236.4566512140816
 30
0.0
 10
73.84330099428426
 20
-236.9602455142426
 30
0.0
 10
73.89647918753339
 20
-237.2123818316125
 30
0.0
  0
SPLINE
  5
2DE
330
1F
100
AcDbEntity
  8
0
  6
Continuous
 62
     8
370
    15
100
AcDbSpline
210
0.0
220
0.0
230
1.0
 70
     8
 71
     3
 72
    11
 73
     7
 74
     0
 42
0.00000001
 43
0.00000001
 40
0.0
 40
0.0
 40
0.0
 40
0.0
 40
0.2371522685317183
 40
0.4977969215471193
 40
0.7485368398951942
 40
0.9999999999999999
 40
0.9999999999999999
 40
0.9999999999999999
 40
0.9999999999999999
 10
71.35876673273755
 20
-236.66902588984
 30
0.0
 10
71.5016947375341
 20
-236.6997341411668
 30
0.0
 10
71.8017092439569
 20
-236.7641926136546
 30
0.0
 10
72.42509690428867
 20
-236.8972141686409
 30
0.0
 10
73.14077016108966
 20
-237.0506129747345
 30
0.0
 10
73.6443344446922
 20
-237.1584071331638
 30
0.0
 10
73.89647918753339
 20
-237.2123818316125
 30
0.0
  0
SPLINE
  5
2DF
330
1F
100
AcDbEntity
  8
0
  6
Continuous
 62
     8
370
    15
100
AcDbSpline
210
0.0
220
0.0
230
1.0
 70
     8
 71
     3
 72
    11
 73
     7
 74
     0
 42
0.00000001
 43
0.00000001
 40
0.0
 40
0.0
 40
0.0
 40
0.0
 40
0.2371486384958902
 40
0.4977973509729534
 40
0.7485349209227388
 40
1.0
 40
1.0
 40
1.0
 40
1.0
 10
71.35876673273755
 20
-292.68070267817
 30
0.0
 10
71.50168908261145
 20
-292.6499548652358
 30
0.0
 10
71.80169656995471
 20
-292.5854123069316
 30
0.0
 10
72.42509078308778
 20
-292.4522601261685
 30
0.0
 10
73.14077740389918
 20
-292.2988351509433
 30
0.0
 10
73.64433543546056
 20
-292.1909501482909
 30
0.0
 10
73.89647918753339
 20
-292.1369295038842
 30
0.0
  0
SPLINE
  5
2E0
330
1F
100
AcDbEntity
  8
0
  6
Continuous
 62
     8
370
    15
100
AcDbSpline
210
0.0
220
0.0
230
1.0
 70
     8
 71
     3
 72
    11
 73
     7
 74
     0
 42
0.00000001
 43
0.00000001
 40
0.0
 40
0.0
 40
0.0
 40
0.0
 40
0.2514499944177768
 40
0.5021776881997354
 40
0.7628243161778817
 40
1.0
 40
1.0
 40
1.0
 40
1.0
 10
108.8210459332914
 20
-292.1369295038842
 30
0.0
 10
108.8746180063687
 20
-292.3890860607388
 30
0.0
 10
108.9816082645005
 20
-292.8926748441821
 30
0.0
 10
109.133884555333
 20
-293.6083651868518
 30
0.0
 10
109.265947713429
 20
-294.231736545054
 30
0.0
 10
109.3299269618811
 20
-294.5317313972357
 30
0.0
 10
109.360408363864
 20
-294.6746568598411
 30
0.0
  0
SPLINE
  5
2E1
330
1F
100
AcDbEntity
  8
0
  6
Continuous
 62
     8
370
    15
100
AcDbSpline
210
0.0
220
0.0
230
1.0
 70
     8
 71
     3
 72
    11
 73
     7
 74
     0
 42
0.00000001
 43
0.00000001
 40
0.0
 40
0.0
 40
0.0
 40
0.0
 40
0.251429526968974
 40
0.5021460539019147
 40
0.7627994855904013
 40
1.0
 40
1.0
 40
1.0
 40
1.0
 10
73.89647918753339
 20
-292.1369295038842
 30
0.0
 10
73.84330314716026
 20
-292.3890875537347
 30
0.0
 10
73.73710186222205
 20
-292.8926885874654
 30
0.0
 10
73.58595374218868
 20
-293.6083903760986
 30
0.0
 10
73.45485510949412
 20
-294.2317585495606
 30
0.0
 10
73.39134134432945
 20
-294.5317345150708
 30
0.0
 10
73.36108046583844
 20
-294.6746568598412
 30
0.0
  0
SPLINE
  5
2E2
330
1F
100
AcDbEntity
  8
0
  6
Continuous
 62
     8
370
    15
100
AcDbSpline
210
0.0
220
0.0
230
1.0
 70
     8
 71
     3
 72
    11
 73
     7
 74
     0
 42
0.00000001
 43
0.00000001
 40
0.0
 40
0.0
 40
0.0
 40
0.0
 40
0.2514391173208695
 40
0.5021677198046558
 40
0.7628207003772521
 40
1.0
 40
1.0
 40
1.0
 40
1.0
 10
108.8210459332914
 20
-237.2123818316125
 30
0.0
 10
109.0731933659908
 20
-237.1588533394259
 30
0.0
 10
109.576775715
 20
-237.0519476154785
 30
0.0
 10
110.2924500682175
 20
-236.8997280339414
 30
0.0
 10
110.9158583075421
 20
-236.7678607115269
 30
0.0
 10
111.2158500101628
 20
-236.70390613539
 30
0.0
 10
111.3587732892485
 20
-236.6734366335534
 30
0.0
  0
SPLINE
  5
2E3
330
1F
100
AcDbEntity
  8
0
  6
Continuous
 62
     8
370
    15
100
AcDbSpline
210
0.0
220
0.0
230
1.0
 70
     8
 71
     3
 72
    11
 73
     7
 74
     0
 42
0.00000001
 43
0.00000001
 40
0.0
 40
0.0
 40
0.0
 40
0.0
 40
0.2514409297366713
 40
0.5021708783673903
 40
0.7628239655878599
 40
1.0
 40
1.0
 40
1.0
 40
1.0
 10
108.8210459332914
 20
-292.1369295038842
 30
0.0
 10
109.0731932855504
 20
-292.1904978964657
 30
0.0
 10
109.576775011463
 20
-292.2974832102075
 30
0.0
 10
110.2924485327999
 20
-292.449820425231
 30
0.0
 10
110.9158540230889
 20
-292.5818180060181
 30
0.0
 10
111.2158493461325
 20
-292.645806499738
 30
0.0
 10
111.3587732892485
 20
-292.6762919344567
 30
0.0
  0
SPLINE
  5
2E4
330
1F
100
AcDbEntity
  8
0
  6
Continuous
 62
     8
370
    15
100
AcDbSpline
210
0.0
220
0.0
230
1.0
 70
     8
 71
     3
 72
    11
 73
     7
 74
     0
 42
0.00000001
 43
0.00000001
 40
0.0
 40
0.0
 40
0.0
 40
0.0
 40
0.2371759558549125
 40
0.4978228827862624
 40
0.7485685898917872
 40
1.0
 40
1.0
 40
1.0
 40
1.0
 10
109.360408363864
 20
-234.6746544756553
 30
0.0
 10
109.3299273264246
 20
-234.8175801847489
 30
0.0
 10
109.2659488431347
 20
-235.1175755542996
 30
0.0
 10
109.1338764633796
 20
-235.7409575532282
 30
0.0
 10
108.9816225484909
 20
-236.4566649973345
 30
0.0
 10
108.8746201741954
 20
-236.9602470130745
 30
0.0
 10
108.8210459332914
 20
-237.2123818316125
 30
0.0
  0
SPLINE
  5
2E5
330
1F
100
AcDbEntity
  8
0
  6
Continuous
 62
     8
370
    15
100
AcDbSpline
210
0.0
220
0.0
230
1.0
 70
     8
 71
     3
 72
    11
 73
     7
 74
     0
 42
0.00000001
 43
0.00000001
 40
0.0
 40
0.0
 40
0.0
 40
0.0
 40
0.2372007867748482
 40
0.4978545177583729
 40
0.7485890673586499
 40
1.0
 40
1.0
 40
1.0
 40
1.0
 10
73.36108046583844
 20
-234.6746544756554
 30
0.0
 10
73.39134098219368
 20
-234.8175770659685
 30
0.0
 10
73.4548539872808
 20
-235.1175535468423
 30
0.0
 10
73.58596177927711
 20
-235.7409323843994
 30
0.0
 10
73.73708767566167
 20
-236.4566512140816
 30
0.0
 10
73.84330099428426
 20
-236.9602455142426
 30
0.0
 10
73.89647918753339
 20
-237.2123818316125
 30
0.0
  0
LINE
  5
2E6
330
1F
100
AcDbEntity
  8
0
  6
Continuous
 62
     8
370
    15
100
AcDbLine
 10
636.5545805078
 20
1077.0253319822
 30
0.0
 11
636.5545805078
 21
1076.9546408735
 31
0.0
  0
LINE
  5
2E7
330
1F
100
AcDbEntity
  8
0
  6
Continuous
 62
     8
370
    15
100
AcDbLine
 10
106.3545759302
 20
-324.6746878543
 30
0.0
 11
106.3545759302
 21
-327.1746854701
 31
0.0
  0
LINE
  5
2E8
330
1F
100
AcDbEntity
  8
0
  6
Continuous
 62
     8
370
    15
100
AcDbLine
 10
40.6545664649
 20
1076.9546408735
 30
0.0
 11
40.6545664649
 21
1077.0253319822
 31
0.0
  0
LINE
  5
2E9
330
1F
100
AcDbEntity
  8
0
  6
Continuous
 62
     8
370
    15
100
AcDbLine
 10
208.9868898969
 20
705.4257769666
 30
0.0
 11
196.3324065786
 21
709.5011849485
 31
0.0
  0
LINE
  5
2EA
330
1F
100
AcDbEntity
  8
0
  6
Continuous
 62
     8
370
    15
100
AcDbLine
 10
208.9898105245
 20
697.5253005109
 30
0.0
 11
208.9868898969
 21
705.4257769666
 31
0.0
  0
LINE
  5
2EB
330
1F
100
AcDbEntity
  8
0
  6
Continuous
 62
     8
370
    15
100
AcDbLine
 10
208.9898105245
 20
697.5253005109
 30
0.0
 11
208.9868898969
 21
689.6249432645
 31
0.0
  0
LINE
  5
2EC
330
1F
100
AcDbEntity
  8
0
  6
Continuous
 62
     8
370
    15
100
AcDbLine
 10
196.3324065786
 20
685.5494160734
 30
0.0
 11
208.9868898969
 21
689.6249432645
 31
0.0
  0
SPLINE
  5
2ED
330
1F
100
AcDbEntity
  8
0
  6
Continuous
 62
     8
370
    15
100
AcDbSpline
210
0.0
220
0.0
230
1.0
 70
     8
 71
     3
 72
    17
 73
    13
 74
     0
 42
0.00000001
 43
0.00000001
 40
0.0
 40
0.0
 40
0.0
 40
0.0
 40
0.0860533228507269
 40
0.1698014612194047
 40
0.2512443621934493
 40
0.3303819924475049
 40
0.4072143886435086
 40
0.4817418943677077
 40
0.5638136311584664
 40
0.715397894156919
 40
0.8607931422241476
 40
1.0
 40
1.0
 40
1.0
 40
1.0
 10
62.77839499525739
 20
683.30589724401
 30
0.0
 10
66.55066471278526
 20
683.299534945808
 30
0.0
 10
73.99415310963731
 20
683.2869807817663
 30
0.0
 10
85.08161710128049
 20
683.3144961557445
 30
0.0
 10
95.90497070228527
 20
683.3733239161803
 30
0.0
 10
106.4591392795003
 20
683.4638737157748
 30
0.0
 10
116.7330538844193
 20
683.5828685005658
 30
0.0
 10
127.1585910720064
 20
683.7344972219311
 30
0.0
 10
140.9428851500477
 20
683.9768917529935
 30
0.0
 10
157.9176341321752
 20
684.354847610537
 30
0.0
 10
177.4416109493908
 20
684.8946125832456
 30
0.0
 10
190.127421488203
 20
685.3343353550516
 30
0.0
 10
196.3324065785856
 20
685.5494160733557
 30
0.0
  0
SPLINE
  5
2EE
330
1F
100
AcDbEntity
  8
0
  6
Continuous
 62
     8
370
    15
100
AcDbSpline
210
0.0
220
0.0
230
1.0
 70
     8
 71
     3
 72
    15
 73
    11
 74
     0
 42
0.00000001
 43
0.00000001
 40
0.0
 40
0.0
 40
0.0
 40
0.0
 40
0.1256428967416188
 40
0.2501866089924852
 40
0.3753329487951844
 40
0.5002530260829461
 40
0.6250134974933079
 40
0.7502418138236411
 40
0.8747963346426096
 40
1.0
 40
1.0
 40
1.0
 40
1.0
 10
62.77839499525739
 20
683.30589724401
 30
0.0
 10
61.86387287350159
 20
683.3609206458304
 30
0.0
 10
60.04282930936577
 20
683.4704860782874
 30
0.0
 10
57.40994286743939
 20
684.3165204743041
 30
0.0
 10
54.98296274094927
 20
685.6279524874949
 30
0.0
 10
52.85217156322064
 20
687.4085508721106
 30
0.0
 10
51.09914529829873
 20
689.5764602116186
 30
0.0
 10
49.80752176412717
 20
692.0487428841255
 30
0.0
 10
48.97561599713285
 20
694.7335554458549
 30
0.0
 10
48.87144598648951
 20
696.5931077732841
 30
0.0
 10
48.81922560744001
 20
697.5253005109167
 30
0.0
  0
SPLINE
  5
2EF
330
1F
100
AcDbEntity
  8
0
  6
Continuous
 62
     8
370
    15
100
AcDbSpline
210
0.0
220
0.0
230
1.0
 70
     8
 71
     3
 72
    15
 73
    11
 74
     0
 42
0.00000001
 43
0.00000001
 40
0.0
 40
0.0
 40
0.0
 40
0.0
 40
0.1249310053700643
 40
0.2501939922584539
 40
0.3747936281203365
 40
0.5001584907713333
 40
0.6247796472267868
 40
0.7500595516258058
 40
0.8750626905383075
 40
1.0
 40
1.0
 40
1.0
 40
1.0
 10
62.77839499525739
 20
711.744822987113
 30
0.0
 10
61.86907840182793
 20
711.690371724157
 30
0.0
 10
60.04802887082417
 20
711.5813245038757
 30
0.0
 10
57.41824971040849
 20
710.7377962409906
 30
0.0
 10
54.98688300475596
 20
709.4253675686266
 30
0.0
 10
52.85649533351716
 20
707.646815900564
 30
0.0
 10
51.10125851010405
 20
705.4773723309695
 30
0.0
 10
49.80756838398869
 20
703.0031190784985
 30
0.0
 10
48.97531290939639
 20
700.316394722176
 30
0.0
 10
48.87124557165484
 20
698.4555018736806
 30
0.0
 10
48.81922560744001
 20
697.525300510917
 30
0.0
  0
SPLINE
  5
2F0
330
1F
100
AcDbEntity
  8
0
  6
Continuous
 62
     8
370
    15
100
AcDbSpline
210
0.0
220
0.0
230
1.0
 70
     8
 71
     3
 72
    18
 73
    14
 74
     0
 42
0.00000001
 43
0.00000001
 40
0.0
 40
0.0
 40
0.0
 40
0.0
 40
0.0751664021778288
 40
0.1521745706713027
 40
0.2310243149136851
 40
0.3117158297722913
 40
0.394249116064384
 40
0.4786243157988341
 40
0.5552517609694924
 40
0.6599013869385297
 40
0.7689092501708888
 40
0.8822754874505695
 40
1.0
 40
1.0
 40
1.0
 40
1.0
 10
196.3324065785856
 20
709.5011849484778
 30
0.0
 10
192.9842516449345
 20
709.6196709362721
 30
0.0
 10
186.2059035424937
 20
709.8595461172137
 30
0.0
 10
175.8870179715395
 20
710.1860339233459
 30
0.0
 10
165.3077061024464
 20
710.4906127040209
 30
0.0
 10
154.4713524887643
 20
710.7682209863697
 30
0.0
 10
143.3855203063447
 20
711.0174253916916
 30
0.0
 10
132.4868990577752
 20
711.2265474580344
 30
0.0
 10
120.6128386054062
 20
711.4172766591289
 30
0.0
 10
107.6631821250876
 20
711.5791414602745
 30
0.0
 10
93.12874540279648
 20
711.7000566634846
 30
0.0
 10
78.07949994983021
 20
711.7651426909362
 30
0.0
 10
67.94248990888508
 20
711.7516808499582
 30
0.0
 10
62.77839499525739
 20
711.7448229871133
 30
0.0
  0
SPLINE
  5
2F1
330
1F
100
AcDbEntity
  8
0
  6
Continuous
 62
     8
370
    15
100
AcDbSpline
210
0.0
220
0.0
230
1.0
 70
     8
 71
     3
 72
    11
 73
     7
 74
     0
 42
0.00000001
 43
0.00000001
 40
0.0
 40
0.0
 40
0.0
 40
0.0
 40
0.2409776930972334
 40
0.5000039690516688
 40
0.759031889222412
 40
1.0
 40
1.0
 40
1.0
 40
1.0
 10
196.3324065785856
 20
709.5011849484778
 30
0.0
 10
196.3428668485483
 20
710.0990346050984
 30
0.0
 10
196.3645708346372
 20
711.3395112540546
 30
0.0
 10
196.2981908846706
 20
712.9013367638084
 30
0.0
 10
196.1661543604217
 20
713.9716421170378
 30
0.0
 10
196.0406356305618
 20
714.1088016721395
 30
0.0
 10
195.9801431279631
 20
714.1749043546057
 30
0.0
  0
SPLINE
  5
2F2
330
1F
100
AcDbEntity
  8
0
  6
Continuous
 62
     8
370
    15
100
AcDbSpline
210
0.0
220
0.0
230
1.0
 70
     8
 71
     3
 72
    11
 73
     7
 74
     0
 42
0.00000001
 43
0.00000001
 40
0.0
 40
0.0
 40
0.0
 40
0.0
 40
0.2796555788567152
 40
0.5592991985271298
 40
0.7796495959321673
 40
1.0
 40
1.0
 40
1.0
 40
1.0
 10
62.77839499525739
 20
711.744822987113
 30
0.0
 10
62.80661181681951
 20
712.4408785386287
 30
0.0
 10
62.86304425328015
 20
713.8329598755527
 30
0.0
 10
63.14835623516801
 20
715.3382534246305
 30
0.0
 10
63.48884328725391
 20
716.2194237013666
 30
0.0
 10
63.72412886814743
 20
716.3075852212131
 30
0.0
 10
63.84177166037275
 20
716.351665981803
 30
0.0
  0
SPLINE
  5
2F3
330
1F
100
AcDbEntity
  8
0
  6
Continuous
 62
     8
370
    15
100
AcDbSpline
210
0.0
220
0.0
230
1.0
 70
     8
 71
     3
 72
    11
 73
     7
 74
     0
 42
0.00000001
 43
0.00000001
 40
0.0
 40
0.0
 40
0.0
 40
0.0
 40
0.2796457957390666
 40
0.5592969012772518
 40
0.7796472151608631
 40
0.9999999999999999
 40
0.9999999999999999
 40
0.9999999999999999
 40
0.9999999999999999
 10
63.84177166037275
 20
678.6989350400305
 30
0.0
 10
63.69207348839778
 20
678.7736968173965
 30
0.0
 10
63.39267430204054
 20
678.9232217916739
 30
0.0
 10
63.05036658749042
 20
680.1370730947663
 30
0.0
 10
62.83563176445384
 20
681.6613381628584
 30
0.0
 10
62.79747398963781
 20
682.7577088345649
 30
0.0
 10
62.77839499525739
 20
683.30589724401
 30
0.0
  0
SPLINE
  5
2F4
330
1F
100
AcDbEntity
  8
0
  6
Continuous
 62
     8
370
    15
100
AcDbSpline
210
0.0
220
0.0
230
1.0
 70
     8
 71
     3
 72
    11
 73
     7
 74
     0
 42
0.00000001
 43
0.00000001
 40
0.0
 40
0.0
 40
0.0
 40
0.0
 40
0.2409718397112669
 40
0.5000037682876542
 40
0.7590340526222898
 40
0.9999999999999999
 40
0.9999999999999999
 40
0.9999999999999999
 40
0.9999999999999999
 10
195.9801431279631
 20
680.8758158765173
 30
0.0
 10
196.0406356484349
 20
680.9419185642347
 30
0.0
 10
196.1661544153804
 20
681.0790781302334
 30
0.0
 10
196.2981906454802
 20
682.1493833970362
 30
0.0
 10
196.3645703497706
 20
683.7111773909265
 30
0.0
 10
196.3428664560444
 20
684.9516083334763
 30
0.0
 10
196.3324065785857
 20
685.5494160733559
 30
0.0
  0
SPLINE
  5
2F5
330
1F
100
AcDbEntity
  8
0
  6
Continuous
 62
     8
370
    15
100
AcDbSpline
210
0.0
220
0.0
230
1.0
 70
     8
 71
     3
 72
    11
 73
     7
 74
     0
 42
0.00000001
 43
0.00000001
 40
0.0
 40
0.0
 40
0.0
 40
0.0
 40
0.2412839730107329
 40
0.4999953538745918
 40
0.7587216913371805
 40
1.0
 40
1.0
 40
1.0
 40
1.0
 10
196.3324065785857
 20
685.5494160733559
 30
0.0
 10
196.5001745762208
 20
684.9880949558856
 30
0.0
 10
196.8478280829981
 20
683.8249097377998
 30
0.0
 10
197.2122368935729
 20
682.3550887017295
 30
0.0
 10
197.3971232444002
 20
681.3325842286953
 30
0.0
 10
197.3394713380166
 20
681.1799172226671
 30
0.0
 10
197.3116512876006
 20
681.1062474332192
 30
0.0
  0
SPLINE
  5
2F6
330
1F
100
AcDbEntity
  8
0
  6
Continuous
 62
     8
370
    15
100
AcDbSpline
210
0.0
220
0.0
230
1.0
 70
     8
 71
     3
 72
    11
 73
     7
 74
     0
 42
0.00000001
 43
0.00000001
 40
0.0
 40
0.0
 40
0.0
 40
0.0
 40
0.2412796651565774
 40
0.4999956942682563
 40
0.7587178084578732
 40
1.0
 40
1.0
 40
1.0
 40
1.0
 10
197.3116512876005
 20
713.944472797904
 30
0.0
 10
197.3394729459911
 20
713.8707448403958
 30
0.0
 10
197.3971268282346
 20
713.7179608862341
 30
0.0
 10
197.2122211122736
 20
712.6956557745774
 30
0.0
 10
196.8478420559353
 20
711.2256945930812
 30
0.0
 10
196.5001762628183
 20
710.0624975690581
 30
0.0
 10
196.3324065785857
 20
709.501184948478
 30
0.0
  0
SPLINE
  5
2F7
330
1F
100
AcDbEntity
  8
0
  6
Continuous
 62
     8
370
    15
100
AcDbSpline
210
0.0
220
0.0
230
1.0
 70
     8
 71
     3
 72
    11
 73
     7
 74
     0
 42
0.00000001
 43
0.00000001
 40
0.0
 40
0.0
 40
0.0
 40
0.0
 40
0.2409329999363453
 40
0.5000052519878482
 40
0.7590746554115327
 40
1.0
 40
1.0
 40
1.0
 40
1.0
 10
208.9868898969145
 20
689.6249432645178
 30
0.0
 10
209.1550780539851
 20
689.0512093098324
 30
0.0
 10
209.5041168402024
 20
687.8605463841965
 30
0.0
 10
209.8373203695017
 20
686.3456273077348
 30
0.0
 10
209.9671111838008
 20
685.294520805199
 30
0.0
 10
209.8600221720092
 20
685.1438629613806
 30
0.0
 10
209.8084207158537
 20
685.0712676129675
 30
0.0
  0
SPLINE
  5
2F8
330
1F
100
AcDbEntity
  8
0
  6
Continuous
 62
     8
370
    15
100
AcDbSpline
210
0.0
220
0.0
230
1.0
 70
     8
 71
     3
 72
    11
 73
     7
 74
     0
 42
0.00000001
 43
0.00000001
 40
0.0
 40
0.0
 40
0.0
 40
0.0
 40
0.2411416498781879
 40
0.4999993366209011
 40
0.7588610494213017
 40
1.0
 40
1.0
 40
1.0
 40
1.0
 10
208.9868898969145
 20
705.4257769666052
 30
0.0
 10
209.153375492162
 20
705.9933465006643
 30
0.0
 10
209.498577937375
 20
707.170183395738
 30
0.0
 10
209.8309559847584
 20
708.6728826252131
 30
0.0
 10
209.9658635369283
 20
709.7278115092673
 30
0.0
 10
209.8664424367361
 20
709.8959696060059
 30
0.0
 10
209.8184939008208
 20
709.9770684323645
 30
0.0
  0
SPLINE
  5
2F9
330
1F
100
AcDbEntity
  8
0
  6
Continuous
 62
     8
370
    15
100
AcDbSpline
210
0.0
220
0.0
230
1.0
 70
     8
 71
     3
 72
    12
 73
     8
 74
     0
 42
0.00000001
 43
0.00000001
 40
0.0
 40
0.0
 40
0.0
 40
0.0
 40
0.1539426091442322
 40
0.2888210282260846
 40
0.5006759249911329
 40
0.7580550485647277
 40
1.0
 40
1.0
 40
1.0
 40
1.0
 10
213.305127201602
 20
705.2153725705481
 30
0.0
 10
213.2817655284566
 20
705.2310577605448
 30
0.0
 10
213.2379352822599
 20
705.2604856929922
 30
0.0
 10
212.851836001292
 20
705.3087857273858
 30
0.0
 10
212.0747750276982
 20
705.362516279064
 30
0.0
 10
210.7183574027884
 20
705.4086049638621
 30
0.0
 10
209.5520286072556
 20
705.4201721467334
 30
0.0
 10
208.9868898969145
 20
705.4257769666052
 30
0.0
  0
SPLINE
  5
2FA
330
1F
100
AcDbEntity
  8
0
  6
Continuous
 62
     8
370
    15
100
AcDbSpline
210
0.0
220
0.0
230
1.0
 70
     8
 71
     3
 72
    12
 73
     8
 74
     0
 42
0.00000001
 43
0.00000001
 40
0.0
 40
0.0
 40
0.0
 40
0.0
 40
0.2417568623854195
 40
0.4993017310195265
 40
0.7091690075428301
 40
0.8445508436095424
 40
0.9999999999999999
 40
0.9999999999999999
 40
0.9999999999999999
 40
0.9999999999999999
 10
208.9868898969145
 20
689.6249432645178
 30
0.0
 10
209.5583836452447
 20
689.6306238298762
 30
0.0
 10
210.7386927168986
 20
689.6423559316604
 30
0.0
 10
212.101590456511
 20
689.6893839337237
 30
0.0
 10
212.8747613213166
 20
689.7439971903783
 30
0.0
 10
213.253209068103
 20
689.7929602106705
 30
0.0
 10
213.2865380183521
 20
689.8230691374283
 30
0.0
 10
213.3043523412199
 20
689.8391623578406
 30
0.0
  0
SPLINE
  5
2FB
330
1F
100
AcDbEntity
  8
0
  6
Continuous
 62
     8
370
    15
100
AcDbSpline
210
0.0
220
0.0
230
1.0
 70
     8
 71
     3
 72
     9
 73
     5
 74
     0
 42
0.00000001
 43
0.00000001
 40
0.0
 40
0.0
 40
0.0
 40
0.0
 40
0.4981408105116661
 40
1.0
 40
1.0
 40
1.0
 40
1.0
 10
45.89977520518018
 20
685.9050173840857
 30
0.0
 10
46.24671306737405
 20
685.9781976339457
 30
0.0
 10
46.94317851423752
 20
686.1251043886538
 30
0.0
 10
47.91360482526963
 20
686.1602495338066
 30
0.0
 10
48.40062218718244
 20
686.1778874478674
 30
0.0
  0
SPLINE
  5
2FC
330
1F
100
AcDbEntity
  8
0
  6
Continuous
 62
     8
370
    15
100
AcDbSpline
210
0.0
220
0.0
230
1.0
 70
     8
 71
     3
 72
     9
 73
     5
 74
     0
 42
0.00000001
 43
0.00000001
 40
0.0
 40
0.0
 40
0.0
 40
0.0
 40
0.4930703409312965
 40
1.0
 40
1.0
 40
1.0
 40
1.0
 10
45.71696775965406
 20
684.9979538998938
 30
0.0
 10
45.72578828946666
 20
685.2358187506509
 30
0.0
 10
45.74367727827899
 20
685.7182344041821
 30
0.0
 10
45.84726401569683
 20
685.8421837728735
 30
0.0
 10
45.89977520518018
 20
685.9050173840857
 30
0.0
  0
SPLINE
  5
2FD
330
1F
100
AcDbEntity
  8
0
  6
Continuous
 62
     8
370
    15
100
AcDbSpline
210
0.0
220
0.0
230
1.0
 70
     8
 71
     3
 72
     9
 73
     5
 74
     0
 42
0.00000001
 43
0.00000001
 40
0.0
 40
0.0
 40
0.0
 40
0.0
 40
0.4988220387490221
 40
0.9999999999999999
 40
0.9999999999999999
 40
0.9999999999999999
 40
0.9999999999999999
 10
44.31345718912794
 20
697.5253005109167
 30
0.0
 10
44.37914376796481
 20
695.423148532699
 30
0.0
 10
44.51082716150873
 20
691.2089161714152
 30
0.0
 10
45.31428992826836
 20
687.0715237823437
 30
0.0
 10
45.71696775965406
 20
684.9979538998938
 30
0.0
  0
SPLINE
  5
2FE
330
1F
100
AcDbEntity
  8
0
  6
Continuous
 62
     8
370
    15
100
AcDbSpline
210
0.0
220
0.0
230
1.0
 70
     8
 71
     3
 72
     9
 73
     5
 74
     0
 42
0.00000001
 43
0.00000001
 40
0.0
 40
0.0
 40
0.0
 40
0.0
 40
0.5014010279960087
 40
1.0
 40
1.0
 40
1.0
 40
1.0
 10
45.71696775965406
 20
710.0527663312292
 30
0.0
 10
45.31412797218925
 20
707.9782473749685
 30
0.0
 10
44.51069964840848
 20
703.8408028137721
 30
0.0
 10
44.37908174197358
 20
699.6265317373611
 30
0.0
 10
44.31345718912794
 20
697.5253005109167
 30
0.0
  0
SPLINE
  5
2FF
330
1F
100
AcDbEntity
  8
0
  6
Continuous
 62
     8
370
    15
100
AcDbSpline
210
0.0
220
0.0
230
1.0
 70
     8
 71
     3
 72
     9
 73
     5
 74
     0
 42
0.00000001
 43
0.00000001
 40
0.0
 40
0.0
 40
0.0
 40
0.0
 40
0.5069214733072699
 40
1.0
 40
1.0
 40
1.0
 40
1.0
 10
45.89977520518018
 20
709.1455836377478
 30
0.0
 10
45.84726399969441
 20
709.2084091724051
 30
0.0
 10
45.7436755579913
 20
709.3323446100724
 30
0.0
 10
45.72578781942982
 20
709.8148521997789
 30
0.0
 10
45.71696775965406
 20
710.0527663312292
 30
0.0
  0
SPLINE
  5
300
330
1F
100
AcDbEntity
  8
0
  6
Continuous
 62
     8
370
    15
100
AcDbSpline
210
0.0
220
0.0
230
1.0
 70
     8
 71
     3
 72
     9
 73
     5
 74
     0
 42
0.00000001
 43
0.00000001
 40
0.0
 40
0.0
 40
0.0
 40
0.0
 40
0.501859275840002
 40
1.0
 40
1.0
 40
1.0
 40
1.0
 10
48.40062218718244
 20
708.8728327832556
 30
0.0
 10
47.91360485358587
 20
708.8904807355991
 30
0.0
 10
46.94317876595122
 20
708.925645876892
 30
0.0
 10
46.24671311092676
 20
709.0724530207799
 30
0.0
 10
45.89977520518018
 20
709.1455836377478
 30
0.0
  0
LINE
  5
301
330
1F
100
AcDbEntity
  8
0
  6
Continuous
 62
     8
370
    15
100
AcDbLine
 10
51.9427027088
 20
715.3814215741
 30
0.0
 11
52.4471070152
 21
712.9285712324
 31
0.0
  0
SPLINE
  5
302
330
1F
100
AcDbEntity
  8
0
  6
Continuous
 62
     8
370
    15
100
AcDbSpline
210
0.0
220
0.0
230
1.0
 70
     8
 71
     3
 72
    11
 73
     7
 74
     0
 42
0.00000001
 43
0.00000001
 40
0.0
 40
0.0
 40
0.0
 40
0.0
 40
0.054289824620553
 40
0.3683198293819172
 40
0.6823282684101296
 40
1.0
 40
1.0
 40
1.0
 40
1.0
 10
70.79194146208478
 20
716.3494010053017
 30
0.0
 10
70.4550647767498
 20
716.4186306938916
 30
0.0
 10
68.16958376566623
 20
716.888307420014
 30
0.0
 10
63.8164963782023
 20
717.0446212379444
 30
0.0
 10
57.81670088392021
 20
716.7098850954421
 30
0.0
 10
53.90825749126249
 20
715.825951475213
 30
0.0
 10
51.942702708766
 20
715.3814215741494
 30
0.0
  0
SPLINE
  5
303
330
1F
100
AcDbEntity
  8
0
  6
Continuous
 62
     8
370
    15
100
AcDbSpline
210
0.0
220
0.0
230
1.0
 70
     8
 71
     3
 72
    11
 73
     7
 74
     0
 42
0.00000001
 43
0.00000001
 40
0.0
 40
0.0
 40
0.0
 40
0.0
 40
0.3179046389393631
 40
0.6319136802787637
 40
0.9459007322516957
 40
1.0
 40
1.0
 40
1.0
 40
1.0
 10
51.942702708766
 20
679.6692986569739
 30
0.0
 10
53.90984047410669
 20
679.2244139567847
 30
0.0
 10
57.8200107347831
 20
678.3400961653423
 30
0.0
 10
63.82147783111813
 20
678.0061882246531
 30
0.0
 10
68.17335658850988
 20
678.1627454386239
 30
0.0
 10
70.45751076189144
 20
678.6323058620767
 30
0.0
 10
70.79322296194745
 20
678.7013192258215
 30
0.0
  0
LINE
  5
304
330
1F
100
AcDbEntity
  8
0
  6
Continuous
 62
     8
370
    15
100
AcDbLine
 10
52.4471070152
 20
682.1220297895
 30
0.0
 11
51.9427027088
 21
679.669298657
 31
0.0
  0
SPLINE
  5
305
330
1F
100
AcDbEntity
  8
0
  6
Continuous
 62
     8
370
    15
100
AcDbSpline
210
0.0
220
0.0
230
1.0
 70
     8
 71
     3
 72
     9
 73
     5
 74
     0
 42
0.00000001
 43
0.00000001
 40
0.0
 40
0.0
 40
0.0
 40
0.0
 40
0.4999910929967465
 40
1.0
 40
1.0
 40
1.0
 40
1.0
 10
45.89977520518018
 20
709.145583637748
 30
0.0
 10
46.07462746686686
 20
709.6611972986657
 30
0.0
 10
46.42433821998993
 20
710.6924429911201
 30
0.0
 10
47.10519974276689
 20
711.5482813938239
 30
0.0
 10
47.44563656859113
 20
711.9762082181311
 30
0.0
  0
LINE
  5
306
330
1F
100
AcDbEntity
  8
0
  6
Continuous
 62
     8
370
    15
100
AcDbLine
 10
47.4456365686
 20
711.9762082181
 30
0.0
 11
48.6089851242
 21
709.1601271711
 31
0.0
  0
LINE
  5
307
330
1F
100
AcDbEntity
  8
0
  6
Continuous
 62
     8
370
    15
100
AcDbLine
 10
47.4456365686
 20
683.074512013
 30
0.0
 11
48.6090000253
 21
685.8905930601
 31
0.0
  0
SPLINE
  5
308
330
1F
100
AcDbEntity
  8
0
  6
Continuous
 62
     8
370
    15
100
AcDbSpline
210
0.0
220
0.0
230
1.0
 70
     8
 71
     3
 72
     9
 73
     5
 74
     0
 42
0.00000001
 43
0.00000001
 40
0.0
 40
0.0
 40
0.0
 40
0.0
 40
0.4999865253889677
 40
1.0
 40
1.0
 40
1.0
 40
1.0
 10
45.89977520518018
 20
685.9050173840859
 30
0.0
 10
46.0750091205685
 20
685.3896303164635
 30
0.0
 10
46.42548639643485
 20
684.3588284019094
 30
0.0
 10
47.1055804018709
 20
683.5026251673017
 30
0.0
 10
47.44563656859113
 20
683.0745120129919
 30
0.0
  0
SPLINE
  5
309
330
1F
100
AcDbEntity
  8
0
  6
Continuous
 62
     8
370
    15
100
AcDbSpline
210
0.0
220
0.0
230
1.0
 70
     8
 71
     3
 72
     9
 73
     5
 74
     0
 42
0.00000001
 43
0.00000001
 40
0.0
 40
0.0
 40
0.0
 40
0.0
 40
0.5597700851143039
 40
1.0
 40
1.0
 40
1.0
 40
1.0
 10
49.61217599920942
 20
680.9251685223913
 30
0.0
 10
50.01147031418274
 20
680.6206476491203
 30
0.0
 10
50.72478873828501
 20
680.0766370251716
 30
0.0
 10
51.57042731160799
 20
679.7938083156803
 30
0.0
 10
51.942702708766
 20
679.6692986569739
 30
0.0
  0
LINE
  5
30A
330
1F
100
AcDbEntity
  8
0
  6
Continuous
 62
     8
370
    15
100
AcDbLine
 10
49.6121759992
 20
680.9251685224
 30
0.0
 11
52.219312964
 21
682.2872538648
 31
0.0
  0
LINE
  5
30B
330
1F
100
AcDbEntity
  8
0
  6
Continuous
 62
     8
370
    15
100
AcDbLine
 10
52.219312964
 20
712.7634663663
 30
0.0
 11
49.6121759992
 21
714.1255517087
 31
0.0
  0
SPLINE
  5
30C
330
1F
100
AcDbEntity
  8
0
  6
Continuous
 62
     8
370
    15
100
AcDbSpline
210
0.0
220
0.0
230
1.0
 70
     8
 71
     3
 72
     9
 73
     5
 74
     0
 42
0.00000001
 43
0.00000001
 40
0.0
 40
0.0
 40
0.0
 40
0.0
 40
0.5597571515816278
 40
1.0
 40
1.0
 40
1.0
 40
1.0
 10
51.942702708766
 20
715.3814215741492
 30
0.0
 10
51.47044876886442
 20
715.2162551320458
 30
0.0
 10
50.62677229493773
 20
714.9211870982801
 30
0.0
 10
49.92231033781535
 20
714.3687556868541
 30
0.0
 10
49.61217599920942
 20
714.1255517087317
 30
0.0
  0
LINE
  5
30D
330
1F
100
AcDbEntity
  8
0
  6
Continuous
 62
     8
370
    15
100
AcDbLine
 10
49.6121759992
 20
680.9251685224
 30
0.0
 11
49.5894517284
 21
680.9068102918
 31
0.0
  0
LINE
  5
30E
330
1F
100
AcDbEntity
  8
0
  6
Continuous
 62
     8
370
    15
100
AcDbLine
 10
47.4456365686
 20
683.074512013
 30
0.0
 11
49.5894517284
 21
680.9068102918
 31
0.0
  0
LINE
  5
30F
330
1F
100
AcDbEntity
  8
0
  6
Continuous
 62
     8
370
    15
100
AcDbLine
 10
49.5894517284
 20
714.1439099393
 30
0.0
 11
47.4456365686
 21
711.9762082181
 31
0.0
  0
LINE
  5
310
330
1F
100
AcDbEntity
  8
0
  6
Continuous
 62
     8
370
    15
100
AcDbLine
 10
49.5894517284
 20
714.1439099393
 30
0.0
 11
49.6121759992
 21
714.1255517087
 31
0.0
  0
SPLINE
  5
311
330
1F
100
AcDbEntity
  8
0
  6
Continuous
 62
     8
370
    15
100
AcDbSpline
210
0.0
220
0.0
230
1.0
 70
     8
 71
     3
 72
    11
 73
     7
 74
     0
 42
0.00000001
 43
0.00000001
 40
0.0
 40
0.0
 40
0.0
 40
0.0
 40
0.2497196503307897
 40
0.4998779885763107
 40
0.7499829205965249
 40
1.0
 40
1.0
 40
1.0
 40
1.0
 10
75.196098862216
 20
674.870051868949
 30
0.0
 10
73.32230740094448
 20
674.492822650842
 30
0.0
 10
69.57143274838462
 20
673.7377015278956
 30
0.0
 10
63.82777927292682
 20
673.4348782269217
 30
0.0
 10
58.08179980866057
 20
673.7370269914157
 30
0.0
 10
54.32906204873434
 20
674.4924211412131
 30
0.0
 10
52.4530227761717
 20
674.870051868949
 30
0.0
  0
SPLINE
  5
312
330
1F
100
AcDbEntity
  8
0
  6
Continuous
 62
     8
370
    15
100
AcDbSpline
210
0.0
220
0.0
230
1.0
 70
     8
 71
     3
 72
    14
 73
    10
 74
     0
 42
0.00000001
 43
0.00000001
 40
0.0
 40
0.0
 40
0.0
 40
0.0
 40
0.2792030476144229
 40
0.5343530834795781
 40
0.7755259638803634
 40
0.8900921314735433
 40
0.9453320109417592
 40
0.9724258776223298
 40
1.0
 40
1.0
 40
1.0
 40
1.0
 10
52.4530227761717
 20
674.8700518689492
 30
0.0
 10
52.20220928729125
 20
675.2415239303882
 30
0.0
 10
51.72218959443087
 20
675.9524661752973
 30
0.0
 10
51.26002810941665
 20
677.0588070134373
 30
0.0
 10
50.96340042254921
 20
677.8792749519797
 30
0.0
 10
50.84513768902954
 20
678.3900159649894
 30
0.0
 10
50.8398735201806
 20
678.6152564749394
 30
0.0
 10
50.86243756472641
 20
678.7324488955087
 30
0.0
 10
50.89768354983548
 20
678.7801412020871
 30
0.0
 10
50.91546135954572
 20
678.8041968427038
 30
0.0
  0
SPLINE
  5
313
330
1F
100
AcDbEntity
  8
0
  6
Continuous
 62
     8
370
    15
100
AcDbSpline
210
0.0
220
0.0
230
1.0
 70
     8
 71
     3
 72
     9
 73
     5
 74
     0
 42
0.00000001
 43
0.00000001
 40
0.0
 40
0.0
 40
0.0
 40
0.0
 40
0.5037622253908454
 40
1.0
 40
1.0
 40
1.0
 40
1.0
 10
50.91546135954572
 20
678.8041968427038
 30
0.0
 10
51.13901100789764
 20
679.0162422356502
 30
0.0
 10
51.58277125248223
 20
679.4371658028782
 30
0.0
 10
51.81153735319089
 20
679.587848493629
 30
0.0
 10
51.92505973391248
 20
679.662622936759
 30
0.0
  0
LINE
  5
314
330
1F
100
AcDbEntity
  8
0
  6
Continuous
 62
     8
370
    15
100
AcDbLine
 10
51.9250597339
 20
679.6626229368
 30
0.0
 11
51.9427027088
 21
679.669298657
 31
0.0
  0
SPLINE
  5
315
330
1F
100
AcDbEntity
  8
0
  6
Continuous
 62
     8
370
    15
100
AcDbSpline
210
0.0
220
0.0
230
1.0
 70
     8
 71
     3
 72
    13
 73
     9
 74
     0
 42
0.00000001
 43
0.00000001
 40
0.0
 40
0.0
 40
0.0
 40
0.0
 40
0.02757712480864
 40
0.1096888814595909
 40
0.2241970386810113
 40
0.465498029311719
 40
0.7206578306027315
 40
1.0
 40
1.0
 40
1.0
 40
1.0
 10
76.73366027884198
 20
678.8041968427038
 30
0.0
 10
76.75100117071155
 20
678.7799273176848
 30
0.0
 10
76.81997511364025
 20
678.6833945184403
 30
0.0
 10
76.80570872687031
 20
678.4196404977114
 30
0.0
 10
76.68984252652666
 20
677.8818959398827
 30
0.0
 10
76.38768100083027
 20
677.0580468900993
 30
0.0
 10
75.92744179355643
 20
675.9527928324383
 30
0.0
 10
75.44712348837179
 20
675.2416896245577
 30
0.0
 10
75.196098862216
 20
674.870051868949
 30
0.0
  0
SPLINE
  5
316
330
1F
100
AcDbEntity
  8
0
  6
Continuous
 62
     8
370
    15
100
AcDbSpline
210
0.0
220
0.0
230
1.0
 70
     8
 71
     3
 72
    11
 73
     7
 74
     0
 42
0.00000001
 43
0.00000001
 40
0.0
 40
0.0
 40
0.0
 40
0.0
 40
0.2497202498186708
 40
0.4998782855156243
 40
0.7499832229742498
 40
1.0
 40
1.0
 40
1.0
 40
1.0
 10
52.4530227761717
 20
720.1805491528845
 30
0.0
 10
54.3268121776167
 20
720.5578251454101
 30
0.0
 10
58.07767593052348
 20
721.3130385349813
 30
0.0
 10
63.82134868738032
 20
721.6158762740253
 30
0.0
 10
69.5673167550211
 20
721.3135361642437
 30
0.0
 10
73.32005866837399
 20
720.5581671050334
 30
0.0
 10
75.196098862216
 20
720.1805491528845
 30
0.0
  0
SPLINE
  5
317
330
1F
100
AcDbEntity
  8
0
  6
Continuous
 62
     8
370
    15
100
AcDbSpline
210
0.0
220
0.0
230
1.0
 70
     8
 71
     3
 72
    14
 73
    10
 74
     0
 42
0.00000001
 43
0.00000001
 40
0.0
 40
0.0
 40
0.0
 40
0.0
 40
0.2791835390697985
 40
0.5343359067241277
 40
0.775529510623095
 40
0.8900777089673462
 40
0.9453178267947644
 40
0.9724118133134495
 40
1.0
 40
1.0
 40
1.0
 40
1.0
 10
75.196098862216
 20
720.1805491528845
 30
0.0
 10
75.44691125170777
 20
719.8091153579218
 30
0.0
 10
75.9269469515319
 20
719.0982195283156
 30
0.0
 10
76.38914847724443
 20
717.9919232540904
 30
0.0
 10
76.68566795871406
 20
717.1713159079646
 30
0.0
 10
76.80401472732373
 20
716.6607004348449
 30
0.0
 10
76.80924983444059
 20
716.4354506575621
 30
0.0
 10
76.78667399842753
 20
716.3182781228026
 30
0.0
 10
76.75143767029618
 20
716.2705060765633
 30
0.0
 10
76.73366027884198
 20
716.2464041791296
 30
0.0
  0
LINE
  5
318
330
1F
100
AcDbEntity
  8
0
  6
Continuous
 62
     8
370
    15
100
AcDbLine
 10
51.9427027088
 20
715.3814215741
 30
0.0
 11
51.9250597339
 21
715.3880972944
 31
0.0
  0
SPLINE
  5
319
330
1F
100
AcDbEntity
  8
0
  6
Continuous
 62
     8
370
    15
100
AcDbSpline
210
0.0
220
0.0
230
1.0
 70
     8
 71
     3
 72
     9
 73
     5
 74
     0
 42
0.00000001
 43
0.00000001
 40
0.0
 40
0.0
 40
0.0
 40
0.0
 40
0.4930569084841374
 40
1.0
 40
1.0
 40
1.0
 40
1.0
 10
51.92505973391248
 20
715.3880972943642
 30
0.0
 10
51.81243256588846
 20
715.4621869218086
 30
0.0
 10
51.58400626035247
 20
715.6124527961318
 30
0.0
 10
51.14036316289861
 20
716.0331398058581
 30
0.0
 10
50.91546135954572
 20
716.2464041791296
 30
0.0
  0
SPLINE
  5
31A
330
1F
100
AcDbEntity
  8
0
  6
Continuous
 62
     8
370
    15
100
AcDbSpline
210
0.0
220
0.0
230
1.0
 70
     8
 71
     3
 72
    13
 73
     9
 74
     0
 42
0.00000001
 43
0.00000001
 40
0.0
 40
0.0
 40
0.0
 40
0.0
 40
0.0275901667997072
 40
0.109685557767095
 40
0.2242134760239403
 40
0.4655170290459537
 40
0.720655886569995
 40
1.0
 40
1.0
 40
1.0
 40
1.0
 10
50.91546135954572
 20
716.2464041791296
 30
0.0
 10
50.89812588372622
 20
716.2707179491807
 30
0.0
 10
50.82920816574998
 20
716.3673780907756
 30
0.0
 10
50.8433912948466
 20
716.6309159295066
 30
0.0
 10
50.95928077077877
 20
717.1688946642065
 30
0.0
 10
51.26143478015449
 20
717.9926133744033
 30
0.0
 10
51.72170854807867
 20
719.0978398933405
 30
0.0
 10
52.20200099451156
 20
719.8089119046123
 30
0.0
 10
52.4530227761717
 20
720.1805491528845
 30
0.0
  0
SPLINE
  5
31B
330
1F
100
AcDbEntity
  8
0
  6
Continuous
 62
     8
370
    15
100
AcDbSpline
210
0.0
220
0.0
230
1.0
 70
     8
 71
     3
 72
    10
 73
     6
 74
     0
 42
0.00000001
 43
0.00000001
 40
0.0
 40
0.0
 40
0.0
 40
0.0
 40
0.0909090557896081
 40
0.4470751052025183
 40
1.0
 40
1.0
 40
1.0
 40
1.0
 10
47.44563656859113
 20
711.9762082181311
 30
0.0
 10
47.47029925178947
 20
712.0429251504452
 30
0.0
 10
47.59158608718417
 20
712.3710275520605
 30
0.0
 10
48.29473799121831
 20
713.6402478333304
 30
0.0
 10
48.9654569047967
 20
714.7645051609459
 30
0.0
 10
49.3733997922392
 20
715.4482979855871
 30
0.0
  0
SPLINE
  5
31C
330
1F
100
AcDbEntity
  8
0
  6
Continuous
 62
     8
370
    15
100
AcDbSpline
210
0.0
220
0.0
230
1.0
 70
     8
 71
     3
 72
     9
 73
     5
 74
     0
 42
0.00000001
 43
0.00000001
 40
0.0
 40
0.0
 40
0.0
 40
0.0
 40
0.5085007936008131
 40
1.0
 40
1.0
 40
1.0
 40
1.0
 10
49.37338489107801
 20
715.4482979855871
 30
0.0
 10
49.42767937295412
 20
715.1409873784347
 30
0.0
 10
49.53445301531501
 20
714.5366410115859
 30
0.0
 10
49.57132780065709
 20
714.2733280506554
 30
0.0
 10
49.5894517283888
 20
714.1439099393227
 30
0.0
  0
SPLINE
  5
31D
330
1F
100
AcDbEntity
  8
0
  6
Continuous
 62
     8
370
    15
100
AcDbSpline
210
0.0
220
0.0
230
1.0
 70
     8
 71
     3
 72
    11
 73
     7
 74
     0
 42
0.00000001
 43
0.00000001
 40
0.0
 40
0.0
 40
0.0
 40
0.0
 40
0.5522759206556412
 40
0.8026890718975564
 40
0.909200722635226
 40
0.9999999999999999
 40
0.9999999999999999
 40
0.9999999999999999
 40
0.9999999999999999
 10
49.3733997922392
 20
679.6023030362463
 30
0.0
 10
48.95484264465699
 20
680.3010321518963
 30
0.0
 10
48.34650316114303
 20
681.3165792803742
 30
0.0
 10
47.76150534251367
 20
682.3861342380148
 30
0.0
 10
47.51987193110013
 20
682.8683158326909
 30
0.0
 10
47.46903218992915
 20
683.0095283233779
 30
0.0
 10
47.44563656859113
 20
683.0745120129919
 30
0.0
  0
SPLINE
  5
31E
330
1F
100
AcDbEntity
  8
0
  6
Continuous
 62
     8
370
    15
100
AcDbSpline
210
0.0
220
0.0
230
1.0
 70
     8
 71
     3
 72
     9
 73
     5
 74
     0
 42
0.00000001
 43
0.00000001
 40
0.0
 40
0.0
 40
0.0
 40
0.0
 40
0.4946803374203604
 40
1.0
 40
1.0
 40
1.0
 40
1.0
 10
49.5894517283888
 20
680.9068102918005
 30
0.0
 10
49.57117911377179
 20
680.7762998385388
 30
0.0
 10
49.53424088672953
 20
680.5124719816599
 30
0.0
 10
49.42738252325351
 20
679.9078369874862
 30
0.0
 10
49.37338489107801
 20
679.6023030362463
 30
0.0
  0
SPLINE
  5
31F
330
1F
100
AcDbEntity
  8
0
  6
Continuous
 62
     8
370
    15
100
AcDbSpline
210
0.0
220
0.0
230
1.0
 70
     8
 71
     3
 72
     9
 73
     5
 74
     0
 42
0.00000001
 43
0.00000001
 40
0.0
 40
0.0
 40
0.0
 40
0.0
 40
0.5011357183159272
 40
1.0
 40
1.0
 40
1.0
 40
1.0
 10
45.75208979658796
 20
710.220016964469
 30
0.0
 10
45.74602267644484
 20
710.1920841186807
 30
0.0
 10
45.73391593585263
 20
710.1363450348998
 30
0.0
 10
45.7226085904141
 20
710.0805836796577
 30
0.0
 10
45.71696775965406
 20
710.0527663312292
 30
0.0
  0
SPLINE
  5
320
330
1F
100
AcDbEntity
  8
0
  6
Continuous
 62
     8
370
    15
100
AcDbSpline
210
0.0
220
0.0
230
1.0
 70
     8
 71
     3
 72
     9
 73
     5
 74
     0
 42
0.00000001
 43
0.00000001
 40
0.0
 40
0.0
 40
0.0
 40
0.0
 40
0.5087397654986343
 40
1.0
 40
1.0
 40
1.0
 40
1.0
 10
47.7574433665724
 20
714.8595233044958
 30
0.0
 10
47.31307939541762
 20
714.1165811623373
 30
0.0
 10
46.43961912891137
 20
712.6562232494274
 30
0.0
 10
45.97857999139742
 20
711.0225672123422
 30
0.0
 10
45.75208979658796
 20
710.220016964469
 30
0.0
  0
LINE
  5
321
330
1F
100
AcDbEntity
  8
0
  6
Continuous
 62
     8
370
    15
100
AcDbLine
 10
48.0932708364
 20
715.3662819944
 30
0.0
 11
47.7574433666
 21
714.8595233045
 31
0.0
  0
SPLINE
  5
322
330
1F
100
AcDbEntity
  8
0
  6
Continuous
 62
     8
370
    15
100
AcDbSpline
210
0.0
220
0.0
230
1.0
 70
     8
 71
     3
 72
     9
 73
     5
 74
     0
 42
0.00000001
 43
0.00000001
 40
0.0
 40
0.0
 40
0.0
 40
0.0
 40
0.5846294100821748
 40
1.0
 40
1.0
 40
1.0
 40
1.0
 10
49.37338489107801
 20
715.4482979855871
 30
0.0
 10
49.09848575075881
 20
715.4105142538388
 30
0.0
 10
48.62827481785248
 20
715.3458857368722
 30
0.0
 10
48.25016331967691
 20
715.3603805037832
 30
0.0
 10
48.09310692362501
 20
715.3664012036658
 30
0.0
  0
SPLINE
  5
323
330
1F
100
AcDbEntity
  8
0
  6
Continuous
 62
     8
370
    15
100
AcDbSpline
210
0.0
220
0.0
230
1.0
 70
     8
 71
     3
 72
     9
 73
     5
 74
     0
 42
0.00000001
 43
0.00000001
 40
0.0
 40
0.0
 40
0.0
 40
0.0
 40
0.4152359490626859
 40
1.0
 40
1.0
 40
1.0
 40
1.0
 10
48.09310692362501
 20
679.6841998181677
 30
0.0
 10
48.25011261997869
 20
679.6902705353351
 30
0.0
 10
48.62822462282457
 20
679.7048904572873
 30
0.0
 10
49.09842728031971
 20
679.6401568958588
 30
0.0
 10
49.37338489107801
 20
679.6023030362463
 30
0.0
  0
LINE
  5
324
330
1F
100
AcDbEntity
  8
0
  6
Continuous
 62
     8
370
    15
100
AcDbLine
 10
47.7574433666
 20
680.1910777173
 30
0.0
 11
48.0932708364
 21
679.6843190275
 31
0.0
  0
SPLINE
  5
325
330
1F
100
AcDbEntity
  8
0
  6
Continuous
 62
     8
370
    15
100
AcDbSpline
210
0.0
220
0.0
230
1.0
 70
     8
 71
     3
 72
     9
 73
     5
 74
     0
 42
0.00000001
 43
0.00000001
 40
0.0
 40
0.0
 40
0.0
 40
0.0
 40
0.4911096245275578
 40
1.0
 40
1.0
 40
1.0
 40
1.0
 10
45.75208979658796
 20
684.8305840573645
 30
0.0
 10
45.97850864559305
 20
684.0282832806859
 30
0.0
 10
46.4395438965779
 20
682.394634220254
 30
0.0
 10
47.31296683797736
 20
680.9342521151416
 30
0.0
 10
47.7574433665724
 20
680.1910777173376
 30
0.0
  0
SPLINE
  5
326
330
1F
100
AcDbEntity
  8
0
  6
Continuous
 62
     8
370
    15
100
AcDbSpline
210
0.0
220
0.0
230
1.0
 70
     8
 71
     3
 72
     9
 73
     5
 74
     0
 42
0.00000001
 43
0.00000001
 40
0.0
 40
0.0
 40
0.0
 40
0.0
 40
0.4985296881518508
 40
1.0
 40
1.0
 40
1.0
 40
1.0
 10
45.71696775965406
 20
684.9979538998938
 30
0.0
 10
45.72261062622407
 20
684.9701371286119
 30
0.0
 10
45.73392964433687
 20
684.9143395062367
 30
0.0
 10
45.74602455697541
 20
684.8585572185606
 30
0.0
 10
45.75208979658796
 20
684.8305840573645
 30
0.0
  0
SPLINE
  5
327
330
1F
100
AcDbEntity
  8
0
  6
Continuous
 62
     8
370
    15
100
AcDbSpline
210
0.0
220
0.0
230
1.0
 70
     8
 71
     3
 72
     9
 73
     5
 74
     0
 42
0.00000001
 43
0.00000001
 40
0.0
 40
0.0
 40
0.0
 40
0.0
 40
0.5597629810567375
 40
1.0
 40
1.0
 40
1.0
 40
1.0
 10
51.92505973391248
 20
679.662622936759
 30
0.0
 10
51.45206236198729
 20
679.8260530621613
 30
0.0
 10
50.60706655495451
 20
680.118016144633
 30
0.0
 10
49.90050588946604
 20
680.6656997111525
 30
0.0
 10
49.5894517283888
 20
680.9068102918005
 30
0.0
  0
SPLINE
  5
328
330
1F
100
AcDbEntity
  8
0
  6
Continuous
 62
     8
370
    15
100
AcDbSpline
210
0.0
220
0.0
230
1.0
 70
     8
 71
     3
 72
     9
 73
     5
 74
     0
 42
0.00000001
 43
0.00000001
 40
0.0
 40
0.0
 40
0.0
 40
0.0
 40
0.5597629665219054
 40
0.9999999999999999
 40
0.9999999999999999
 40
0.9999999999999999
 40
0.9999999999999999
 10
49.5894517283888
 20
714.1439099393225
 30
0.0
 10
49.9898940439385
 20
714.4457878045887
 30
0.0
 10
50.70527240853073
 20
714.9850836910996
 30
0.0
 10
51.55220752895051
 20
715.2649081879679
 30
0.0
 10
51.92505973391248
 20
715.388097294364
 30
0.0
  0
SPLINE
  5
329
330
1F
100
AcDbEntity
  8
0
  6
Continuous
 62
     8
370
    15
100
AcDbSpline
210
0.0
220
0.0
230
1.0
 70
     8
 71
     3
 72
     9
 73
     5
 74
     0
 42
0.00000001
 43
0.00000001
 40
0.0
 40
0.0
 40
0.0
 40
0.0
 40
0.5000194736840838
 40
1.0
 40
1.0
 40
1.0
 40
1.0
 10
49.37338489107801
 20
715.4482979855871
 30
0.0
 10
49.62009938608647
 20
715.603039551118
 30
0.0
 10
50.11350915909129
 20
715.9125106290956
 30
0.0
 10
50.64815090035712
 20
716.1351092189949
 30
0.0
 10
50.91546135954572
 20
716.2464041791296
 30
0.0
  0
SPLINE
  5
32A
330
1F
100
AcDbEntity
  8
0
  6
Continuous
 62
     8
370
    15
100
AcDbSpline
210
0.0
220
0.0
230
1.0
 70
     8
 71
     3
 72
     9
 73
     5
 74
     0
 42
0.00000001
 43
0.00000001
 40
0.0
 40
0.0
 40
0.0
 40
0.0
 40
0.5000118655843021
 40
1.0
 40
1.0
 40
1.0
 40
1.0
 10
50.91546135954572
 20
678.8041968427038
 30
0.0
 10
50.6481585246108
 20
678.9155463320589
 30
0.0
 10
50.11356554125717
 20
679.138240025986
 30
0.0
 10
49.62010787102867
 20
679.4476178134584
 30
0.0
 10
49.37338489107801
 20
679.6023030362463
 30
0.0
  0
LINE
  5
32B
330
1F
100
AcDbEntity
  8
0
  6
Continuous
 62
     8
370
    15
100
AcDbLine
 10
43.8403006177
 20
722.1147198758
 30
0.0
 11
44.0990294795
 21
722.1147198758
 31
0.0
  0
LINE
  5
32C
330
1F
100
AcDbEntity
  8
0
  6
Continuous
 62
     8
370
    15
100
AcDbLine
 10
44.0990294795
 20
722.1147198758
 30
0.0
 11
44.1131855827
 21
716.8155093274
 31
0.0
  0
LINE
  5
32D
330
1F
100
AcDbEntity
  8
0
  6
Continuous
 62
     8
370
    15
100
AcDbLine
 10
44.1131855827
 20
716.8155093274
 30
0.0
 11
44.1282208543
 21
714.2091174207
 31
0.0
  0
LINE
  5
32E
330
1F
100
AcDbEntity
  8
0
  6
Continuous
 62
     8
370
    15
100
AcDbLine
 10
44.1282208543
 20
714.2091174207
 30
0.0
 11
44.1777672153
 21
709.428109654
 31
0.0
  0
SPLINE
  5
32F
330
1F
100
AcDbEntity
  8
0
  6
Continuous
 62
     8
370
    15
100
AcDbSpline
210
0.0
220
0.0
230
1.0
 70
     8
 71
     3
 72
    10
 73
     6
 74
     0
 42
0.00000001
 43
0.00000001
 40
0.0
 40
0.0
 40
0.0
 40
0.0
 40
0.3262982930865118
 40
0.6632084931493114
 40
0.9999999999999999
 40
0.9999999999999999
 40
0.9999999999999999
 40
0.9999999999999999
 10
44.17776721529676
 20
709.4281096539831
 30
0.0
 10
44.19053978549253
 20
708.1100703478835
 30
0.0
 10
44.21650031673852
 20
705.4311263244839
 30
0.0
 10
44.26284159253691
 20
701.4731007321726
 30
0.0
 10
44.29658730537822
 20
698.841079347579
 30
0.0
 10
44.31345718912794
 20
697.5253005109167
 30
0.0
  0
SPLINE
  5
330
330
1F
100
AcDbEntity
  8
0
  6
Continuous
 62
     8
370
    15
100
AcDbSpline
210
0.0
220
0.0
230
1.0
 70
     8
 71
     3
 72
    10
 73
     6
 74
     0
 42
0.00000001
 43
0.00000001
 40
0.0
 40
0.0
 40
0.0
 40
0.0
 40
0.3367313949286015
 40
0.6736824604191737
 40
1.0
 40
1.0
 40
1.0
 40
1.0
 10
44.31345718912794
 20
697.5253005109167
 30
0.0
 10
44.29659396500951
 20
696.209758809617
 30
0.0
 10
44.26285651585638
 20
693.5778171984
 30
0.0
 10
44.21649713808718
 20
689.6198044532771
 30
0.0
 10
44.19053846637111
 20
686.9406114506944
 30
0.0
 10
44.17776721529676
 20
685.6224913678503
 30
0.0
  0
LINE
  5
331
330
1F
100
AcDbEntity
  8
0
  6
Continuous
 62
     8
370
    15
100
AcDbLine
 10
44.1777672153
 20
685.6224913679
 30
0.0
 11
44.1282208543
 21
680.8416028104
 31
0.0
  0
LINE
  5
332
330
1F
100
AcDbEntity
  8
0
  6
Continuous
 62
     8
370
    15
100
AcDbLine
 10
44.1282208543
 20
680.8416028104
 30
0.0
 11
44.1131855827
 21
678.2350916944
 31
0.0
  0
LINE
  5
333
330
1F
100
AcDbEntity
  8
0
  6
Continuous
 62
     8
370
    15
100
AcDbLine
 10
44.1131855827
 20
678.2350916944
 30
0.0
 11
44.0990294795
 21
672.9360003553
 31
0.0
  0
LINE
  5
334
330
1F
100
AcDbEntity
  8
0
  6
Continuous
 62
     8
370
    15
100
AcDbLine
 10
44.0990294795
 20
672.9360003553
 30
0.0
 11
43.8403006177
 21
672.9360003553
 31
0.0
  0
LINE
  5
335
330
1F
100
AcDbEntity
  8
0
  6
Continuous
 62
     8
370
    15
100
AcDbLine
 10
83.8088210206
 20
672.9360003553
 30
0.0
 11
83.55010706
 21
672.9360003553
 31
0.0
  0
LINE
  5
336
330
1F
100
AcDbEntity
  8
0
  6
Continuous
 62
     8
370
    15
100
AcDbLine
 10
83.55010706
 20
672.9360003553
 30
0.0
 11
83.5359360557
 21
678.2350916944
 31
0.0
  0
LINE
  5
337
330
1F
100
AcDbEntity
  8
0
  6
Continuous
 62
     8
370
    15
100
AcDbLine
 10
83.5359360557
 20
678.2350916944
 30
0.0
 11
83.5332240444
 21
678.7056107602
 31
0.0
  0
LINE
  5
338
330
1F
100
AcDbEntity
  8
0
  6
Continuous
 62
     8
370
    15
100
AcDbLine
 10
83.5332240444
 20
716.3449902616
 30
0.0
 11
83.5359360557
 21
716.8155093274
 31
0.0
  0
LINE
  5
339
330
1F
100
AcDbEntity
  8
0
  6
Continuous
 62
     8
370
    15
100
AcDbLine
 10
83.5359360557
 20
716.8155093274
 30
0.0
 11
83.55010706
 21
722.1147198758
 31
0.0
  0
LINE
  5
33A
330
1F
100
AcDbEntity
  8
0
  6
Continuous
 62
     8
370
    15
100
AcDbLine
 10
83.55010706
 20
722.1147198758
 30
0.0
 11
83.8088210206
 21
722.1147198758
 31
0.0
  0
SPLINE
  5
33B
330
1F
100
AcDbEntity
  8
0
  6
Continuous
 62
     8
370
    15
100
AcDbSpline
210
0.0
220
0.0
230
1.0
 70
     8
 71
     3
 72
     9
 73
     5
 74
     0
 42
0.00000001
 43
0.00000001
 40
0.0
 40
0.0
 40
0.0
 40
0.0
 40
0.5020255846518636
 40
1.0
 40
1.0
 40
1.0
 40
1.0
 10
45.32394963316633
 20
684.9260706982947
 30
0.0
 10
45.02860958590615
 20
687.0279894882865
 30
0.0
 10
44.44031278134197
 20
691.2148653254009
 30
0.0
 10
44.3556280291097
 20
695.4275108291288
 30
0.0
 10
44.31345718912794
 20
697.5253005109167
 30
0.0
  0
SPLINE
  5
33C
330
1F
100
AcDbEntity
  8
0
  6
Continuous
 62
     8
370
    15
100
AcDbSpline
210
0.0
220
0.0
230
1.0
 70
     8
 71
     3
 72
     9
 73
     5
 74
     0
 42
0.00000001
 43
0.00000001
 40
0.0
 40
0.0
 40
0.0
 40
0.0
 40
0.5000288824601747
 40
0.9999999999999999
 40
0.9999999999999999
 40
0.9999999999999999
 40
0.9999999999999999
 10
45.35582321695997
 20
684.729613789115
 30
0.0
 10
45.35048502840699
 20
684.762355661509
 30
0.0
 10
45.33980926798542
 20
684.8278356238524
 30
0.0
 10
45.32923597451754
 20
684.8933269345143
 30
0.0
 10
45.32394963316633
 20
684.9260706982949
 30
0.0
  0
SPLINE
  5
33D
330
1F
100
AcDbEntity
  8
0
  6
Continuous
 62
     8
370
    15
100
AcDbSpline
210
0.0
220
0.0
230
1.0
 70
     8
 71
     3
 72
     9
 73
     5
 74
     0
 42
0.00000001
 43
0.00000001
 40
0.0
 40
0.0
 40
0.0
 40
0.0
 40
0.4999958889310329
 40
0.9999999999999999
 40
0.9999999999999999
 40
0.9999999999999999
 40
0.9999999999999999
 10
44.17776721529676
 20
685.6224913678503
 30
0.0
 10
44.24349527691756
 20
685.4604456676816
 30
0.0
 10
44.37495248101852
 20
685.1363516025986
 30
0.0
 10
45.02886451279448
 20
684.8651938034416
 30
0.0
 10
45.35582321695997
 20
684.729613789115
 30
0.0
  0
SPLINE
  5
33E
330
1F
100
AcDbEntity
  8
0
  6
Continuous
 62
     8
370
    15
100
AcDbSpline
210
0.0
220
0.0
230
1.0
 70
     8
 71
     3
 72
     9
 73
     5
 74
     0
 42
0.00000001
 43
0.00000001
 40
0.0
 40
0.0
 40
0.0
 40
0.0
 40
0.4977521132359952
 40
1.0
 40
1.0
 40
1.0
 40
1.0
 10
44.31345718912794
 20
697.5253005109167
 30
0.0
 10
44.35558327996536
 20
699.6221743094961
 30
0.0
 10
44.44021595096193
 20
703.8348611928258
 30
0.0
 10
45.02849015656463
 20
708.0217789415018
 30
0.0
 10
45.32394963316633
 20
710.1246495328284
 30
0.0
  0
SPLINE
  5
33F
330
1F
100
AcDbEntity
  8
0
  6
Continuous
 62
     8
370
    15
100
AcDbSpline
210
0.0
220
0.0
230
1.0
 70
     8
 71
     3
 72
     9
 73
     5
 74
     0
 42
0.00000001
 43
0.00000001
 40
0.0
 40
0.0
 40
0.0
 40
0.0
 40
0.5000041110689671
 40
0.9999999999999999
 40
0.9999999999999999
 40
0.9999999999999999
 40
0.9999999999999999
 10
45.35582321695997
 20
710.3209872327185
 30
0.0
 10
45.02886451279453
 20
710.185407218392
 30
0.0
 10
44.37495248101841
 20
709.9142494192348
 30
0.0
 10
44.24349527691762
 20
709.5901553541519
 30
0.0
 10
44.17776721529676
 20
709.4281096539831
 30
0.0
  0
SPLINE
  5
340
330
1F
100
AcDbEntity
  8
0
  6
Continuous
 62
     8
370
    15
100
AcDbSpline
210
0.0
220
0.0
230
1.0
 70
     8
 71
     3
 72
     9
 73
     5
 74
     0
 42
0.00000001
 43
0.00000001
 40
0.0
 40
0.0
 40
0.0
 40
0.0
 40
0.5002646987518977
 40
1.0
 40
1.0
 40
1.0
 40
1.0
 10
45.32394963316633
 20
710.1246495328284
 30
0.0
 10
45.32923440325231
 20
710.1573936247563
 30
0.0
 10
45.33979835089674
 20
710.222847157675
 30
0.0
 10
45.35048348049919
 20
710.2882854219889
 30
0.0
 10
45.35582321695997
 20
710.3209872327185
 30
0.0
  0
SPLINE
  5
341
330
1F
100
AcDbEntity
  8
0
  6
Continuous
 62
     8
370
    15
100
AcDbSpline
210
0.0
220
0.0
230
1.0
 70
     8
 71
     3
 72
     9
 73
     5
 74
     0
 42
0.00000001
 43
0.00000001
 40
0.0
 40
0.0
 40
0.0
 40
0.0
 40
0.5596738872423233
 40
1.0
 40
1.0
 40
1.0
 40
1.0
 10
45.71696775965406
 20
684.9979538998938
 30
0.0
 10
45.67579592126558
 20
684.9917887978522
 30
0.0
 10
45.60223194172875
 20
684.980773272237
 30
0.0
 10
45.40902409379937
 20
684.9427939747308
 30
0.0
 10
45.32394963316633
 20
684.9260706982947
 30
0.0
  0
SPLINE
  5
342
330
1F
100
AcDbEntity
  8
0
  6
Continuous
 62
     8
370
    15
100
AcDbSpline
210
0.0
220
0.0
230
1.0
 70
     8
 71
     3
 72
     9
 73
     5
 74
     0
 42
0.00000001
 43
0.00000001
 40
0.0
 40
0.0
 40
0.0
 40
0.0
 40
0.5596873054873643
 40
1.0
 40
1.0
 40
1.0
 40
1.0
 10
45.32394963316633
 20
710.1246495328286
 30
0.0
 10
45.42985089073625
 20
710.1038617726239
 30
0.0
 10
45.61906593372827
 20
710.0667200329391
 30
0.0
 10
45.68703855265943
 20
710.0570320660391
 30
0.0
 10
45.71696775965406
 20
710.0527663312292
 30
0.0
  0
LINE
  5
343
330
1F
100
AcDbEntity
  8
0
  6
Continuous
 62
     8
370
    15
100
AcDbLine
 10
48.909318028
 20
716.3129229627
 30
0.0
 11
48.0932708364
 21
715.3662819944
 31
0.0
  0
LINE
  5
344
330
1F
100
AcDbEntity
  8
0
  6
Continuous
 62
     8
370
    15
100
AcDbLine
 10
49.78529769
 20
717.2619481168
 30
0.0
 11
48.909318028
 21
716.3129229627
 31
0.0
  0
SPLINE
  5
345
330
1F
100
AcDbEntity
  8
0
  6
Continuous
 62
     8
370
    15
100
AcDbSpline
210
0.0
220
0.0
230
1.0
 70
     8
 71
     3
 72
     9
 73
     5
 74
     0
 42
0.00000001
 43
0.00000001
 40
0.0
 40
0.0
 40
0.0
 40
0.0
 40
0.5062802342964543
 40
1.0
 40
1.0
 40
1.0
 40
1.0
 10
52.4530227761717
 20
720.1805491528845
 30
0.0
 10
51.96858711738178
 20
719.710021678422
 30
0.0
 10
51.01173431931993
 20
718.7806401964118
 30
0.0
 10
50.1906722583364
 20
717.7639219909837
 30
0.0
 10
49.78529768995954
 20
717.261948116813
 30
0.0
  0
LINE
  5
346
330
1F
100
AcDbEntity
  8
0
  6
Continuous
 62
     8
370
    15
100
AcDbLine
 10
77.8638239484
 20
677.788652905
 30
0.0
 11
78.7398036104
 21
678.7377972684
 31
0.0
  0
SPLINE
  5
347
330
1F
100
AcDbEntity
  8
0
  6
Continuous
 62
     8
370
    15
100
AcDbSpline
210
0.0
220
0.0
230
1.0
 70
     8
 71
     3
 72
     9
 73
     5
 74
     0
 42
0.00000001
 43
0.00000001
 40
0.0
 40
0.0
 40
0.0
 40
0.0
 40
0.5062802342964543
 40
1.0
 40
1.0
 40
1.0
 40
1.0
 10
75.196098862216
 20
674.870051868949
 30
0.0
 10
75.68053452100598
 20
675.3405793434117
 30
0.0
 10
76.63738731906777
 20
676.2699608254217
 30
0.0
 10
77.4584493800513
 20
677.2866790308502
 30
0.0
 10
77.86382394842816
 20
677.788652905021
 30
0.0
  0
SPLINE
  5
348
330
1F
100
AcDbEntity
  8
0
  6
Continuous
 62
     8
370
    15
100
AcDbSpline
210
0.0
220
0.0
230
1.0
 70
     8
 71
     3
 72
     9
 73
     5
 74
     0
 42
0.00000001
 43
0.00000001
 40
0.0
 40
0.0
 40
0.0
 40
0.0
 40
0.4938401583364454
 40
1.0
 40
1.0
 40
1.0
 40
1.0
 10
77.86382394842816
 20
717.2619481168127
 30
0.0
 10
77.45835172893567
 20
717.7640456353123
 30
0.0
 10
76.63729209527136
 20
718.7807663495431
 30
0.0
 10
75.6804260355154
 20
719.7101383621412
 30
0.0
 10
75.196098862216
 20
720.1805491528845
 30
0.0
  0
LINE
  5
349
330
1F
100
AcDbEntity
  8
0
  6
Continuous
 62
     8
370
    15
100
AcDbLine
 10
78.7398036104
 20
716.3129229627
 30
0.0
 11
77.8638239484
 21
717.2619481168
 31
0.0
  0
SPLINE
  5
34A
330
1F
100
AcDbEntity
  8
0
  6
Continuous
 62
     8
370
    15
100
AcDbSpline
210
0.0
220
0.0
230
1.0
 70
     8
 71
     3
 72
     9
 73
     5
 74
     0
 42
0.00000001
 43
0.00000001
 40
0.0
 40
0.0
 40
0.0
 40
0.0
 40
0.4937197657035456
 40
1.0
 40
1.0
 40
1.0
 40
1.0
 10
49.78529768995954
 20
677.788652905021
 30
0.0
 10
50.19067225833651
 20
677.2866790308502
 30
0.0
 10
51.01173431931999
 20
676.2699608254217
 30
0.0
 10
51.96858711738172
 20
675.340579343412
 30
0.0
 10
52.4530227761717
 20
674.870051868949
 30
0.0
  0
LINE
  5
34B
330
1F
100
AcDbEntity
  8
0
  6
Continuous
 62
     8
370
    15
100
AcDbLine
 10
48.909318028
 20
678.7377972684
 30
0.0
 11
49.78529769
 21
677.788652905
 31
0.0
  0
LINE
  5
34C
330
1F
100
AcDbEntity
  8
0
  6
Continuous
 62
     8
370
    15
100
AcDbLine
 10
48.0932708364
 20
679.6843190275
 30
0.0
 11
48.909318028
 21
678.7377972684
 31
0.0
  0
SPLINE
  5
34D
330
1F
100
AcDbEntity
  8
0
  6
Continuous
 62
     8
370
    15
100
AcDbSpline
210
0.0
220
0.0
230
1.0
 70
     8
 71
     3
 72
     9
 73
     5
 74
     0
 42
0.00000001
 43
0.00000001
 40
0.0
 40
0.0
 40
0.0
 40
0.0
 40
0.5596807599866774
 40
1.0
 40
1.0
 40
1.0
 40
1.0
 10
45.35582321695997
 20
684.729613789115
 30
0.0
 10
45.46203817367112
 20
684.7561164844151
 30
0.0
 10
45.65181592610562
 20
684.8034697207502
 30
0.0
 10
45.72143512419491
 20
684.8222949477286
 30
0.0
 10
45.75208979658796
 20
684.8305840573645
 30
0.0
  0
SPLINE
  5
34E
330
1F
100
AcDbEntity
  8
0
  6
Continuous
 62
     8
370
    15
100
AcDbSpline
210
0.0
220
0.0
230
1.0
 70
     8
 71
     3
 72
     9
 73
     5
 74
     0
 42
0.00000001
 43
0.00000001
 40
0.0
 40
0.0
 40
0.0
 40
0.0
 40
0.5596703172849657
 40
1.0
 40
1.0
 40
1.0
 40
1.0
 10
45.35582321695997
 20
710.3209872327185
 30
0.0
 10
45.46203851864588
 20
710.2945494297162
 30
0.0
 10
45.65182042846949
 20
710.2473112571959
 30
0.0
 10
45.72143599587864
 20
710.2283612257864
 30
0.0
 10
45.75208979658796
 20
710.220016964469
 30
0.0
  0
SPLINE
  5
34F
330
1F
100
AcDbEntity
  8
0
  6
Continuous
 62
     8
370
    15
100
AcDbSpline
210
0.0
220
0.0
230
1.0
 70
     8
 71
     3
 72
     9
 73
     5
 74
     0
 42
0.00000001
 43
0.00000001
 40
0.0
 40
0.0
 40
0.0
 40
0.0
 40
0.5596511342105718
 40
1.0
 40
1.0
 40
1.0
 40
1.0
 10
47.17388409189893
 20
679.668464191947
 30
0.0
 10
47.30409521182987
 20
679.780546943721
 30
0.0
 10
47.53676001311641
 20
679.980819479453
 30
0.0
 10
47.68997522277674
 20
680.1267967790354
 30
0.0
 10
47.7574433665724
 20
680.1910777173376
 30
0.0
  0
SPLINE
  5
350
330
1F
100
AcDbEntity
  8
0
  6
Continuous
 62
     8
370
    15
100
AcDbSpline
210
0.0
220
0.0
230
1.0
 70
     8
 71
     3
 72
     9
 73
     5
 74
     0
 42
0.00000001
 43
0.00000001
 40
0.0
 40
0.0
 40
0.0
 40
0.0
 40
0.5097032733028359
 40
1.0
 40
1.0
 40
1.0
 40
1.0
 10
47.17388409189893
 20
679.668464191947
 30
0.0
 10
46.77140915111694
 20
680.4953274091849
 30
0.0
 10
45.98178318270985
 20
682.1175716845252
 30
0.0
 10
45.56175946895108
 20
683.870271034794
 30
0.0
 10
45.35582321695997
 20
684.729613789115
 30
0.0
  0
SPLINE
  5
351
330
1F
100
AcDbEntity
  8
0
  6
Continuous
 62
     8
370
    15
100
AcDbSpline
210
0.0
220
0.0
230
1.0
 70
     8
 71
     3
 72
     9
 73
     5
 74
     0
 42
0.00000001
 43
0.00000001
 40
0.0
 40
0.0
 40
0.0
 40
0.0
 40
0.5596763591018269
 40
1.0
 40
1.0
 40
1.0
 40
1.0
 10
47.7574433665724
 20
714.8595233044958
 30
0.0
 10
47.6692587132207
 20
714.9430590738061
 30
0.0
 10
47.51169505715824
 20
715.0923163507148
 30
0.0
 10
47.27715682167621
 20
715.2936181138938
 30
0.0
 10
47.17388409189893
 20
715.382256039176
 30
0.0
  0
SPLINE
  5
352
330
1F
100
AcDbEntity
  8
0
  6
Continuous
 62
     8
370
    15
100
AcDbSpline
210
0.0
220
0.0
230
1.0
 70
     8
 71
     3
 72
     9
 73
     5
 74
     0
 42
0.00000001
 43
0.00000001
 40
0.0
 40
0.0
 40
0.0
 40
0.0
 40
0.4904487430514223
 40
1.0
 40
1.0
 40
1.0
 40
1.0
 10
45.35582321695997
 20
710.3209872327187
 30
0.0
 10
45.56182954702226
 20
711.1806155649003
 30
0.0
 10
45.98186595853504
 20
712.9333539384013
 30
0.0
 10
46.77151660993023
 20
714.5556255171252
 30
0.0
 10
47.17388409189893
 20
715.382256039176
 30
0.0
  0
SPLINE
  5
353
330
1F
100
AcDbEntity
  8
0
  6
Continuous
 62
     8
370
    15
100
AcDbSpline
210
0.0
220
0.0
230
1.0
 70
     8
 71
     3
 72
     9
 73
     5
 74
     0
 42
0.00000001
 43
0.00000001
 40
0.0
 40
0.0
 40
0.0
 40
0.0
 40
0.5596558916733607
 40
1.0
 40
1.0
 40
1.0
 40
1.0
 10
47.47873204760267
 20
715.9417052350378
 30
0.0
 10
47.61339363747297
 20
715.8193765088996
 30
0.0
 10
47.85400861512956
 20
715.6007980431705
 30
0.0
 10
48.02012324002047
 20
715.4379785839602
 30
0.0
 10
48.09327083639814
 20
715.3662819943762
 30
0.0
  0
LINE
  5
354
330
1F
100
AcDbEntity
  8
0
  6
Continuous
 62
     8
370
    15
100
AcDbLine
 10
47.1738840919
 20
715.3822560392
 30
0.0
 11
47.4787320476
 21
715.941705235
 31
0.0
  0
SPLINE
  5
355
330
1F
100
AcDbEntity
  8
0
  6
Continuous
 62
     8
370
    15
100
AcDbSpline
210
0.0
220
0.0
230
1.0
 70
     8
 71
     3
 72
     9
 73
     5
 74
     0
 42
0.00000001
 43
0.00000001
 40
0.0
 40
0.0
 40
0.0
 40
0.0
 40
0.5596258935249191
 40
1.0
 40
1.0
 40
1.0
 40
1.0
 10
48.09327083639814
 20
679.6843190274573
 30
0.0
 10
47.9979140233261
 20
679.5912955387217
 30
0.0
 10
47.82752016883268
 20
679.4250711202099
 30
0.0
 10
47.5853691056734
 20
679.2055619440918
 30
0.0
 10
47.47873204760267
 20
679.1088957867956
 30
0.0
  0
LINE
  5
356
330
1F
100
AcDbEntity
  8
0
  6
Continuous
 62
     8
370
    15
100
AcDbLine
 10
47.4787320476
 20
679.1088957868
 30
0.0
 11
47.1738840919
 21
679.6684641919
 31
0.0
  0
SPLINE
  5
357
330
1F
100
AcDbEntity
  8
0
  6
Continuous
 62
     8
370
    15
100
AcDbSpline
210
0.0
220
0.0
230
1.0
 70
     8
 71
     3
 72
     9
 73
     5
 74
     0
 42
0.00000001
 43
0.00000001
 40
0.0
 40
0.0
 40
0.0
 40
0.0
 40
0.5595242454899536
 40
1.0
 40
1.0
 40
1.0
 40
1.0
 10
48.26917904429151
 20
717.2428746304846
 30
0.0
 10
48.40861799645535
 20
717.0497340275308
 30
0.0
 10
48.65782784444272
 20
716.7045468358932
 30
0.0
 10
48.83241612389688
 20
716.4326756350295
 30
0.0
 10
48.90931802801801
 20
716.312922962699
 30
0.0
  0
LINE
  5
358
330
1F
100
AcDbEntity
  8
0
  6
Continuous
 62
     8
370
    15
100
AcDbLine
 10
47.4787320476
 20
715.941705235
 30
0.0
 11
48.2691790443
 21
717.2428746305
 31
0.0
  0
SPLINE
  5
359
330
1F
100
AcDbEntity
  8
0
  6
Continuous
 62
     8
370
    15
100
AcDbSpline
210
0.0
220
0.0
230
1.0
 70
     8
 71
     3
 72
     9
 73
     5
 74
     0
 42
0.00000001
 43
0.00000001
 40
0.0
 40
0.0
 40
0.0
 40
0.0
 40
0.559457122023505
 40
1.0
 40
1.0
 40
1.0
 40
1.0
 10
79.37995749525739
 20
677.8078456006384
 30
0.0
 10
79.24051333367088
 20
678.0009323643441
 30
0.0
 10
78.99126427400715
 20
678.3460647366115
 30
0.0
 10
78.81670462189133
 20
678.6179986983154
 30
0.0
 10
78.73980361036969
 20
678.7377972684241
 30
0.0
  0
LINE
  5
35A
330
1F
100
AcDbEntity
  8
0
  6
Continuous
 62
     8
370
    15
100
AcDbLine
 10
79.9246694427
 20
678.7044186673
 30
0.0
 11
79.3799574953
 21
677.8078456006
 31
0.0
  0
SPLINE
  5
35B
330
1F
100
AcDbEntity
  8
0
  6
Continuous
 62
     8
370
    15
100
AcDbSpline
210
0.0
220
0.0
230
1.0
 70
     8
 71
     3
 72
     9
 73
     5
 74
     0
 42
0.00000001
 43
0.00000001
 40
0.0
 40
0.0
 40
0.0
 40
0.0
 40
0.5595214988932824
 40
1.0
 40
1.0
 40
1.0
 40
1.0
 10
79.37995749525739
 20
717.2428746304846
 30
0.0
 10
79.24052002278137
 20
717.0497335720459
 30
0.0
 10
78.99131159602413
 20
716.7045438718804
 30
0.0
 10
78.81671129101353
 20
716.4326752470582
 30
0.0
 10
78.73980361036969
 20
716.312922962699
 30
0.0
  0
LINE
  5
35C
330
1F
100
AcDbEntity
  8
0
  6
Continuous
 62
     8
370
    15
100
AcDbLine
 10
79.3799574953
 20
717.2428746305
 30
0.0
 11
79.9246694427
 21
716.3461823545
 31
0.0
  0
SPLINE
  5
35D
330
1F
100
AcDbEntity
  8
0
  6
Continuous
 62
     8
370
    15
100
AcDbSpline
210
0.0
220
0.0
230
1.0
 70
     8
 71
     3
 72
     9
 73
     5
 74
     0
 42
0.00000001
 43
0.00000001
 40
0.0
 40
0.0
 40
0.0
 40
0.0
 40
0.5594598679596066
 40
1.0
 40
1.0
 40
1.0
 40
1.0
 10
48.26917904429151
 20
677.8078456006384
 30
0.0
 10
48.40862468513946
 20
678.0009319089446
 30
0.0
 10
48.65787516552966
 20
678.3460617732379
 30
0.0
 10
48.83242279311445
 20
678.6179983104253
 30
0.0
 10
48.90931802801801
 20
678.7377972684241
 30
0.0
  0
LINE
  5
35E
330
1F
100
AcDbEntity
  8
0
  6
Continuous
 62
     8
370
    15
100
AcDbLine
 10
48.2691790443
 20
677.8078456006
 30
0.0
 11
47.4787320476
 21
679.1088957868
 31
0.0
  0
SPLINE
  5
35F
330
1F
100
AcDbEntity
  8
0
  6
Continuous
 62
     8
370
    15
100
AcDbSpline
210
0.0
220
0.0
230
1.0
 70
     8
 71
     3
 72
     9
 73
     5
 74
     0
 42
0.00000001
 43
0.00000001
 40
0.0
 40
0.0
 40
0.0
 40
0.0
 40
0.5596112705264312
 40
1.0
 40
1.0
 40
1.0
 40
1.0
 10
49.10856145434095
 20
676.9411940656042
 30
0.0
 10
49.24336148870329
 20
677.1142047820575
 30
0.0
 10
49.48424304606635
 20
677.4233670980532
 30
0.0
 10
49.69325234871702
 20
677.6769693371523
 30
0.0
 10
49.78529768995954
 20
677.7886529050207
 30
0.0
  0
SPLINE
  5
360
330
1F
100
AcDbEntity
  8
0
  6
Continuous
 62
     8
370
    15
100
AcDbSpline
210
0.0
220
0.0
230
1.0
 70
     8
 71
     3
 72
    11
 73
     7
 74
     0
 42
0.00000001
 43
0.00000001
 40
0.0
 40
0.0
 40
0.0
 40
0.0
 40
0.4999205368978042
 40
0.8439561415661323
 40
0.9454967426999153
 40
1.0
 40
1.0
 40
1.0
 40
1.0
 10
49.10856145434095
 20
676.9411940656045
 30
0.0
 10
48.96936701826171
 20
677.0861969498119
 30
0.0
 10
48.73438167453098
 20
677.3309880028675
 30
0.0
 10
48.46734365545785
 20
677.6021416052191
 30
0.0
 10
48.32766421762891
 20
677.7467223768634
 30
0.0
 10
48.28431880262796
 20
677.7920229436489
 30
0.0
 10
48.26917904429151
 20
677.8078456006384
 30
0.0
  0
SPLINE
  5
361
330
1F
100
AcDbEntity
  8
0
  6
Continuous
 62
     8
370
    15
100
AcDbSpline
210
0.0
220
0.0
230
1.0
 70
     8
 71
     3
 72
     9
 73
     5
 74
     0
 42
0.00000001
 43
0.00000001
 40
0.0
 40
0.0
 40
0.0
 40
0.0
 40
0.4999470037076865
 40
1.0
 40
1.0
 40
1.0
 40
1.0
 10
78.54056018404675
 20
718.1095261655188
 30
0.0
 10
78.42022165543294
 20
717.9549647759115
 30
0.0
 10
78.1795190855178
 20
717.6458092285023
 30
0.0
 10
77.9690630963828
 20
717.3899108618191
 30
0.0
 10
77.86382394842816
 20
717.2619481168127
 30
0.0
  0
SPLINE
  5
362
330
1F
100
AcDbEntity
  8
0
  6
Continuous
 62
     8
370
    15
100
AcDbSpline
210
0.0
220
0.0
230
1.0
 70
     8
 71
     3
 72
    11
 73
     7
 74
     0
 42
0.00000001
 43
0.00000001
 40
0.0
 40
0.0
 40
0.0
 40
0.0
 40
0.499995702815296
 40
0.8439489971569215
 40
0.9454886979181126
 40
1.0
 40
1.0
 40
1.0
 40
1.0
 10
78.54056018404675
 20
718.1095261655188
 30
0.0
 10
78.67974153268875
 20
717.9644659935418
 30
0.0
 10
78.91466747094766
 20
717.7196171158855
 30
0.0
 10
79.1818106058157
 20
717.4485658251147
 30
0.0
 10
79.32145541108105
 20
717.3039911968517
 30
0.0
 10
79.36481221659942
 20
717.2586967578716
 30
0.0
 10
79.37995749525739
 20
717.2428746304846
 30
0.0
  0
SPLINE
  5
363
330
1F
100
AcDbEntity
  8
0
  6
Continuous
 62
     8
370
    15
100
AcDbSpline
210
0.0
220
0.0
230
1.0
 70
     8
 71
     3
 72
     9
 73
     5
 74
     0
 42
0.00000001
 43
0.00000001
 40
0.0
 40
0.0
 40
0.0
 40
0.0
 40
0.5596139708019062
 40
1.0
 40
1.0
 40
1.0
 40
1.0
 10
77.86382394842816
 20
677.7886529050207
 30
0.0
 10
77.98241833019503
 20
677.644300406949
 30
0.0
 10
78.19434009761805
 20
677.3863502741739
 30
0.0
 10
78.43470627683003
 20
677.0772968679714
 30
0.0
 10
78.54056018404675
 20
676.9411940656042
 30
0.0
  0
SPLINE
  5
364
330
1F
100
AcDbEntity
  8
0
  6
Continuous
 62
     8
370
    15
100
AcDbSpline
210
0.0
220
0.0
230
1.0
 70
     8
 71
     3
 72
    10
 73
     6
 74
     0
 42
0.00000001
 43
0.00000001
 40
0.0
 40
0.0
 40
0.0
 40
0.0
 40
0.0545925842301708
 40
0.5000614453770544
 40
1.0
 40
1.0
 40
1.0
 40
1.0
 10
79.37995749525739
 20
677.8078456006384
 30
0.0
 10
79.36480927275468
 20
677.7919821047071
 30
0.0
 10
79.22605339324501
 20
677.6466744074083
 30
0.0
 10
78.94292529137337
 20
677.3604540179974
 30
0.0
 10
78.67973643271536
 20
677.0862141638398
 30
0.0
 10
78.54056018404675
 20
676.9411940656042
 30
0.0
  0
SPLINE
  5
365
330
1F
100
AcDbEntity
  8
0
  6
Continuous
 62
     8
370
    15
100
AcDbSpline
210
0.0
220
0.0
230
1.0
 70
     8
 71
     3
 72
     9
 73
     5
 74
     0
 42
0.00000001
 43
0.00000001
 40
0.0
 40
0.0
 40
0.0
 40
0.0
 40
0.5595626571001343
 40
1.0
 40
1.0
 40
1.0
 40
1.0
 10
49.78529768995954
 20
717.2619481168127
 30
0.0
 10
49.66670345928992
 20
717.4062968090332
 30
0.0
 10
49.45476252798431
 20
717.6642637951942
 30
0.0
 10
49.21441811081839
 20
717.9733798928291
 30
0.0
 10
49.10856145434095
 20
718.1095261655188
 30
0.0
  0
SPLINE
  5
366
330
1F
100
AcDbEntity
  8
0
  6
Continuous
 62
     8
370
    15
100
AcDbSpline
210
0.0
220
0.0
230
1.0
 70
     8
 71
     3
 72
    10
 73
     6
 74
     0
 42
0.00000001
 43
0.00000001
 40
0.0
 40
0.0
 40
0.0
 40
0.0
 40
0.0545218238965389
 40
0.4999945915133412
 40
1.0
 40
1.0
 40
1.0
 40
1.0
 10
48.26917904429151
 20
717.2428746304846
 30
0.0
 10
48.28432846439373
 20
717.2586972422619
 30
0.0
 10
48.42325683425264
 20
717.4037991436097
 30
0.0
 10
48.70617663393889
 20
717.6902151911173
 30
0.0
 10
48.96937302727144
 20
717.9644828338103
 30
0.0
 10
49.10856145434095
 20
718.1095261655188
 30
0.0
  0
SPLINE
  5
367
330
1F
100
AcDbEntity
  8
0
  6
Continuous
 62
     8
370
    15
100
AcDbSpline
210
0.0
220
0.0
230
1.0
 70
     8
 71
     3
 72
    11
 73
     7
 74
     0
 42
0.00000001
 43
0.00000001
 40
0.0
 40
0.0
 40
0.0
 40
0.0
 40
0.2499987778710088
 40
0.4999989315577997
 40
0.7500034181784371
 40
1.0
 40
1.0
 40
1.0
 40
1.0
 10
44.12822085432722
 20
680.8416028104162
 30
0.0
 10
44.18142398747771
 20
680.718869024482
 30
0.0
 10
44.28783054657093
 20
680.4734007771744
 30
0.0
 10
44.94873406176703
 20
680.1364507492469
 30
0.0
 10
45.90669736676956
 20
679.8497330968594
 30
0.0
 10
46.75149296880604
 20
679.7288865234079
 30
0.0
 10
47.17388409189893
 20
679.6684641919472
 30
0.0
  0
SPLINE
  5
368
330
1F
100
AcDbEntity
  8
0
  6
Continuous
 62
     8
370
    15
100
AcDbSpline
210
0.0
220
0.0
230
1.0
 70
     8
 71
     3
 72
    11
 73
     7
 74
     0
 42
0.00000001
 43
0.00000001
 40
0.0
 40
0.0
 40
0.0
 40
0.0
 40
0.249996581821563
 40
0.5000010684422004
 40
0.7500012221289912
 40
1.0
 40
1.0
 40
1.0
 40
1.0
 10
47.17388409189893
 20
715.382256039176
 30
0.0
 10
46.75149296880598
 20
715.3218337077154
 30
0.0
 10
45.90669736676966
 20
715.2009871342633
 30
0.0
 10
44.94873406176703
 20
714.9142694818767
 30
0.0
 10
44.28783054657093
 20
714.5773194539476
 30
0.0
 10
44.18142398747771
 20
714.3318512066407
 30
0.0
 10
44.12822085432722
 20
714.2091174207068
 30
0.0
  0
LINE
  5
369
330
1F
100
AcDbEntity
  8
0
  6
Continuous
 62
     8
370
    15
100
AcDbLine
 10
52.4530227762
 20
674.8700518689
 30
0.0
 11
49.1085614543
 21
676.9411940656
 31
0.0
  0
LINE
  5
36A
330
1F
100
AcDbEntity
  8
0
  6
Continuous
 62
     8
370
    15
100
AcDbLine
 10
75.1960988622
 20
720.1805491529
 30
0.0
 11
78.540560184
 21
718.1095261655
 31
0.0
  0
LINE
  5
36B
330
1F
100
AcDbEntity
  8
0
  6
Continuous
 62
     8
370
    15
100
AcDbLine
 10
78.540560184
 20
676.9411940656
 30
0.0
 11
75.1960988622
 21
674.8700518689
 31
0.0
  0
LINE
  5
36C
330
1F
100
AcDbEntity
  8
0
  6
Continuous
 62
     8
370
    15
100
AcDbLine
 10
49.1085614543
 20
718.1095261655
 30
0.0
 11
52.4530227762
 21
720.1805491529
 31
0.0
  0
LINE
  5
36D
330
1F
100
AcDbEntity
  8
0
  6
Continuous
 62
     8
370
    15
100
AcDbLine
 10
49.0966852289
 20
722.5505490384
 30
0.0
 11
49.1085614543
 21
718.1095261655
 31
0.0
  0
SPLINE
  5
36E
330
1F
100
AcDbEntity
  8
0
  6
Continuous
 62
     8
370
    15
100
AcDbSpline
210
0.0
220
0.0
230
1.0
 70
     8
 71
     3
 72
    11
 73
     7
 74
     0
 42
0.00000001
 43
0.00000001
 40
0.0
 40
0.0
 40
0.0
 40
0.0
 40
0.2499992300734171
 40
0.5000013500664343
 40
0.7499999574889987
 40
1.0
 40
1.0
 40
1.0
 40
1.0
 10
44.11318558268263
 20
716.815509327445
 30
0.0
 10
44.18754125578367
 20
716.8654134847878
 30
0.0
 10
44.33625346151615
 20
716.9652223763514
 30
0.0
 10
45.27245758548348
 20
717.0964248627354
 30
0.0
 10
46.6068110904323
 20
717.1986632995963
 30
0.0
 10
47.71505533271658
 20
717.2281374919895
 30
0.0
 10
48.26917904429151
 20
717.2428746304846
 30
0.0
  0
SPLINE
  5
36F
330
1F
100
AcDbEntity
  8
0
  6
Continuous
 62
     8
370
    15
100
AcDbSpline
210
0.0
220
0.0
230
1.0
 70
     8
 71
     3
 72
    11
 73
     7
 74
     0
 42
0.00000001
 43
0.00000001
 40
0.0
 40
0.0
 40
0.0
 40
0.0
 40
0.2499986830864449
 40
0.4999992456080194
 40
0.7499995707309137
 40
1.0
 40
1.0
 40
1.0
 40
1.0
 10
49.09668522886945
 20
722.5505490384438
 30
0.0
 10
48.4542076970903
 20
722.5425335569897
 30
0.0
 10
47.16924780352721
 20
722.5265025338232
 30
0.0
 10
45.53719245843929
 20
722.4250047093776
 30
0.0
 10
44.37421106374617
 20
722.2828389867768
 30
0.0
 10
44.19075668701839
 20
722.1707595872713
 30
0.0
 10
44.09902947954847
 20
722.1147198758459
 30
0.0
  0
LINE
  5
370
330
1F
100
AcDbEntity
  8
0
  6
Continuous
 62
     8
370
    15
100
AcDbLine
 10
78.5524364095
 20
672.5001711927
 30
0.0
 11
78.540560184
 21
676.9411940656
 31
0.0
  0
SPLINE
  5
371
330
1F
100
AcDbEntity
  8
0
  6
Continuous
 62
     8
370
    15
100
AcDbSpline
210
0.0
220
0.0
230
1.0
 70
     8
 71
     3
 72
    11
 73
     7
 74
     0
 42
0.00000001
 43
0.00000001
 40
0.0
 40
0.0
 40
0.0
 40
0.0
 40
0.2499988738763308
 40
0.4999983713231761
 40
0.7500013813529794
 40
0.9999999999999999
 40
0.9999999999999999
 40
0.9999999999999999
 40
0.9999999999999999
 10
79.37995749525739
 20
677.8078456006384
 30
0.0
 10
79.93407586789625
 20
677.8225835217393
 30
0.0
 10
81.04231399530771
 20
677.8520594007011
 30
0.0
 10
82.37666415203898
 20
677.9542868985698
 30
0.0
 10
83.31286612139822
 20
678.0855292830821
 30
0.0
 10
83.46157984630732
 20
678.1852378491908
 30
0.0
 10
83.53593605570508
 20
678.2350916943886
 30
0.0
  0
SPLINE
  5
372
330
1F
100
AcDbEntity
  8
0
  6
Continuous
 62
     8
370
    15
100
AcDbSpline
210
0.0
220
0.0
230
1.0
 70
     8
 71
     3
 72
    11
 73
     7
 74
     0
 42
0.00000001
 43
0.00000001
 40
0.0
 40
0.0
 40
0.0
 40
0.0
 40
0.2500001961153744
 40
0.4999995851969784
 40
0.7499995379942799
 40
1.0
 40
1.0
 40
1.0
 40
1.0
 10
78.55243640951825
 20
672.5001711926794
 30
0.0
 10
79.19491807826307
 20
672.5082035914907
 30
0.0
 10
80.47987934173662
 20
672.5242683631834
 30
0.0
 10
82.11195367770996
 20
672.6255113932726
 30
0.0
 10
83.2749017150961
 20
672.7679324612296
 30
0.0
 10
83.4583718827494
 20
672.8799776858918
 30
0.0
 10
83.55010706000043
 20
672.9360003552771
 30
0.0
  0
SPLINE
  5
373
330
1F
100
AcDbEntity
  8
0
  6
Continuous
 62
     8
370
    15
100
AcDbSpline
210
0.0
220
0.0
230
1.0
 70
     8
 71
     3
 72
    11
 73
     7
 74
     0
 42
0.00000001
 43
0.00000001
 40
0.0
 40
0.0
 40
0.0
 40
0.0
 40
0.2499984985153617
 40
0.4999976206003016
 40
0.7500002552629255
 40
1.0
 40
1.0
 40
1.0
 40
1.0
 10
79.37995749525739
 20
717.2428746304846
 30
0.0
 10
79.93407587162172
 20
717.2281374135025
 30
0.0
 10
81.04231400648426
 20
717.1986629427792
 30
0.0
 10
82.3766641073323
 20
717.0964248830522
 30
0.0
 10
83.31286816326455
 20
716.9652223712715
 30
0.0
 10
83.46158037806839
 20
716.8654134830947
 30
0.0
 10
83.53593605570508
 20
716.815509327445
 30
0.0
  0
LINE
  5
374
330
1F
100
AcDbEntity
  8
0
  6
Continuous
 62
     8
370
    15
100
AcDbLine
 10
78.540560184
 20
718.1095261655
 30
0.0
 11
78.5524364095
 21
722.5505490384
 31
0.0
  0
SPLINE
  5
375
330
1F
100
AcDbEntity
  8
0
  6
Continuous
 62
     8
370
    15
100
AcDbSpline
210
0.0
220
0.0
230
1.0
 70
     8
 71
     3
 72
    11
 73
     7
 74
     0
 42
0.00000001
 43
0.00000001
 40
0.0
 40
0.0
 40
0.0
 40
0.0
 40
0.2500005524785633
 40
0.499999458173668
 40
0.7499997134118785
 40
0.9999999999999999
 40
0.9999999999999999
 40
0.9999999999999999
 40
0.9999999999999999
 10
83.55010706000043
 20
722.1147198758459
 30
0.0
 10
83.45837272430478
 20
722.170759500173
 30
0.0
 10
83.27490465717857
 20
722.2828383796864
 30
0.0
 10
82.11194657743492
 20
722.4250051148149
 30
0.0
 10
80.4798832971878
 20
722.5265027499601
 30
0.0
 10
79.1949187322637
 20
722.542533608614
 30
0.0
 10
78.55243640951825
 20
722.5505490384436
 30
0.0
  0
SPLINE
  5
376
330
1F
100
AcDbEntity
  8
0
  6
Continuous
 62
     8
370
    15
100
AcDbSpline
210
0.0
220
0.0
230
1.0
 70
     8
 71
     3
 72
    11
 73
     7
 74
     0
 42
0.00000001
 43
0.00000001
 40
0.0
 40
0.0
 40
0.0
 40
0.0
 40
0.2499981039849086
 40
0.5000005993435598
 40
0.749999582126484
 40
1.0
 40
1.0
 40
1.0
 40
1.0
 10
44.11318558268263
 20
678.2350916943884
 30
0.0
 10
44.1875417875448
 20
678.1852378474978
 30
0.0
 10
44.33625550338272
 20
678.0855292780024
 30
0.0
 10
45.27245754077691
 20
677.9542869188888
 30
0.0
 10
46.60681110160903
 20
677.8520590439032
 30
0.0
 10
47.71505533644216
 20
677.8225834432599
 30
0.0
 10
48.26917904429151
 20
677.8078456006384
 30
0.0
  0
LINE
  5
377
330
1F
100
AcDbEntity
  8
0
  6
Continuous
 62
     8
370
    15
100
AcDbLine
 10
49.1085614543
 20
676.9411940656
 30
0.0
 11
49.0966852289
 21
672.5001711927
 31
0.0
  0
SPLINE
  5
378
330
1F
100
AcDbEntity
  8
0
  6
Continuous
 62
     8
370
    15
100
AcDbSpline
210
0.0
220
0.0
230
1.0
 70
     8
 71
     3
 72
    11
 73
     7
 74
     0
 42
0.00000001
 43
0.00000001
 40
0.0
 40
0.0
 40
0.0
 40
0.0
 40
0.2500003387974417
 40
0.5000017110195107
 40
0.7500014073845679
 40
0.9999999999999999
 40
0.9999999999999999
 40
0.9999999999999999
 40
0.9999999999999999
 10
44.09902947954847
 20
672.9360003552771
 30
0.0
 10
44.19075752857382
 20
672.8799775986769
 30
0.0
 10
44.37421400580011
 20
672.7679318538959
 30
0.0
 10
45.53718535814744
 20
672.625511798604
 30
0.0
 10
47.16925175896258
 20
672.5242685787985
 30
0.0
 10
48.45420835108393
 20
672.508203642898
 30
0.0
 10
49.09668522886945
 20
672.5001711926794
 30
0.0
  0
LINE
  5
379
330
1F
100
AcDbEntity
  8
0
  6
Continuous
 62
     8
370
    15
100
AcDbLine
 10
49.0966852289
 20
722.5505490384
 30
0.0
 11
49.2749478202
 21
723.5765833936
 31
0.0
  0
LINE
  5
37A
330
1F
100
AcDbEntity
  8
0
  6
Continuous
 62
     8
370
    15
100
AcDbLine
 10
52.6671524625
 20
732.9610962949
 30
0.0
 11
49.2749478202
 21
723.5765833936
 31
0.0
  0
LINE
  5
37B
330
1F
100
AcDbEntity
  8
0
  6
Continuous
 62
     8
370
    15
100
AcDbLine
 10
74.9819691759
 20
732.9610962949
 30
0.0
 11
52.6671524625
 21
732.9610962949
 31
0.0
  0
LINE
  5
37C
330
1F
100
AcDbEntity
  8
0
  6
Continuous
 62
     8
370
    15
100
AcDbLine
 10
78.3741738182
 20
723.5765833936
 30
0.0
 11
74.9819691759
 21
732.9610962949
 31
0.0
  0
LINE
  5
37D
330
1F
100
AcDbEntity
  8
0
  6
Continuous
 62
     8
370
    15
100
AcDbLine
 10
78.3741738182
 20
723.5765833936
 30
0.0
 11
78.5524364095
 21
722.5505490384
 31
0.0
  0
CIRCLE
  5
37E
330
1F
100
AcDbEntity
  8
0
  6
Continuous
 62
     8
370
    15
100
AcDbCircle
 10
63.8245631068
 20
727.6996512914
 30
0.0
 40
4.750000000000114
  0
LINE
  5
37F
330
1F
100
AcDbEntity
  8
0
  6
Continuous
 62
     8
370
    15
100
AcDbLine
 10
52.6671524625
 20
662.0895047269
 30
0.0
 11
74.9819691759
 21
662.0895047269
 31
0.0
  0
LINE
  5
380
330
1F
100
AcDbEntity
  8
0
  6
Continuous
 62
     8
370
    15
100
AcDbLine
 10
49.2749478202
 20
671.4741368375
 30
0.0
 11
52.6671524625
 21
662.0895047269
 31
0.0
  0
LINE
  5
381
330
1F
100
AcDbEntity
  8
0
  6
Continuous
 62
     8
370
    15
100
AcDbLine
 10
49.2749478202
 20
671.4741368375
 30
0.0
 11
49.0966852289
 21
672.5001711927
 31
0.0
  0
LINE
  5
382
330
1F
100
AcDbEntity
  8
0
  6
Continuous
 62
     8
370
    15
100
AcDbLine
 10
78.5524364095
 20
672.5001711927
 30
0.0
 11
78.3741738182
 21
671.4741368375
 31
0.0
  0
LINE
  5
383
330
1F
100
AcDbEntity
  8
0
  6
Continuous
 62
     8
370
    15
100
AcDbLine
 10
74.9819691759
 20
662.0895047269
 30
0.0
 11
78.3741738182
 21
671.4741368375
 31
0.0
  0
CIRCLE
  5
384
330
1F
100
AcDbEntity
  8
0
  6
Continuous
 62
     8
370
    15
100
AcDbCircle
 10
63.8245631068
 20
667.3510283204
 30
0.0
 40
4.75
  0
LINE
  5
385
330
1F
100
AcDbEntity
  8
0
  6
Continuous
 62
     8
370
    15
100
AcDbLine
 10
44.0990294795
 20
722.1147198758
 30
0.0
 11
44.5786829572
 21
724.8509306989
 31
0.0
  0
SPLINE
  5
386
330
1F
100
AcDbEntity
  8
0
  6
Continuous
 62
     8
370
    15
100
AcDbSpline
210
0.0
220
0.0
230
1.0
 70
     8
 71
     3
 72
    11
 73
     7
 74
     0
 42
0.00000001
 43
0.00000001
 40
0.0
 40
0.0
 40
0.0
 40
0.0
 40
0.2500024036568949
 40
0.5000019155148727
 40
0.7500039543584524
 40
1.0
 40
1.0
 40
1.0
 40
1.0
 10
44.57868295721723
 20
724.850930698905
 30
0.0
 10
44.67867545537457
 20
724.8695391990987
 30
0.0
 10
44.87865929506751
 20
724.9067559842392
 30
0.0
 10
45.97737593294016
 20
724.6476585884031
 30
0.0
 10
47.4944693764035
 20
724.1969905161758
 30
0.0
 10
48.68145974822235
 20
723.783384115239
 30
0.0
 10
49.27494782023145
 20
723.5765833936072
 30
0.0
  0
LINE
  5
387
330
1F
100
AcDbEntity
  8
0
  6
Continuous
 62
     8
370
    15
100
AcDbLine
 10
83.55010706
 20
672.9360003553
 30
0.0
 11
83.0704386812
 21
670.1997895322
 31
0.0
  0
SPLINE
  5
388
330
1F
100
AcDbEntity
  8
0
  6
Continuous
 62
     8
370
    15
100
AcDbSpline
210
0.0
220
0.0
230
1.0
 70
     8
 71
     3
 72
    11
 73
     7
 74
     0
 42
0.00000001
 43
0.00000001
 40
0.0
 40
0.0
 40
0.0
 40
0.0
 40
0.2500015507418691
 40
0.5000021945653583
 40
0.7499980066226071
 40
1.0
 40
1.0
 40
1.0
 40
1.0
 10
83.07043868117047
 20
670.199789532218
 30
0.0
 10
82.97044427576661
 20
670.1811136283138
 30
0.0
 10
82.77045582770354
 20
670.1437618882549
 30
0.0
 10
81.67176959216494
 20
670.403155159875
 30
0.0
 10
80.15462552569042
 20
670.8535416292334
 30
0.0
 10
78.96766261202093
 20
671.2672700631557
 30
0.0
 10
78.37417381815625
 20
671.4741368375159
 30
0.0
  0
SPLINE
  5
389
330
1F
100
AcDbEntity
  8
0
  6
Continuous
 62
     8
370
    15
100
AcDbSpline
210
0.0
220
0.0
230
1.0
 70
     8
 71
     3
 72
    11
 73
     7
 74
     0
 42
0.00000001
 43
0.00000001
 40
0.0
 40
0.0
 40
0.0
 40
0.0
 40
0.2500002261872383
 40
0.4999976760657523
 40
0.7499983845735689
 40
1.0
 40
1.0
 40
1.0
 40
1.0
 10
49.27494782023145
 20
671.4741368375159
 30
0.0
 10
48.68146502969844
 20
671.2672694950661
 30
0.0
 10
47.49450603939231
 20
670.8535371074744
 30
0.0
 10
45.97735252966456
 20
670.4031571736768
 30
0.0
 10
44.87866626595793
 20
670.1437615208215
 30
0.0
 10
44.67867751437926
 20
670.1811135058358
 30
0.0
 10
44.57868295721723
 20
670.199789532218
 30
0.0
  0
LINE
  5
38A
330
1F
100
AcDbEntity
  8
0
  6
Continuous
 62
     8
370
    15
100
AcDbLine
 10
44.5786829572
 20
670.1997895322
 30
0.0
 11
44.0990294795
 21
672.9360003553
 31
0.0
  0
LINE
  5
38B
330
1F
100
AcDbEntity
  8
0
  6
Continuous
 62
     8
370
    15
100
AcDbLine
 10
83.0704386812
 20
724.8509306989
 30
0.0
 11
83.55010706
 21
722.1147198758
 31
0.0
  0
SPLINE
  5
38C
330
1F
100
AcDbEntity
  8
0
  6
Continuous
 62
     8
370
    15
100
AcDbSpline
210
0.0
220
0.0
230
1.0
 70
     8
 71
     3
 72
    11
 73
     7
 74
     0
 42
0.00000001
 43
0.00000001
 40
0.0
 40
0.0
 40
0.0
 40
0.0
 40
0.249997812860089
 40
0.4999982138845114
 40
0.7499976610431714
 40
1.0
 40
1.0
 40
1.0
 40
1.0
 10
78.37417381815625
 20
723.5765833936072
 30
0.0
 10
78.96766789352438
 20
723.7833835468208
 30
0.0
 10
80.15466218855526
 20
724.196985994199
 30
0.0
 10
81.67174618886897
 20
724.6476606018955
 30
0.0
 10
82.7704627986049
 20
724.9067556167253
 30
0.0
 10
82.97044633477529
 20
724.8695390765936
 30
0.0
 10
83.07043868117047
 20
724.850930698905
 30
0.0
  0
LINE
  5
38D
330
1F
100
AcDbEntity
  8
0
  6
Continuous
 62
     8
370
    15
100
AcDbLine
 10
47.9708875995
 20
734.2354436002
 30
0.0
 11
44.5786829572
 21
724.8509306989
 31
0.0
  0
ARC
  5
38E
330
1F
100
AcDbEntity
  8
0
  6
Continuous
 62
     8
370
    15
100
AcDbCircle
 10
46.1778551645
 20
718.3371186323
 30
0.0
 40
15.99911566615452
100
AcDbArc
 50
66.071048968
 51
83.5653026071
  0
LINE
  5
38F
330
1F
100
AcDbEntity
  8
0
  6
Continuous
 62
     8
370
    15
100
AcDbLine
 10
79.6782340389
 20
660.8152766309
 30
0.0
 11
83.0704386812
 21
670.1997895322
 31
0.0
  0
ARC
  5
390
330
1F
100
AcDbEntity
  8
0
  6
Continuous
 62
     8
370
    15
100
AcDbCircle
 10
81.4725820486
 20
676.7198183888
 30
0.0
 40
16.00544074079312
100
AcDbArc
 50
246.0759439567
 51
263.5631169191
  0
ARC
  5
391
330
1F
100
AcDbEntity
  8
0
  6
Continuous
 62
     8
370
    15
100
AcDbCircle
 10
46.1766157115
 20
676.7195378366
 30
0.0
 40
16.00515342341608
100
AcDbArc
 50
276.43672489
 51
293.9242142342
  0
LINE
  5
392
330
1F
100
AcDbEntity
  8
0
  6
Continuous
 62
     8
370
    15
100
AcDbLine
 10
44.5786829572
 20
670.1997895322
 30
0.0
 11
47.9708875995
 21
660.8152766309
 31
0.0
  0
LINE
  5
393
330
1F
100
AcDbEntity
  8
0
  6
Continuous
 62
     8
370
    15
100
AcDbLine
 10
83.0704386812
 20
724.8509306989
 30
0.0
 11
79.6782340389
 21
734.2354436002
 31
0.0
  0
ARC
  5
394
330
1F
100
AcDbEntity
  8
0
  6
Continuous
 62
     8
370
    15
100
AcDbCircle
 10
81.4713425198
 20
718.3368383852
 30
0.0
 40
15.9994026703453
100
AcDbArc
 50
96.4348555331
 51
113.9287928918
  0
LINE
  5
395
330
1F
100
AcDbEntity
  8
0
  6
Continuous
 62
     8
370
    15
100
AcDbLine
 10
74.9819691759
 20
732.9610962949
 30
0.0
 11
74.9819691759
 21
737.5253815732
 31
0.0
  0
ARC
  5
396
330
1F
100
AcDbEntity
  8
0
  6
Continuous
 62
     8
370
    15
100
AcDbCircle
 10
74.9811157185
 20
732.527322047
 30
0.0
 40
4.998059599092364
100
AcDbArc
 50
19.9839525329
 51
89.9902163022
  0
ARC
  5
397
330
1F
100
AcDbEntity
  8
0
  6
Continuous
 62
     8
370
    15
100
AcDbCircle
 10
74.9813804762
 20
662.5230202522
 30
0.0
 40
4.997681629009827
100
AcDbArc
 50
270.0067491301
 51
340.0190820348
  0
LINE
  5
398
330
1F
100
AcDbEntity
  8
0
  6
Continuous
 62
     8
370
    15
100
AcDbLine
 10
74.9819691759
 20
657.5253386579
 30
0.0
 11
74.9819691759
 21
662.0895047269
 31
0.0
  0
ARC
  5
399
330
1F
100
AcDbEntity
  8
0
  6
Continuous
 62
     8
370
    15
100
AcDbCircle
 10
52.6677411621
 20
662.5230202522
 30
0.0
 40
4.997681629009911
100
AcDbArc
 50
199.9809179652
 51
269.9932508699
  0
LINE
  5
39A
330
1F
100
AcDbEntity
  8
0
  6
Continuous
 62
     8
370
    15
100
AcDbLine
 10
52.6671524625
 20
662.0895047269
 30
0.0
 11
52.6671524625
 21
657.5253386579
 31
0.0
  0
LINE
  5
39B
330
1F
100
AcDbEntity
  8
0
  6
Continuous
 62
     8
370
    15
100
AcDbLine
 10
52.6671524625
 20
737.5253815732
 30
0.0
 11
52.6671524625
 21
732.9610962949
 31
0.0
  0
ARC
  5
39C
330
1F
100
AcDbEntity
  8
0
  6
Continuous
 62
     8
370
    15
100
AcDbCircle
 10
52.6680059199
 20
732.527322047
 30
0.0
 40
4.998059599092377
100
AcDbArc
 50
90.0097836978
 51
160.0160474671
  0
LINE
  5
39D
330
1F
100
AcDbEntity
  8
0
  6
Continuous
 62
     8
370
    15
100
AcDbLine
 10
44.5786829572
 20
724.8509306989
 30
0.0
 11
44.32296413
 21
724.8509306989
 31
0.0
  0
LINE
  5
39E
330
1F
100
AcDbEntity
  8
0
  6
Continuous
 62
     8
370
    15
100
AcDbLine
 10
83.0704386812
 20
670.1997895322
 30
0.0
 11
83.3261575084
 21
670.1997895322
 31
0.0
  0
LINE
  5
39F
330
1F
100
AcDbEntity
  8
0
  6
Continuous
 62
     8
370
    15
100
AcDbLine
 10
83.3261575084
 20
724.8509306989
 30
0.0
 11
83.0704386812
 21
724.8509306989
 31
0.0
  0
LINE
  5
3A0
330
1F
100
AcDbEntity
  8
0
  6
Continuous
 62
     8
370
    15
100
AcDbLine
 10
44.32296413
 20
670.1997895322
 30
0.0
 11
44.5786829572
 21
670.1997895322
 31
0.0
  0
LINE
  5
3A1
330
1F
100
AcDbEntity
  8
0
  6
Continuous
 62
     8
370
    15
100
AcDbLine
 10
47.9708875995
 20
734.2354436002
 30
0.0
 11
47.7402623277
 21
734.2354436002
 31
0.0
  0
LINE
  5
3A2
330
1F
100
AcDbEntity
  8
0
  6
Continuous
 62
     8
370
    15
100
AcDbLine
 10
79.9088742118
 20
660.8152766309
 30
0.0
 11
79.6782340389
 21
660.8152766309
 31
0.0
  0
LINE
  5
3A3
330
1F
100
AcDbEntity
  8
0
  6
Continuous
 62
     8
370
    15
100
AcDbLine
 10
83.3261575084
 20
670.1997895322
 30
0.0
 11
79.9088742118
 21
660.8152766309
 31
0.0
  0
LINE
  5
3A4
330
1F
100
AcDbEntity
  8
0
  6
Continuous
 62
     8
370
    15
100
AcDbLine
 10
79.9088742118
 20
734.2354436002
 30
0.0
 11
79.6782340389
 21
734.2354436002
 31
0.0
  0
LINE
  5
3A5
330
1F
100
AcDbEntity
  8
0
  6
Continuous
 62
     8
370
    15
100
AcDbLine
 10
47.9708875995
 20
660.8152766309
 30
0.0
 11
47.7402623277
 21
660.8152766309
 31
0.0
  0
LINE
  5
3A6
330
1F
100
AcDbEntity
  8
0
  6
Continuous
 62
     8
370
    15
100
AcDbLine
 10
47.7402623277
 20
660.8152766309
 30
0.0
 11
44.32296413
 21
670.1997895322
 31
0.0
  0
LINE
  5
3A7
330
1F
100
AcDbEntity
  8
0
  6
Continuous
 62
     8
370
    15
100
AcDbLine
 10
634.3245919328
 20
1069.8753972135
 30
0.0
 11
43.224569736
 21
1069.8753972135
 31
0.0
  0
LINE
  5
3A8
330
1F
100
AcDbEntity
  8
0
  6
Continuous
 62
     8
370
    15
100
AcDbLine
 10
634.3245919328
 20
214.7753615461
 30
0.0
 11
634.3245919328
 21
1069.8753972135
 31
0.0
  0
LINE
  5
3A9
330
1F
100
AcDbEntity
  8
0
  6
Continuous
 62
     8
370
    15
100
AcDbLine
 10
634.3245919328
 20
214.7753615461
 30
0.0
 11
43.224569736
 21
214.7753615461
 31
0.0
  0
LINE
  5
3AA
330
1F
100
AcDbEntity
  8
0
  6
Continuous
 62
     8
370
    15
100
AcDbLine
 10
43.224569736
 20
1069.8753972135
 30
0.0
 11
43.224569736
 21
214.7753615461
 31
0.0
  0
LINE
  5
3AB
330
1F
100
AcDbEntity
  8
0
  6
Continuous
 62
     8
370
    15
100
AcDbLine
 10
609.1045554262
 20
209.8253150068
 30
0.0
 11
609.1045554262
 21
207.3253769956
 31
0.0
  0
LINE
  5
3AC
330
1F
100
AcDbEntity
  8
0
  6
Continuous
 62
     8
370
    15
100
AcDbLine
 10
629.6045597177
 20
207.3253769956
 30
0.0
 11
629.6045597177
 21
209.8253150068
 31
0.0
  0
LINE
  5
3AD
330
1F
100
AcDbEntity
  8
0
  6
Continuous
 62
     8
370
    15
100
AcDbLine
 10
606.6045578104
 20
204.3253560148
 30
0.0
 11
604.1045601945
 21
204.3253560148
 31
0.0
  0
LINE
  5
3AE
330
1F
100
AcDbEntity
  8
0
  6
Continuous
 62
     8
370
    15
100
AcDbLine
 10
602.1045859437
 20
204.3253560148
 30
0.0
 11
602.1045859437
 21
199.3253607831
 31
0.0
  0
LINE
  5
3AF
330
1F
100
AcDbEntity
  8
0
  6
Continuous
 62
     8
370
    15
100
AcDbLine
 10
614.6045740228
 20
207.3253769956
 30
0.0
 11
614.6045740228
 21
204.8253197751
 31
0.0
  0
LINE
  5
3B0
330
1F
100
AcDbEntity
  8
0
  6
Continuous
 62
     8
370
    15
100
AcDbLine
 10
629.6045597177
 20
204.8253197751
 30
0.0
 11
629.6045597177
 21
207.3253769956
 31
0.0
  0
LINE
  5
3B1
330
1F
100
AcDbEntity
  8
0
  6
Continuous
 62
     8
370
    15
100
AcDbLine
 10
609.6045787912
 20
201.8252987943
 30
0.0
 11
612.2745688539
 21
201.8252987943
 31
0.0
  0
LINE
  5
3B2
330
1F
100
AcDbEntity
  8
0
  6
Continuous
 62
     8
370
    15
100
AcDbLine
 10
628.2745416742
 20
201.8252987943
 30
0.0
 11
634.6045549493
 21
201.8252987943
 31
0.0
  0
LINE
  5
3B3
330
1F
100
AcDbEntity
  8
0
  6
Continuous
 62
     8
370
    15
100
AcDbLine
 10
140.004556952
 20
-326.674662105
 30
0.0
 11
127.2045488935
 21
-326.674662105
 31
0.0
  0
LINE
  5
3B4
330
1F
100
AcDbEntity
  8
0
  6
Continuous
 62
     8
370
    15
100
AcDbLine
 10
140.004556952
 20
-326.4246802249
 30
0.0
 11
127.2045488935
 21
-326.4246802249
 31
0.0
  0
LINE
  5
3B5
330
1F
100
AcDbEntity
  8
0
  6
Continuous
 62
     8
370
    15
100
AcDbLine
 10
138.3045728784
 20
-325.4246334948
 30
0.0
 11
128.9045627695
 21
-325.4246334948
 31
0.0
  0
LINE
  5
3B6
330
1F
100
AcDbEntity
  8
0
  6
Continuous
 62
     8
370
    15
100
AcDbLine
 10
632.1045573335
 20
-329.1746597209
 30
0.0
 11
632.1045573335
 21
-328.0746560015
 31
0.0
  0
LINE
  5
3B7
330
1F
100
AcDbEntity
  8
0
  6
Continuous
 62
     8
370
    15
100
AcDbLine
 10
608.6045916658
 20
-328.0746560015
 30
0.0
 11
608.6045916658
 21
-329.1746597209
 31
0.0
  0
LINE
  5
3B8
330
1F
100
AcDbEntity
  8
0
  6
Continuous
 62
     8
370
    15
100
AcDbLine
 10
633.6045678239
 20
-330.6746702113
 30
0.0
 11
635.6045420747
 21
-330.6746702113
 31
0.0
  0
LINE
  5
3B9
330
1F
100
AcDbEntity
  8
0
  6
Continuous
 62
     8
370
    15
100
AcDbLine
 10
633.6045678239
 20
-339.1746501841
 30
0.0
 11
635.6045420747
 21
-339.1746501841
 31
0.0
  0
LINE
  5
3BA
330
1F
100
AcDbEntity
  8
0
  6
Continuous
 62
     8
370
    15
100
AcDbLine
 10
43.6045642477
 20
-330.6746702113
 30
0.0
 11
41.6045601945
 21
-330.6746702113
 31
0.0
  0
LINE
  5
3BB
330
1F
100
AcDbEntity
  8
0
  6
Continuous
 62
     8
370
    15
100
AcDbLine
 10
41.6045601945
 20
-339.1746501841
 30
0.0
 11
43.6045642477
 21
-339.1746501841
 31
0.0
  0
LINE
  5
3BC
330
1F
100
AcDbEntity
  8
0
  6
Continuous
 62
     8
370
    15
100
AcDbLine
 10
68.6045702081
 20
-329.1746597209
 30
0.0
 11
68.6045702081
 21
-327.1746854701
 31
0.0
  0
LINE
  5
3BD
330
1F
100
AcDbEntity
  8
0
  6
Continuous
 62
     8
370
    15
100
AcDbLine
 10
45.1045598369
 20
-329.1746597209
 30
0.0
 11
45.1045598369
 21
-327.1746854701
 31
0.0
  0
LINE
  5
3BE
330
1F
100
AcDbEntity
  8
0
  6
Continuous
 62
     8
370
    15
100
AcDbLine
 10
482.6752956491
 20
-325.6746749797
 30
0.0
 11
481.6045578104
 21
-325.6746749797
 31
0.0
  0
LINE
  5
3BF
330
1F
100
AcDbEntity
  8
0
  6
Continuous
 62
     8
370
    15
100
AcDbLine
 10
74.6045674663
 20
-330.6746702113
 30
0.0
 11
480.604570685
 21
-330.6746702113
 31
0.0
  0
LINE
  5
3C0
330
1F
100
AcDbEntity
  8
0
  6
Continuous
 62
     8
370
    15
100
AcDbLine
 10
533.6045439821
 20
-330.6746702113
 30
0.0
 11
480.604570685
 21
-330.6746702113
 31
0.0
  0
LINE
  5
3C1
330
1F
100
AcDbEntity
  8
0
  6
Continuous
 62
     8
370
    15
100
AcDbLine
 10
602.0545776468
 20
1075.8753199659
 30
0.0
 11
602.0545776468
 21
1072.3253865323
 31
0.0
  0
LINE
  5
3C2
330
1F
100
AcDbEntity
  8
0
  6
Continuous
 62
     8
370
    15
100
AcDbLine
 10
602.0545776468
 20
212.3253722272
 30
0.0
 11
602.0545776468
 21
207.3253769956
 31
0.0
  0
LINE
  5
3C3
330
1F
100
AcDbEntity
  8
0
  6
Continuous
 62
     8
370
    15
100
AcDbLine
 10
636.1545737367
 20
1075.8753199659
 30
0.0
 11
625.1045878511
 21
1075.8753199659
 31
0.0
  0
LINE
  5
3C4
330
1F
100
AcDbEntity
  8
0
  6
Continuous
 62
     8
370
    15
100
AcDbLine
 10
615.1045377832
 20
1075.8753199659
 30
0.0
 11
602.0545776468
 21
1075.8753199659
 31
0.0
  0
LINE
  5
3C5
330
1F
100
AcDbEntity
  8
0
  6
Continuous
 62
     8
370
    15
100
AcDbLine
 10
636.1545737367
 20
1075.8753199659
 30
0.0
 11
636.1545737367
 21
1071.1182732663
 31
0.0
  0
LINE
  5
3C6
330
1F
100
AcDbEntity
  8
0
  6
Continuous
 62
     8
370
    15
100
AcDbLine
 10
636.1545737367
 20
213.5960240445
 30
0.0
 11
636.1545737367
 21
198.4546561323
 31
0.0
  0
LINE
  5
3C7
330
1F
100
AcDbEntity
  8
0
  6
Continuous
 62
     8
370
    15
100
AcDbLine
 10
636.1545737367
 20
-323.8039235987
 30
0.0
 11
636.1545737367
 21
-324.2246727862
 31
0.0
  0
LINE
  5
3C8
330
1F
100
AcDbEntity
  8
0
  6
Continuous
 62
     8
370
    15
100
AcDbLine
 10
635.7038434129
 20
-324.2246727862
 30
0.0
 11
636.1545737367
 21
-324.2246727862
 31
0.0
  0
LINE
  5
3C9
330
1F
100
AcDbEntity
  8
0
  6
Continuous
 62
     8
370
    15
100
AcDbLine
 10
636.1545737367
 20
1077.0546574674
 30
0.0
 11
636.1545737367
 21
1075.8753199659
 31
0.0
  0
LINE
  5
3CA
330
1F
100
AcDbEntity
  8
0
  6
Continuous
 62
     8
370
    15
100
AcDbLine
 10
75.154569326
 20
1075.8753199659
 30
0.0
 11
41.0545583349
 21
1075.8753199659
 31
0.0
  0
LINE
  5
3CB
330
1F
100
AcDbEntity
  8
0
  6
Continuous
 62
     8
370
    15
100
AcDbLine
 10
75.154569326
 20
199.3253607831
 30
0.0
 11
75.154569326
 21
212.3253722272
 31
0.0
  0
LINE
  5
3CC
330
1F
100
AcDbEntity
  8
0
  6
Continuous
 62
     8
370
    15
100
AcDbLine
 10
75.154569326
 20
1072.3253865323
 30
0.0
 11
75.154569326
 21
1075.8753199659
 31
0.0
  0
LINE
  5
3CD
330
1F
100
AcDbEntity
  8
0
  6
Continuous
 62
     8
370
    15
100
AcDbLine
 10
41.0545583349
 20
-324.2246727862
 30
0.0
 11
41.4452667814
 21
-324.2246727862
 31
0.0
  0
LINE
  5
3CE
330
1F
100
AcDbEntity
  8
0
  6
Continuous
 62
     8
370
    15
100
AcDbLine
 10
41.0545583349
 20
1075.8753199659
 30
0.0
 11
41.0545583349
 21
1071.1182732663
 31
0.0
  0
LINE
  5
3CF
330
1F
100
AcDbEntity
  8
0
  6
Continuous
 62
     8
370
    15
100
AcDbLine
 10
41.0545583349
 20
213.5960240445
 30
0.0
 11
41.0545583349
 21
198.4546561323
 31
0.0
  0
LINE
  5
3D0
330
1F
100
AcDbEntity
  8
0
  6
Continuous
 62
     8
370
    15
100
AcDbLine
 10
41.0545583349
 20
-323.8039235987
 30
0.0
 11
41.0545583349
 21
-324.2246727862
 31
0.0
  0
LINE
  5
3D1
330
1F
100
AcDbEntity
  8
0
  6
Continuous
 62
     8
370
    15
100
AcDbLine
 10
41.0545583349
 20
1075.8753199659
 30
0.0
 11
41.0545583349
 21
1077.0546574674
 31
0.0
  0
LINE
  5
3D2
330
1F
100
AcDbEntity
  8
0
  6
Continuous
 62
     8
370
    15
100
AcDbLine
 10
74.6045674663
 20
-333.1746678271
 30
0.0
 11
66.7045678478
 21
-333.1746678271
 31
0.0
  0
LINE
  5
3D3
330
1F
100
AcDbEntity
  8
0
  6
Continuous
 62
     8
370
    15
100
AcDbLine
 10
130.5045600515
 20
-419.6420829215
 30
0.0
 11
66.7045678478
 21
-419.6420829215
 31
0.0
  0
LINE
  5
3D4
330
1F
100
AcDbEntity
  8
0
  6
Continuous
 62
     8
370
    15
100
AcDbLine
 10
130.4406638723
 20
-420.4145591178
 30
0.0
 11
66.7684789281
 21
-420.4145591178
 31
0.0
  0
LINE
  5
3D5
330
1F
100
AcDbEntity
  8
0
  6
Continuous
 62
     8
370
    15
100
AcDbLine
 10
610.5045493226
 20
-333.1746678271
 30
0.0
 11
546.7045720201
 21
-333.1746678271
 31
0.0
  0
LINE
  5
3D6
330
1F
100
AcDbEntity
  8
0
  6
Continuous
 62
     8
370
    15
100
AcDbLine
 10
610.5045493226
 20
-419.6420829215
 30
0.0
 11
546.7045720201
 21
-419.6420829215
 31
0.0
  0
LINE
  5
3D7
330
1F
100
AcDbEntity
  8
0
  6
Continuous
 62
     8
370
    15
100
AcDbLine
 10
610.4406531435
 20
-420.4145591178
 30
0.0
 11
546.7684681993
 21
-420.4145591178
 31
0.0
  0
ENDSEC
  0
SECTION
  2
OBJECTS
  0
DICTIONARY
  5
C
330
0
100
AcDbDictionary
281
     1
  3
ACAD_GROUP
350
D
  3
ACAD_LAYOUT
350
1A
  3
ACAD_MATERIAL
350
3B
  3
ACAD_MLEADERSTYLE
350
3D9
  3
ACAD_MLINESTYLE
350
17
  3
ACAD_PLOTSETTINGS
350
19
  3
ACAD_PLOTSTYLENAME
350
E
  3
ACAD_TABLESTYLE
350
3D8
  3
ACAD_VISUALSTYLE
350
2A
  0
DICTIONARY
  5
D
102
{ACAD_REACTORS
330
C
102
}
330
C
100
AcDbDictionary
281
     1
  0
DICTIONARY
  5
1A
102
{ACAD_REACTORS
330
C
102
}
330
C
100
AcDbDictionary
281
     1
  3
Layout1
350
1E
  3
Layout2
350
26
  3
Model
350
22
  0
DICTIONARY
  5
3B
102
{ACAD_REACTORS
330
C
102
}
330
C
100
AcDbDictionary
281
     1
  3
ByBlock
350
3D
  3
ByLayer
350
3C
  3
Global
350
3E
  0
DICTIONARY
  5
3D9
102
{ACAD_REACTORS
330
C
102
}
330
C
100
AcDbDictionary
281
     1
  0
DICTIONARY
  5
17
102
{ACAD_REACTORS
330
C
102
}
330
C
100
AcDbDictionary
281
     1
  3
Standard
350
18
  0
DICTIONARY
  5
19
102
{ACAD_REACTORS
330
C
102
}
330
C
100
AcDbDictionary
281
     1
  0
ACDBDICTIONARYWDFLT
  5
E
102
{ACAD_REACTORS
330
C
102
}
330
C
100
AcDbDictionary
281
     1
  3
Normal
350
F
100
AcDbDictionaryWithDefault
340
F
  0
DICTIONARY
  5
3D8
102
{ACAD_REACTORS
330
C
102
}
330
C
100
AcDbDictionary
281
     1
  0
DICTIONARY
  5
2A
102
{ACAD_REACTORS
330
C
102
}
330
C
100
AcDbDictionary
281
     1
  3
2dWireframe
350
2F
  3
3D Hidden
350
31
  3
3dWireframe
350
30
  3
Basic
350
32
  3
Brighten
350
36
  3
ColorChange
350
3A
  3
Conceptual
350
34
  3
Dim
350
35
  3
Facepattern
350
39
  3
Flat
350
2B
  3
FlatWithEdges
350
2C
  3
Gouraud
350
2D
  3
GouraudWithEdges
350
2E
  3
Linepattern
350
38
  3
Realistic
350
33
  3
Thicken
350
37
  0
LAYOUT
  5
1E
102
{ACAD_REACTORS
330
1A
102
}
330
1A
100
AcDbPlotSettings
  1

  2
none_device
  4

  6

 40
0.0
 41
0.0
 42
0.0
 43
0.0
 44
0.0
 45
0.0
 46
0.0
 47
0.0
 48
0.0
 49
0.0
140
0.0
141
0.0
142
1.0
143
1.0
 70
   688
 72
     0
 73
     0
 74
     5
  7

 75
    16
 76
     0
 77
     2
 78
   300
147
1.0
148
0.0
149
0.0
100
AcDbLayout
  1
Layout1
 70
     1
 71
     1
 10
0.0
 20
0.0
 11
420.0
 21
297.0
 12
0.0
 22
0.0
 32
0.0
 14
1.0000000000E+20
 24
1.0000000000E+20
 34
1.0000000000E+20
 15
-1.0000000000E+20
 25
-1.0000000000E+20
 35
-1.0000000000E+20
146
0.0
 13
0.0
 23
0.0
 33
0.0
 16
1.0
 26
0.0
 36
0.0
 17
0.0
 27
1.0
 37
0.0
 76
     0
330
1B
  0
LAYOUT
  5
26
102
{ACAD_REACTORS
330
1A
102
}
330
1A
100
AcDbPlotSettings
  1

  2
none_device
  4

  6

 40
0.0
 41
0.0
 42
0.0
 43
0.0
 44
0.0
 45
0.0
 46
0.0
 47
0.0
 48
0.0
 49
0.0
140
0.0
141
0.0
142
1.0
143
1.0
 70
   688
 72
     0
 73
     0
 74
     5
  7

 75
    16
 76
     0
 77
     2
 78
   300
147
1.0
148
0.0
149
0.0
100
AcDbLayout
  1
Layout2
 70
     1
 71
     2
 10
0.0
 20
0.0
 11
0.0
 21
0.0
 12
0.0
 22
0.0
 32
0.0
 14
0.0
 24
0.0
 34
0.0
 15
0.0
 25
0.0
 35
0.0
146
0.0
 13
0.0
 23
0.0
 33
0.0
 16
1.0
 26
0.0
 36
0.0
 17
0.0
 27
1.0
 37
0.0
 76
     0
330
23
  0
LAYOUT
  5
22
102
{ACAD_REACTORS
330
1A
102
}
330
1A
100
AcDbPlotSettings
  1

  2
none_device
  4

  6

 40
0.0
 41
0.0
 42
0.0
 43
0.0
 44
0.0
 45
0.0
 46
0.0
 47
0.0
 48
0.0
 49
0.0
140
0.0
141
0.0
142
1.0
143
1.0
 70
  1712
 72
     0
 73
     0
 74
     0
  7

 75
     0
 76
     0
 77
     2
 78
   300
147
1.0
148
0.0
149
0.0
100
AcDbLayout
  1
Model
 70
     1
 71
     0
 10
0.0
 20
0.0
 11
841.0
 21
594.0
 12
0.0
 22
0.0
 32
0.0
 14
0.0
 24
0.0
 34
0.0
 15
841.0
 25
594.0
 35
0.0
146
0.0
 13
0.0
 23
0.0
 33
0.0
 16
1.0
 26
0.0
 36
0.0
 17
0.0
 27
1.0
 37
0.0
 76
     0
330
1F
331
29
  0
MATERIAL
  5
3D
102
{ACAD_REACTORS
330
3B
102
}
330
3B
100
AcDbMaterial
  1
ByBlock
 72
     1
 94
      127
  0
MATERIAL
  5
3C
102
{ACAD_REACTORS
330
3B
102
}
330
3B
100
AcDbMaterial
  1
ByLayer
 72
     1
 94
      127
  0
MATERIAL
  5
3E
102
{ACAD_REACTORS
330
3B
102
}
330
3B
100
AcDbMaterial
  1
Global
 72
     1
 94
      127
  0
MLINESTYLE
  5
18
102
{ACAD_REACTORS
330
17
102
}
330
17
100
AcDbMlineStyle
  2
Standard
 70
     0
  3

 62
   256
 51
90.0
 52
90.0
 71
     2
 49
0.5
 62
   256
  6
BYLAYER
 49
-0.5
 62
   256
  6
BYLAYER
  0
ACDBPLACEHOLDER
  5
F
102
{ACAD_REACTORS
330
E
102
}
330
E
  0
VISUALSTYLE
  5
2F
102
{ACAD_REACTORS
330
2A
102
}
330
2A
100
AcDbVisualStyle
  2
2dWireframe
 70
     4
 71
     0
 72
     2
 73
     0
 90
        0
 40
-0.6
 41
-30.0
 62
     5
 63
     7
421
 16777215
 74
     1
 91
        4
 64
     7
 65
   257
 75
     1
175
     1
 42
1.0
 92
        0
 66
   257
 43
1.0
 76
     1
 77
     6
 78
     2
 67
     7
 79
     5
170
     0
171
     0
290
     0
174
     0
 93
        1
 44
0.0
173
     0
291
     0
 45
0.0
  0
VISUALSTYLE
  5
31
102
{ACAD_REACTORS
330
2A
102
}
330
2A
100
AcDbVisualStyle
  2
3D Hidden
 70
     6
 71
     1
 72
     2
 73
     2
 90
        0
 40
-0.6
 41
-30.0
 62
     5
 63
     7
421
 16777215
 74
     2
 91
        2
 64
     7
 65
   257
 75
     2
175
     1
 42
40.0
 92
        0
 66
   257
 43
1.0
 76
     1
 77
     6
 78
     2
 67
     7
 79
     3
170
     0
171
     0
290
     0
174
     0
 93
        1
 44
0.0
173
     0
291
     0
 45
0.0
  0
VISUALSTYLE
  5
30
102
{ACAD_REACTORS
330
2A
102
}
330
2A
100
AcDbVisualStyle
  2
3dWireframe
 70
     5
 71
     0
 72
     2
 73
     0
 90
        0
 40
-0.6
 41
-30.0
 62
     5
 63
     7
421
 16777215
 74
     1
 91
        4
 64
     7
 65
   257
 75
     1
175
     1
 42
1.0
 92
        0
 66
   257
 43
1.0
 76
     1
 77
     6
 78
     2
 67
     7
 79
     5
170
     0
171
     0
290
     0
174
     0
 93
        1
 44
0.0
173
     0
291
     0
 45
0.0
  0
VISUALSTYLE
  5
32
102
{ACAD_REACTORS
330
2A
102
}
330
2A
100
AcDbVisualStyle
  2
Basic
 70
     7
 71
     1
 72
     0
 73
     1
 90
        0
 40
-0.6
 41
-30.0
 62
     5
 63
     7
421
 16777215
 74
     0
 91
        4
 64
     7
 65
   257
 75
     1
175
     1
 42
1.0
 92
        8
 66
     7
 43
1.0
 76
     1
 77
     6
 78
     2
 67
     7
 79
     5
170
     0
171
     0
290
     0
174
     0
 93
        1
 44
0.0
173
     0
291
     1
 45
0.0
  0
VISUALSTYLE
  5
36
102
{ACAD_REACTORS
330
2A
102
}
330
2A
100
AcDbVisualStyle
  2
Brighten
 70
    12
 71
     2
 72
     2
 73
     0
 90
        0
 40
-0.6
 41
-30.0
 62
     5
 63
     7
421
 16777215
 74
     1
 91
        4
 64
     7
 65
   257
 75
     1
175
     1
 42
1.0
 92
        8
 66
     7
 43
1.0
 76
     1
 77
     6
 78
     2
 67
     7
 79
     5
170
     0
171
     0
290
     0
174
     0
 93
        1
 44
50.0
173
     0
291
     1
 45
0.0
  0
VISUALSTYLE
  5
3A
102
{ACAD_REACTORS
330
2A
102
}
330
2A
100
AcDbVisualStyle
  2
ColorChange
 70
    16
 71
     2
 72
     2
 73
     3
 90
        0
 40
-0.6
 41
-30.0
 62
     5
 63
     8
421
  8421504
 74
     1
 91
        4
 64
     7
 65
   257
 75
     1
175
     1
 42
1.0
 92
        8
 66
     8
424
  8421504
 43
1.0
 76
     1
 77
     6
 78
     2
 67
     7
 79
     5
170
     0
171
     0
290
     0
174
     0
 93
        1
 44
0.0
173
     0
291
     1
 45
0.0
  0
VISUALSTYLE
  5
34
102
{ACAD_REACTORS
330
2A
102
}
330
2A
100
AcDbVisualStyle
  2
Conceptual
 70
     9
 71
     3
 72
     2
 73
     0
 90
        0
 40
-0.6
 41
-30.0
 62
     5
 63
     7
421
 16777215
 74
     2
 91
        2
 64
     7
 65
   257
 75
     1
175
     1
 42
40.0
 92
        8
 66
     7
 43
1.0
 76
     1
 77
     6
 78
     2
 67
     7
 79
     3
170
     0
171
     0
290
     0
174
     0
 93
        1
 44
0.0
173
     0
291
     0
 45
0.0
  0
VISUALSTYLE
  5
35
102
{ACAD_REACTORS
330
2A
102
}
330
2A
100
AcDbVisualStyle
  2
Dim
 70
    11
 71
     2
 72
     2
 73
     0
 90
        0
 40
-0.6
 41
-30.0
 62
     5
 63
     7
421
 16777215
 74
     1
 91
        4
 64
     7
 65
   257
 75
     1
175
     1
 42
1.0
 92
        8
 66
     7
 43
1.0
 76
     1
 77
     6
 78
     2
 67
     7
 79
     5
170
     0
171
     0
290
     0
174
     0
 93
        1
 44
-50.0
173
     0
291
     1
 45
0.0
  0
VISUALSTYLE
  5
39
102
{ACAD_REACTORS
330
2A
102
}
330
2A
100
AcDbVisualStyle
  2
Facepattern
 70
    15
 71
     2
 72
     2
 73
     0
 90
        0
 40
-0.6
 41
-30.0
 62
     5
 63
     7
421
 16777215
 74
     1
 91
        4
 64
     7
 65
   257
 75
     1
175
     1
 42
1.0
 92
        8
 66
     7
 43
1.0
 76
     1
 77
     6
 78
     2
 67
     7
 79
     5
170
     0
171
     0
290
     0
174
     0
 93
        1
 44
0.0
173
     0
291
     1
 45
0.0
  0
VISUALSTYLE
  5
2B
102
{ACAD_REACTORS
330
2A
102
}
330
2A
100
AcDbVisualStyle
  2
Flat
 70
     0
 71
     2
 72
     1
 73
     1
 90
        2
 40
-0.6
 41
30.0
 62
     5
 63
     7
421
 16777215
 74
     0
 91
        4
 64
     7
 65
   257
 75
     1
175
     1
 42
1.0
 92
        8
 66
     7
 43
1.0
 76
     1
 77
     6
 78
     2
 67
     7
 79
     5
170
     0
171
     0
290
     0
174
     0
 93
       13
 44
0.0
173
     0
291
     1
 45
0.0
  0
VISUALSTYLE
  5
2C
102
{ACAD_REACTORS
330
2A
102
}
330
2A
100
AcDbVisualStyle
  2
FlatWithEdges
 70
     1
 71
     2
 72
     1
 73
     1
 90
        2
 40
-0.6
 41
30.0
 62
     5
 63
     7
421
 16777215
 74
     1
 91
        4
 64
     7
 65
   257
 75
     1
175
     1
 42
1.0
 92
        0
 66
   257
 43
1.0
 76
     1
 77
     6
 78
     2
 67
     7
 79
     5
170
     0
171
     0
290
     0
174
     0
 93
       13
 44
0.0
173
     0
291
     1
 45
0.0
  0
VISUALSTYLE
  5
2D
102
{ACAD_REACTORS
330
2A
102
}
330
2A
100
AcDbVisualStyle
  2
Gouraud
 70
     2
 71
     2
 72
     2
 73
     1
 90
        2
 40
-0.6
 41
30.0
 62
     5
 63
     7
421
 16777215
 74
     0
 91
        4
 64
     7
 65
   257
 75
     1
175
     1
 42
1.0
 92
        0
 66
     7
 43
1.0
 76
     1
 77
     6
 78
     2
 67
     7
 79
     5
170
     0
171
     0
290
     0
174
     0
 93
       13
 44
0.0
173
     0
291
     1
 45
0.0
  0
VISUALSTYLE
  5
2E
102
{ACAD_REACTORS
330
2A
102
}
330
2A
100
AcDbVisualStyle
  2
GouraudWithEdges
 70
     3
 71
     2
 72
     2
 73
     1
 90
        2
 40
-0.6
 41
30.0
 62
     5
 63
     7
421
 16777215
 74
     1
 91
        4
 64
     7
 65
   257
 75
     1
175
     1
 42
1.0
 92
        0
 66
   257
 43
1.0
 76
     1
 77
     6
 78
     2
 67
     7
 79
     5
170
     0
171
     0
290
     0
174
     0
 93
       13
 44
0.0
173
     0
291
     1
 45
0.0
  0
VISUALSTYLE
  5
38
102
{ACAD_REACTORS
330
2A
102
}
330
2A
100
AcDbVisualStyle
  2
Linepattern
 70
    14
 71
     2
 72
     2
 73
     0
 90
        0
 40
-0.6
 41
-30.0
 62
     5
 63
     7
421
 16777215
 74
     1
 91
        4
 64
     7
 65
   257
 75
     7
175
     7
 42
1.0
 92
        8
 66
     7
 43
1.0
 76
     1
 77
     6
 78
     2
 67
     7
 79
     5
170
     0
171
     0
290
     0
174
     0
 93
        1
 44
0.0
173
     0
291
     1
 45
0.0
  0
VISUALSTYLE
  5
33
102
{ACAD_REACTORS
330
2A
102
}
330
2A
100
AcDbVisualStyle
  2
Realistic
 70
     8
 71
     2
 72
     2
 73
     0
 90
        0
 40
-0.6
 41
-30.0
 62
     5
 63
     7
421
 16777215
 74
     1
 91
        0
 64
     7
 65
   257
 75
     1
175
     1
 42
1.0
 92
        8
 66
     8
424
  7895160
 43
1.0
 76
     1
 77
     6
 78
     2
 67
     7
 79
     5
170
     0
171
     0
290
     0
174
     0
 93
       13
 44
0.0
173
     0
291
     0
 45
0.0
  0
VISUALSTYLE
  5
37
102
{ACAD_REACTORS
330
2A
102
}
330
2A
100
AcDbVisualStyle
  2
Thicken
 70
    13
 71
     2
 72
     2
 73
     0
 90
        0
 40
-0.6
 41
-30.0
 62
     5
 63
     7
421
 16777215
 74
     1
 91
        4
 64
     7
 65
   257
 75
     1
175
     1
 42
1.0
 92
       12
 66
     7
 43
1.0
 76
     1
 77
     6
 78
     2
 67
     7
 79
     5
170
     0
171
     0
290
     0
174
     0
 93
        1
 44
0.0
173
     0
291
     1
 45
0.0
  0
ENDSEC
  0
EOF
