  0
SECTION
  2
HEADER
  9
$ACADVER
  1
AC1021
  9
$ACADMAINTVER
 70
    25
  9
$DWGCODEPAGE
  3
ANSI_1252
  9
$INSBASE
 10
0.0
 20
0.0
 30
0.0
  9
$EXTMIN
 10
0.0
 20
0.0
 30
0.0
  9
$EXTMAX
 10
841.0
 20
594.0
 30
0.0
  9
$LIMMIN
 10
0.0
 20
0.0
  9
$LIMMAX
 10
841.0
 20
594.0
  9
$ORTHOMODE
 70
     0
  9
$REGENMODE
 70
     1
  9
$FILLMODE
 70
     1
  9
$QTEXTMODE
 70
     0
  9
$MIRRTEXT
 70
     1
  9
$LTSCALE
 40
1.0
  9
$ATTMODE
 70
     1
  9
$TEXTSIZE
 40
3.5
  9
$TRACEWID
 40
1.0
  9
$TEXTSTYLE
  7
Standard
  9
$CLAYER
  8
0
  9
$CELTYPE
  6
ByLayer
  9
$CECOLOR
 62
   256
  9
$CELTSCALE
 40
1.0
  9
$DISPSILH
 70
     0
  9
$DIMSCALE
 40
1.0
  9
$DIMASZ
 40
3.302
  9
$DIMEXO
 40
1.0
  9
$DIMDLI
 40
3.75
  9
$DIMRND
 40
0.0
  9
$DIMDLE
 40
0.0
  9
$DIMEXE
 40
1.0
  9
$DIMTP
 40
0.0
  9
$DIMTM
 40
0.0
  9
$DIMTXT
 40
3.5
  9
$DIMCEN
 40
2.5
  9
$DIMTSZ
 40
0.0
  9
$DIMTOL
 70
     0
  9
$DIMLIM
 70
     0
  9
$DIMTIH
 70
     1
  9
$DIMTOH
 70
     1
  9
$DIMSE1
 70
     0
  9
$DIMSE2
 70
     0
  9
$DIMTAD
 70
     1
  9
$DIMZIN
 70
     0
  9
$DIMBLK
  1

  9
$DIMASO
 70
     1
  9
$DIMSHO
 70
     1
  9
$DIMPOST
  1

  9
$DIMAPOST
  1

  9
$DIMALT
 70
     0
  9
$DIMALTD
 70
     3
  9
$DIMALTF
 40
0.0393700787
  9
$DIMLFAC
 40
1.0
  9
$DIMTOFL
 70
     1
  9
$DIMTVP
 40
0.0
  9
$DIMTIX
 70
     0
  9
$DIMSOXD
 70
     0
  9
$DIMSAH
 70
     0
  9
$DIMBLK1
  1

  9
$DIMBLK2
  1

  9
$DIMSTYLE
  2
ISO-25
  9
$DIMCLRD
 70
     0
  9
$DIMCLRE
 70
     0
  9
$DIMCLRT
 70
     0
  9
$DIMTFAC
 40
1.0
  9
$DIMGAP
 40
1.524
  9
$DIMJUST
 70
     0
  9
$DIMSD1
 70
     0
  9
$DIMSD2
 70
     0
  9
$DIMTOLJ
 70
     0
  9
$DIMTZIN
 70
     0
  9
$DIMALTZ
 70
     0
  9
$DIMALTTZ
 70
     0
  9
$DIMUPT
 70
     0
  9
$DIMDEC
 70
     1
  9
$DIMTDEC
 70
     1
  9
$DIMALTU
 70
     2
  9
$DIMALTTD
 70
     3
  9
$DIMTXSTY
  7
Standard
  9
$DIMAUNIT
 70
     0
  9
$DIMADEC
 70
     1
  9
$DIMALTRND
 40
0.0
  9
$DIMAZIN
 70
     0
  9
$DIMDSEP
 70
    44
  9
$DIMATFIT
 70
     3
  9
$DIMFRAC
 70
     0
  9
$DIMLDRBLK
  1

  9
$DIMLUNIT
 70
     2
  9
$DIMLWD
 70
    -2
  9
$DIMLWE
 70
    -2
  9
$DIMTMOVE
 70
     0
  9
$DIMFXL
 40
1.0
  9
$DIMFXLON
 70
     0
  9
$DIMJOGANG
 40
0.7853981634
  9
$DIMTFILL
 70
     0
  9
$DIMTFILLCLR
 70
     0
  9
$DIMARCSYM
 70
     0
  9
$DIMLTYPE
  6

  9
$DIMLTEX1
  6

  9
$DIMLTEX2
  6

  9
$LUNITS
 70
     2
  9
$LUPREC
 70
     1
  9
$SKETCHINC
 40
1.0
  9
$FILLETRAD
 40
10.0
  9
$AUNITS
 70
     0
  9
$AUPREC
 70
     1
  9
$MENU
  1
.
  9
$ELEVATION
 40
0.0
  9
$PELEVATION
 40
0.0
  9
$THICKNESS
 40
0.0
  9
$LIMCHECK
 70
     0
  9
$CHAMFERA
 40
10.0
  9
$CHAMFERB
 40
10.0
  9
$CHAMFERC
 40
20.0
  9
$CHAMFERD
 40
0.0
  9
$SKPOLY
 70
     0
  9
$TDCREATE
 40
2455870.359740498
  9
$TDUCREATE
 40
2455870.359740498
  9
$TDUPDATE
 40
2455870.359740509
  9
$TDUUPDATE
 40
2455870.359740509
  9
$TDINDWG
 40
0.0000000116
  9
$TDUSRTIMER
 40
0.0000000116
  9
$USRTIMER
 70
     1
  9
$ANGBASE
 50
0.0
  9
$ANGDIR
 70
     0
  9
$PDMODE
 70
     0
  9
$PDSIZE
 40
-1.0
  9
$PLINEWID
 40
0.0
  9
$SPLFRAME
 70
     0
  9
$SPLINETYPE
 70
     6
  9
$SPLINESEGS
 70
     8
  9
$HANDSEED
  5
264
  9
$SURFTAB1
 70
     6
  9
$SURFTAB2
 70
     6
  9
$SURFTYPE
 70
     6
  9
$SURFU
 70
     6
  9
$SURFV
 70
     6
  9
$UCSBASE
  2

  9
$UCSNAME
  2

  9
$UCSORG
 10
0.0
 20
0.0
 30
0.0
  9
$UCSXDIR
 10
1.0
 20
0.0
 30
0.0
  9
$UCSYDIR
 10
0.0
 20
1.0
 30
0.0
  9
$UCSORTHOREF
  2

  9
$UCSORTHOVIEW
 70
     0
  9
$UCSORGTOP
 10
0.0
 20
0.0
 30
0.0
  9
$UCSORGBOTTOM
 10
0.0
 20
0.0
 30
0.0
  9
$UCSORGLEFT
 10
0.0
 20
0.0
 30
0.0
  9
$UCSORGRIGHT
 10
0.0
 20
0.0
 30
0.0
  9
$UCSORGFRONT
 10
0.0
 20
0.0
 30
0.0
  9
$UCSORGBACK
 10
0.0
 20
0.0
 30
0.0
  9
$PUCSBASE
  2

  9
$PUCSNAME
  2

  9
$PUCSORG
 10
0.0
 20
0.0
 30
0.0
  9
$PUCSXDIR
 10
1.0
 20
0.0
 30
0.0
  9
$PUCSYDIR
 10
0.0
 20
1.0
 30
0.0
  9
$PUCSORTHOREF
  2

  9
$PUCSORTHOVIEW
 70
     0
  9
$PUCSORGTOP
 10
0.0
 20
0.0
 30
0.0
  9
$PUCSORGBOTTOM
 10
0.0
 20
0.0
 30
0.0
  9
$PUCSORGLEFT
 10
0.0
 20
0.0
 30
0.0
  9
$PUCSORGRIGHT
 10
0.0
 20
0.0
 30
0.0
  9
$PUCSORGFRONT
 10
0.0
 20
0.0
 30
0.0
  9
$PUCSORGBACK
 10
0.0
 20
0.0
 30
0.0
  9
$USERI1
 70
     0
  9
$USERI2
 70
     0
  9
$USERI3
 70
     0
  9
$USERI4
 70
     0
  9
$USERI5
 70
     0
  9
$USERR1
 40
0.0
  9
$USERR2
 40
0.0
  9
$USERR3
 40
0.0
  9
$USERR4
 40
0.0
  9
$USERR5
 40
0.0
  9
$WORLDVIEW
 70
     1
  9
$SHADEDGE
 70
     3
  9
$SHADEDIF
 70
    70
  9
$TILEMODE
 70
     1
  9
$MAXACTVP
 70
    64
  9
$PINSBASE
 10
0.0
 20
0.0
 30
0.0
  9
$PLIMCHECK
 70
     0
  9
$PEXTMIN
 10
1.0000000000E+20
 20
1.0000000000E+20
 30
1.0000000000E+20
  9
$PEXTMAX
 10
-1.0000000000E+20
 20
-1.0000000000E+20
 30
-1.0000000000E+20
  9
$PLIMMIN
 10
0.0
 20
0.0
  9
$PLIMMAX
 10
420.0
 20
297.0
  9
$UNITMODE
 70
     0
  9
$VISRETAIN
 70
     1
  9
$PLINEGEN
 70
     0
  9
$PSLTSCALE
 70
     1
  9
$TREEDEPTH
 70
  3020
  9
$CMLSTYLE
  2
Standard
  9
$CMLJUST
 70
     0
  9
$CMLSCALE
 40
20.0
  9
$PROXYGRAPHICS
 70
     1
  9
$MEASUREMENT
 70
     1
  9
$CELWEIGHT
370
    -1
  9
$ENDCAPS
280
     0
  9
$JOINSTYLE
280
     0
  9
$LWDISPLAY
290
     1
  9
$INSUNITS
 70
     4
  9
$HYPERLINKBASE
  1

  9
$STYLESHEET
  1

  9
$XEDIT
290
     1
  9
$CEPSNTYPE
380
     0
  9
$PSTYLEMODE
290
     1
  9
$FINGERPRINTGUID
  2
{B23B34EF-99B4-42A9-92CE-A1795874964B}
  9
$VERSIONGUID
  2
{FAEB1C32-E019-11D5-929B-00C0DF256EC4}
  9
$EXTNAMES
290
     1
  9
$PSVPSCALE
 40
0.0
  9
$OLESTARTUP
290
     0
  9
$SORTENTS
280
   127
  9
$INDEXCTL
280
     0
  9
$HIDETEXT
280
     1
  9
$XCLIPFRAME
290
     0
  9
$HALOGAP
280
     0
  9
$OBSCOLOR
 70
   257
  9
$OBSLTYPE
280
     0
  9
$INTERSECTIONDISPLAY
280
     0
  9
$INTERSECTIONCOLOR
 70
   257
  9
$DIMASSOC
280
     2
  9
$PROJECTNAME
  1

  9
$CAMERADISPLAY
290
     0
  9
$LENSLENGTH
 40
50.0
  9
$CAMERAHEIGHT
 40
0.0
  9
$STEPSPERSEC
 40
2.0
  9
$STEPSIZE
 40
6.0
  9
$3DDWFPREC
 40
2.0
  9
$PSOLWIDTH
 40
5.0
  9
$PSOLHEIGHT
 40
80.0
  9
$LOFTANG1
 40
1.5707963268
  9
$LOFTANG2
 40
1.5707963268
  9
$LOFTMAG1
 40
0.0
  9
$LOFTMAG2
 40
0.0
  9
$LOFTPARAM
 70
     7
  9
$LOFTNORMALS
280
     1
  9
$LATITUDE
 40
37.795
  9
$LONGITUDE
 40
-122.394
  9
$NORTHDIRECTION
 40
0.0
  9
$TIMEZONE
 70
 -8000
  9
$LIGHTGLYPHDISPLAY
280
     1
  9
$TILEMODELIGHTSYNCH
280
     1
  9
$SOLIDHIST
280
     1
  9
$SHOWHIST
280
     1
  9
$DWFFRAME
280
     2
  9
$DGNFRAME
280
     2
  9
$REALWORLDSCALE
290
     1
  9
$INTERFERECOLOR
 62
   256
  9
$CSHADOW
280
     0
  9
$SHADOWPLANELOCATION
 40
0.0
  0
ENDSEC
  0
SECTION
  2
CLASSES
  0
CLASS
  1
ACDBDICTIONARYWDFLT
  2
AcDbDictionaryWithDefault
  3
ObjectDBX Classes
 90
        0
 91
        4
280
     0
281
     0
  0
CLASS
  1
VISUALSTYLE
  2
AcDbVisualStyle
  3
ObjectDBX Classes
 90
     4095
 91
        4
280
     0
281
     0
  0
CLASS
  1
MATERIAL
  2
AcDbMaterial
  3
ObjectDBX Classes
 90
     1153
 91
        4
280
     0
281
     0
  0
ENDSEC
  0
SECTION
  2
TABLES
  0
TABLE
  2
VPORT
  5
8
330
0
100
AcDbSymbolTable
 70
     1
  0
VPORT
  5
29
330
8
100
AcDbSymbolTableRecord
100
AcDbViewportTableRecord
  2
*Active
 70
     0
 10
0.0
 20
0.0
 11
1.0
 21
1.0
 12
420.5
 22
297.0
 13
0.0
 23
0.0
 14
10.0
 24
10.0
 15
10.0
 25
10.0
 16
0.0
 26
0.0
 36
1.0
 17
0.0
 27
0.0
 37
0.0
 40
594.0
 41
1.4158249158
 42
50.0
 43
0.0
 44
0.0
 50
0.0
 51
0.0
 71
     0
 72
  2000
 73
     1
 74
     3
 75
     0
 76
     0
 77
     0
 78
     0
281
     0
 65
     1
110
0.0
120
0.0
130
0.0
111
1.0
121
0.0
131
0.0
112
0.0
122
1.0
132
0.0
 79
     0
146
0.0
 60
     3
 61
     5
292
     1
282
     1
141
0.0
142
0.0
 63
   250
  0
ENDTAB
  0
TABLE
  2
LTYPE
  5
5
330
0
100
AcDbSymbolTable
 70
     6
  0
LTYPE
  5
14
330
5
100
AcDbSymbolTableRecord
100
AcDbLinetypeTableRecord
  2
ByBlock
 70
     0
  3

 72
    65
 73
     0
 40
0.0
  0
LTYPE
  5
15
330
5
100
AcDbSymbolTableRecord
100
AcDbLinetypeTableRecord
  2
ByLayer
 70
     0
  3

 72
    65
 73
     0
 40
0.0
  0
LTYPE
  5
16
330
5
100
AcDbSymbolTableRecord
100
AcDbLinetypeTableRecord
  2
Continuous
 70
     0
  3
Solid line
 72
    65
 73
     0
 40
0.0
  0
LTYPE
  5
3F
330
5
100
AcDbSymbolTableRecord
100
AcDbLinetypeTableRecord
  2
HIDDEN
 70
     0
  3
Hidden __ __ __ __ __ __ __ __ __ __ __ __ __ __
 72
    65
 73
     2
 40
1.905
 49
1.27
 74
     0
 49
-0.635
 74
     0
  0
LTYPE
  5
40
330
5
100
AcDbSymbolTableRecord
100
AcDbLinetypeTableRecord
  2
PHANTOM
 70
     0
  3
Phantom ______  __  __  ______  __  __  ______
 72
    65
 73
     6
 40
12.7
 49
6.35
 74
     0
 49
-1.27
 74
     0
 49
1.27
 74
     0
 49
-1.27
 74
     0
 49
1.27
 74
     0
 49
-1.27
 74
     0
  0
LTYPE
  5
41
330
5
100
AcDbSymbolTableRecord
100
AcDbLinetypeTableRecord
  2
CENTER
 70
     0
  3
Center ____ _ ____ _ ____ _ ____ _ ____ _ ____
 72
    65
 73
     4
 40
10.16
 49
6.35
 74
     0
 49
-1.27
 74
     0
 49
1.27
 74
     0
 49
-1.27
 74
     0
  0
LTYPE
  5
42
330
5
100
AcDbSymbolTableRecord
100
AcDbLinetypeTableRecord
  2
CENTERX2
 70
     0
  3
Center (2x) ________  __  ________  __  _____
 72
    65
 73
     4
 40
20.32
 49
12.7
 74
     0
 49
-2.54
 74
     0
 49
2.54
 74
     0
 49
-2.54
 74
     0
  0
LTYPE
  5
43
330
5
100
AcDbSymbolTableRecord
100
AcDbLinetypeTableRecord
  2
DOT2
 70
     0
  3
Dot (.5x) ........................................
 72
    65
 73
     2
 40
0.635
 49
0.0
 74
     0
 49
-0.635
 74
     0
  0
ENDTAB
  0
TABLE
  2
LAYER
  5
2
330
0
100
AcDbSymbolTable
 70
     4
  0
LAYER
  5
10
330
2
100
AcDbSymbolTableRecord
100
AcDbLayerTableRecord
  2
0
 70
     0
 62
     7
  6
Continuous
370
    -3
390
F
347
3E
  0
LAYER
  5
44
330
2
100
AcDbSymbolTableRecord
100
AcDbLayerTableRecord
  2
FORMAT
 70
     0
 62
     7
  6
Continuous
370
    -3
390
F
347
3E
  0
LAYER
  5
45
330
2
100
AcDbSymbolTableRecord
100
AcDbLayerTableRecord
  2
SLD-0
 70
     0
 62
     1
  6
Continuous
370
    -3
390
F
347
3E
  0
LAYER
  5
46
330
2
100
AcDbSymbolTableRecord
100
AcDbLayerTableRecord
  2
WATERMARK
 70
     0
 62
    20
  6
Continuous
370
    -3
390
F
347
3E
  0
ENDTAB
  0
TABLE
  2
STYLE
  5
3
330
0
100
AcDbSymbolTable
 70
     1
  0
STYLE
  5
11
330
3
100
AcDbSymbolTableRecord
100
AcDbTextStyleTableRecord
  2
Standard
 70
     0
 40
0.0
 41
1.0
 50
0.0
 71
     0
 42
2.5
  3
txt
  4

  0
ENDTAB
  0
TABLE
  2
VIEW
  5
6
330
0
100
AcDbSymbolTable
 70
     0
  0
ENDTAB
  0
TABLE
  2
UCS
  5
7
330
0
100
AcDbSymbolTable
 70
     0
  0
ENDTAB
  0
TABLE
  2
APPID
  5
9
330
0
100
AcDbSymbolTable
 70
     1
  0
APPID
  5
12
330
9
100
AcDbSymbolTableRecord
100
AcDbRegAppTableRecord
  2
ACAD
 70
     0
  0
ENDTAB
  0
TABLE
  2
DIMSTYLE
  5
A
330
0
100
AcDbSymbolTable
 70
     1
100
AcDbDimStyleTable
  0
DIMSTYLE
105
27
330
A
100
AcDbSymbolTableRecord
100
AcDbDimStyleTableRecord
  2
ISO-25
 70
     0
 41
2.5
 42
0.625
 43
3.75
 44
1.25
 73
     0
 74
     0
 77
     1
 78
     8
140
2.5
141
2.5
143
0.0393700787
147
0.625
171
     3
172
     1
178
     0
271
     2
272
     2
274
     3
278
    44
283
     0
284
     8
340
11
  0
ENDTAB
  0
TABLE
  2
BLOCK_RECORD
  5
1
330
0
100
AcDbSymbolTable
 70
     1
  0
BLOCK_RECORD
  5
1F
330
1
100
AcDbSymbolTableRecord
100
AcDbBlockTableRecord
  2
*Model_Space
340
22
 70
     0
280
     1
281
     0
  0
BLOCK_RECORD
  5
1B
330
1
100
AcDbSymbolTableRecord
100
AcDbBlockTableRecord
  2
*Paper_Space
340
1E
 70
     0
280
     1
281
     0
  0
BLOCK_RECORD
  5
23
330
1
100
AcDbSymbolTableRecord
100
AcDbBlockTableRecord
  2
*Paper_Space0
340
26
 70
     0
280
     1
281
     0
  0
ENDTAB
  0
ENDSEC
  0
SECTION
  2
BLOCKS
  0
BLOCK
  5
20
330
1F
100
AcDbEntity
  8
0
100
AcDbBlockBegin
  2
*Model_Space
 70
     0
 10
0.0
 20
0.0
 30
0.0
  3
*Model_Space
  1

  0
ENDBLK
  5
21
330
1F
100
AcDbEntity
  8
0
100
AcDbBlockEnd
  0
BLOCK
  5
1C
330
1B
100
AcDbEntity
 67
     1
  8
0
100
AcDbBlockBegin
  2
*Paper_Space
 70
     0
 10
0.0
 20
0.0
 30
0.0
  3
*Paper_Space
  1

  0
ENDBLK
  5
1D
330
1B
100
AcDbEntity
 67
     1
  8
0
100
AcDbBlockEnd
  0
BLOCK
  5
24
330
23
100
AcDbEntity
  8
0
100
AcDbBlockBegin
  2
*Paper_Space0
 70
     0
 10
0.0
 20
0.0
 30
0.0
  3
*Paper_Space0
  1

  0
ENDBLK
  5
25
330
23
100
AcDbEntity
  8
0
100
AcDbBlockEnd
  0
ENDSEC
  0
SECTION
  2
ENTITIES
  0
LINE
  5
47
330
1F
100
AcDbEntity
  8
0
  6
Continuous
 62
     7
370
    15
100
AcDbLine
 10
-6.2540712493
 20
47.7641376868
 30
0.0
 11
-5.7541074889
 21
46.7641505614
 31
0.0
  0
LINE
  5
48
330
1F
100
AcDbEntity
  8
0
  6
Continuous
 62
     7
370
    15
100
AcDbLine
 10
14.0458402497
 20
46.7641505614
 30
0.0
 11
14.5459232194
 21
47.7641376868
 31
0.0
  0
LINE
  5
49
330
1F
100
AcDbEntity
  8
0
  6
Continuous
 62
     7
370
    15
100
AcDbLine
 10
14.5459232194
 20
47.7641376868
 30
0.0
 11
14.1959247453
 21
48.464134635
 31
0.0
  0
LINE
  5
4A
330
1F
100
AcDbEntity
  8
0
  6
Continuous
 62
     7
370
    15
100
AcDbLine
 10
-5.9040727752
 20
48.464134635
 30
0.0
 11
-6.2540712493
 21
47.7641376868
 31
0.0
  0
LINE
  5
4B
330
1F
100
AcDbEntity
  8
0
  6
Continuous
 62
     7
370
    15
100
AcDbLine
 10
17.6458415849
 20
41.7641255274
 30
0.0
 11
17.6458415849
 21
46.7641505614
 31
0.0
  0
LINE
  5
4C
330
1F
100
AcDbEntity
  8
0
  6
Continuous
 62
     7
370
    15
100
AcDbLine
 10
-9.3541088241
 20
46.7641505614
 30
0.0
 11
-9.3541088241
 21
41.7641255274
 31
0.0
  0
ARC
  5
4D
330
1F
100
AcDbEntity
  8
0
  6
Continuous
 62
     7
370
    15
100
AcDbCircle
 10
-6.8541279807
 20
32.9571366326
 30
0.0
 40
0.9999999999999439
100
AcDbArc
 50
180.0
 51
249.4439547804
  0
ARC
  5
4E
330
1F
100
AcDbEntity
  8
0
  6
Continuous
 62
     7
370
    15
100
AcDbCircle
 10
15.1458720193
 20
32.9571366326
 30
0.0
 40
0.9999999999999439
100
AcDbArc
 50
290.5560452196
 51
0.0
  0
LINE
  5
4F
330
1F
100
AcDbEntity
  8
0
  6
Continuous
 62
     7
370
    15
100
AcDbLine
 10
-7.8540983336
 20
34.7641411438
 30
0.0
 11
-7.8540983336
 21
32.9571369305
 31
0.0
  0
LINE
  5
50
330
1F
100
AcDbEntity
  8
0
  6
Continuous
 62
     7
370
    15
100
AcDbLine
 10
16.1458310945
 20
32.9571369305
 30
0.0
 11
16.1458310945
 21
34.7641411438
 31
0.0
  0
LINE
  5
51
330
1F
100
AcDbEntity
  8
0
  6
Continuous
 62
     7
370
    15
100
AcDbLine
 10
-7.2052421706
 20
32.0208075657
 30
0.0
 11
-4.5030059951
 21
31.0074689999
 31
0.0
  0
LINE
  5
52
330
1F
100
AcDbEntity
  8
0
  6
Continuous
 62
     7
370
    15
100
AcDbLine
 10
12.7947387559
 20
31.0074689999
 30
0.0
 11
15.4969749314
 21
32.0208075657
 31
0.0
  0
ARC
  5
53
330
1F
100
AcDbEntity
  8
0
  6
Continuous
 62
     7
370
    15
100
AcDbCircle
 10
-4.8541279807
 20
30.0711356963
 30
0.0
 40
1.000000000000334
100
AcDbArc
 50
0.0
 51
69.4439547804
  0
ARC
  5
54
330
1F
100
AcDbEntity
  8
0
  6
Continuous
 62
     7
370
    15
100
AcDbCircle
 10
13.1458720193
 20
30.0711356963
 30
0.0
 40
1.000000000000334
100
AcDbArc
 50
110.5560452196
 51
180.0
  0
LINE
  5
55
330
1F
100
AcDbEntity
  8
0
  6
Continuous
 62
     7
370
    15
100
AcDbLine
 10
-3.854149832
 20
30.0711396351
 30
0.0
 11
-3.854149832
 21
22.7641317263
 31
0.0
  0
LINE
  5
56
330
1F
100
AcDbEntity
  8
0
  6
Continuous
 62
     7
370
    15
100
AcDbLine
 10
12.1458825929
 20
22.7641317263
 30
0.0
 11
12.1458825929
 21
30.0711396351
 31
0.0
  0
LINE
  5
57
330
1F
100
AcDbEntity
  8
0
  6
Continuous
 62
     7
370
    15
100
AcDbLine
 10
162.3097119195
 20
277.1461161986
 30
0.0
 11
162.3266992433
 21
277.1794947996
 31
0.0
  0
LINE
  5
58
330
1F
100
AcDbEntity
  8
0
  6
Continuous
 62
     7
370
    15
100
AcDbLine
 10
155.7505187852
 20
297.3866912737
 30
0.0
 11
155.7171401841
 21
297.4036785975
 31
0.0
  0
LINE
  5
59
330
1F
100
AcDbEntity
  8
0
  6
Continuous
 62
     7
370
    15
100
AcDbLine
 10
172.763889776
 20
288.7279841318
 30
0.0
 11
172.7305111749
 21
288.7449714556
 31
0.0
  0
LINE
  5
5A
330
1F
100
AcDbEntity
  8
0
  6
Continuous
 62
     7
370
    15
100
AcDbLine
 10
-24.8541774886
 20
529.5641276255
 30
0.0
 11
-24.8541774886
 21
523.9641520396
 31
0.0
  0
LINE
  5
5B
330
1F
100
AcDbEntity
  8
0
  6
Continuous
 62
     7
370
    15
100
AcDbLine
 10
-2.854103102
 20
523.9641520396
 30
0.0
 11
-2.854103102
 21
529.5641276255
 31
0.0
  0
SPLINE
  5
5C
330
1F
100
AcDbEntity
  8
0
  6
Continuous
 62
     7
370
    15
100
AcDbSpline
210
0.0
220
0.0
230
1.0
 70
     8
 71
     3
 72
    11
 73
     7
 74
     0
 42
0.00000001
 43
0.00000001
 40
0.0
 40
0.0
 40
0.0
 40
0.0
 40
0.2500007855024277
 40
0.5000004907548763
 40
0.7499993545871626
 40
1.0
 40
1.0
 40
1.0
 40
1.0
 10
839.2281887395021
 20
-5.395456849066727
 30
0.0
 10
839.7882017696887
 20
-5.350787771704502
 30
0.0
 10
840.9082254102531
 20
-5.261449809994656
 30
0.0
 10
842.4039451224294
 20
-4.434460519519234
 30
0.0
 10
843.5937576780428
 20
-3.20750405759096
 30
0.0
 10
843.9732960397041
 20
-2.149970165200688
 30
0.0
 10
844.1630658967134
 20
-1.621201334921829
 30
0.0
  0
LINE
  5
5D
330
1F
100
AcDbEntity
  8
0
  6
Continuous
 62
     7
370
    15
100
AcDbLine
 10
820.6406292779
 20
-5.0710138664
 30
0.0
 11
839.2281887395
 21
-5.3954568491
 31
0.0
  0
SPLINE
  5
5E
330
1F
100
AcDbEntity
  8
0
  6
Continuous
 62
     7
370
    15
100
AcDbSpline
210
0.0
220
0.0
230
1.0
 70
     8
 71
     3
 72
    10
 73
     6
 74
     0
 42
0.00000001
 43
0.00000001
 40
0.0
 40
0.0
 40
0.0
 40
0.0
 40
0.2143122767821675
 40
0.4495327831599167
 40
1.0
 40
1.0
 40
1.0
 40
1.0
 10
836.8575928074953
 20
32.98200696852971
 30
0.0
 10
836.7968371081195
 20
32.71349035064303
 30
0.0
 10
836.6693984049183
 20
32.15026072901001
 30
0.0
 10
836.1288922967573
 20
30.91841807779461
 30
0.0
 10
835.4640537707368
 20
30.09312473192671
 30
0.0
 10
834.9982557160494
 20
29.51490909007359
 30
0.0
  0
SPLINE
  5
5F
330
1F
100
AcDbEntity
  8
0
  6
Continuous
 62
     7
370
    15
100
AcDbSpline
210
0.0
220
0.0
230
1.0
 70
     8
 71
     3
 72
    13
 73
     9
 74
     0
 42
0.00000001
 43
0.00000001
 40
0.0
 40
0.0
 40
0.0
 40
0.0
 40
0.1773278395010874
 40
0.3552967616131013
 40
0.5270918802901087
 40
0.6917287517581594
 40
0.8492970772833892
 40
1.0
 40
1.0
 40
1.0
 40
1.0
 10
841.318285213196
 20
144.7967740907984
 30
0.0
 10
841.7477277221903
 20
138.1828497637256
 30
0.0
 10
842.6081652777033
 20
124.9310901890613
 30
0.0
 10
842.8406329916519
 20
105.2216094488273
 30
0.0
 10
842.3580174465637
 20
85.99318497934111
 30
0.0
 10
841.1449956244654
 20
67.55946497009535
 30
0.0
 10
839.3700912857179
 20
49.96063474424178
 30
0.0
 10
837.6825648602764
 20
38.55689329421125
 30
0.0
 10
836.8575928074953
 20
32.98200696852971
 30
0.0
  0
LINE
  5
60
330
1F
100
AcDbEntity
  8
0
  6
Continuous
 62
     7
370
    15
100
AcDbLine
 10
836.5511653287
 20
32.6170030251
 30
0.0
 11
820.6406292779
 21
32.3392751828
 31
0.0
  0
ARC
  5
61
330
1F
100
AcDbEntity
  8
0
  6
Continuous
 62
     7
370
    15
100
AcDbCircle
 10
820.6458720166
 20
-4.7710546566
 30
0.0
 40
0.3000000000000609
100
AcDbArc
 50
228.1896851042
 51
269.0
  0
ARC
  5
62
330
1F
100
AcDbEntity
  8
0
  6
Continuous
 62
     7
370
    15
100
AcDbCircle
 10
820.6458720166
 20
32.0393269855
 30
0.0
 40
0.3000000000000975
100
AcDbArc
 50
91.0
 51
131.8103148958
  0
SPLINE
  5
63
330
1F
100
AcDbEntity
  8
0
  6
Continuous
 62
     7
370
    15
100
AcDbSpline
210
0.0
220
0.0
230
1.0
 70
     8
 71
     3
 72
     9
 73
     5
 74
     0
 42
0.00000001
 43
0.00000001
 40
0.0
 40
0.0
 40
0.0
 40
0.0
 40
0.510808698811305
 40
1.0
 40
1.0
 40
1.0
 40
1.0
 10
841.3019833428499
 20
145.1522561922388
 30
0.0
 10
841.3025786758627
 20
145.0868520330992
 30
0.0
 10
841.303744147426
 20
144.9588116154405
 30
0.0
 10
841.3122277567023
 20
144.8310908053964
 30
0.0
 10
841.3163778645632
 20
144.768610896142
 30
0.0
  0
SPLINE
  5
64
330
1F
100
AcDbEntity
  8
0
  6
Continuous
 62
     7
370
    15
100
AcDbSpline
210
0.0
220
0.0
230
1.0
 70
     8
 71
     3
 72
     9
 73
     5
 74
     0
 42
0.00000001
 43
0.00000001
 40
0.0
 40
0.0
 40
0.0
 40
0.0
 40
0.4765815662858343
 40
1.0
 40
1.0
 40
1.0
 40
1.0
 10
841.0272059304353
 20
156.9546911135035
 30
0.0
 10
841.1131427458018
 20
155.0747426801094
 30
0.0
 10
841.2934619638451
 20
151.1300906700763
 30
0.0
 10
841.310069407965
 20
147.1831825396956
 30
0.0
 10
841.3187620503542
 20
145.117298068078
 30
0.0
  0
ARC
  5
65
330
1F
100
AcDbEntity
  8
0
  6
Continuous
 62
     7
370
    15
100
AcDbCircle
 10
436.9631396872
 20
101.2778910471
 30
0.0
 40
420.0000000000002
100
AcDbArc
 50
345.8183908852
 51
7.8372574153
  0
SPLINE
  5
66
330
1F
100
AcDbEntity
  8
0
  6
Continuous
 62
     7
370
    15
100
AcDbSpline
210
0.0
220
0.0
230
1.0
 70
     8
 71
     3
 72
    14
 73
    10
 74
     0
 42
0.00000001
 43
0.00000001
 40
0.0
 40
0.0
 40
0.0
 40
0.0
 40
0.200612604489521
 40
0.368187657388328
 40
0.5960114387772952
 40
0.7856228623426845
 40
0.9173781711878332
 40
0.9912392779133368
 40
1.0
 40
1.0
 40
1.0
 40
1.0
 10
846.674388395035
 20
162.7806279077845
 30
0.0
 10
846.0360365064132
 20
162.7063463220991
 30
0.0
 10
844.8644586434016
 20
162.5700160895587
 30
0.0
 10
843.1853054758274
 20
161.6537293221232
 30
0.0
 10
841.8900778315888
 20
160.3003223662438
 30
0.0
 10
841.1790511830994
 20
158.6568109558954
 30
0.0
 10
841.0070427244684
 20
157.4934188108071
 30
0.0
 10
840.9945644147509
 20
156.8989712837844
 30
0.0
 10
841.0331032789346
 20
156.7190485854682
 30
0.0
 10
841.0371897084352
 20
156.6999706640558
 30
0.0
  0
SPLINE
  5
67
330
1F
100
AcDbEntity
  8
0
  6
Continuous
 62
     7
370
    15
100
AcDbSpline
210
0.0
220
0.0
230
1.0
 70
     8
 71
     3
 72
    11
 73
     7
 74
     0
 42
0.00000001
 43
0.00000001
 40
0.0
 40
0.0
 40
0.0
 40
0.0
 40
0.2500009580487727
 40
0.5000015399136654
 40
0.7500008335354372
 40
1.0
 40
1.0
 40
1.0
 40
1.0
 10
853.0401048524019
 20
158.5493835821466
 30
0.0
 10
852.8941839658008
 20
159.1403837851905
 30
0.0
 10
852.6023424121702
 20
160.3223833019827
 30
0.0
 10
851.4038871863377
 20
161.7402507731223
 30
0.0
 10
849.8187383989182
 20
162.7066450259496
 30
0.0
 10
848.6059451368315
 20
162.813445702005
 30
0.0
 10
847.9995486600038
 20
162.8668460264521
 30
0.0
  0
LINE
  5
68
330
1F
100
AcDbEntity
  8
0
  6
Continuous
 62
     7
370
    15
100
AcDbLine
 10
841.0384712083
 20
156.6666218653
 30
0.0
 11
841.2478325231
 21
151.3143333807
 31
0.0
  0
SPLINE
  5
69
330
1F
100
AcDbEntity
  8
0
  6
Continuous
 62
     7
370
    15
100
AcDbSpline
210
0.0
220
0.0
230
1.0
 70
     8
 71
     3
 72
     9
 73
     5
 74
     0
 42
0.00000001
 43
0.00000001
 40
0.0
 40
0.0
 40
0.0
 40
0.0
 40
0.1567021847276432
 40
1.0
 40
1.0
 40
1.0
 40
1.0
 10
798.8998648984071
 20
13.02181214240361
 30
0.0
 10
798.899526583456
 20
13.04038909169292
 30
0.0
 10
798.8973676157824
 20
13.15893848729632
 30
0.0
 10
798.8977038264094
 20
13.28110832207285
 30
0.0
 10
798.8979873520967
 20
13.38413387683202
 30
0.0
  0
SPLINE
  5
6A
330
1F
100
AcDbEntity
  8
0
  6
Continuous
 62
     7
370
    15
100
AcDbSpline
210
0.0
220
0.0
230
1.0
 70
     8
 71
     3
 72
    13
 73
     9
 74
     0
 42
0.00000001
 43
0.00000001
 40
0.0
 40
0.0
 40
0.0
 40
0.0
 40
0.0738228191361317
 40
0.2019554223555648
 40
0.3741430003359412
 40
0.5741795859191022
 40
0.7893458292544934
 40
1.0
 40
1.0
 40
1.0
 40
1.0
 10
799.1153058869478
 20
9.39165085700322
 30
0.0
 10
799.1135764485183
 20
9.398421424450188
 30
0.0
 10
799.1088452627881
 20
9.416943513207322
 30
0.0
 10
799.0666485191224
 20
9.659491495949467
 30
0.0
 10
799.0126586216828
 20
10.14754056374434
 30
0.0
 10
798.9566268384045
 20
10.92729539865178
 30
0.0
 10
798.9137554677354
 20
11.91395943006118
 30
0.0
 10
798.9044622640095
 20
12.65514582140625
 30
0.0
 10
798.8998648984071
 20
13.02181214240361
 30
0.0
  0
SPLINE
  5
6B
330
1F
100
AcDbEntity
  8
0
  6
Continuous
 62
     7
370
    15
100
AcDbSpline
210
0.0
220
0.0
230
1.0
 70
     8
 71
     3
 72
    14
 73
    10
 74
     0
 42
0.00000001
 43
0.00000001
 40
0.0
 40
0.0
 40
0.0
 40
0.0
 40
0.1093616795708688
 40
0.318540333527902
 40
0.5266163636189092
 40
0.7302805872641275
 40
0.8885929972770031
 40
0.9988838998528489
 40
1.0
 40
1.0
 40
1.0
 40
1.0
 10
798.8979873520967
 20
13.38413387683202
 30
0.0
 10
798.8987078512238
 20
13.58868137125624
 30
0.0
 10
798.9008064659587
 20
14.18447166408898
 30
0.0
 10
798.9245374101359
 20
15.14564766922599
 30
0.0
 10
798.9737746556256
 20
16.14745793452155
 30
0.0
 10
799.0403469812737
 20
16.89083348092257
 30
0.0
 10
799.0883130134179
 20
17.26782698644602
 30
0.0
 10
799.1255344469425
 20
17.41039212320866
 30
0.0
 10
799.1165285977995
 20
17.38233688412549
 30
0.0
 10
799.1164383751985
 20
17.38205582049657
 30
0.0
  0
LWPOLYLINE
  5
6C
330
1F
100
AcDbEntity
  8
0
  6
Continuous
 62
     7
370
    15
100
AcDbPolyline
 90
        3
 70
   128
 43
0.0
 10
820.4458711011
 20
32.3299768582
 10
810.2771100862
 20
32.6406809702
 10
801.9458708627
 20
32.8952524081
  0
LWPOLYLINE
  5
6D
330
1F
100
AcDbEntity
  8
0
  6
Continuous
 62
     7
370
    15
100
AcDbPolyline
 90
        3
 70
   128
 43
0.0
 10
801.9458708627
 20
-6.1269697532
 10
809.0807852609
 20
-5.908965765
 10
820.4458711011
 20
-5.5616942033
  0
ARC
  5
6E
330
1F
100
AcDbEntity
  8
0
  6
Continuous
 62
     7
370
    15
100
AcDbCircle
 10
0.1458720193
 20
546.3141361644
 30
0.0
 40
0.25
100
AcDbArc
 50
359.9999999999
 51
90.0
  0
ARC
  5
6F
330
1F
100
AcDbEntity
  8
0
  6
Continuous
 62
     7
370
    15
100
AcDbCircle
 10
-27.8541279807
 20
546.3141361644
 30
0.0
 40
0.2500000000001137
100
AcDbArc
 50
90.0000000002
 51
180.0000000001
  0
LINE
  5
70
330
1F
100
AcDbEntity
  8
0
  6
Continuous
 62
     7
370
    15
100
AcDbLine
 10
0.395899759
 20
546.2141487017
 30
0.0
 11
0.395899759
 21
546.3141652956
 31
0.0
  0
LINE
  5
71
330
1F
100
AcDbEntity
  8
0
  6
Continuous
 62
     7
370
    15
100
AcDbLine
 10
-28.1041803496
 20
546.3141652956
 30
0.0
 11
-28.1041803496
 21
546.2141487017
 31
0.0
  0
LINE
  5
72
330
1F
100
AcDbEntity
  8
0
  6
Continuous
 62
     7
370
    15
100
AcDbLine
 10
0.395899759
 20
545.3141185656
 30
0.0
 11
-0.1041832106
 21
545.7641336336
 31
0.0
  0
LINE
  5
73
330
1F
100
AcDbEntity
  8
0
  6
Continuous
 62
     7
370
    15
100
AcDbLine
 10
-27.60409738
 20
545.7641336336
 30
0.0
 11
-28.1041803496
 21
545.3141185656
 31
0.0
  0
LINE
  5
74
330
1F
100
AcDbEntity
  8
0
  6
Continuous
 62
     7
370
    15
100
AcDbLine
 10
-28.1041803496
 20
546.2141487017
 30
0.0
 11
-27.60409738
 21
545.7641336336
 31
0.0
  0
LINE
  5
75
330
1F
100
AcDbEntity
  8
0
  6
Continuous
 62
     7
370
    15
100
AcDbLine
 10
-0.1041832106
 20
545.7641336336
 30
0.0
 11
0.395899759
 21
546.2141487017
 31
0.0
  0
LINE
  5
76
330
1F
100
AcDbEntity
  8
0
  6
Continuous
 62
     7
370
    15
100
AcDbLine
 10
-28.1041803496
 20
545.3141185656
 30
0.0
 11
-27.60409738
 21
544.8641631022
 31
0.0
  0
LINE
  5
77
330
1F
100
AcDbEntity
  8
0
  6
Continuous
 62
     7
370
    15
100
AcDbLine
 10
-0.1041832106
 20
544.8641631022
 30
0.0
 11
0.395899759
 21
545.3141185656
 31
0.0
  0
LINE
  5
78
330
1F
100
AcDbEntity
  8
0
  6
Continuous
 62
     7
370
    15
100
AcDbLine
 10
0.2292451722
 20
544.5641133204
 30
0.0
 11
-0.1041832106
 21
544.8641631022
 31
0.0
  0
LINE
  5
79
330
1F
100
AcDbEntity
  8
0
  6
Continuous
 62
     7
370
    15
100
AcDbLine
 10
-27.60409738
 20
544.8641631022
 30
0.0
 11
-27.9374065535
 21
544.5641133204
 31
0.0
  0
ARC
  5
7A
330
1F
100
AcDbEntity
  8
0
  6
Continuous
 62
     7
370
    15
100
AcDbCircle
 10
-0.4041279807
 20
547.0641361644
 30
0.0
 40
0.500000000000167
100
AcDbArc
 50
180.0
 51
270.0
  0
ARC
  5
7B
330
1F
100
AcDbEntity
  8
0
  6
Continuous
 62
     7
370
    15
100
AcDbCircle
 10
-27.3041279807
 20
547.0641361644
 30
0.0
 40
0.5
100
AcDbArc
 50
269.9999999999
 51
0.0
  0
ARC
  5
7C
330
1F
100
AcDbEntity
  8
0
  6
Continuous
 62
     7
370
    15
100
AcDbCircle
 10
-1.4041279807
 20
554.1641361644
 30
0.0
 40
0.5000000000001137
100
AcDbArc
 50
0.0000000001
 51
90.0
  0
ARC
  5
7D
330
1F
100
AcDbEntity
  8
0
  6
Continuous
 62
     7
370
    15
100
AcDbCircle
 10
-26.3041279807
 20
554.1641361644
 30
0.0
 40
0.500000000000167
100
AcDbArc
 50
90.0000000001
 51
179.9999999999
  0
LINE
  5
7E
330
1F
100
AcDbEntity
  8
0
  6
Continuous
 62
     7
370
    15
100
AcDbLine
 10
-0.9040775435
 20
547.0641109362
 30
0.0
 11
-0.9040775435
 21
554.1641566172
 31
0.0
  0
LINE
  5
7F
330
1F
100
AcDbEntity
  8
0
  6
Continuous
 62
     7
370
    15
100
AcDbLine
 10
-26.8040838378
 20
554.1641566172
 30
0.0
 11
-26.8040838378
 21
547.0641109362
 31
0.0
  0
LINE
  5
80
330
1F
100
AcDbEntity
  8
0
  6
Continuous
 62
     7
370
    15
100
AcDbLine
 10
-2.30407144
 20
555.1641437426
 30
0.0
 11
-2.30407144
 21
564.1641470805
 31
0.0
  0
LINE
  5
81
330
1F
100
AcDbEntity
  8
0
  6
Continuous
 62
     7
370
    15
100
AcDbLine
 10
-25.4040899413
 20
564.1641470805
 30
0.0
 11
-25.4040899413
 21
554.5891377344
 31
0.0
  0
ARC
  5
82
330
1F
100
AcDbEntity
  8
0
  6
Continuous
 62
     7
370
    15
100
AcDbCircle
 10
-1.8041279807
 20
555.1641361644
 30
0.0
 40
0.5000000000000194
100
AcDbArc
 50
179.9763392634
 51
270.0
  0
LINE
  5
83
330
1F
100
AcDbEntity
  8
0
  6
Continuous
 62
     7
370
    15
100
AcDbLine
 10
9.6708593232
 20
6.1541351691
 30
0.0
 11
9.6708593232
 21
10.9541419163
 31
0.0
  0
LINE
  5
84
330
1F
100
AcDbEntity
  8
0
  6
Continuous
 62
     7
370
    15
100
AcDbLine
 10
-1.3791265624
 20
10.9541419163
 30
0.0
 11
-1.3791265624
 21
6.1541351691
 31
0.0
  0
LINE
  5
85
330
1F
100
AcDbEntity
  8
0
  6
Continuous
 62
     7
370
    15
100
AcDbLine
 10
13.8741788728
 20
48.464134635
 30
0.0
 11
13.8741788728
 21
52.3641261473
 31
0.0
  0
LINE
  5
86
330
1F
100
AcDbEntity
  8
0
  6
Continuous
 62
     7
370
    15
100
AcDbLine
 10
13.8741788728
 20
48.464134635
 30
0.0
 11
-5.582446112
 21
48.464134635
 31
0.0
  0
LINE
  5
87
330
1F
100
AcDbEntity
  8
0
  6
Continuous
 62
     7
370
    15
100
AcDbLine
 10
-5.582446112
 20
48.464134635
 30
0.0
 11
-5.582446112
 21
52.3641261473
 31
0.0
  0
LINE
  5
88
330
1F
100
AcDbEntity
  8
0
  6
Continuous
 62
     7
370
    15
100
AcDbLine
 10
23.6026105744
 20
48.464134635
 30
0.0
 11
23.6026105744
 21
52.3641261473
 31
0.0
  0
LINE
  5
89
330
1F
100
AcDbEntity
  8
0
  6
Continuous
 62
     7
370
    15
100
AcDbLine
 10
23.6026105744
 20
48.464134635
 30
0.0
 11
13.8741788728
 21
48.464134635
 31
0.0
  0
LINE
  5
8A
330
1F
100
AcDbEntity
  8
0
  6
Continuous
 62
     7
370
    15
100
AcDbLine
 10
-5.582446112
 20
48.464134635
 30
0.0
 11
-15.3108778136
 21
48.464134635
 31
0.0
  0
LINE
  5
8B
330
1F
100
AcDbEntity
  8
0
  6
Continuous
 62
     7
370
    15
100
AcDbLine
 10
-15.3108778136
 20
48.464134635
 30
0.0
 11
-15.3108778136
 21
52.3641261473
 31
0.0
  0
LINE
  5
8C
330
1F
100
AcDbEntity
  8
0
  6
Continuous
 62
     7
370
    15
100
AcDbLine
 10
4.1458663804
 20
34.7641411438
 30
0.0
 11
4.6148357255
 21
34.7641411438
 31
0.0
  0
LINE
  5
8D
330
1F
100
AcDbEntity
  8
0
  6
Continuous
 62
     7
370
    15
100
AcDbLine
 10
3.6768970353
 20
34.7641411438
 30
0.0
 11
4.1458663804
 21
34.7641411438
 31
0.0
  0
LINE
  5
8E
330
1F
100
AcDbEntity
  8
0
  6
Continuous
 62
     7
370
    15
100
AcDbLine
 10
4.1458663804
 20
47.7641376868
 30
0.0
 11
14.5459232194
 21
47.7641376868
 31
0.0
  0
LINE
  5
8F
330
1F
100
AcDbEntity
  8
0
  6
Continuous
 62
     7
370
    15
100
AcDbLine
 10
-6.2540712493
 20
47.7641376868
 30
0.0
 11
4.1458663804
 21
47.7641376868
 31
0.0
  0
LINE
  5
90
330
1F
100
AcDbEntity
  8
0
  6
Continuous
 62
     7
370
    15
100
AcDbLine
 10
13.1670293672
 20
85.8133885279
 30
0.0
 11
13.1670293672
 21
82.5148972884
 31
0.0
  0
LINE
  5
91
330
1F
100
AcDbEntity
  8
0
  6
Continuous
 62
     7
370
    15
100
AcDbLine
 10
16.1458310945
 20
41.7641255274
 30
0.0
 11
17.6458415849
 21
41.7641255274
 31
0.0
  0
LINE
  5
92
330
1F
100
AcDbEntity
  8
0
  6
Continuous
 62
     7
370
    15
100
AcDbLine
 10
16.1458310945
 20
34.7641411438
 30
0.0
 11
16.1458310945
 21
41.7641255274
 31
0.0
  0
LINE
  5
93
330
1F
100
AcDbEntity
  8
0
  6
Continuous
 62
     7
370
    15
100
AcDbLine
 10
16.1458310945
 20
34.7641411438
 30
0.0
 11
15.5019817216
 21
34.7641411438
 31
0.0
  0
LINE
  5
94
330
1F
100
AcDbEntity
  8
0
  6
Continuous
 62
     7
370
    15
100
AcDbLine
 10
15.5019817216
 20
41.7641255274
 30
0.0
 11
15.5019817216
 21
34.7641411438
 31
0.0
  0
LINE
  5
95
330
1F
100
AcDbEntity
  8
0
  6
Continuous
 62
     7
370
    15
100
AcDbLine
 10
4.7898349626
 20
41.7641255274
 30
0.0
 11
15.5019817216
 21
41.7641255274
 31
0.0
  0
LINE
  5
96
330
1F
100
AcDbEntity
  8
0
  6
Continuous
 62
     7
370
    15
100
AcDbLine
 10
4.7898349626
 20
34.7641411438
 30
0.0
 11
4.7898349626
 21
41.7641255274
 31
0.0
  0
LINE
  5
97
330
1F
100
AcDbEntity
  8
0
  6
Continuous
 62
     7
370
    15
100
AcDbLine
 10
4.7898349626
 20
34.7641411438
 30
0.0
 11
3.5018977983
 21
34.7641411438
 31
0.0
  0
LINE
  5
98
330
1F
100
AcDbEntity
  8
0
  6
Continuous
 62
     7
370
    15
100
AcDbLine
 10
3.5018977983
 20
41.7641255274
 30
0.0
 11
3.5018977983
 21
34.7641411438
 31
0.0
  0
LINE
  5
99
330
1F
100
AcDbEntity
  8
0
  6
Continuous
 62
     7
370
    15
100
AcDbLine
 10
-7.2102489608
 20
41.7641255274
 30
0.0
 11
3.5018977983
 21
41.7641255274
 31
0.0
  0
LINE
  5
9A
330
1F
100
AcDbEntity
  8
0
  6
Continuous
 62
     7
370
    15
100
AcDbLine
 10
-7.2102489608
 20
34.7641411438
 30
0.0
 11
-7.2102489608
 21
41.7641255274
 31
0.0
  0
LINE
  5
9B
330
1F
100
AcDbEntity
  8
0
  6
Continuous
 62
     7
370
    15
100
AcDbLine
 10
-7.2102489608
 20
34.7641411438
 30
0.0
 11
-7.8540983336
 21
34.7641411438
 31
0.0
  0
LINE
  5
9C
330
1F
100
AcDbEntity
  8
0
  6
Continuous
 62
     7
370
    15
100
AcDbLine
 10
-7.8540983336
 20
41.7641255274
 30
0.0
 11
-7.8540983336
 21
34.7641411438
 31
0.0
  0
LINE
  5
9D
330
1F
100
AcDbEntity
  8
0
  6
Continuous
 62
     7
370
    15
100
AcDbLine
 10
-9.3541088241
 20
41.7641255274
 30
0.0
 11
-7.8540983336
 21
41.7641255274
 31
0.0
  0
LINE
  5
9E
330
1F
100
AcDbEntity
  8
0
  6
Continuous
 62
     7
370
    15
100
AcDbLine
 10
-9.3541088241
 20
46.7641505614
 30
0.0
 11
17.6458415849
 21
46.7641505614
 31
0.0
  0
LINE
  5
9F
330
1F
100
AcDbEntity
  8
0
  6
Continuous
 62
     7
370
    15
100
AcDbLine
 10
-7.2102489608
 20
34.7641411438
 30
0.0
 11
-1.8541755813
 21
34.7641411438
 31
0.0
  0
LINE
  5
A0
330
1F
100
AcDbEntity
  8
0
  6
Continuous
 62
     7
370
    15
100
AcDbLine
 10
-1.8541755813
 20
34.7641411438
 30
0.0
 11
3.5018977983
 21
34.7641411438
 31
0.0
  0
LINE
  5
A1
330
1F
100
AcDbEntity
  8
0
  6
Continuous
 62
     7
370
    15
100
AcDbLine
 10
10.1459083421
 20
34.7641411438
 30
0.0
 11
15.5019817216
 21
34.7641411438
 31
0.0
  0
LINE
  5
A2
330
1F
100
AcDbEntity
  8
0
  6
Continuous
 62
     7
370
    15
100
AcDbLine
 10
4.7898349626
 20
34.7641411438
 30
0.0
 11
10.1459083421
 21
34.7641411438
 31
0.0
  0
SPLINE
  5
A3
330
1F
100
AcDbEntity
  8
0
  6
Continuous
 62
     7
370
    15
100
AcDbSpline
210
0.0
220
0.0
230
1.0
 70
     8
 71
     3
 72
    26
 73
    22
 74
     0
 42
0.00000001
 43
0.00000001
 40
0.0
 40
0.0
 40
0.0
 40
0.0
 40
0.0501334917013564
 40
0.093073559239929
 40
0.1380718392551294
 40
0.2087864689267234
 40
0.277146965518544
 40
0.3416902146964228
 40
0.3991884922825862
 40
0.4507000022756124
 40
0.4999527446481506
 40
0.5492054870206889
 40
0.6007169970137151
 40
0.6582150709937082
 40
0.7227585803680635
 40
0.7672422704834911
 40
0.8133764781553708
 40
0.8619281467558855
 40
0.9069257539229186
 40
0.9498661634001829
 40
1.0
 40
1.0
 40
1.0
 40
1.0
 10
12.14588259288019
 20
22.76413172629643
 30
0.0
 10
12.13197605880212
 20
22.40329290504528
 30
0.0
 10
12.1061583752653
 20
21.73339036552441
 30
0.0
 10
11.90631802522923
 20
20.74855847799939
 30
0.0
 10
11.5473624631468
 20
19.63492438394254
 30
0.0
 10
10.9060161545429
 20
18.38434185329896
 30
0.0
 10
9.879659210960678
 20
17.10350476549061
 30
0.0
 10
8.607403418954274
 20
16.05626245466074
 30
0.0
 10
7.177893994764428
 20
15.30540853950518
 30
0.0
 10
5.67598709255912
 20
14.86243224560957
 30
0.0
 10
4.145865548031979
 20
14.71608230534527
 30
0.0
 10
2.61574907416251
 20
14.86242806749955
 30
0.0
 10
1.113827565461856
 20
15.30542643668054
 30
0.0
 10
-0.3156116914786455
 20
16.05617937226783
 30
0.0
 10
-1.428622974557703
 20
16.97240619996754
 30
0.0
 10
-2.25563331503098
 20
17.92560890823586
 30
0.0
 10
-2.851631591774817
 20
18.83595692411399
 30
0.0
 10
-3.305805588677213
 20
19.79036937971834
 30
0.0
 10
-3.614580488590757
 20
20.74855884919608
 30
0.0
 10
-3.814427374078333
 20
21.73336941338644
 30
0.0
 10
-3.840243918498132
 20
22.40328568742256
 30
0.0
 10
-3.854149832046572
 20
22.76413172629643
 30
0.0
  0
ARC
  5
A4
330
1F
100
AcDbEntity
  8
0
  6
Continuous
 62
     7
370
    15
100
AcDbCircle
 10
4.1458720193
 20
22.7641361644
 30
0.0
 40
9.0000000000001
100
AcDbArc
 50
152.7339555493
 51
27.2660444507
  0
ARC
  5
A5
330
1F
100
AcDbEntity
  8
0
  6
Continuous
 62
     7
370
    15
100
AcDbCircle
 10
4.1458720193
 20
22.7641361644
 30
0.0
 40
10.5000000000001
100
AcDbArc
 50
139.6324064558
 51
270.0
  0
ARC
  5
A6
330
1F
100
AcDbEntity
  8
0
  6
Continuous
 62
     7
370
    15
100
AcDbCircle
 10
4.1458720193
 20
22.7641361644
 30
0.0
 40
10.5000000000001
100
AcDbArc
 50
270.0
 51
40.3675935442
  0
LINE
  5
A7
330
1F
100
AcDbEntity
  8
0
  6
Continuous
 62
     7
370
    15
100
AcDbLine
 10
12.9258689744
 20
31.056657733
 30
0.0
 11
17.6453647477
 21
22.882342638
 31
0.0
  0
ARC
  5
A8
330
1F
100
AcDbEntity
  8
0
  6
Continuous
 62
     7
370
    15
100
AcDbCircle
 10
4.1458720193
 20
22.7641361644
 30
0.0
 40
13.5
100
AcDbArc
 50
359.4982925166
 51
0.5017074834
  0
LINE
  5
A9
330
1F
100
AcDbEntity
  8
0
  6
Continuous
 62
     7
370
    15
100
AcDbLine
 10
10.7932147843
 20
11.0141339913
 30
0.0
 11
-2.5014820235
 21
11.0141339913
 31
0.0
  0
ARC
  5
AA
330
1F
100
AcDbEntity
  8
0
  6
Continuous
 62
     7
370
    15
100
AcDbCircle
 10
4.1458720193
 20
22.7641361644
 30
0.0
 40
13.50000000000009
100
AcDbArc
 50
239.4982925166
 51
240.5017074834
  0
LINE
  5
AB
330
1F
100
AcDbEntity
  8
0
  6
Continuous
 62
     7
370
    15
100
AcDbLine
 10
-2.706283583
 20
11.132344903
 30
0.0
 11
-9.3536319869
 21
22.6459208145
 31
0.0
  0
LINE
  5
AC
330
1F
100
AcDbEntity
  8
0
  6
Continuous
 62
     7
370
    15
100
AcDbLine
 10
17.6453647477
 20
22.6459208145
 30
0.0
 11
10.9980163438
 21
11.132344903
 31
0.0
  0
ARC
  5
AD
330
1F
100
AcDbEntity
  8
0
  6
Continuous
 62
     7
370
    15
100
AcDbCircle
 10
4.1458720193
 20
22.7641361644
 30
0.0
 40
13.49999999999956
100
AcDbArc
 50
299.4982925166
 51
300.5017074834
  0
LINE
  5
AE
330
1F
100
AcDbEntity
  8
0
  6
Continuous
 62
     7
370
    15
100
AcDbLine
 10
-9.3536319869
 20
22.882342638
 30
0.0
 11
-4.6341362136
 21
31.056657733
 31
0.0
  0
ARC
  5
AF
330
1F
100
AcDbEntity
  8
0
  6
Continuous
 62
     7
370
    15
100
AcDbCircle
 10
4.1458720193
 20
22.7641361644
 30
0.0
 40
13.50000000000068
100
AcDbArc
 50
179.4982925166
 51
180.5017074834
  0
ARC
  5
B0
330
1F
100
AcDbEntity
  8
0
  6
Continuous
 62
     7
370
    15
100
AcDbCircle
 10
52.6458720193
 20
523.8641361644
 30
0.0
 40
2.700000000000145
100
AcDbArc
 50
287.2352852571
 51
0.0
  0
ARC
  5
B1
330
1F
100
AcDbEntity
  8
0
  6
Continuous
 62
     7
370
    15
100
AcDbCircle
 10
52.6458720193
 20
523.8641361644
 30
0.0
 40
1.500000000000057
100
AcDbArc
 50
302.2309526356
 51
0.0
  0
LINE
  5
B2
330
1F
100
AcDbEntity
  8
0
  6
Continuous
 62
     7
370
    15
100
AcDbLine
 10
54.1458186967
 20
523.8641354456
 30
0.0
 11
55.3458986146
 21
523.8641354456
 31
0.0
  0
LINE
  5
B3
330
1F
100
AcDbEntity
  8
0
  6
Continuous
 62
     7
370
    15
100
AcDbLine
 10
54.1458186967
 20
534.3641492739
 30
0.0
 11
54.1458186967
 21
523.8641354456
 31
0.0
  0
LINE
  5
B4
330
1F
100
AcDbEntity
  8
0
  6
Continuous
 62
     7
370
    15
100
AcDbLine
 10
55.3458986146
 20
534.3641492739
 30
0.0
 11
54.1458186967
 21
534.3641492739
 31
0.0
  0
LINE
  5
B5
330
1F
100
AcDbEntity
  8
0
  6
Continuous
 62
     7
370
    15
100
AcDbLine
 10
55.3458986146
 20
534.3641492739
 30
0.0
 11
55.3458986146
 21
523.8641354456
 31
0.0
  0
LINE
  5
B6
330
1F
100
AcDbEntity
  8
0
  6
Continuous
 62
     7
370
    15
100
AcDbLine
 10
55.3458986146
 20
41.964128913
 30
0.0
 11
54.1458186967
 21
41.964128913
 31
0.0
  0
LINE
  5
B7
330
1F
100
AcDbEntity
  8
0
  6
Continuous
 62
     7
370
    15
100
AcDbLine
 10
54.1458186967
 20
52.4641427412
 30
0.0
 11
55.3458986146
 21
52.4641427412
 31
0.0
  0
LINE
  5
B8
330
1F
100
AcDbEntity
  8
0
  6
Continuous
 62
     7
370
    15
100
AcDbLine
 10
54.1458186967
 20
52.4641427412
 30
0.0
 11
54.1458186967
 21
41.964128913
 31
0.0
  0
LINE
  5
B9
330
1F
100
AcDbEntity
  8
0
  6
Continuous
 62
     7
370
    15
100
AcDbLine
 10
55.3458986146
 20
52.4641427412
 30
0.0
 11
55.3458986146
 21
41.964128913
 31
0.0
  0
ARC
  5
BA
330
1F
100
AcDbEntity
  8
0
  6
Continuous
 62
     7
370
    15
100
AcDbCircle
 10
52.6458720193
 20
52.4641361644
 30
0.0
 40
1.500000000000008
100
AcDbArc
 50
0.0
 51
57.7690473646
  0
ARC
  5
BB
330
1F
100
AcDbEntity
  8
0
  6
Continuous
 62
     7
370
    15
100
AcDbCircle
 10
52.6458720193
 20
52.4641361644
 30
0.0
 40
2.699999999999972
100
AcDbArc
 50
0.0
 51
72.764714743
  0
LINE
  5
BC
330
1F
100
AcDbEntity
  8
0
  6
Continuous
 62
     7
370
    15
100
AcDbLine
 10
67.3959312303
 20
586.7141339197
 30
0.0
 11
67.3959312303
 21
589.1641232386
 31
0.0
  0
LINE
  5
BD
330
1F
100
AcDbEntity
  8
0
  6
Continuous
 62
     7
370
    15
100
AcDbLine
 10
67.3959312303
 20
589.1641232386
 30
0.0
 11
763.7458798749
 21
589.1641232386
 31
0.0
  0
LINE
  5
BE
330
1F
100
AcDbEntity
  8
0
  6
Continuous
 62
     7
370
    15
100
AcDbLine
 10
763.7458798749
 20
589.1641232386
 30
0.0
 11
763.7458798749
 21
587.96416253
 31
0.0
  0
LINE
  5
BF
330
1F
100
AcDbEntity
  8
0
  6
Continuous
 62
     7
370
    15
100
AcDbLine
 10
763.7458798749
 20
586.7141339197
 30
0.0
 11
67.3959312303
 21
586.7141339197
 31
0.0
  0
LINE
  5
C0
330
1F
100
AcDbEntity
  8
0
  6
Continuous
 62
     7
370
    15
100
AcDbLine
 10
763.7458798749
 20
-10.385870634
 30
0.0
 11
763.7458798749
 21
-11.635869442
 31
0.0
  0
LINE
  5
C1
330
1F
100
AcDbEntity
  8
0
  6
Continuous
 62
     7
370
    15
100
AcDbLine
 10
763.7458798749
 20
586.7141339197
 30
0.0
 11
763.7458798749
 21
-10.385870634
 31
0.0
  0
LINE
  5
C2
330
1F
100
AcDbEntity
  8
0
  6
Continuous
 62
     7
370
    15
100
AcDbLine
 10
763.7458798749
 20
587.96416253
 30
0.0
 11
763.7458798749
 21
586.7141339197
 31
0.0
  0
LINE
  5
C3
330
1F
100
AcDbEntity
  8
0
  6
Continuous
 62
     7
370
    15
100
AcDbLine
 10
786.1458716256
 20
587.96416253
 30
0.0
 11
763.7458798749
 21
587.96416253
 31
0.0
  0
LINE
  5
C4
330
1F
100
AcDbEntity
  8
0
  6
Continuous
 62
     7
370
    15
100
AcDbLine
 10
786.1458716256
 20
587.96416253
 30
0.0
 11
786.1458716256
 21
-11.635869442
 31
0.0
  0
LINE
  5
C5
330
1F
100
AcDbEntity
  8
0
  6
Continuous
 62
     7
370
    15
100
AcDbLine
 10
786.1458716256
 20
-11.635869442
 30
0.0
 11
763.7458798749
 21
-11.635869442
 31
0.0
  0
LINE
  5
C6
330
1F
100
AcDbEntity
  8
0
  6
Continuous
 62
     7
370
    15
100
AcDbLine
 10
67.3959312303
 20
586.7141339197
 30
0.0
 11
67.3959312303
 21
-10.385870634
 31
0.0
  0
LINE
  5
C7
330
1F
100
AcDbEntity
  8
0
  6
Continuous
 62
     7
370
    15
100
AcDbLine
 10
67.3959312303
 20
-10.385870634
 30
0.0
 11
64.9458227021
 21
-10.385870634
 31
0.0
  0
LINE
  5
C8
330
1F
100
AcDbEntity
  8
0
  6
Continuous
 62
     7
370
    15
100
AcDbLine
 10
64.9458227021
 20
586.7141339197
 30
0.0
 11
64.9458227021
 21
-10.385870634
 31
0.0
  0
LINE
  5
C9
330
1F
100
AcDbEntity
  8
0
  6
Continuous
 62
     7
370
    15
100
AcDbLine
 10
67.3959312303
 20
586.7141339197
 30
0.0
 11
64.9458227021
 21
586.7141339197
 31
0.0
  0
LINE
  5
CA
330
1F
100
AcDbEntity
  8
0
  6
Continuous
 62
     7
370
    15
100
AcDbLine
 10
67.3959312303
 20
-10.385870634
 30
0.0
 11
763.7458798749
 21
-10.385870634
 31
0.0
  0
CIRCLE
  5
CB
330
1F
100
AcDbEntity
  8
0
  6
Continuous
 62
     7
370
    15
100
AcDbCircle
 10
161.9458720168
 20
288.1641361644
 30
0.0
 40
15.00000000000003
  0
LINE
  5
CC
330
1F
100
AcDbEntity
  8
0
  6
Continuous
 62
     7
370
    15
100
AcDbLine
 10
763.7458798749
 20
-11.635869442
 30
0.0
 11
763.7458798749
 21
-12.8358599529
 31
0.0
  0
LINE
  5
CD
330
1F
100
AcDbEntity
  8
0
  6
Continuous
 62
     7
370
    15
100
AcDbLine
 10
763.7458798749
 20
-12.8358599529
 30
0.0
 11
67.3959312303
 21
-12.8358599529
 31
0.0
  0
LINE
  5
CE
330
1F
100
AcDbEntity
  8
0
  6
Continuous
 62
     7
370
    15
100
AcDbLine
 10
67.3959312303
 20
-12.8358599529
 30
0.0
 11
67.3959312303
 21
-10.385870634
 31
0.0
  0
LINE
  5
CF
330
1F
100
AcDbEntity
  8
0
  6
Continuous
 62
     7
370
    15
100
AcDbLine
 10
64.9458227021
 20
587.96416253
 30
0.0
 11
64.9458227021
 21
586.7141339197
 31
0.0
  0
LINE
  5
D0
330
1F
100
AcDbEntity
  8
0
  6
Continuous
 62
     7
370
    15
100
AcDbLine
 10
64.9458227021
 20
587.96416253
 30
0.0
 11
66.14590262
 21
587.96416253
 31
0.0
  0
LINE
  5
D1
330
1F
100
AcDbEntity
  8
0
  6
Continuous
 62
     7
370
    15
100
AcDbLine
 10
66.14590262
 20
587.96416253
 30
0.0
 11
66.14590262
 21
586.7141339197
 31
0.0
  0
LINE
  5
D2
330
1F
100
AcDbEntity
  8
0
  6
Continuous
 62
     7
370
    15
100
AcDbLine
 10
66.14590262
 20
-11.635869442
 30
0.0
 11
64.9458227021
 21
-11.635869442
 31
0.0
  0
LINE
  5
D3
330
1F
100
AcDbEntity
  8
0
  6
Continuous
 62
     7
370
    15
100
AcDbLine
 10
64.9458227021
 20
-10.385870634
 30
0.0
 11
64.9458227021
 21
-11.635869442
 31
0.0
  0
LINE
  5
D4
330
1F
100
AcDbEntity
  8
0
  6
Continuous
 62
     7
370
    15
100
AcDbLine
 10
66.14590262
 20
-10.385870634
 30
0.0
 11
66.14590262
 21
-11.635869442
 31
0.0
  0
LINE
  5
D5
330
1F
100
AcDbEntity
  8
0
  6
Continuous
 62
     7
370
    15
100
AcDbLine
 10
770.9004042012
 20
-12.8358599529
 30
0.0
 11
770.9004042012
 21
-11.635869442
 31
0.0
  0
LINE
  5
D6
330
1F
100
AcDbEntity
  8
0
  6
Continuous
 62
     7
370
    15
100
AcDbLine
 10
770.9004042012
 20
-12.8358599529
 30
0.0
 11
763.7458798749
 21
-12.8358599529
 31
0.0
  0
LINE
  5
D7
330
1F
100
AcDbEntity
  8
0
  6
Continuous
 62
     7
370
    15
100
AcDbLine
 10
66.245919214
 20
-12.8358599529
 30
0.0
 11
66.245919214
 21
-11.635869442
 31
0.0
  0
LINE
  5
D8
330
1F
100
AcDbEntity
  8
0
  6
Continuous
 62
     7
370
    15
100
AcDbLine
 10
67.3959312303
 20
-12.8358599529
 30
0.0
 11
66.245919214
 21
-12.8358599529
 31
0.0
  0
LINE
  5
D9
330
1F
100
AcDbEntity
  8
0
  6
Continuous
 62
     7
370
    15
100
AcDbLine
 10
67.3959312303
 20
-11.635869442
 30
0.0
 11
66.245919214
 21
-11.635869442
 31
0.0
  0
LINE
  5
DA
330
1F
100
AcDbEntity
  8
0
  6
Continuous
 62
     7
370
    15
100
AcDbLine
 10
770.9004042012
 20
589.1641232386
 30
0.0
 11
770.9004042012
 21
587.96416253
 31
0.0
  0
LINE
  5
DB
330
1F
100
AcDbEntity
  8
0
  6
Continuous
 62
     7
370
    15
100
AcDbLine
 10
763.7458798749
 20
589.1641232386
 30
0.0
 11
770.9004042012
 21
589.1641232386
 31
0.0
  0
LINE
  5
DC
330
1F
100
AcDbEntity
  8
0
  6
Continuous
 62
     7
370
    15
100
AcDbLine
 10
784.8458645208
 20
-12.8358599529
 30
0.0
 11
784.8458645208
 21
-11.635869442
 31
0.0
  0
LINE
  5
DD
330
1F
100
AcDbEntity
  8
0
  6
Continuous
 62
     7
370
    15
100
AcDbLine
 10
784.8458645208
 20
-12.8358599529
 30
0.0
 11
770.9004042012
 21
-12.8358599529
 31
0.0
  0
LINE
  5
DE
330
1F
100
AcDbEntity
  8
0
  6
Continuous
 62
     7
370
    15
100
AcDbLine
 10
66.245919214
 20
589.1641232386
 30
0.0
 11
66.245919214
 21
587.96416253
 31
0.0
  0
LINE
  5
DF
330
1F
100
AcDbEntity
  8
0
  6
Continuous
 62
     7
370
    15
100
AcDbLine
 10
66.245919214
 20
589.1641232386
 30
0.0
 11
67.3959312303
 21
589.1641232386
 31
0.0
  0
LINE
  5
E0
330
1F
100
AcDbEntity
  8
0
  6
Continuous
 62
     7
370
    15
100
AcDbLine
 10
66.245919214
 20
587.96416253
 30
0.0
 11
67.3959312303
 21
587.96416253
 31
0.0
  0
LINE
  5
E1
330
1F
100
AcDbEntity
  8
0
  6
Continuous
 62
     7
370
    15
100
AcDbLine
 10
784.8458645208
 20
589.1641232386
 30
0.0
 11
784.8458645208
 21
587.96416253
 31
0.0
  0
LINE
  5
E2
330
1F
100
AcDbEntity
  8
0
  6
Continuous
 62
     7
370
    15
100
AcDbLine
 10
770.9004042012
 20
589.1641232386
 30
0.0
 11
784.8458645208
 21
589.1641232386
 31
0.0
  0
LINE
  5
E3
330
1F
100
AcDbEntity
  8
0
  6
Continuous
 62
     7
370
    15
100
AcDbLine
 10
66.245919214
 20
587.96416253
 30
0.0
 11
66.245919214
 21
586.7141339197
 31
0.0
  0
LINE
  5
E4
330
1F
100
AcDbEntity
  8
0
  6
Continuous
 62
     7
370
    15
100
AcDbLine
 10
66.245919214
 20
-10.385870634
 30
0.0
 11
66.245919214
 21
-11.635869442
 31
0.0
  0
CIRCLE
  5
E5
330
1F
100
AcDbEntity
  8
0
  6
Continuous
 62
     7
370
    15
100
AcDbCircle
 10
161.7458720193
 20
288.1641361644
 30
0.0
 40
11.00000000000005
  0
CIRCLE
  5
E6
330
1F
100
AcDbEntity
  8
0
  6
Continuous
 62
     7
370
    15
100
AcDbCircle
 10
161.7458720193
 20
288.1641361644
 30
0.0
 40
10.30000000000004
  0
LINE
  5
E7
330
1F
100
AcDbEntity
  8
0
  6
Continuous
 62
     7
370
    15
100
AcDbLine
 10
787.7458689077
 20
33.3291295185
 30
0.0
 11
787.7458689077
 21
106.3341352358
 31
0.0
  0
LINE
  5
E8
330
1F
100
AcDbEntity
  8
0
  6
Continuous
 62
     7
370
    15
100
AcDbLine
 10
786.1458716256
 20
107.8341457262
 30
0.0
 11
787.7458689077
 21
107.8341457262
 31
0.0
  0
LINE
  5
E9
330
1F
100
AcDbEntity
  8
0
  6
Continuous
 62
     7
370
    15
100
AcDbLine
 10
787.7458689077
 20
107.8341457262
 30
0.0
 11
787.7458689077
 21
106.3341352358
 31
0.0
  0
SPLINE
  5
EA
330
1F
100
AcDbEntity
  8
0
  6
Continuous
 62
     7
370
    15
100
AcDbSpline
210
0.0
220
0.0
230
1.0
 70
     8
 71
     3
 72
    11
 73
     7
 74
     0
 42
0.00000001
 43
0.00000001
 40
0.0
 40
0.0
 40
0.0
 40
0.0
 40
0.2499890993962926
 40
0.4999958882416343
 40
0.7499798453965235
 40
1.0
 40
1.0
 40
1.0
 40
1.0
 10
-46.05411912373359
 20
521.6641280069667
 30
0.0
 10
-46.35547898794368
 20
521.7302182844644
 30
0.0
 10
-46.95822004085359
 20
521.8624035160661
 30
0.0
 10
-47.71856282106035
 20
522.0605229538143
 30
0.0
 10
-48.25038336409948
 20
522.2588276701174
 30
0.0
 10
-48.31955488970952
 20
522.3909717654884
 30
0.0
 10
-48.35414315632613
 20
522.4570485964136
 30
0.0
  0
LINE
  5
EB
330
1F
100
AcDbEntity
  8
0
  6
Continuous
 62
     7
370
    15
100
AcDbLine
 10
-48.3541431563
 20
522.4570485964
 30
0.0
 11
-47.5541296142
 21
522.4570485964
 31
0.0
  0
CIRCLE
  5
EC
330
1F
100
AcDbEntity
  8
0
  6
Continuous
 62
     7
370
    15
100
AcDbCircle
 10
12.4458720193
 20
492.1641361644
 30
0.0
 40
1.800000000000024
  0
CIRCLE
  5
ED
330
1F
100
AcDbEntity
  8
0
  6
Continuous
 62
     7
370
    15
100
AcDbCircle
 10
32.4458720193
 20
84.1641361644
 30
0.0
 40
1.800000000000018
  0
CIRCLE
  5
EE
330
1F
100
AcDbEntity
  8
0
  6
Continuous
 62
     7
370
    15
100
AcDbCircle
 10
12.4458720193
 20
84.1641361644
 30
0.0
 40
1.800000000000024
  0
CIRCLE
  5
EF
330
1F
100
AcDbEntity
  8
0
  6
Continuous
 62
     7
370
    15
100
AcDbCircle
 10
32.4458720193
 20
492.1641361644
 30
0.0
 40
1.800000000000018
  0
LINE
  5
F0
330
1F
100
AcDbEntity
  8
0
  6
Continuous
 62
     7
370
    15
100
AcDbLine
 10
56.945925699
 20
513.9641615763
 30
0.0
 11
56.5458593232
 21
513.9641615763
 31
0.0
  0
LINE
  5
F1
330
1F
100
AcDbEntity
  8
0
  6
Continuous
 62
     7
370
    15
100
AcDbLine
 10
56.945925699
 20
62.3641464129
 30
0.0
 11
56.945925699
 21
513.9641615763
 31
0.0
  0
LINE
  5
F2
330
1F
100
AcDbEntity
  8
0
  6
Continuous
 62
     7
370
    15
100
AcDbLine
 10
56.5458593232
 20
62.3641464129
 30
0.0
 11
56.945925699
 21
62.3641464129
 31
0.0
  0
LINE
  5
F3
330
1F
100
AcDbEntity
  8
0
  6
Continuous
 62
     7
370
    15
100
AcDbLine
 10
56.5458593232
 20
56.0641440764
 30
0.0
 11
56.5458593232
 21
62.3641464129
 31
0.0
  0
ARC
  5
F4
330
1F
100
AcDbEntity
  8
0
  6
Continuous
 62
     7
370
    15
100
AcDbCircle
 10
55.5458720193
 20
56.0641361644
 30
0.0
 40
1.000000000000114
100
AcDbArc
 50
270.0
 51
360.0
  0
LINE
  5
F5
330
1F
100
AcDbEntity
  8
0
  6
Continuous
 62
     7
370
    15
100
AcDbLine
 10
53.4458217485
 20
55.0641271487
 30
0.0
 11
55.5458125932
 21
55.0641271487
 31
0.0
  0
LINE
  5
F6
330
1F
100
AcDbEntity
  8
0
  6
Continuous
 62
     7
370
    15
100
AcDbLine
 10
53.4458217485
 20
54.6641501799
 30
0.0
 11
53.4458217485
 21
55.0641271487
 31
0.0
  0
LINE
  5
F7
330
1F
100
AcDbEntity
  8
0
  6
Continuous
 62
     7
370
    15
100
AcDbLine
 10
-46.0541191237
 20
54.6641501799
 30
0.0
 11
53.4458217485
 21
54.6641501799
 31
0.0
  0
LINE
  5
F8
330
1F
100
AcDbEntity
  8
0
  6
Continuous
 62
     7
370
    15
100
AcDbLine
 10
-46.0541191237
 20
521.664128007
 30
0.0
 11
-46.0541191237
 21
54.6641501799
 31
0.0
  0
LINE
  5
F9
330
1F
100
AcDbEntity
  8
0
  6
Continuous
 62
     7
370
    15
100
AcDbLine
 10
53.4458217485
 20
521.664128007
 30
0.0
 11
-46.0541191237
 21
521.664128007
 31
0.0
  0
LINE
  5
FA
330
1F
100
AcDbEntity
  8
0
  6
Continuous
 62
     7
370
    15
100
AcDbLine
 10
53.4458217485
 20
521.2641212359
 30
0.0
 11
53.4458217485
 21
521.664128007
 31
0.0
  0
LINE
  5
FB
330
1F
100
AcDbEntity
  8
0
  6
Continuous
 62
     7
370
    15
100
AcDbLine
 10
55.5458125932
 20
521.2641212359
 30
0.0
 11
53.4458217485
 21
521.2641212359
 31
0.0
  0
ARC
  5
FC
330
1F
100
AcDbEntity
  8
0
  6
Continuous
 62
     7
370
    15
100
AcDbCircle
 10
55.5458720193
 20
520.2641361644
 30
0.0
 40
1.000000000000114
100
AcDbArc
 50
360.0
 51
90.0
  0
LINE
  5
FD
330
1F
100
AcDbEntity
  8
0
  6
Continuous
 62
     7
370
    15
100
AcDbLine
 10
56.5458593232
 20
513.9641615763
 30
0.0
 11
56.5458593232
 21
520.2641341105
 31
0.0
  0
SPLINE
  5
FE
330
1F
100
AcDbEntity
  8
0
  6
Continuous
 62
     7
370
    15
100
AcDbSpline
210
0.0
220
0.0
230
1.0
 70
     8
 71
     3
 72
    12
 73
     8
 74
     0
 42
0.00000001
 43
0.00000001
 40
0.0
 40
0.0
 40
0.0
 40
0.0
 40
0.2198237193785861
 40
0.4396333487912393
 40
0.6594798409075954
 40
0.8792881261017468
 40
1.0
 40
1.0
 40
1.0
 40
1.0
 10
-48.35414315632636
 20
53.87122959044749
 30
0.0
 10
-48.32745849587617
 20
53.92935087990464
 30
0.0
 10
-48.27409088537382
 20
54.04558973343854
 30
0.0
 10
-47.85897452449483
 20
54.22001301596546
 30
0.0
 10
-47.25042242899002
 20
54.39427079856074
 30
0.0
 10
-46.60751906900828
 20
54.54269386241811
 30
0.0
 10
-46.19895282918174
 20
54.63236309957342
 30
0.0
 10
-46.05411912373359
 20
54.66415017989451
 30
0.0
  0
LINE
  5
FF
330
1F
100
AcDbEntity
  8
0
  6
Continuous
 62
     7
370
    15
100
AcDbLine
 10
-48.3541431563
 20
522.4570485964
 30
0.0
 11
-48.3541431563
 21
53.8712295904
 31
0.0
  0
SPLINE
  5
100
330
1F
100
AcDbEntity
  8
0
  6
Continuous
 62
     7
370
    15
100
AcDbSpline
210
0.0
220
0.0
230
1.0
 70
     8
 71
     3
 72
    12
 73
     8
 74
     0
 42
0.00000001
 43
0.00000001
 40
0.0
 40
0.0
 40
0.0
 40
0.0
 40
0.2198150212411607
 40
0.4396334672348052
 40
0.6594689337189125
 40
0.8793008011535888
 40
1.0
 40
1.0
 40
1.0
 40
1.0
 10
-46.8469801085356
 20
523.9641520395594
 30
0.0
 10
-46.78889620171467
 20
523.9374967687685
 30
0.0
 10
-46.67272748311579
 20
523.8841858118928
 30
0.0
 10
-46.49827588157396
 20
523.468963320258
 30
0.0
 10
-46.32389514525981
 20
522.860490455278
 30
0.0
 10
-46.17570077209155
 20
522.2174946402585
 30
0.0
 10
-46.0859357859531
 20
521.8089383421864
 30
0.0
 10
-46.05411912373336
 20
521.6641280069666
 30
0.0
  0
SPLINE
  5
101
330
1F
100
AcDbEntity
  8
0
  6
Continuous
 62
     7
370
    15
100
AcDbSpline
210
0.0
220
0.0
230
1.0
 70
     8
 71
     3
 72
    12
 73
     8
 74
     0
 42
0.00000001
 43
0.00000001
 40
0.0
 40
0.0
 40
0.0
 40
0.0
 40
0.2265694964974542
 40
0.4531735687074834
 40
0.6797807130636935
 40
0.906396987884249
 40
1.0
 40
1.0
 40
1.0
 40
1.0
 10
-46.8469801085356
 20
523.1641384973841
 30
0.0
 10
-46.78710744667125
 20
523.1456629390588
 30
0.0
 10
-46.66735298605506
 20
523.1087090029393
 30
0.0
 10
-46.48753339897538
 20
522.8214573967435
 30
0.0
 10
-46.30788077647851
 20
522.4030089571938
 30
0.0
 10
-46.16295686183935
 20
521.9877593785011
 30
0.0
 10
-46.07873727539391
 20
521.7373306141247
 30
0.0
 10
-46.05411912373336
 20
521.6641280069666
 30
0.0
  0
LINE
  5
102
330
1F
100
AcDbEntity
  8
0
  6
Continuous
 62
     7
370
    15
100
AcDbLine
 10
-46.8469801085
 20
523.9641520396
 30
0.0
 11
-46.8469801085
 21
523.1641384974
 31
0.0
  0
LINE
  5
103
330
1F
100
AcDbEntity
  8
0
  6
Continuous
 62
     7
370
    15
100
AcDbLine
 10
-46.8469801085
 20
523.9641520396
 30
0.0
 11
53.4458217485
 21
523.9641520396
 31
0.0
  0
LINE
  5
104
330
1F
100
AcDbEntity
  8
0
  6
Continuous
 62
     7
370
    15
100
AcDbLine
 10
53.4458217485
 20
521.664128007
 30
0.0
 11
53.4458217485
 21
523.9641520396
 31
0.0
  0
SPLINE
  5
105
330
1F
100
AcDbEntity
  8
0
  6
Continuous
 62
     7
370
    15
100
AcDbSpline
210
0.0
220
0.0
230
1.0
 70
     8
 71
     3
 72
    11
 73
     7
 74
     0
 42
0.00000001
 43
0.00000001
 40
0.0
 40
0.0
 40
0.0
 40
0.0
 40
0.2500041966764106
 40
0.5000008875962348
 40
0.7499888123577627
 40
0.9999999999999999
 40
0.9999999999999999
 40
0.9999999999999999
 40
0.9999999999999999
 10
-46.05411912373336
 20
54.66415017989446
 30
0.0
 10
-46.12020126001548
 20
54.36276475827723
 30
0.0
 10
-46.25236354862694
 20
53.76000296339323
 30
0.0
 10
-46.45059551090558
 20
52.99971549612076
 30
0.0
 10
-46.64889767748548
 20
52.4678460801114
 30
0.0
 10
-46.78095058356124
 20
52.39870053058998
 30
0.0
 10
-46.8469801085356
 20
52.36412614730168
 30
0.0
  0
LINE
  5
106
330
1F
100
AcDbEntity
  8
0
  6
Continuous
 62
     7
370
    15
100
AcDbLine
 10
-46.8469801085
 20
52.3641261473
 30
0.0
 11
-46.8469801085
 21
53.1641396895
 31
0.0
  0
SPLINE
  5
107
330
1F
100
AcDbEntity
  8
0
  6
Continuous
 62
     7
370
    15
100
AcDbSpline
210
0.0
220
0.0
230
1.0
 70
     8
 71
     3
 72
    11
 73
     7
 74
     0
 42
0.00000001
 43
0.00000001
 40
0.0
 40
0.0
 40
0.0
 40
0.0
 40
0.250013335796935
 40
0.4999915417259029
 40
0.750026762720246
 40
1.0
 40
1.0
 40
1.0
 40
1.0
 10
-46.05411912373336
 20
54.66415017989446
 30
0.0
 10
-46.1201976596779
 20
54.4675880695355
 30
0.0
 10
-46.25234544674095
 20
54.07449146814813
 30
0.0
 10
-46.45063419316475
 20
53.57861128696423
 30
0.0
 10
-46.64885293365195
 20
53.2318042162433
 30
0.0
 10
-46.78094317511139
 20
53.18669266764303
 30
0.0
 10
-46.8469801085356
 20
53.16413968947698
 30
0.0
  0
SPLINE
  5
108
330
1F
100
AcDbEntity
  8
0
  6
Continuous
 62
     7
370
    15
100
AcDbSpline
210
0.0
220
0.0
230
1.0
 70
     8
 71
     3
 72
    12
 73
     8
 74
     0
 42
0.00000001
 43
0.00000001
 40
0.0
 40
0.0
 40
0.0
 40
0.0
 40
0.2265802117899533
 40
0.4531795665071508
 40
0.6797997206896041
 40
0.9063896576981755
 40
1.0
 40
1.0
 40
1.0
 40
1.0
 10
-47.55412961415084
 20
53.87122959044743
 30
0.0
 10
-47.53565520029079
 20
53.93114139024241
 30
0.0
 10
-47.49870481173546
 20
54.05097005155957
 30
0.0
 10
-47.21144948403278
 20
54.23073551762114
 30
0.0
 10
-46.79295782924431
 20
54.41035466000471
 30
0.0
 10
-46.37771356636055
 20
54.55522327469547
 30
0.0
 10
-46.12732117549157
 20
54.63950923461902
 30
0.0
 10
-46.05411912373359
 20
54.66415017989451
 30
0.0
  0
LINE
  5
109
330
1F
100
AcDbEntity
  8
0
  6
Continuous
 62
     7
370
    15
100
AcDbLine
 10
-48.3541431563
 20
53.8712295904
 30
0.0
 11
-47.5541296142
 21
53.8712295904
 31
0.0
  0
LINE
  5
10A
330
1F
100
AcDbEntity
  8
0
  6
Continuous
 62
     7
370
    15
100
AcDbLine
 10
53.4458217485
 20
52.3641261473
 30
0.0
 11
53.4458217485
 21
54.6641501799
 31
0.0
  0
LINE
  5
10B
330
1F
100
AcDbEntity
  8
0
  6
Continuous
 62
     7
370
    15
100
AcDbLine
 10
-46.8469801085
 20
52.3641261473
 30
0.0
 11
53.4458217485
 21
52.3641261473
 31
0.0
  0
LINE
  5
10C
330
1F
100
AcDbEntity
  8
0
  6
Continuous
 62
     7
370
    15
100
AcDbLine
 10
57.7458200318
 20
513.9641615763
 30
0.0
 11
56.945925699
 21
513.9641615763
 31
0.0
  0
LINE
  5
10D
330
1F
100
AcDbEntity
  8
0
  6
Continuous
 62
     7
370
    15
100
AcDbLine
 10
56.945925699
 20
62.3641464129
 30
0.0
 11
57.7458200318
 21
62.3641464129
 31
0.0
  0
LINE
  5
10E
330
1F
100
AcDbEntity
  8
0
  6
Continuous
 62
     7
370
    15
100
AcDbLine
 10
56.1459121568
 20
532.6141569033
 30
0.0
 11
55.3458986146
 21
532.6141569033
 31
0.0
  0
ARC
  5
10F
330
1F
100
AcDbEntity
  8
0
  6
Continuous
 62
     7
370
    15
100
AcDbCircle
 10
57.8958720193
 20
532.6141361644
 30
0.0
 40
2.550000000000068
100
AcDbArc
 50
90.0
 51
180.0
  0
LINE
  5
110
330
1F
100
AcDbEntity
  8
0
  6
Continuous
 62
     7
370
    15
100
AcDbLine
 10
57.8959045274
 20
534.3641492739
 30
0.0
 11
57.8959045274
 21
535.1641628161
 31
0.0
  0
ARC
  5
111
330
1F
100
AcDbEntity
  8
0
  6
Continuous
 62
     7
370
    15
100
AcDbCircle
 10
57.8958720193
 20
532.6141361644
 30
0.0
 40
1.750000000000227
100
AcDbArc
 50
90.0
 51
180.0
  0
LINE
  5
112
330
1F
100
AcDbEntity
  8
0
  6
Continuous
 62
     7
370
    15
100
AcDbLine
 10
57.8959045274
 20
534.3641492739
 30
0.0
 11
64.1459283692
 21
534.3641492739
 31
0.0
  0
LINE
  5
113
330
1F
100
AcDbEntity
  8
0
  6
Continuous
 62
     7
370
    15
100
AcDbLine
 10
57.8959045274
 20
535.1641628161
 30
0.0
 11
64.1459283692
 21
535.1641628161
 31
0.0
  0
LINE
  5
114
330
1F
100
AcDbEntity
  8
0
  6
Continuous
 62
     7
370
    15
100
AcDbLine
 10
56.1459121568
 20
521.0641476527
 30
0.0
 11
56.1459121568
 21
532.6141569033
 31
0.0
  0
LINE
  5
115
330
1F
100
AcDbEntity
  8
0
  6
Continuous
 62
     7
370
    15
100
AcDbLine
 10
55.3458986146
 20
521.2641212359
 30
0.0
 11
55.3458986146
 21
532.6141569033
 31
0.0
  0
ARC
  5
116
330
1F
100
AcDbEntity
  8
0
  6
Continuous
 62
     7
370
    15
100
AcDbCircle
 10
57.8958720193
 20
43.7141361644
 30
0.0
 40
2.550000000000111
100
AcDbArc
 50
180.0
 51
270.0
  0
LINE
  5
117
330
1F
100
AcDbEntity
  8
0
  6
Continuous
 62
     7
370
    15
100
AcDbLine
 10
56.1459121568
 20
43.7141212836
 30
0.0
 11
55.3458986146
 21
43.7141212836
 31
0.0
  0
ARC
  5
118
330
1F
100
AcDbEntity
  8
0
  6
Continuous
 62
     7
370
    15
100
AcDbCircle
 10
57.8958720193
 20
43.7141361644
 30
0.0
 40
1.750000000000142
100
AcDbArc
 50
180.0
 51
270.0
  0
LINE
  5
119
330
1F
100
AcDbEntity
  8
0
  6
Continuous
 62
     7
370
    15
100
AcDbLine
 10
57.8959045274
 20
41.964128913
 30
0.0
 11
57.8959045274
 21
41.1641451731
 31
0.0
  0
LINE
  5
11A
330
1F
100
AcDbEntity
  8
0
  6
Continuous
 62
     7
370
    15
100
AcDbLine
 10
64.1459283692
 20
41.1641451731
 30
0.0
 11
57.8959045274
 21
41.1641451731
 31
0.0
  0
LINE
  5
11B
330
1F
100
AcDbEntity
  8
0
  6
Continuous
 62
     7
370
    15
100
AcDbLine
 10
64.1459283692
 20
41.964128913
 30
0.0
 11
57.8959045274
 21
41.964128913
 31
0.0
  0
LINE
  5
11C
330
1F
100
AcDbEntity
  8
0
  6
Continuous
 62
     7
370
    15
100
AcDbLine
 10
56.1459121568
 20
43.7141212836
 30
0.0
 11
56.1459121568
 21
55.2641305342
 31
0.0
  0
LINE
  5
11D
330
1F
100
AcDbEntity
  8
0
  6
Continuous
 62
     7
370
    15
100
AcDbLine
 10
55.3458986146
 20
43.7141212836
 30
0.0
 11
55.3458986146
 21
55.0641271487
 31
0.0
  0
LINE
  5
11E
330
1F
100
AcDbEntity
  8
0
  6
Continuous
 62
     7
370
    15
100
AcDbLine
 10
64.1459283692
 20
59.6141371146
 30
0.0
 11
57.7458200318
 21
59.6141371146
 31
0.0
  0
LINE
  5
11F
330
1F
100
AcDbEntity
  8
0
  6
Continuous
 62
     7
370
    15
100
AcDbLine
 10
57.7458200318
 20
59.6141371146
 30
0.0
 11
57.7458200318
 21
516.7141410723
 31
0.0
  0
LINE
  5
120
330
1F
100
AcDbEntity
  8
0
  6
Continuous
 62
     7
370
    15
100
AcDbLine
 10
64.1459283692
 20
516.7141410723
 30
0.0
 11
57.7458200318
 21
516.7141410723
 31
0.0
  0
LINE
  5
121
330
1F
100
AcDbEntity
  8
0
  6
Continuous
 62
     7
370
    15
100
AcDbLine
 10
788.9458594186
 20
58.3806189909
 30
0.0
 11
788.9458594186
 21
33.292472662
 31
0.0
  0
SPLINE
  5
122
330
1F
100
AcDbEntity
  8
0
  6
Continuous
 62
     7
370
    15
100
AcDbSpline
210
0.0
220
0.0
230
1.0
 70
     8
 71
     3
 72
    11
 73
     7
 74
     0
 42
0.00000001
 43
0.00000001
 40
0.0
 40
0.0
 40
0.0
 40
0.0
 40
0.2747541597093268
 40
0.5487319211036107
 40
0.8335543123688662
 40
1.0
 40
1.0
 40
1.0
 40
1.0
 10
788.9458594185945
 20
58.38061899092961
 30
0.0
 10
788.9277089181386
 20
58.6329149518196
 30
0.0
 10
788.8914592067795
 20
59.13679393750015
 30
0.0
 10
788.5919125281875
 20
59.85021907266513
 30
0.0
 10
788.2062219306824
 20
60.41058202763339
 30
0.0
 10
787.8699130517593
 20
60.66265214255034
 30
0.0
 10
787.745868907654
 20
60.75562566664983
 30
0.0
  0
LINE
  5
123
330
1F
100
AcDbEntity
  8
0
  6
Continuous
 62
     7
370
    15
100
AcDbLine
 10
64.9458227021
 20
573.2641074076
 30
0.0
 11
64.1459283692
 21
573.2641074076
 31
0.0
  0
LINE
  5
124
330
1F
100
AcDbEntity
  8
0
  6
Continuous
 62
     7
370
    15
100
AcDbLine
 10
64.1459283692
 20
3.2641294613
 30
0.0
 11
64.9458227021
 21
3.2641294613
 31
0.0
  0
LINE
  5
125
330
1F
100
AcDbEntity
  8
0
  6
Continuous
 62
     7
370
    15
100
AcDbLine
 10
64.1459283692
 20
3.2641294613
 30
0.0
 11
64.1459283692
 21
573.2641074076
 31
0.0
  0
LINE
  5
126
330
1F
100
AcDbEntity
  8
0
  6
Continuous
 62
     7
370
    15
100
AcDbLine
 10
64.1459283692
 20
583.2641574755
 30
0.0
 11
64.9458227021
 21
583.2641574755
 31
0.0
  0
LINE
  5
127
330
1F
100
AcDbEntity
  8
0
  6
Continuous
 62
     7
370
    15
100
AcDbLine
 10
64.1459283692
 20
573.2641074076
 30
0.0
 11
64.1459283692
 21
583.2641574755
 31
0.0
  0
LINE
  5
128
330
1F
100
AcDbEntity
  8
0
  6
Continuous
 62
     7
370
    15
100
AcDbLine
 10
64.9458227021
 20
-6.7358610019
 30
0.0
 11
64.1459283692
 21
-6.7358610019
 31
0.0
  0
LINE
  5
129
330
1F
100
AcDbEntity
  8
0
  6
Continuous
 62
     7
370
    15
100
AcDbLine
 10
64.1459283692
 20
-6.7358610019
 30
0.0
 11
64.1459283692
 21
3.2641294613
 31
0.0
  0
LINE
  5
12A
330
1F
100
AcDbEntity
  8
0
  6
Continuous
 62
     7
370
    15
100
AcDbLine
 10
66.245919214
 20
587.1818515673
 30
0.0
 11
66.14590262
 21
586.9973155871
 31
0.0
  0
LINE
  5
12B
330
1F
100
AcDbEntity
  8
0
  6
Continuous
 62
     7
370
    15
100
AcDbLine
 10
66.14590262
 20
-10.6690374002
 30
0.0
 11
66.245919214
 21
-10.8535733804
 31
0.0
  0
SPLINE
  5
12C
330
1F
100
AcDbEntity
  8
0
  6
Continuous
 62
     7
370
    15
100
AcDbSpline
210
0.0
220
0.0
230
1.0
 70
     8
 71
     3
 72
    17
 73
    13
 74
     0
 42
0.00000001
 43
0.00000001
 40
0.0
 40
0.0
 40
0.0
 40
0.0
 40
0.0819874183208309
 40
0.169967935447066
 40
0.2544919311510362
 40
0.342642428023385
 40
0.4258752375874824
 40
0.5079625166292903
 40
0.6329988461980132
 40
0.7567416037946411
 40
0.8791350388521884
 40
0.9999999999999999
 40
0.9999999999999999
 40
0.9999999999999999
 40
0.9999999999999999
 10
822.7745351655122
 20
18.62695843127538
 30
0.0
 10
823.2739280348005
 20
19.21228616299081
 30
0.0
 10
824.3092182867482
 20
20.42572778802498
 30
0.0
 10
825.8943450708094
 20
22.13683772682262
 30
0.0
 10
827.5064590249589
 20
23.81601417509033
 30
0.0
 10
829.0568750465277
 20
25.38406962613127
 30
0.0
 10
830.5377037879855
 20
26.8505383604869
 30
0.0
 10
832.1439371154082
 20
28.41767681587615
 30
0.0
 10
833.8073491928668
 20
30.0175736636013
 30
0.0
 10
835.3072677660966
 20
31.44448219370349
 30
0.0
 10
836.3455758079264
 20
32.42552733348397
 30
0.0
 10
836.4813502715971
 20
32.55341584767407
 30
0.0
 10
836.5488109452364
 20
32.61695832160283
 30
0.0
  0
LINE
  5
12D
330
1F
100
AcDbEntity
  8
0
  6
Continuous
 62
     7
370
    15
100
AcDbLine
 10
834.9853215081
 20
29.5263084784
 30
0.0
 11
834.6401808126
 21
29.1591438666
 31
0.0
  0
LINE
  5
12E
330
1F
100
AcDbEntity
  8
0
  6
Continuous
 62
     7
370
    15
100
AcDbLine
 10
847.1870479447
 20
145.5245170012
 30
0.0
 11
847.197240339
 21
145.5247554198
 31
0.0
  0
LINE
  5
12F
330
1F
100
AcDbEntity
  8
0
  6
Continuous
 62
     7
370
    15
100
AcDbLine
 10
849.1487858159
 20
145.5305668726
 30
0.0
 11
847.197240339
 21
145.5247554198
 31
0.0
  0
SPLINE
  5
130
330
1F
100
AcDbEntity
  8
0
  6
Continuous
 62
     7
370
    15
100
AcDbSpline
210
0.0
220
0.0
230
1.0
 70
     8
 71
     3
 72
    13
 73
     9
 74
     0
 42
0.00000001
 43
0.00000001
 40
0.0
 40
0.0
 40
0.0
 40
0.0
 40
0.167199724184546
 40
0.3338861354008683
 40
0.5000058004366476
 40
0.6661335903000573
 40
0.8328106383655853
 40
1.0
 40
1.0
 40
1.0
 40
1.0
 10
849.1487858159181
 20
145.5305668726282
 30
0.0
 10
849.8059366780843
 20
138.1554878461145
 30
0.0
 10
851.1182209106938
 20
123.4279717186313
 30
0.0
 10
851.5937878535328
 20
101.2750903881769
 30
0.0
 10
850.9888673337896
 20
79.17663377779199
 30
0.0
 10
849.1749883608234
 20
57.14240597092829
 30
0.0
 10
846.2808479830652
 20
35.16795912270349
 30
0.0
 10
843.3672544078028
 20
20.66430140958164
 30
0.0
 10
841.9082221848604
 20
13.40134471801091
 30
0.0
  0
LINE
  5
131
330
1F
100
AcDbEntity
  8
0
  6
Continuous
 62
     7
370
    15
100
AcDbLine
 10
841.9082221849
 20
13.401344718
 30
0.0
 11
820.6406292779
 21
13.4010019913
 31
0.0
  0
LINE
  5
132
330
1F
100
AcDbEntity
  8
0
  6
Continuous
 62
     7
370
    15
100
AcDbLine
 10
820.6406292779
 20
16.9764909163
 30
0.0
 11
820.6406292779
 21
13.4010019913
 31
0.0
  0
LINE
  5
133
330
1F
100
AcDbEntity
  8
0
  6
Continuous
 62
     7
370
    15
100
AcDbLine
 10
822.7745351655
 20
16.9817808285
 30
0.0
 11
820.6406292779
 21
16.9764909163
 31
0.0
  0
SPLINE
  5
134
330
1F
100
AcDbEntity
  8
0
  6
Continuous
 62
     7
370
    15
100
AcDbSpline
210
0.0
220
0.0
230
1.0
 70
     8
 71
     3
 72
    19
 73
    15
 74
     0
 42
0.00000001
 43
0.00000001
 40
0.0
 40
0.0
 40
0.0
 40
0.0
 40
0.0617512311818733
 40
0.1255330756300693
 40
0.1872690802984485
 40
0.2516906894814118
 40
0.3299189750707762
 40
0.4131527175520261
 40
0.5022921994360767
 40
0.6259167033814699
 40
0.7499756595697565
 40
0.8354985873982487
 40
0.9199679764109523
 40
1.0
 40
1.0
 40
1.0
 40
1.0
 10
842.6715490681764
 20
32.07603126910497
 30
0.0
 10
842.5618387621846
 20
31.54259624682482
 30
0.0
 10
842.3388104617624
 20
30.45818484782947
 30
0.0
 10
841.705845425639
 20
28.9264245162113
 30
0.0
 10
840.8861732693333
 20
27.46604503043848
 30
0.0
 10
839.8205594877162
 20
26.01115229729112
 30
0.0
 10
838.4660674597696
 20
24.54942465870547
 30
0.0
 10
836.7933848177493
 20
23.10531464165278
 30
0.0
 10
834.663131064145
 20
21.59909044593072
 30
0.0
 10
832.0840406560503
 20
20.12813568484773
 30
0.0
 10
829.4217915353408
 20
18.88737078269537
 30
0.0
 10
827.0078614113312
 20
17.95971409152708
 30
0.0
 10
824.9169718131334
 20
17.24092049247927
 30
0.0
 10
823.4757216494198
 20
17.06659324525872
 30
0.0
 10
822.7745351655122
 20
16.98178082850743
 30
0.0
  0
SPLINE
  5
135
330
1F
100
AcDbEntity
  8
0
  6
Continuous
 62
     7
370
    15
100
AcDbSpline
210
0.0
220
0.0
230
1.0
 70
     8
 71
     3
 72
    12
 73
     8
 74
     0
 42
0.00000001
 43
0.00000001
 40
0.0
 40
0.0
 40
0.0
 40
0.0
 40
0.2000852455478877
 40
0.4002024481203689
 40
0.6002623787511987
 40
0.8002166087124558
 40
1.0
 40
1.0
 40
1.0
 40
1.0
 10
847.1870479447481
 20
145.5245170011835
 30
0.0
 10
847.660241467217
 20
137.9517137962744
 30
0.0
 10
848.6067040892267
 20
122.8048978806901
 30
0.0
 10
848.7070307572329
 20
100.0274608578552
 30
0.0
 10
847.8101552819982
 20
77.278014469086
 30
0.0
 10
845.9155179768285
 20
54.5910796928053
 30
0.0
 10
843.7525639054379
 20
39.57890879137932
 30
0.0
 10
842.6715490681764
 20
32.07603126910497
 30
0.0
  0
LINE
  5
136
330
1F
100
AcDbEntity
  8
0
  6
Continuous
 62
     7
370
    15
100
AcDbLine
 10
849.1487858159
 20
145.5305668726
 30
0.0
 11
849.2360470159
 21
145.5397161856
 31
0.0
  0
SPLINE
  5
137
330
1F
100
AcDbEntity
  8
0
  6
Continuous
 62
     7
370
    15
100
AcDbSpline
210
0.0
220
0.0
230
1.0
 70
     8
 71
     3
 72
    11
 73
     7
 74
     0
 42
0.00000001
 43
0.00000001
 40
0.0
 40
0.0
 40
0.0
 40
0.0
 40
0.2409776930972334
 40
0.5000039690516688
 40
0.759031889222412
 40
1.0
 40
1.0
 40
1.0
 40
1.0
 10
854.1972396237489
 20
145.8919796362238
 30
0.0
 10
854.0927922383903
 20
145.9024399061865
 30
0.0
 10
853.8760746386611
 20
145.9241438922754
 30
0.0
 10
852.708200110637
 20
145.8577639423088
 30
0.0
 10
851.0819971677474
 20
145.7257274180599
 30
0.0
 10
849.836366377683
 20
145.6002086882
 30
0.0
 10
849.2360470158693
 20
145.5397161856012
 30
0.0
  0
SPLINE
  5
138
330
1F
100
AcDbEntity
  8
0
  6
Continuous
 62
     7
370
    15
100
AcDbSpline
210
0.0
220
0.0
230
1.0
 70
     8
 71
     3
 72
    18
 73
    14
 74
     0
 42
0.00000001
 43
0.00000001
 40
0.0
 40
0.0
 40
0.0
 40
0.0
 40
0.0751664021778288
 40
0.1521745706713027
 40
0.2310243149136851
 40
0.3117158297722913
 40
0.394249116064384
 40
0.4786243157988341
 40
0.5552517609694924
 40
0.6599013869385297
 40
0.7689092501708888
 40
0.8822754874505695
 40
1.0
 40
1.0
 40
1.0
 40
1.0
 10
854.1972396237489
 20
145.8919796362238
 30
0.0
 10
854.5243446226744
 20
142.5438247025727
 30
0.0
 10
855.186569517491
 20
135.7654766001319
 30
0.0
 10
855.8762236052634
 20
125.4465910291777
 30
0.0
 10
856.3383787451806
 20
114.8672791600845
 30
0.0
 10
856.5312362328017
 20
104.0309255464024
 30
0.0
 10
856.4420138485166
 20
92.94509336398282
 30
0.0
 10
856.0644817363359
 20
82.04647211541332
 30
0.0
 10
855.3480631256555
 20
70.17241166304439
 30
0.0
 10
854.1937074475203
 20
57.22275518272579
 30
0.0
 10
852.3884322453587
 20
42.68831846043464
 30
0.0
 10
850.0168983122218
 20
27.63907300746837
 30
0.0
 10
847.9296115893446
 20
17.50206296652323
 30
0.0
 10
846.8662855488893
 20
12.33796805289555
 30
0.0
  0
SPLINE
  5
139
330
1F
100
AcDbEntity
  8
0
  6
Continuous
 62
     7
370
    15
100
AcDbSpline
210
0.0
220
0.0
230
1.0
 70
     8
 71
     3
 72
    11
 73
     7
 74
     0
 42
0.00000001
 43
0.00000001
 40
0.0
 40
0.0
 40
0.0
 40
0.0
 40
0.2796555788567152
 40
0.5592991985271298
 40
0.7796495959321673
 40
1.0
 40
1.0
 40
1.0
 40
1.0
 10
846.8662855488893
 20
12.33796805289555
 30
0.0
 10
846.7271252324964
 20
12.36618487445767
 30
0.0
 10
846.4488105507601
 20
12.42261731091832
 30
0.0
 10
845.1149093401145
 20
12.70792929280617
 30
0.0
 10
843.5352527955633
 20
13.04841634489207
 30
0.0
 10
842.4505657272276
 20
13.2837019257856
 30
0.0
 10
841.9082221848604
 20
13.40134471801091
 30
0.0
  0
SPLINE
  5
13A
330
1F
100
AcDbEntity
  8
0
  6
Continuous
 62
     7
370
    15
100
AcDbSpline
210
0.0
220
0.0
230
1.0
 70
     8
 71
     3
 72
    17
 73
    13
 74
     0
 42
0.00000001
 43
0.00000001
 40
0.0
 40
0.0
 40
0.0
 40
0.0
 40
0.0907515493649786
 40
0.1737927025057954
 40
0.2490575695912934
 40
0.3349406953425483
 40
0.4181880125528743
 40
0.498763604635616
 40
0.6249293075919352
 40
0.7491131405194635
 40
0.8747491281495687
 40
1.0
 40
1.0
 40
1.0
 40
1.0
 10
841.9082221848604
 20
13.40134471801091
 30
0.0
 10
841.7681724446616
 20
12.51434589533551
 30
0.0
 10
841.4999718133256
 20
10.81570908317209
 30
0.0
 10
841.1359620407525
 20
8.425957115243076
 30
0.0
 10
840.7981316902607
 20
6.160180412012773
 30
0.0
 10
840.4868557995342
 20
4.003180134876994
 30
0.0
 10
840.1991538959804
 20
1.958629642885734
 30
0.0
 10
839.903469490314
 20
-0.1947316336433635
 30
0.0
 10
839.6252560534383
 20
-2.290070646129294
 30
0.0
 10
839.397899649563
 20
-4.048692803983123
 30
0.0
 10
839.2549312561979
 20
-5.182093756701533
 30
0.0
 10
839.2370937847891
 20
-5.324408636900147
 30
0.0
 10
839.2281887395021
 20
-5.395456849066727
 30
0.0
  0
SPLINE
  5
13B
330
1F
100
AcDbEntity
  8
0
  6
Continuous
 62
     7
370
    15
100
AcDbSpline
210
0.0
220
0.0
230
1.0
 70
     8
 71
     3
 72
    15
 73
    11
 74
     0
 42
0.00000001
 43
0.00000001
 40
0.0
 40
0.0
 40
0.0
 40
0.0
 40
0.1249310053700643
 40
0.2501939922584539
 40
0.3747936281203365
 40
0.5001584907713333
 40
0.6247796472267868
 40
0.7500595516258058
 40
0.8750626905383075
 40
1.0
 40
1.0
 40
1.0
 40
1.0
 10
846.8662855488893
 20
12.33796805289555
 30
0.0
 10
846.6712068180367
 20
11.42865145946609
 30
0.0
 10
846.2805309699381
 20
9.607601928462328
 30
0.0
 10
845.7465506299975
 20
6.977822768046648
 30
0.0
 10
845.2722803184402
 20
4.546456062394122
 30
0.0
 10
844.8740401279408
 20
2.416068391155324
 30
0.0
 10
844.5578304065907
 20
0.660831567742215
 30
0.0
 10
844.3316880789979
 20
-0.6328585583731394
 30
0.0
 10
844.1894482044987
 20
-1.465114032965453
 30
0.0
 10
844.1718584550426
 20
-1.569181370706996
 30
0.0
 10
844.1630658967134
 20
-1.621201334921829
 30
0.0
  0
SPLINE
  5
13C
330
1F
100
AcDbEntity
  8
0
  6
Continuous
 62
     7
370
    15
100
AcDbSpline
210
0.0
220
0.0
230
1.0
 70
     8
 71
     3
 72
     9
 73
     5
 74
     0
 42
0.00000001
 43
0.00000001
 40
0.0
 40
0.0
 40
0.0
 40
0.0
 40
0.5000021974417095
 40
0.9999999999999999
 40
0.9999999999999999
 40
0.9999999999999999
 40
0.9999999999999999
 10
822.7745351655122
 20
18.62695843127538
 30
0.0
 10
822.7740285245472
 20
18.35681589440302
 30
0.0
 10
822.7730152470705
 20
17.81653319513787
 30
0.0
 10
822.7740285275161
 20
17.2600308021299
 30
0.0
 10
822.7745351655122
 20
16.98178082850743
 30
0.0
  0
LINE
  5
13D
330
1F
100
AcDbEntity
  8
0
  6
Continuous
 62
     7
370
    15
100
AcDbLine
 10
841.3711843354
 20
144.7996351137
 30
0.0
 11
841.337775932
 21
144.7700116053
 31
0.0
  0
LINE
  5
13E
330
1F
100
AcDbEntity
  8
0
  6
Continuous
 62
     7
370
    15
100
AcDbLine
 10
820.6406292779
 20
18.6239931002
 30
0.0
 11
820.6406292779
 21
16.9764909163
 31
0.0
  0
LINE
  5
13F
330
1F
100
AcDbEntity
  8
0
  6
Continuous
 62
     7
370
    15
100
AcDbLine
 10
822.7745351655
 20
18.6269584313
 30
0.0
 11
820.6406292779
 21
18.6239931002
 31
0.0
  0
LINE
  5
140
330
1F
100
AcDbEntity
  8
0
  6
Continuous
 62
     7
370
    15
100
AcDbLine
 10
820.6406292779
 20
13.4010019913
 30
0.0
 11
820.4458711011
 21
13.4009274855
 31
0.0
  0
LINE
  5
141
330
1F
100
AcDbEntity
  8
0
  6
Continuous
 62
     7
370
    15
100
AcDbLine
 10
820.4458711011
 20
16.9763568058
 30
0.0
 11
820.4458711011
 21
13.4009274855
 31
0.0
  0
SPLINE
  5
142
330
1F
100
AcDbEntity
  8
0
  6
Continuous
 62
     7
370
    15
100
AcDbSpline
210
0.0
220
0.0
230
1.0
 70
     8
 71
     3
 72
    10
 73
     6
 74
     0
 42
0.00000001
 43
0.00000001
 40
0.0
 40
0.0
 40
0.0
 40
0.0
 40
0.2888478304029791
 40
0.6444170050770347
 40
1.0
 40
1.0
 40
1.0
 40
1.0
 10
820.4458711011049
 20
16.97635680583287
 30
0.0
 10
820.4620196344949
 20
16.97637829995169
 30
0.0
 10
820.498046872467
 20
16.97642625314444
 30
0.0
 10
820.5648725527966
 20
16.97646299216493
 30
0.0
 10
820.6153767090453
 20
16.97648160812337
 30
0.0
 10
820.6406292779085
 20
16.97649091628362
 30
0.0
  0
LINE
  5
143
330
1F
100
AcDbEntity
  8
0
  6
Continuous
 62
     7
370
    15
100
AcDbLine
 10
820.4458711011
 20
13.4009274855
 30
0.0
 11
820.4458711011
 21
1.9841346159
 31
0.0
  0
SPLINE
  5
144
330
1F
100
AcDbEntity
  8
0
  6
Continuous
 62
     7
370
    15
100
AcDbSpline
210
0.0
220
0.0
230
1.0
 70
    24
 71
     3
 72
    10
 73
     6
 74
     0
 42
0.00000001
 43
0.00000001
 40
0.0
 40
0.0
 40
0.0
 40
0.0
 40
0.3517610709968698
 40
0.6775463450647303
 40
1.0
 40
1.0
 40
1.0
 40
1.0
 10
820.4458711011049
 20
18.60289305594731
 30
0.0
 10
820.4458711011049
 20
18.41568094394208
 30
0.0
 10
820.4458711011049
 20
18.05508139868406
 30
0.0
 10
820.4458711011049
 20
17.50946773608242
 30
0.0
 10
820.4458711011049
 20
17.1534505333315
 30
0.0
 10
820.4458711011049
 20
16.97635680583287
 30
0.0
  0
SPLINE
  5
145
330
1F
100
AcDbEntity
  8
0
  6
Continuous
 62
     7
370
    15
100
AcDbSpline
210
0.0
220
0.0
230
1.0
 70
     8
 71
     3
 72
    10
 73
     6
 74
     0
 42
0.00000001
 43
0.00000001
 40
0.0
 40
0.0
 40
0.0
 40
0.0
 40
0.4703812418877392
 40
0.9406919637729618
 40
0.9999999999999999
 40
0.9999999999999999
 40
0.9999999999999999
 40
0.9999999999999999
 10
820.6406292779085
 20
18.6239931001978
 30
0.0
 10
820.6072128205603
 20
18.62293043647978
 30
0.0
 10
820.5403849156912
 20
18.6208052683593
 30
0.0
 10
820.4774289057846
 20
18.61049663130859
 30
0.0
 10
820.4490491385811
 20
18.60365877611375
 30
0.0
 10
820.4458711011049
 20
18.60289305594731
 30
0.0
  0
LINE
  5
146
330
1F
100
AcDbEntity
  8
0
  6
Continuous
 62
     7
370
    15
100
AcDbLine
 10
820.4458711011
 20
25.0127914563
 30
0.0
 11
820.4458711011
 21
18.6028930559
 31
0.0
  0
LINE
  5
147
330
1F
100
AcDbEntity
  8
0
  6
Continuous
 62
     7
370
    15
100
AcDbLine
 10
849.1487858159
 20
145.5305668726
 30
0.0
 11
849.1487858159
 21
146.8641611948
 31
0.0
  0
LINE
  5
148
330
1F
100
AcDbEntity
  8
0
  6
Continuous
 62
     7
370
    15
100
AcDbLine
 10
849.2360470159
 20
146.8712243452
 30
0.0
 11
849.1487858159
 21
146.8641611948
 31
0.0
  0
SPLINE
  5
149
330
1F
100
AcDbEntity
  8
0
  6
Continuous
 62
     7
370
    15
100
AcDbSpline
210
0.0
220
0.0
230
1.0
 70
     8
 71
     3
 72
    11
 73
     7
 74
     0
 42
0.00000001
 43
0.00000001
 40
0.0
 40
0.0
 40
0.0
 40
0.0
 40
0.2412796651565774
 40
0.4999956942682563
 40
0.7587178084578732
 40
1.0
 40
1.0
 40
1.0
 40
1.0
 10
849.2360470158693
 20
146.8712243452387
 30
0.0
 10
849.8282123713768
 20
146.8990460036293
 30
0.0
 10
851.0553366209755
 20
146.9566998858727
 30
0.0
 10
852.6649097637486
 20
146.7717941699118
 30
0.0
 10
853.8381662757592
 20
146.4074151135735
 30
0.0
 10
854.0803644281991
 20
146.0597493204565
 30
0.0
 10
854.1972396237489
 20
145.8919796362239
 30
0.0
  0
SPLINE
  5
14A
330
1F
100
AcDbEntity
  8
0
  6
Continuous
 62
     7
370
    15
100
AcDbSpline
210
0.0
220
0.0
230
1.0
 70
     8
 71
     3
 72
     9
 73
     5
 74
     0
 42
0.00000001
 43
0.00000001
 40
0.0
 40
0.0
 40
0.0
 40
0.0
 40
0.5599190591851851
 40
1.0
 40
1.0
 40
1.0
 40
1.0
 10
847.1972403390047
 20
146.8583497419672
 30
0.0
 10
847.1968014881339
 20
146.6134182219114
 30
0.0
 10
847.19601771258
 20
146.1759772810507
 30
0.0
 10
847.196866710987
 20
145.7237652957163
 30
0.0
 10
847.1972403390047
 20
145.5247554197626
 30
0.0
  0
LINE
  5
14B
330
1F
100
AcDbEntity
  8
0
  6
Continuous
 62
     7
370
    15
100
AcDbLine
 10
849.1487858159
 20
146.8641611948
 30
0.0
 11
847.197240339
 21
146.858349742
 31
0.0
  0
SPLINE
  5
14C
330
1F
100
AcDbEntity
  8
0
  6
Continuous
 62
     7
370
    15
100
AcDbSpline
210
0.0
220
0.0
230
1.0
 70
     8
 71
     3
 72
     9
 73
     5
 74
     0
 42
0.00000001
 43
0.00000001
 40
0.0
 40
0.0
 40
0.0
 40
0.0
 40
0.4997794667504877
 40
1.0
 40
1.0
 40
1.0
 40
1.0
 10
847.1360561711427
 20
146.8578431024866
 30
0.0
 10
847.1462483309367
 20
146.8579350093962
 30
0.0
 10
847.1666416453321
 20
146.8581189043254
 30
0.0
 10
847.1870377757638
 20
146.8582727734644
 30
0.0
 10
847.1972403390047
 20
146.8583497419672
 30
0.0
  0
SPLINE
  5
14D
330
1F
100
AcDbEntity
  8
0
  6
Continuous
 62
     7
370
    15
100
AcDbSpline
210
0.0
220
0.0
230
1.0
 70
     8
 71
     3
 72
     9
 73
     5
 74
     0
 42
0.00000001
 43
0.00000001
 40
0.0
 40
0.0
 40
0.0
 40
0.0
 40
0.5599113213723328
 40
1.0
 40
1.0
 40
1.0
 40
1.0
 10
847.1870479447481
 20
145.5245170011836
 30
0.0
 10
847.1769622482532
 20
145.7777393997622
 30
0.0
 10
847.1589492234943
 20
146.2299938709845
 30
0.0
 10
847.1430522494459
 20
146.6659734330907
 30
0.0
 10
847.1360561711427
 20
146.8578431024866
 30
0.0
  0
LINE
  5
14E
330
1F
100
AcDbEntity
  8
0
  6
Continuous
 62
     7
370
    15
100
AcDbLine
 10
841.3285968167
 20
145.151868762
 30
0.0
 11
841.3565215928
 21
145.2770683184
 31
0.0
  0
LINE
  5
14F
330
1F
100
AcDbEntity
  8
0
  6
Continuous
 62
     7
370
    15
100
AcDbLine
 10
846.8668219907
 20
159.351125659
 30
0.0
 11
847.8336093289
 21
159.3679937735
 31
0.0
  0
LINE
  5
150
330
1F
100
AcDbEntity
  8
0
  6
Continuous
 62
     7
370
    15
100
AcDbLine
 10
847.8336093289
 20
159.3679937735
 30
0.0
 11
849.1487858159
 21
146.8641611948
 31
0.0
  0
LINE
  5
151
330
1F
100
AcDbEntity
  8
0
  6
Continuous
 62
     7
370
    15
100
AcDbLine
 10
847.197240339
 20
146.858349742
 30
0.0
 11
846.8668219907
 21
159.351125659
 31
0.0
  0
LINE
  5
152
330
1F
100
AcDbEntity
  8
0
  6
Continuous
 62
     7
370
    15
100
AcDbLine
 10
847.8336093289
 20
159.3679937735
 30
0.0
 11
847.9208705289
 21
159.3780669585
 31
0.0
  0
SPLINE
  5
153
330
1F
100
AcDbEntity
  8
0
  6
Continuous
 62
     7
370
    15
100
AcDbSpline
210
0.0
220
0.0
230
1.0
 70
     8
 71
     3
 72
    11
 73
     7
 74
     0
 42
0.00000001
 43
0.00000001
 40
0.0
 40
0.0
 40
0.0
 40
0.0
 40
0.2411416498781879
 40
0.4999993366209011
 40
0.7588610494213017
 40
1.0
 40
1.0
 40
1.0
 40
1.0
 10
852.8695163590547
 20
158.5464629545527
 30
0.0
 10
852.7585795345079
 20
158.7129485498001
 30
0.0
 10
852.5285556514159
 20
159.0581509950131
 30
0.0
 10
851.3606102897793
 20
159.3905290423965
 30
0.0
 10
849.7476643370427
 20
159.5254365945665
 30
0.0
 10
848.5152405146938
 20
159.4260154943743
 30
0.0
 10
847.9208705289003
 20
159.3780669584589
 30
0.0
  0
LINE
  5
154
330
1F
100
AcDbEntity
  8
0
  6
Continuous
 62
     7
370
    15
100
AcDbLine
 10
852.8695163591
 20
158.5464629546
 30
0.0
 11
854.1972396237
 21
145.8919796362
 31
0.0
  0
LINE
  5
155
330
1F
100
AcDbEntity
  8
0
  6
Continuous
 62
     7
370
    15
100
AcDbLine
 10
846.2656197412
 20
159.3144688025
 30
0.0
 11
846.8668219907
 21
159.351125659
 31
0.0
  0
LINE
  5
156
330
1F
100
AcDbEntity
  8
0
  6
Continuous
 62
     7
370
    15
100
AcDbLine
 10
853.0400154454
 20
158.5493835821
 30
0.0
 11
852.8695163591
 21
158.5464629546
 31
0.0
  0
ARC
  5
157
330
1F
100
AcDbEntity
  8
0
  6
Continuous
 62
     7
370
    15
100
AcDbCircle
 10
907.3519662131
 20
161.1159595862
 30
0.0
 40
59.5440189327708
100
AcDbArc
 50
178.3177915155
 51
181.6822084845
  0
LINE
  5
158
330
1F
100
AcDbEntity
  8
0
  6
Continuous
 62
     7
370
    15
100
AcDbLine
 10
847.9208705289
 20
162.8647002592
 30
0.0
 11
847.8336093289
 21
162.8639253989
 31
0.0
  0
SPLINE
  5
159
330
1F
100
AcDbEntity
  8
0
  6
Continuous
 62
     7
370
    15
100
AcDbSpline
210
0.0
220
0.0
230
1.0
 70
     8
 71
     3
 72
    12
 73
     8
 74
     0
 42
0.00000001
 43
0.00000001
 40
0.0
 40
0.0
 40
0.0
 40
0.0
 40
0.1539426091442322
 40
0.2888210282260846
 40
0.5006759249911329
 40
0.7580550485647277
 40
1.0
 40
1.0
 40
1.0
 40
1.0
 10
847.9208705289003
 20
162.8647002592402
 30
0.0
 10
848.2877097106549
 20
162.8413385860948
 30
0.0
 10
848.9759588591977
 20
162.7975083398981
 30
0.0
 10
850.1149960149477
 20
162.4114090589301
 30
0.0
 10
851.3405853393199
 20
161.6343480853364
 30
0.0
 10
852.449987172968
 20
160.2779304604266
 30
0.0
 10
852.7325850089883
 20
159.1116016648938
 30
0.0
 10
852.8695163590547
 20
158.5464629545527
 30
0.0
  0
SPLINE
  5
15A
330
1F
100
AcDbEntity
  8
0
  6
Continuous
 62
     7
370
    15
100
AcDbSpline
210
0.0
220
0.0
230
1.0
 70
     8
 71
     3
 72
    11
 73
     7
 74
     0
 42
0.00000001
 43
0.00000001
 40
0.0
 40
0.0
 40
0.0
 40
0.0
 40
0.2500012497748985
 40
0.5000041948391473
 40
0.7500032735149597
 40
1.0
 40
1.0
 40
1.0
 40
1.0
 10
846.8668219906923
 20
162.8470572843866
 30
0.0
 10
846.8609083570833
 20
162.7985655926054
 30
0.0
 10
846.8490810497642
 20
162.7015818802144
 30
0.0
 10
846.8442659131268
 20
161.9390779478005
 30
0.0
 10
846.8490810200653
 20
160.8167880657752
 30
0.0
 10
846.8609083523635
 20
159.8396782623601
 30
0.0
 10
846.8668219906923
 20
159.3511256590204
 30
0.0
  0
LINE
  5
15B
330
1F
100
AcDbEntity
  8
0
  6
Continuous
 62
     7
370
    15
100
AcDbLine
 10
847.8336093289
 20
162.8639253989
 30
0.0
 11
846.8668219907
 21
162.8470572844
 31
0.0
  0
SPLINE
  5
15C
330
1F
100
AcDbEntity
  8
0
  6
Continuous
 62
     7
370
    15
100
AcDbSpline
210
0.0
220
0.0
230
1.0
 70
     8
 71
     3
 72
    11
 73
     7
 74
     0
 42
0.00000001
 43
0.00000001
 40
0.0
 40
0.0
 40
0.0
 40
0.0
 40
0.2797527024896689
 40
0.5594936238916506
 40
0.7797498322192006
 40
1.0
 40
1.0
 40
1.0
 40
1.0
 10
846.2656197411653
 20
159.3144688024836
 30
0.0
 10
846.2835921371343
 20
159.8635991967114
 30
0.0
 10
846.3195361722101
 20
160.9618368599096
 30
0.0
 10
846.4505096703789
 20
162.0750503808392
 30
0.0
 10
846.6036993211336
 20
162.7289971929845
 30
0.0
 10
846.7121590456348
 20
162.8065320503103
 30
0.0
 10
846.7663881642458
 20
162.8452989473658
 30
0.0
  0
LINE
  5
15D
330
1F
100
AcDbEntity
  8
0
  6
Continuous
 62
     7
370
    15
100
AcDbLine
 10
846.8668219907
 20
162.8470572844
 30
0.0
 11
846.7663881642
 21
162.8452989474
 31
0.0
  0
SPLINE
  5
15E
330
1F
100
AcDbEntity
  8
0
  6
Continuous
 62
     7
370
    15
100
AcDbSpline
210
0.0
220
0.0
230
1.0
 70
     8
 71
     3
 72
     9
 73
     5
 74
     0
 42
0.00000001
 43
0.00000001
 40
0.0
 40
0.0
 40
0.0
 40
0.0
 40
0.3138204053659093
 40
1.0
 40
1.0
 40
1.0
 40
1.0
 10
844.8478338582155
 20
162.4393019094782
 30
0.0
 10
845.0377804855226
 20
162.5211211963422
 30
0.0
 10
845.6430522398741
 20
162.7818412944139
 30
0.0
 10
846.3092540655554
 20
162.819475276674
 30
0.0
 10
846.7663881642458
 20
162.8452989473658
 30
0.0
  0
LINE
  5
15F
330
1F
100
AcDbEntity
  8
0
  6
Continuous
 62
     7
370
    15
100
AcDbLine
 10
786.4458618028
 20
24.7682186976
 30
0.0
 11
786.4458618028
 21
2.0000490561
 31
0.0
  0
LINE
  5
160
330
1F
100
AcDbEntity
  8
0
  6
Continuous
 62
     7
370
    15
100
AcDbLine
 10
793.864673124
 20
24.5415422335
 30
0.0
 11
786.4458618028
 21
24.7682186976
 31
0.0
  0
LINE
  5
161
330
1F
100
AcDbEntity
  8
0
  6
Continuous
 62
     7
370
    15
100
AcDbLine
 10
793.864673124
 20
24.5415422335
 30
0.0
 11
793.864673124
 21
2.2267255202
 31
0.0
  0
LINE
  5
162
330
1F
100
AcDbEntity
  8
0
  6
Continuous
 62
     7
370
    15
100
AcDbLine
 10
786.4458618028
 20
2.0000490561
 30
0.0
 11
793.864673124
 21
2.2267255202
 31
0.0
  0
SPLINE
  5
163
330
1F
100
AcDbEntity
  8
0
  6
Continuous
 62
     7
370
    15
100
AcDbSpline
210
0.0
220
0.0
230
1.0
 70
     8
 71
     3
 72
    11
 73
     7
 74
     0
 42
0.00000001
 43
0.00000001
 40
0.0
 40
0.0
 40
0.0
 40
0.0
 40
0.2402532831405464
 40
0.5000174302010115
 40
0.7096956877391156
 40
1.0
 40
1.0
 40
1.0
 40
1.0
 10
786.4602265221712
 20
29.46844726947118
 30
0.0
 10
786.4596427153791
 20
29.26186521334328
 30
0.0
 10
786.4584276911013
 20
28.83192466276891
 30
0.0
 10
786.4548284515873
 20
27.75471094148374
 30
0.0
 10
786.4512356698028
 20
26.38215458191184
 30
0.0
 10
786.4478358413296
 20
25.36108257722908
 30
0.0
 10
786.4458618027803
 20
24.76821869757939
 30
0.0
  0
LINE
  5
164
330
1F
100
AcDbEntity
  8
0
  6
Continuous
 62
     7
370
    15
100
AcDbLine
 10
786.4602265222
 20
29.4684472695
 30
0.0
 11
794.0081713063
 21
29.2378070965
 31
0.0
  0
LWPOLYLINE
  5
165
330
1F
100
AcDbEntity
  8
0
  6
Continuous
 62
     7
370
    15
100
AcDbPolyline
 90
        9
 70
   128
 43
0.0
 10
794.0081713063
 20
29.2378070965
 10
793.9985451562
 20
28.9231243744
 10
793.9858195645
 20
28.5064581051
 10
793.9702627523
 20
27.9974940434
 10
793.9522621495
 20
27.4080786124
 10
793.9322051866
 20
26.7519506827
 10
793.9105985028
 20
26.0443690434
 10
793.8878891332
 20
25.3017994776
 10
793.864673124
 20
24.5415422335
  0
SPLINE
  5
166
330
1F
100
AcDbEntity
  8
0
  6
Continuous
 62
     7
370
    15
100
AcDbSpline
210
0.0
220
0.0
230
1.0
 70
     8
 71
     3
 72
    11
 73
     7
 74
     0
 42
0.00000001
 43
0.00000001
 40
0.0
 40
0.0
 40
0.0
 40
0.0
 40
0.2902979215673953
 40
0.4999811231434371
 40
0.7597460217561935
 40
1.0
 40
1.0
 40
1.0
 40
1.0
 10
786.4458618027803
 20
2.000049056084641
 30
0.0
 10
786.4478358621114
 20
1.407201949500059
 30
0.0
 10
786.4512357913849
 20
0.3861393094298782
 30
0.0
 10
786.4548283922558
 20
-0.9864240027893656
 30
0.0
 10
786.4584277003719
 20
-2.063641436900465
 30
0.0
 10
786.459642718388
 20
-2.493582373187198
 30
0.0
 10
786.4602265221712
 20
-2.70016461464595
 30
0.0
  0
LWPOLYLINE
  5
167
330
1F
100
AcDbEntity
  8
0
  6
Continuous
 62
     7
370
    15
100
AcDbPolyline
 90
        9
 70
   128
 43
0.0
 10
793.864673124
 20
2.2267255202
 10
793.8878891332
 20
1.4664682761
 10
793.9105985028
 20
0.7238987103
 10
793.9322051866
 20
0.016317071
 10
793.9522621495
 20
-0.6398108587
 10
793.9702627523
 20
-1.2292262897
 10
793.9858195645
 20
-1.7381903515
 10
793.9985451562
 20
-2.1548566208
 10
794.0081713063
 20
-2.4695393428
  0
LINE
  5
168
330
1F
100
AcDbEntity
  8
0
  6
Continuous
 62
     7
370
    15
100
AcDbLine
 10
794.0081713063
 20
-2.4695393428
 30
0.0
 11
786.4602265222
 21
-2.7001646146
 31
0.0
  0
LINE
  5
169
330
1F
100
AcDbEntity
  8
0
  6
Continuous
 62
     7
370
    15
100
AcDbLine
 10
798.845654474
 20
24.5415422335
 30
0.0
 11
793.864673124
 21
24.5415422335
 31
0.0
  0
LINE
  5
16A
330
1F
100
AcDbEntity
  8
0
  6
Continuous
 62
     7
370
    15
100
AcDbLine
 10
798.845654474
 20
24.5415422335
 30
0.0
 11
798.845654474
 21
2.2267255202
 31
0.0
  0
LINE
  5
16B
330
1F
100
AcDbEntity
  8
0
  6
Continuous
 62
     7
370
    15
100
AcDbLine
 10
793.864673124
 20
2.2267255202
 30
0.0
 11
798.845654474
 21
2.2267255202
 31
0.0
  0
ARC
  5
16C
330
1F
100
AcDbEntity
  8
0
  6
Continuous
 62
     7
370
    15
100
AcDbCircle
 10
793.8407789434
 20
24.2257747783
 30
0.0
 40
5.01482683271152
100
AcDbArc
 50
3.6101185159
 51
88.0871407646
  0
ARC
  5
16D
330
1F
100
AcDbEntity
  8
0
  6
Continuous
 62
     7
370
    15
100
AcDbCircle
 10
793.8407718511
 20
2.542500281
 30
0.0
 40
5.014834371015366
100
AcDbArc
 50
271.9129374362
 51
356.3898032833
  0
LINE
  5
16E
330
1F
100
AcDbEntity
  8
0
  6
Continuous
 62
     7
370
    15
100
AcDbLine
 10
794.8291954858
 20
32.6300117388
 30
0.0
 11
794.0081713063
 21
29.2378070965
 31
0.0
  0
SPLINE
  5
16F
330
1F
100
AcDbEntity
  8
0
  6
Continuous
 62
     7
370
    15
100
AcDbSpline
210
0.0
220
0.0
230
1.0
 70
     8
 71
     3
 72
    11
 73
     7
 74
     0
 42
0.00000001
 43
0.00000001
 40
0.0
 40
0.0
 40
0.0
 40
0.0
 40
0.249997812860089
 40
0.4999982138845114
 40
0.7499976610431714
 40
1.0
 40
1.0
 40
1.0
 40
1.0
 10
799.6666786534425
 20
27.93374687579442
 30
0.0
 10
799.5787542183781
 20
28.52724095116255
 30
0.0
 10
799.4029044379898
 20
29.71423524619343
 30
0.0
 10
798.2839898713582
 20
31.23131924650713
 30
0.0
 10
796.708446783824
 20
32.33003585624306
 30
0.0
 10
795.4556150004199
 20
32.53001939241346
 30
0.0
 10
794.8291954857942
 20
32.63001173880864
 30
0.0
  0
LINE
  5
170
330
1F
100
AcDbEntity
  8
0
  6
Continuous
 62
     7
370
    15
100
AcDbLine
 10
799.6666786534
 20
27.9337468758
 30
0.0
 11
798.845654474
 21
24.5415422335
 31
0.0
  0
LINE
  5
171
330
1F
100
AcDbEntity
  8
0
  6
Continuous
 62
     7
370
    15
100
AcDbLine
 10
794.0081713063
 20
-2.4695393428
 30
0.0
 11
794.8291954858
 21
-5.8617439851
 31
0.0
  0
LINE
  5
172
330
1F
100
AcDbEntity
  8
0
  6
Continuous
 62
     7
370
    15
100
AcDbLine
 10
798.845654474
 20
2.2267255202
 30
0.0
 11
799.6666786534
 21
-1.1654791221
 31
0.0
  0
SPLINE
  5
173
330
1F
100
AcDbEntity
  8
0
  6
Continuous
 62
     7
370
    15
100
AcDbSpline
210
0.0
220
0.0
230
1.0
 70
     8
 71
     3
 72
    11
 73
     7
 74
     0
 42
0.00000001
 43
0.00000001
 40
0.0
 40
0.0
 40
0.0
 40
0.0
 40
0.2500024036568949
 40
0.5000019155148727
 40
0.7500039543584524
 40
1.0
 40
1.0
 40
1.0
 40
1.0
 10
794.8291954857942
 20
-5.861743985144607
 30
0.0
 10
795.4556148286524
 20
-5.761751486987265
 30
0.0
 10
796.7084462685234
 20
-5.561767647294324
 30
0.0
 10
798.283995237221
 20
-4.463051009421681
 30
0.0
 10
799.402898190491
 20
-2.945957565958335
 30
0.0
 10
799.5787525350818
 20
-1.758967194139482
 30
0.0
 10
799.6666786534425
 20
-1.165479122130386
 30
0.0
  0
LINE
  5
174
330
1F
100
AcDbEntity
  8
0
  6
Continuous
 62
     7
370
    15
100
AcDbLine
 10
786.4602265222
 20
32.8857305661
 30
0.0
 11
786.4602265222
 21
29.4684472695
 31
0.0
  0
LINE
  5
175
330
1F
100
AcDbEntity
  8
0
  6
Continuous
 62
     7
370
    15
100
AcDbLine
 10
786.4602265222
 20
-2.7001646146
 30
0.0
 11
786.4602265222
 21
-6.1174628124
 31
0.0
  0
LINE
  5
176
330
1F
100
AcDbEntity
  8
0
  6
Continuous
 62
     7
370
    15
100
AcDbLine
 10
786.4602265222
 20
32.8857305661
 30
0.0
 11
794.8291954858
 21
32.6300117388
 31
0.0
  0
LINE
  5
177
330
1F
100
AcDbEntity
  8
0
  6
Continuous
 62
     7
370
    15
100
AcDbLine
 10
794.8291954858
 20
-5.8617439851
 30
0.0
 11
786.4602265222
 21
-6.1174628124
 31
0.0
  0
LINE
  5
178
330
1F
100
AcDbEntity
  8
0
  6
Continuous
 62
     7
370
    15
100
AcDbLine
 10
799.7564432485
 20
-1.3437417135
 30
0.0
 11
799.6666786534
 21
-1.1654791221
 31
0.0
  0
LINE
  5
179
330
1F
100
AcDbEntity
  8
0
  6
Continuous
 62
     7
370
    15
100
AcDbLine
 10
799.6666786534
 20
27.9337468758
 30
0.0
 11
799.7564432485
 21
28.1120094672
 31
0.0
  0
LINE
  5
17A
330
1F
100
AcDbEntity
  8
0
  6
Continuous
 62
     7
370
    15
100
AcDbLine
 10
800.1449761254
 20
28.1001332417
 30
0.0
 11
799.7564432485
 21
28.1120094672
 31
0.0
  0
LINE
  5
17B
330
1F
100
AcDbEntity
  8
0
  6
Continuous
 62
     7
370
    15
100
AcDbLine
 10
799.9638078076
 20
24.7556719199
 30
0.0
 11
800.1449761254
 21
28.1001332417
 31
0.0
  0
SPLINE
  5
17C
330
1F
100
AcDbEntity
  8
0
  6
Continuous
 62
     7
370
    15
100
AcDbSpline
210
0.0
220
0.0
230
1.0
 70
     8
 71
     3
 72
    11
 73
     7
 74
     0
 42
0.00000001
 43
0.00000001
 40
0.0
 40
0.0
 40
0.0
 40
0.0
 40
0.2497202498186708
 40
0.4998782855156243
 40
0.7499832229742498
 40
1.0
 40
1.0
 40
1.0
 40
1.0
 10
799.9638078076479
 20
2.01259583380986
 30
0.0
 10
799.9308058372802
 20
3.886385235254863
 30
0.0
 10
799.864744040618
 20
7.637248988161649
 30
0.0
 10
799.8382077417959
 20
13.38092174501848
 30
0.0
 10
799.8646602679167
 20
19.12688981265925
 30
0.0
 10
799.9307625118603
 20
22.87963172601215
 30
0.0
 10
799.9638078076479
 20
24.75567191985417
 30
0.0
  0
LINE
  5
17D
330
1F
100
AcDbEntity
  8
0
  6
Continuous
 62
     7
370
    15
100
AcDbLine
 10
800.1449761254
 20
-1.331865488
 30
0.0
 11
799.9638078076
 21
2.0125958338
 31
0.0
  0
LINE
  5
17E
330
1F
100
AcDbEntity
  8
0
  6
Continuous
 62
     7
370
    15
100
AcDbLine
 10
799.7564432485
 20
-1.3437417135
 30
0.0
 11
800.1449761254
 21
-1.331865488
 31
0.0
  0
ELLIPSE
  5
17F
330
1F
100
AcDbEntity
  8
0
  6
Continuous
 62
     7
370
    15
100
AcDbEllipse
 10
799.3059618319
 20
13.3841361644
 30
0.0
 11
0.0
 21
4.749999999999975
 31
0.0
210
0.0
220
0.0
230
1.0
 40
0.0874886635
 41
0.0
 42
6.283185307179586
  0
LINE
  5
180
330
1F
100
AcDbEntity
  8
0
  6
Continuous
 62
     7
370
    15
100
AcDbLine
 10
794.9281988008
 20
-6.3413974628
 30
0.0
 11
794.8291954858
 21
-5.8617439851
 31
0.0
  0
SPLINE
  5
181
330
1F
100
AcDbEntity
  8
0
  6
Continuous
 62
     7
370
    15
100
AcDbSpline
210
0.0
220
0.0
230
1.0
 70
     8
 71
     3
 72
    11
 73
     7
 74
     0
 42
0.00000001
 43
0.00000001
 40
0.0
 40
0.0
 40
0.0
 40
0.0
 40
0.2499986830864449
 40
0.4999992456080194
 40
0.7499995707309137
 40
1.0
 40
1.0
 40
1.0
 40
1.0
 10
799.7564432484743
 20
-1.343741713492386
 30
0.0
 10
799.6846566036555
 20
-1.986219245271537
 30
0.0
 10
799.5410827743417
 20
-3.271179138834623
 30
0.0
 10
798.4318735315685
 20
-4.903234483922548
 30
0.0
 10
796.840793717112
 20
-6.066215878615666
 30
0.0
 10
795.5657305280765
 20
-6.249670255343453
 30
0.0
 10
794.9281988007662
 20
-6.34139746281337
 30
0.0
  0
LINE
  5
182
330
1F
100
AcDbEntity
  8
0
  6
Continuous
 62
     7
370
    15
100
AcDbLine
 10
794.8291954858
 20
32.6300117388
 30
0.0
 11
794.9281988008
 21
33.1096801176
 31
0.0
  0
SPLINE
  5
183
330
1F
100
AcDbEntity
  8
0
  6
Continuous
 62
     7
370
    15
100
AcDbSpline
210
0.0
220
0.0
230
1.0
 70
     8
 71
     3
 72
    11
 73
     7
 74
     0
 42
0.00000001
 43
0.00000001
 40
0.0
 40
0.0
 40
0.0
 40
0.0
 40
0.2500005524785633
 40
0.499999458173668
 40
0.7499997134118785
 40
0.9999999999999999
 40
0.9999999999999999
 40
0.9999999999999999
 40
0.9999999999999999
 10
794.9281988007662
 20
33.1096801176386
 30
0.0
 10
795.5657295550416
 20
33.01794578194295
 30
0.0
 10
796.8407868641015
 20
32.83447771481674
 30
0.0
 10
798.4318780800799
 20
31.67151963507309
 30
0.0
 10
799.541085001209
 20
30.03945635482597
 30
0.0
 10
799.6846571630518
 20
28.75449178990186
 30
0.0
 10
799.7564432484743
 20
28.11200946715642
 30
0.0
  0
LINE
  5
184
330
1F
100
AcDbEntity
  8
0
  6
Continuous
 62
     7
370
    15
100
AcDbLine
 10
786.4611503942
 20
33.3683940783
 30
0.0
 11
786.4602265222
 21
32.8857305661
 31
0.0
  0
LINE
  5
185
330
1F
100
AcDbEntity
  8
0
  6
Continuous
 62
     7
370
    15
100
AcDbLine
 10
794.9281988008
 20
33.1096801176
 30
0.0
 11
786.4611503942
 21
33.3683940783
 31
0.0
  0
LINE
  5
186
330
1F
100
AcDbEntity
  8
0
  6
Continuous
 62
     7
370
    15
100
AcDbLine
 10
786.4602265222
 20
-6.1174628124
 30
0.0
 11
786.4611503942
 21
-6.6001263246
 31
0.0
  0
LINE
  5
187
330
1F
100
AcDbEntity
  8
0
  6
Continuous
 62
     7
370
    15
100
AcDbLine
 10
786.4611503942
 20
-6.6001263246
 30
0.0
 11
794.9281988008
 21
-6.3413974628
 31
0.0
  0
SPLINE
  5
188
330
1F
100
AcDbEntity
  8
0
  6
Continuous
 62
     7
370
    15
100
AcDbSpline
210
0.0
220
0.0
230
1.0
 70
     8
 71
     3
 72
    11
 73
     7
 74
     0
 42
0.00000001
 43
0.00000001
 40
0.0
 40
0.0
 40
0.0
 40
0.0
 40
0.2500332567293693
 40
0.5000041186364507
 40
0.7500497173703804
 40
1.0
 40
1.0
 40
1.0
 40
1.0
 10
786.4611503941652
 20
33.36839407828618
 30
0.0
 10
786.4277270311931
 20
33.36749504301473
 30
0.0
 10
786.3608886459182
 20
33.36569719682269
 30
0.0
 10
786.2641125031118
 20
33.33752413860253
 30
0.0
 10
786.1736375166511
 20
33.29311949593555
 30
0.0
 10
786.1230564095891
 20
33.24939265438809
 30
0.0
 10
786.097770677292
 20
33.22753340152074
 30
0.0
  0
SPLINE
  5
189
330
1F
100
AcDbEntity
  8
0
  6
Continuous
 62
     7
370
    15
100
AcDbSpline
210
0.0
220
0.0
230
1.0
 70
     8
 71
     3
 72
    11
 73
     7
 74
     0
 42
0.00000001
 43
0.00000001
 40
0.0
 40
0.0
 40
0.0
 40
0.0
 40
0.2953937413039928
 40
0.5907137682540046
 40
0.8861220906219326
 40
1.0
 40
1.0
 40
1.0
 40
1.0
 10
786.4611503941652
 20
-6.600126324622146
 30
0.0
 10
786.4277004376362
 20
-6.599265848170221
 30
0.0
 10
786.3608088718843
 20
-6.597545109995107
 30
0.0
 10
786.2644315460875
 20
-6.568793794670347
 30
0.0
 10
786.1912764303416
 20
-6.53522886691027
 30
0.0
 10
786.1557549563634
 20
-6.505620823374136
 30
0.0
 10
786.1458716256258
 20
-6.497382818190567
 30
0.0
  0
SPLINE
  5
18A
330
1F
100
AcDbEntity
  8
0
  6
Continuous
 62
     7
370
    15
100
AcDbSpline
210
0.0
220
0.0
230
1.0
 70
     8
 71
     3
 72
    10
 73
     6
 74
     0
 42
0.00000001
 43
0.00000001
 40
0.0
 40
0.0
 40
0.0
 40
0.0
 40
0.0545218238965389
 40
0.4999945915133412
 40
1.0
 40
1.0
 40
1.0
 40
1.0
 10
800.1491782528993
 20
-2.171247898070328
 30
0.0
 10
800.1503515255253
 20
-2.156098477968105
 30
0.0
 10
800.1611110696022
 20
-2.017170108109201
 30
0.0
 10
800.1720761309223
 20
-1.734250308422947
 30
0.0
 10
800.1543502542492
 20
-1.471053915090392
 30
0.0
 10
800.1449761254427
 20
-1.331865488020889
 30
0.0
  0
SPLINE
  5
18B
330
1F
100
AcDbEntity
  8
0
  6
Continuous
 62
     7
370
    15
100
AcDbSpline
210
0.0
220
0.0
230
1.0
 70
     8
 71
     3
 72
    11
 73
     7
 74
     0
 42
0.00000001
 43
0.00000001
 40
0.0
 40
0.0
 40
0.0
 40
0.0
 40
0.2499992300734171
 40
0.5000013500664343
 40
0.7499999574889987
 40
1.0
 40
1.0
 40
1.0
 40
1.0
 10
795.3918037278291
 20
-6.327241359679214
 30
0.0
 10
795.9594907109828
 20
-6.252885686578169
 30
0.0
 10
797.0948712395896
 20
-6.104173480845687
 30
0.0
 10
798.5670430960259
 20
-5.167969356878355
 30
0.0
 10
799.6940060789722
 20
-3.833615851929539
 30
0.0
 10
799.9974539046065
 20
-2.725371609645255
 30
0.0
 10
800.1491782528993
 20
-2.171247898070328
 30
0.0
  0
LINE
  5
18C
330
1F
100
AcDbEntity
  8
0
  6
Continuous
 62
     7
370
    15
100
AcDbLine
 10
794.9281988008
 20
-6.3413974628
 30
0.0
 11
795.3918037278
 21
-6.3272413597
 31
0.0
  0
SPLINE
  5
18D
330
1F
100
AcDbEntity
  8
0
  6
Continuous
 62
     7
370
    15
100
AcDbSpline
210
0.0
220
0.0
230
1.0
 70
     8
 71
     3
 72
    11
 73
     7
 74
     0
 42
0.00000001
 43
0.00000001
 40
0.0
 40
0.0
 40
0.0
 40
0.0
 40
0.2499984985153617
 40
0.4999976206003016
 40
0.7500002552629255
 40
1.0
 40
1.0
 40
1.0
 40
1.0
 10
800.1491782528993
 20
28.93953055289555
 30
0.0
 10
799.997453037609
 20
29.49364892925988
 30
0.0
 10
799.6940022285812
 20
30.60188706412242
 30
0.0
 10
798.5670432979013
 20
31.93623716497046
 30
0.0
 10
797.0948711891212
 20
32.87244122090272
 30
0.0
 10
795.9594906941603
 20
33.02115343570655
 30
0.0
 10
795.3918037278291
 20
33.09550911334325
 30
0.0
  0
SPLINE
  5
18E
330
1F
100
AcDbEntity
  8
0
  6
Continuous
 62
     7
370
    15
100
AcDbSpline
210
0.0
220
0.0
230
1.0
 70
     8
 71
     3
 72
    11
 73
     7
 74
     0
 42
0.00000001
 43
0.00000001
 40
0.0
 40
0.0
 40
0.0
 40
0.0
 40
0.499995702815296
 40
0.8439489971569215
 40
0.9454886979181126
 40
1.0
 40
1.0
 40
1.0
 40
1.0
 10
800.1449761254427
 20
28.10013324168492
 30
0.0
 10
800.1544466410588
 20
28.23931459032691
 30
0.0
 10
800.1704320427569
 20
28.47424052858582
 30
0.0
 10
800.1623401689819
 20
28.74138366345386
 30
0.0
 10
800.1537387402991
 20
28.8810284687192
 30
0.0
 10
800.1503588920758
 20
28.92438527423757
 30
0.0
 10
800.1491782528993
 20
28.93953055289555
 30
0.0
  0
LINE
  5
18F
330
1F
100
AcDbEntity
  8
0
  6
Continuous
 62
     7
370
    15
100
AcDbLine
 10
795.3918037278
 20
33.0955091133
 30
0.0
 11
794.9281988008
 21
33.1096801176
 31
0.0
  0
SPLINE
  5
190
330
1F
100
AcDbEntity
  8
0
  6
Continuous
 62
     7
370
    15
100
AcDbSpline
210
0.0
220
0.0
230
1.0
 70
     8
 71
     3
 72
    14
 73
    10
 74
     0
 42
0.00000001
 43
0.00000001
 40
0.0
 40
0.0
 40
0.0
 40
0.0
 40
0.2791835390697985
 40
0.5343359067241277
 40
0.775529510623095
 40
0.8900777089673462
 40
0.9453178267947644
 40
0.9724118133134495
 40
1.0
 40
1.0
 40
1.0
 40
1.0
 10
799.9638078076479
 20
24.75567191985417
 30
0.0
 10
800.0106761119248
 20
25.00648430934593
 30
0.0
 10
800.1003784559308
 20
25.48652000917006
 30
0.0
 10
800.4847329842195
 20
25.94872153488259
 30
0.0
 10
800.9471906255532
 20
26.24524101635223
 30
0.0
 10
801.3564431780826
 20
26.36358778496189
 30
0.0
 10
801.5796203774111
 20
26.36882289207876
 30
0.0
 10
801.712069512697
 20
26.3462470560657
 30
0.0
 10
801.7774787296873
 20
26.31101072793435
 30
0.0
 10
801.810478912079
 20
26.29323333648015
 30
0.0
  0
SPLINE
  5
191
330
1F
100
AcDbEntity
  8
0
  6
Continuous
 62
     7
370
    15
100
AcDbSpline
210
0.0
220
0.0
230
1.0
 70
     8
 71
     3
 72
     9
 73
     5
 74
     0
 42
0.00000001
 43
0.00000001
 40
0.0
 40
0.0
 40
0.0
 40
0.0
 40
0.5069859954456404
 40
0.9999999999999999
 40
0.9999999999999999
 40
0.9999999999999999
 40
0.9999999999999999
 10
801.810478912079
 20
26.29323333648015
 30
0.0
 10
802.1744851324717
 20
26.06831322927911
 30
0.0
 10
802.8924659517894
 20
25.62467157207043
 30
0.0
 10
803.7945623997354
 20
25.39624999737877
 30
0.0
 10
804.2393085820314
 20
25.28363496211339
 30
0.0
  0
LINE
  5
192
330
1F
100
AcDbEntity
  8
0
  6
Continuous
 62
     7
370
    15
100
AcDbLine
 10
804.239308582
 20
25.2836349621
 30
0.0
 11
804.3162581784
 21
25.2659919873
 31
0.0
  0
SPLINE
  5
193
330
1F
100
AcDbEntity
  8
0
  6
Continuous
 62
     7
370
    15
100
AcDbSpline
210
0.0
220
0.0
230
1.0
 70
     8
 71
     3
 72
    11
 73
     7
 74
     0
 42
0.00000001
 43
0.00000001
 40
0.0
 40
0.0
 40
0.0
 40
0.0
 40
0.2515960711154259
 40
0.5001090886017281
 40
0.7486050396760997
 40
1.0
 40
1.0
 40
1.0
 40
1.0
 10
804.3162581784364
 20
25.26599198725987
 30
0.0
 10
804.4195375764359
 20
23.29932780365962
 30
0.0
 10
804.624830788591
 20
19.39009890320198
 30
0.0
 10
804.7004435336971
 20
13.38163537853509
 30
0.0
 10
804.6246895980629
 20
7.374863541561638
 30
0.0
 10
804.4194653694913
 20
3.467358601450865
 30
0.0
 10
804.3162581784364
 20
1.50227576640416
 30
0.0
  0
LINE
  5
194
330
1F
100
AcDbEntity
  8
0
  6
Continuous
 62
     7
370
    15
100
AcDbLine
 10
804.3162581784
 20
1.5022757664
 30
0.0
 11
804.239308582
 21
1.4846327916
 31
0.0
  0
SPLINE
  5
195
330
1F
100
AcDbEntity
  8
0
  6
Continuous
 62
     7
370
    15
100
AcDbSpline
210
0.0
220
0.0
230
1.0
 70
     8
 71
     3
 72
     9
 73
     5
 74
     0
 42
0.00000001
 43
0.00000001
 40
0.0
 40
0.0
 40
0.0
 40
0.0
 40
0.4930569084841374
 40
1.0
 40
1.0
 40
1.0
 40
1.0
 10
804.2393085820314
 20
1.484632791550644
 30
0.0
 10
803.7945176705607
 20
1.372005623526629
 30
0.0
 10
802.8924090015269
 20
1.143579317990639
 30
0.0
 10
802.174445532608
 20
0.6999362205367676
 30
0.0
 10
801.810478912079
 20
0.4750344171838838
 30
0.0
  0
SPLINE
  5
196
330
1F
100
AcDbEntity
  8
0
  6
Continuous
 62
     7
370
    15
100
AcDbSpline
210
0.0
220
0.0
230
1.0
 70
     8
 71
     3
 72
    13
 73
     9
 74
     0
 42
0.00000001
 43
0.00000001
 40
0.0
 40
0.0
 40
0.0
 40
0.0
 40
0.0275901667997072
 40
0.109685557767095
 40
0.2242134760239403
 40
0.4655170290459537
 40
0.720655886569995
 40
1.0
 40
1.0
 40
1.0
 40
1.0
 10
801.810478912079
 20
0.4750344171838838
 30
0.0
 10
801.7774067763681
 20
0.4576989413643817
 30
0.0
 10
801.645927482374
 20
0.388781223388146
 30
0.0
 10
801.3811603431018
 20
0.4029643524847693
 30
0.0
 10
800.9487257801477
 20
0.518853828416932
 30
0.0
 10
800.4842716141592
 20
0.8210078377926533
 30
0.0
 10
800.1005618169407
 20
1.281281605716833
 30
0.0
 10
800.0107482796682
 20
1.761574052149717
 30
0.0
 10
799.9638078076479
 20
2.01259583380986
 30
0.0
  0
SPLINE
  5
197
330
1F
100
AcDbEntity
  8
0
  6
Continuous
 62
     7
370
    15
100
AcDbSpline
210
0.0
220
0.0
230
1.0
 70
     8
 71
     3
 72
     9
 73
     5
 74
     0
 42
0.00000001
 43
0.00000001
 40
0.0
 40
0.0
 40
0.0
 40
0.0
 40
0.5000194736840838
 40
1.0
 40
1.0
 40
1.0
 40
1.0
 10
801.8803057534334
 20
-1.067042051283829
 30
0.0
 10
801.8892546619123
 20
-0.8203275562753687
 30
0.0
 10
801.9071517818242
 20
-0.3269177832705417
 30
0.0
 10
801.8427023652824
 20
0.2077239579952872
 30
0.0
 10
801.810478912079
 20
0.4750344171838838
 30
0.0
  0
SPLINE
  5
198
330
1F
100
AcDbEntity
  8
0
  6
Continuous
 62
     7
370
    15
100
AcDbSpline
210
0.0
220
0.0
230
1.0
 70
     8
 71
     3
 72
     9
 73
     5
 74
     0
 42
0.00000001
 43
0.00000001
 40
0.0
 40
0.0
 40
0.0
 40
0.0
 40
0.5846294100821748
 40
1.0
 40
1.0
 40
1.0
 40
1.0
 10
801.8803057534334
 20
-1.067042051283829
 30
0.0
 10
801.7073697783833
 20
-1.341941191603024
 30
0.0
 10
801.4115653387371
 20
-1.812152124509359
 30
0.0
 10
801.0016499934601
 20
-2.190263622684929
 30
0.0
 10
800.8313832146761
 20
-2.347320018736831
 30
0.0
  0
LINE
  5
199
330
1F
100
AcDbEntity
  8
0
  6
Continuous
 62
     7
370
    15
100
AcDbLine
 10
800.7589933736
 20
-1.5311089143
 30
0.0
 11
800.8312342031
 21
-2.347156106
 31
0.0
  0
LINE
  5
19A
330
1F
100
AcDbEntity
  8
0
  6
Continuous
 62
     7
370
    15
100
AcDbLine
 10
800.5569038255
 20
-0.6551292524
 30
0.0
 11
800.7589933736
 21
-1.5311089143
 31
0.0
  0
SPLINE
  5
19B
330
1F
100
AcDbEntity
  8
0
  6
Continuous
 62
     7
370
    15
100
AcDbSpline
210
0.0
220
0.0
230
1.0
 70
     8
 71
     3
 72
     9
 73
     5
 74
     0
 42
0.00000001
 43
0.00000001
 40
0.0
 40
0.0
 40
0.0
 40
0.0
 40
0.5062802342964543
 40
1.0
 40
1.0
 40
1.0
 40
1.0
 10
799.9638078076479
 20
2.01259583380986
 30
0.0
 10
800.0185834913245
 20
1.528160175019944
 30
0.0
 10
800.1267759111861
 20
0.5713073769580967
 30
0.0
 10
800.4147334813912
 20
-0.2497546840254383
 30
0.0
 10
800.5569038254854
 20
-0.6551292524022978
 30
0.0
  0
SPLINE
  5
19C
330
1F
100
AcDbEntity
  8
0
  6
Continuous
 62
     7
370
    15
100
AcDbSpline
210
0.0
220
0.0
230
1.0
 70
     8
 71
     3
 72
     9
 73
     5
 74
     0
 42
0.00000001
 43
0.00000001
 40
0.0
 40
0.0
 40
0.0
 40
0.0
 40
0.4938401583364454
 40
1.0
 40
1.0
 40
1.0
 40
1.0
 10
800.5569038254854
 20
27.42339700606633
 30
0.0
 10
800.4146937148396
 20
27.01792478657383
 30
0.0
 10
800.1267258202787
 20
26.19686515290953
 30
0.0
 10
800.0185580095828
 20
25.23999909315355
 30
0.0
 10
799.9638078076479
 20
24.75567191985417
 30
0.0
  0
LINE
  5
19D
330
1F
100
AcDbEntity
  8
0
  6
Continuous
 62
     7
370
    15
100
AcDbLine
 10
800.7589933736
 20
28.299376668
 30
0.0
 11
800.5569038255
 21
27.4233970061
 31
0.0
  0
LINE
  5
19E
330
1F
100
AcDbEntity
  8
0
  6
Continuous
 62
     7
370
    15
100
AcDbLine
 10
800.8312342031
 20
29.1154238596
 30
0.0
 11
800.7589933736
 21
28.299376668
 31
0.0
  0
SPLINE
  5
19F
330
1F
100
AcDbEntity
  8
0
  6
Continuous
 62
     7
370
    15
100
AcDbSpline
210
0.0
220
0.0
230
1.0
 70
     8
 71
     3
 72
     9
 73
     5
 74
     0
 42
0.00000001
 43
0.00000001
 40
0.0
 40
0.0
 40
0.0
 40
0.0
 40
0.4152383148790146
 40
1.0
 40
1.0
 40
1.0
 40
1.0
 10
800.8313832146761
 20
29.11558777240086
 30
0.0
 10
801.001595534137
 20
28.95858248608629
 30
0.0
 10
801.4115103068389
 20
28.58047362500882
 30
0.0
 10
801.7073247822871
 20
28.1102680243453
 30
0.0
 10
801.8803057534334
 20
27.83530980494786
 30
0.0
  0
SPLINE
  5
1A0
330
1F
100
AcDbEntity
  8
0
  6
Continuous
 62
     7
370
    15
100
AcDbSpline
210
0.0
220
0.0
230
1.0
 70
     8
 71
     3
 72
     9
 73
     5
 74
     0
 42
0.00000001
 43
0.00000001
 40
0.0
 40
0.0
 40
0.0
 40
0.0
 40
0.4999805263159162
 40
1.0
 40
1.0
 40
1.0
 40
1.0
 10
801.810478912079
 20
26.29323333648015
 30
0.0
 10
801.8427023652823
 20
26.56054379566875
 30
0.0
 10
801.9071517818242
 20
27.09518553693469
 30
0.0
 10
801.8892546619123
 20
27.5885953099394
 30
0.0
 10
801.8803057534334
 20
27.83530980494786
 30
0.0
  0
SPLINE
  5
1A1
330
1F
100
AcDbEntity
  8
0
  6
Continuous
 62
     7
370
    15
100
AcDbSpline
210
0.0
220
0.0
230
1.0
 70
     8
 71
     3
 72
     9
 73
     5
 74
     0
 42
0.00000001
 43
0.00000001
 40
0.0
 40
0.0
 40
0.0
 40
0.0
 40
0.4999470037076865
 40
1.0
 40
1.0
 40
1.0
 40
1.0
 10
800.1449761254427
 20
28.10013324168492
 30
0.0
 10
800.1738063901291
 20
27.9797947130711
 30
0.0
 10
800.2314730317386
 20
27.73909214315595
 30
0.0
 10
800.4484192293404
 20
27.52863615402096
 30
0.0
 10
800.5569038254854
 20
27.42339700606633
 30
0.0
  0
SPLINE
  5
1A2
330
1F
100
AcDbEntity
  8
0
  6
Continuous
 62
     7
370
    15
100
AcDbSpline
210
0.0
220
0.0
230
1.0
 70
     8
 71
     3
 72
     9
 73
     5
 74
     0
 42
0.00000001
 43
0.00000001
 40
0.0
 40
0.0
 40
0.0
 40
0.0
 40
0.5595626571001343
 40
1.0
 40
1.0
 40
1.0
 40
1.0
 10
800.5569038254854
 20
-0.6551292524022978
 30
0.0
 10
800.4369944875136
 20
-0.7737234830719197
 30
0.0
 10
800.2227033148448
 20
-0.9856644143775295
 30
0.0
 10
800.1687424884434
 20
-1.226008831543446
 30
0.0
 10
800.1449761254427
 20
-1.331865488020889
 30
0.0
  0
SPLINE
  5
1A3
330
1F
100
AcDbEntity
  8
0
  6
Continuous
 62
     7
370
    15
100
AcDbSpline
210
0.0
220
0.0
230
1.0
 70
     8
 71
     3
 72
     9
 73
     5
 74
     0
 42
0.00000001
 43
0.00000001
 40
0.0
 40
0.0
 40
0.0
 40
0.0
 40
0.5595214988932824
 40
1.0
 40
1.0
 40
1.0
 40
1.0
 10
800.1491782528993
 20
28.93953055289555
 30
0.0
 10
800.2141349201437
 20
28.80009308041953
 30
0.0
 10
800.3302281665566
 20
28.55088465366229
 30
0.0
 10
800.6278828741489
 20
28.37628434865169
 30
0.0
 10
800.7589933735964
 20
28.29937666800786
 30
0.0
  0
SPLINE
  5
1A4
330
1F
100
AcDbEntity
  8
0
  6
Continuous
 62
     7
370
    15
100
AcDbSpline
210
0.0
220
0.0
230
1.0
 70
     8
 71
     3
 72
     9
 73
     5
 74
     0
 42
0.00000001
 43
0.00000001
 40
0.0
 40
0.0
 40
0.0
 40
0.0
 40
0.5595242454899536
 40
1.0
 40
1.0
 40
1.0
 40
1.0
 10
800.1491782528993
 20
-2.171247898070328
 30
0.0
 10
800.2141343543933
 20
-2.031808945906488
 30
0.0
 10
800.330226019799
 20
-1.782599097919113
 30
0.0
 10
800.6278827852495
 20
-1.608010818464956
 30
0.0
 10
800.7589933735964
 20
-1.531108914343826
 30
0.0
  0
LINE
  5
1A5
330
1F
100
AcDbEntity
  8
0
  6
Continuous
 62
     7
370
    15
100
AcDbLine
 10
804.3162581784
 20
1.5022757664
 30
0.0
 11
820.4458711011
 21
2.0066800728
 31
0.0
  0
LINE
  5
1A6
330
1F
100
AcDbEntity
  8
0
  6
Continuous
 62
     7
370
    15
100
AcDbLine
 10
820.4458711011
 20
24.761602582
 30
0.0
 11
804.3162581784
 21
25.2659919873
 31
0.0
  0
SPLINE
  5
1A7
330
1F
100
AcDbEntity
  8
0
  6
Continuous
 62
     7
370
    15
100
AcDbSpline
210
0.0
220
0.0
230
1.0
 70
    24
 71
     3
 72
    14
 73
    10
 74
     0
 42
0.00000001
 43
0.00000001
 40
0.0
 40
0.0
 40
0.0
 40
0.0
 40
0.136480927935183
 40
0.2729578103918985
 40
0.4144327364821137
 40
0.5559055272250801
 40
0.6956192159114591
 40
0.835331954634049
 40
0.9999999999999999
 40
0.9999999999999999
 40
0.9999999999999999
 40
0.9999999999999999
 10
820.4458711011049
 20
24.76155787852574
 30
0.0
 10
820.4458711011049
 20
23.82515852040434
 30
0.0
 10
820.4458711011049
 20
21.95238756029938
 30
0.0
 10
820.4458711011049
 20
18.79358563942624
 30
0.0
 10
820.4458711011049
 20
15.46292857923037
 30
0.0
 10
820.4458711011051
 20
12.03948799019539
 30
0.0
 10
820.4458711011048
 20
8.678328977847205
 30
0.0
 10
820.4458711011049
 20
5.245021895022184
 30
0.0
 10
820.4458711011049
 20
3.14357767463691
 30
0.0
 10
820.4458711011049
 20
2.006709875138291
 30
0.0
  0
LINE
  5
1A8
330
1F
100
AcDbEntity
  8
0
  6
Continuous
 62
     7
370
    15
100
AcDbLine
 10
800.1632151467
 20
29.7299626484
 30
0.0
 11
800.1821992261
 21
30.0348255053
 31
0.0
  0
LINE
  5
1A9
330
1F
100
AcDbEntity
  8
0
  6
Continuous
 62
     7
370
    15
100
AcDbLine
 10
800.1491782529
 20
28.9395305529
 30
0.0
 11
800.1632151467
 21
29.7299626484
 31
0.0
  0
SPLINE
  5
1AA
330
1F
100
AcDbEntity
  8
0
  6
Continuous
 62
     7
370
    15
100
AcDbSpline
210
0.0
220
0.0
230
1.0
 70
     8
 71
     3
 72
    11
 73
     7
 74
     0
 42
0.00000001
 43
0.00000001
 40
0.0
 40
0.0
 40
0.0
 40
0.0
 40
0.2499980337934534
 40
0.4999990497697827
 40
0.750001468770072
 40
1.0
 40
1.0
 40
1.0
 40
1.0
 10
795.883691058838
 20
33.08047384169866
 30
0.0
 10
796.3415995406515
 20
33.02727842158804
 30
0.0
 10
797.2574219665886
 20
32.92088694680795
 30
0.0
 10
798.498196870313
 20
32.25995528265041
 30
0.0
 10
799.5422448893186
 20
31.30201152618151
 30
0.0
 10
799.9688822196193
 20
30.45720872188318
 30
0.0
 10
800.1821992261049
 20
30.03481060412694
 30
0.0
  0
LINE
  5
1AB
330
1F
100
AcDbEntity
  8
0
  6
Continuous
 62
     7
370
    15
100
AcDbLine
 10
795.8836910588
 20
33.0804738417
 30
0.0
 11
795.3918037278
 21
33.0955091133
 31
0.0
  0
LINE
  5
1AC
330
1F
100
AcDbEntity
  8
0
  6
Continuous
 62
     7
370
    15
100
AcDbLine
 10
800.1632151467
 20
-2.9616948948
 30
0.0
 11
800.1491782529
 21
-2.1712478981
 31
0.0
  0
LINE
  5
1AD
330
1F
100
AcDbEntity
  8
0
  6
Continuous
 62
     7
370
    15
100
AcDbLine
 10
800.1821992261
 20
-3.2665428505
 30
0.0
 11
800.1632151467
 21
-2.9616948948
 31
0.0
  0
SPLINE
  5
1AE
330
1F
100
AcDbEntity
  8
0
  6
Continuous
 62
     7
370
    15
100
AcDbSpline
210
0.0
220
0.0
230
1.0
 70
     8
 71
     3
 72
    11
 73
     7
 74
     0
 42
0.00000001
 43
0.00000001
 40
0.0
 40
0.0
 40
0.0
 40
0.0
 40
0.249996581821563
 40
0.5000010684422004
 40
0.7500012221289912
 40
1.0
 40
1.0
 40
1.0
 40
1.0
 10
800.1821992261049
 20
-3.266542850462906
 30
0.0
 10
799.968880272556
 20
-3.688933973555852
 30
0.0
 10
799.5422356203917
 20
-4.533729575592171
 30
0.0
 10
798.4982064563725
 20
-5.491692880594812
 30
0.0
 10
797.2574158820455
 20
-6.15259639579091
 30
0.0
 10
796.3415984932413
 20
-6.25900295488413
 30
0.0
 10
795.883691058838
 20
-6.312206088034622
 30
0.0
  0
LINE
  5
1AF
330
1F
100
AcDbEntity
  8
0
  6
Continuous
 62
     7
370
    15
100
AcDbLine
 10
795.3918037278
 20
-6.3272413597
 30
0.0
 11
795.8836910588
 21
-6.312206088
 31
0.0
  0
SPLINE
  5
1B0
330
1F
100
AcDbEntity
  8
0
  6
Continuous
 62
     7
370
    15
100
AcDbSpline
210
0.0
220
0.0
230
1.0
 70
     8
 71
     3
 72
     9
 73
     5
 74
     0
 42
0.00000001
 43
0.00000001
 40
0.0
 40
0.0
 40
0.0
 40
0.0
 40
0.5596558916733607
 40
1.0
 40
1.0
 40
1.0
 40
1.0
 10
800.1632151467439
 20
-2.96169489475917
 30
0.0
 10
800.2575398645602
 20
-2.827033304888871
 30
0.0
 10
800.4260804253219
 20
-2.586418327232276
 30
0.0
 10
800.7073699973068
 20
-2.420303702341364
 30
0.0
 10
800.8312342030641
 20
-2.347156105963699
 30
0.0
  0
SPLINE
  5
1B1
330
1F
100
AcDbEntity
  8
0
  6
Continuous
 62
     7
370
    15
100
AcDbSpline
210
0.0
220
0.0
230
1.0
 70
     8
 71
     3
 72
     9
 73
     5
 74
     0
 42
0.00000001
 43
0.00000001
 40
0.0
 40
0.0
 40
0.0
 40
0.0
 40
0.5596855058598773
 40
1.0
 40
1.0
 40
1.0
 40
1.0
 10
800.8312342030641
 20
29.11542385962773
 30
0.0
 10
800.6755310943229
 20
29.2107710995051
 30
0.0
 10
800.3973335939213
 20
29.38112970068207
 30
0.0
 10
800.2347868389384
 20
29.62332190881467
 30
0.0
 10
800.1632151467439
 20
29.7299626484232
 30
0.0
  0
SPLINE
  5
1B2
330
1F
100
AcDbEntity
  8
0
  6
Continuous
 62
     7
370
    15
100
AcDbSpline
210
0.0
220
0.0
230
1.0
 70
     8
 71
     3
 72
     9
 73
     5
 74
     0
 42
0.00000001
 43
0.00000001
 40
0.0
 40
0.0
 40
0.0
 40
0.0
 40
0.5597629665219054
 40
0.9999999999999999
 40
0.9999999999999999
 40
0.9999999999999999
 40
0.9999999999999999
 10
804.3481764657137
 20
-0.8509752139730375
 30
0.0
 10
804.3406485827129
 20
-0.4505328984233392
 30
0.0
 10
804.3272002421635
 20
0.2648454661688948
 30
0.0
 10
804.2661744123251
 20
1.111780586588673
 30
0.0
 10
804.2393085820314
 20
1.484632791550644
 30
0.0
  0
SPLINE
  5
1B3
330
1F
100
AcDbEntity
  8
0
  6
Continuous
 62
     7
370
    15
100
AcDbSpline
210
0.0
220
0.0
230
1.0
 70
     8
 71
     3
 72
     9
 73
     5
 74
     0
 42
0.00000001
 43
0.00000001
 40
0.0
 40
0.0
 40
0.0
 40
0.0
 40
0.5085007936008131
 40
1.0
 40
1.0
 40
1.0
 40
1.0
 10
801.8803057534334
 20
-1.067042051283829
 30
0.0
 10
802.2517646756344
 20
-1.012747569407724
 30
0.0
 10
802.9822628909285
 20
-0.9059739270468326
 30
0.0
 10
803.8980619533247
 20
-0.8690991417047433
 30
0.0
 10
804.3481764657137
 20
-0.8509752139730375
 30
0.0
  0
SPLINE
  5
1B4
330
1F
100
AcDbEntity
  8
0
  6
Continuous
 62
     7
370
    15
100
AcDbSpline
210
0.0
220
0.0
230
1.0
 70
     8
 71
     3
 72
     9
 73
     5
 74
     0
 42
0.00000001
 43
0.00000001
 40
0.0
 40
0.0
 40
0.0
 40
0.0
 40
0.4914621727833903
 40
1.0
 40
1.0
 40
1.0
 40
1.0
 10
804.3481764657137
 20
27.61925786879826
 30
0.0
 10
803.8981083807566
 20
27.63737773171782
 30
0.0
 10
802.9823347772498
 20
27.67424702486576
 30
0.0
 10
802.2518068422297
 20
27.78101450339776
 30
0.0
 10
801.8803057534334
 20
27.83530980494786
 30
0.0
  0
SPLINE
  5
1B5
330
1F
100
AcDbEntity
  8
0
  6
Continuous
 62
     7
370
    15
100
AcDbSpline
210
0.0
220
0.0
230
1.0
 70
     8
 71
     3
 72
     9
 73
     5
 74
     0
 42
0.00000001
 43
0.00000001
 40
0.0
 40
0.0
 40
0.0
 40
0.0
 40
0.5597604194416544
 40
1.0
 40
1.0
 40
1.0
 40
1.0
 10
804.2393085820314
 20
25.28363496211339
 30
0.0
 10
804.2724948022128
 20
25.75663168401243
 30
0.0
 10
804.3317812737619
 20
26.60163019671685
 30
0.0
 10
804.3431649297681
 20
27.30819852452726
 30
0.0
 10
804.3481764657137
 20
27.61925786879826
 30
0.0
  0
SPLINE
  5
1B6
330
1F
100
AcDbEntity
  8
0
  6
Continuous
 62
     7
370
    15
100
AcDbSpline
210
0.0
220
0.0
230
1.0
 70
     8
 71
     3
 72
    10
 73
     6
 74
     0
 42
0.00000001
 43
0.00000001
 40
0.0
 40
0.0
 40
0.0
 40
0.0
 40
0.0909090557896081
 40
0.4470751052025183
 40
1.0
 40
1.0
 40
1.0
 40
1.0
 10
804.5800385338899
 20
-2.994790373770706
 30
0.0
 10
804.4496584356574
 20
-2.970127690572366
 30
0.0
 10
803.8084715304881
 20
-2.84884085517767
 30
0.0
 10
802.9167764858087
 20
-2.145688951143532
 30
0.0
 10
802.2722922527371
 20
-1.474970037565138
 30
0.0
 10
801.8803057534334
 20
-1.067027150122635
 30
0.0
  0
SPLINE
  5
1B7
330
1F
100
AcDbEntity
  8
0
  6
Continuous
 62
     7
370
    15
100
AcDbSpline
210
0.0
220
0.0
230
1.0
 70
     8
 71
     3
 72
     9
 73
     5
 74
     0
 42
0.00000001
 43
0.00000001
 40
0.0
 40
0.0
 40
0.0
 40
0.0
 40
0.4999910929967465
 40
1.0
 40
1.0
 40
1.0
 40
1.0
 10
804.3130395276186
 20
-4.540651737181656
 30
0.0
 10
804.3719564605865
 20
-4.36579947549498
 30
0.0
 10
804.4897924256527
 20
-4.016088722371913
 30
0.0
 10
804.5499561405585
 20
-3.335227199594948
 30
0.0
 10
804.5800385338899
 20
-2.994790373770706
 30
0.0
  0
SPLINE
  5
1B8
330
1F
100
AcDbEntity
  8
0
  6
Continuous
 62
     7
370
    15
100
AcDbSpline
210
0.0
220
0.0
230
1.0
 70
     8
 71
     3
 72
     9
 73
     5
 74
     0
 42
0.00000001
 43
0.00000001
 40
0.0
 40
0.0
 40
0.0
 40
0.0
 40
0.5069214733072699
 40
1.0
 40
1.0
 40
1.0
 40
1.0
 10
804.3130395276186
 20
-4.540651737181656
 30
0.0
 10
803.7968283012191
 20
-4.593162942667428
 30
0.0
 10
802.7785024784215
 20
-4.696751384370534
 30
0.0
 10
801.867863245098
 20
-4.714639122932018
 30
0.0
 10
801.4188465935823
 20
-4.723459182707779
 30
0.0
  0
SPLINE
  5
1B9
330
1F
100
AcDbEntity
  8
0
  6
Continuous
 62
     7
370
    15
100
AcDbSpline
210
0.0
220
0.0
230
1.0
 70
     8
 71
     3
 72
     9
 73
     5
 74
     0
 42
0.00000001
 43
0.00000001
 40
0.0
 40
0.0
 40
0.0
 40
0.0
 40
0.5011357183159272
 40
1.0
 40
1.0
 40
1.0
 40
1.0
 10
801.3965842587587
 20
-4.68833714577388
 30
0.0
 10
801.40002924865
 20
-4.694404265916996
 30
0.0
 10
801.4069036137478
 20
-4.706511006509206
 30
0.0
 10
801.4148716332545
 20
-4.717818351947733
 30
0.0
 10
801.4188465935823
 20
-4.723459182707779
 30
0.0
  0
SPLINE
  5
1BA
330
1F
100
AcDbEntity
  8
0
  6
Continuous
 62
     7
370
    15
100
AcDbSpline
210
0.0
220
0.0
230
1.0
 70
     8
 71
     3
 72
     9
 73
     5
 74
     0
 42
0.00000001
 43
0.00000001
 40
0.0
 40
0.0
 40
0.0
 40
0.0
 40
0.5087397654986343
 40
1.0
 40
1.0
 40
1.0
 40
1.0
 10
800.888186441147
 20
-2.682983575789444
 30
0.0
 10
800.9646964965337
 20
-3.127347546944215
 30
0.0
 10
801.1150878372061
 20
-4.000807813450469
 30
0.0
 10
801.3038519543198
 20
-4.46184695096441
 30
0.0
 10
801.3965842587587
 20
-4.68833714577388
 30
0.0
  0
LINE
  5
1BB
330
1F
100
AcDbEntity
  8
0
  6
Continuous
 62
     7
370
    15
100
AcDbLine
 10
800.8312342031
 20
-2.347156106
 30
0.0
 11
800.8881864411
 21
-2.6829835758
 31
0.0
  0
LINE
  5
1BC
330
1F
100
AcDbEntity
  8
0
  6
Continuous
 62
     7
370
    15
100
AcDbLine
 10
800.8881864411
 20
29.4512513295
 30
0.0
 11
800.8312342031
 21
29.1154238596
 31
0.0
  0
SPLINE
  5
1BD
330
1F
100
AcDbEntity
  8
0
  6
Continuous
 62
     7
370
    15
100
AcDbSpline
210
0.0
220
0.0
230
1.0
 70
     8
 71
     3
 72
     9
 73
     5
 74
     0
 42
0.00000001
 43
0.00000001
 40
0.0
 40
0.0
 40
0.0
 40
0.0
 40
0.4917952729755858
 40
1.0
 40
1.0
 40
1.0
 40
1.0
 10
801.3965842587587
 20
31.45661980059911
 30
0.0
 10
801.3037565434065
 20
31.22983690009373
 30
0.0
 10
801.1150037829524
 20
30.7687041626169
 30
0.0
 10
800.9646148219969
 20
29.89518029045485
 30
0.0
 10
800.888186441147
 20
29.45125132945348
 30
0.0
  0
SPLINE
  5
1BE
330
1F
100
AcDbEntity
  8
0
  6
Continuous
 62
     7
370
    15
100
AcDbSpline
210
0.0
220
0.0
230
1.0
 70
     8
 71
     3
 72
     9
 73
     5
 74
     0
 42
0.00000001
 43
0.00000001
 40
0.0
 40
0.0
 40
0.0
 40
0.0
 40
0.4988642816840728
 40
1.0
 40
1.0
 40
1.0
 40
1.0
 10
801.4188465935823
 20
31.49172693637181
 30
0.0
 10
801.4148716332545
 20
31.48608610561188
 30
0.0
 10
801.4069036137477
 20
31.47477876017335
 30
0.0
 10
801.4000292486501
 20
31.46267201958097
 30
0.0
 10
801.3965842587587
 20
31.45660489943791
 30
0.0
  0
SPLINE
  5
1BF
330
1F
100
AcDbEntity
  8
0
  6
Continuous
 62
     7
370
    15
100
AcDbSpline
210
0.0
220
0.0
230
1.0
 70
     8
 71
     3
 72
     9
 73
     5
 74
     0
 42
0.00000001
 43
0.00000001
 40
0.0
 40
0.0
 40
0.0
 40
0.0
 40
0.49307852669273
 40
1.0
 40
1.0
 40
1.0
 40
1.0
 10
801.4188465935823
 20
31.49172693637181
 30
0.0
 10
801.8678632450981
 20
31.48290687659605
 30
0.0
 10
802.7785024784214
 20
31.46501913803462
 30
0.0
 10
803.7968283012191
 20
31.36143069633146
 30
0.0
 10
804.3130395276186
 20
31.30891949084569
 30
0.0
  0
SPLINE
  5
1C0
330
1F
100
AcDbEntity
  8
0
  6
Continuous
 62
     7
370
    15
100
AcDbSpline
210
0.0
220
0.0
230
1.0
 70
     8
 71
     3
 72
     9
 73
     5
 74
     0
 42
0.00000001
 43
0.00000001
 40
0.0
 40
0.0
 40
0.0
 40
0.0
 40
0.5000033991958357
 40
0.9999999999999999
 40
0.9999999999999999
 40
0.9999999999999999
 40
0.9999999999999999
 10
804.3130395276186
 20
31.30891949084569
 30
0.0
 10
804.371896544613
 20
31.13369177686998
 30
0.0
 10
804.4896097783413
 20
30.78323873143535
 30
0.0
 10
804.5498957519895
 20
30.1031167875232
 30
0.0
 10
804.5800385338899
 20
29.76305812743474
 30
0.0
  0
SPLINE
  5
1C1
330
1F
100
AcDbEntity
  8
0
  6
Continuous
 62
     7
370
    15
100
AcDbSpline
210
0.0
220
0.0
230
1.0
 70
     8
 71
     3
 72
    11
 73
     7
 74
     0
 42
0.00000001
 43
0.00000001
 40
0.0
 40
0.0
 40
0.0
 40
0.0
 40
0.5522670270620957
 40
0.8027009256275911
 40
0.9091991074260856
 40
1.0
 40
1.0
 40
1.0
 40
1.0
 10
801.8803057534334
 20
27.83530980494786
 30
0.0
 10
802.2640822252232
 20
28.25389403299389
 30
0.0
 10
802.8218879859231
 20
28.86229165740573
 30
0.0
 10
803.6597072529556
 20
29.44714482938726
 30
0.0
 10
804.1625575586004
 20
29.68883435416614
 30
0.0
 10
804.4484604376105
 20
29.73966491106461
 30
0.0
 10
804.5800385338899
 20
29.76305812743474
 30
0.0
  0
SPLINE
  5
1C2
330
1F
100
AcDbEntity
  8
0
  6
Continuous
 62
     7
370
    15
100
AcDbSpline
210
0.0
220
0.0
230
1.0
 70
     8
 71
     3
 72
     9
 73
     5
 74
     0
 42
0.00000001
 43
0.00000001
 40
0.0
 40
0.0
 40
0.0
 40
0.0
 40
0.5596763591018269
 40
1.0
 40
1.0
 40
1.0
 40
1.0
 10
800.888186441147
 20
-2.682983575789444
 30
0.0
 10
800.7281292248429
 20
-2.771168229141141
 30
0.0
 10
800.4421474896826
 20
-2.928731885203595
 30
0.0
 10
800.2616684249804
 20
-3.163270120685624
 30
0.0
 10
800.1821992261049
 20
-3.266542850462906
 30
0.0
  0
SPLINE
  5
1C3
330
1F
100
AcDbEntity
  8
0
  6
Continuous
 62
     7
370
    15
100
AcDbSpline
210
0.0
220
0.0
230
1.0
 70
     8
 71
     3
 72
     9
 73
     5
 74
     0
 42
0.00000001
 43
0.00000001
 40
0.0
 40
0.0
 40
0.0
 40
0.0
 40
0.5596739530695176
 40
1.0
 40
1.0
 40
1.0
 40
1.0
 10
800.1821992261049
 20
30.03482550528813
 30
0.0
 10
800.2863492080388
 20
29.90461820488765
 30
0.0
 10
800.4724396654609
 20
29.67196971430419
 30
0.0
 10
800.7610873480963
 20
29.51872775542891
 30
0.0
 10
800.888186441147
 20
29.45125132945348
 30
0.0
  0
LINE
  5
1C4
330
1F
100
AcDbEntity
  8
0
  6
Continuous
 62
     7
370
    15
100
AcDbLine
 10
804.3481764657
 20
-0.850975214
 30
0.0
 11
804.5800385339
 21
-2.9947903738
 31
0.0
  0
LINE
  5
1C5
330
1F
100
AcDbEntity
  8
0
  6
Continuous
 62
     7
370
    15
100
AcDbLine
 10
804.5800385339
 20
29.7630581274
 30
0.0
 11
804.3481764657
 21
27.6192578688
 31
0.0
  0
LINE
  5
1C6
330
1F
100
AcDbEntity
  8
0
  6
Continuous
 62
     7
370
    15
100
AcDbLine
 10
804.5178708894
 20
27.5965186968
 30
0.0
 11
804.3481764657
 21
27.6192578688
 31
0.0
  0
SPLINE
  5
1C7
330
1F
100
AcDbEntity
  8
0
  6
Continuous
 62
     7
370
    15
100
AcDbSpline
210
0.0
220
0.0
230
1.0
 70
     8
 71
     3
 72
     9
 73
     5
 74
     0
 42
0.00000001
 43
0.00000001
 40
0.0
 40
0.0
 40
0.0
 40
0.0
 40
0.5597501470559416
 40
1.0
 40
1.0
 40
1.0
 40
1.0
 10
804.5178708893892
 20
27.59651869681645
 30
0.0
 10
804.4924356455468
 20
27.19721341722536
 30
0.0
 10
804.446995293318
 20
26.48384999661474
 30
0.0
 10
804.3562213802957
 20
25.63826198501701
 30
0.0
 10
804.3162581784364
 20
25.26599198725987
 30
0.0
  0
SPLINE
  5
1C8
330
1F
100
AcDbEntity
  8
0
  6
Continuous
 62
     7
370
    15
100
AcDbSpline
210
0.0
220
0.0
230
1.0
 70
     8
 71
     3
 72
     9
 73
     5
 74
     0
 42
0.00000001
 43
0.00000001
 40
0.0
 40
0.0
 40
0.0
 40
0.0
 40
0.5597571515816278
 40
1.0
 40
1.0
 40
1.0
 40
1.0
 10
804.3162581784364
 20
1.50227576640416
 30
0.0
 10
804.366213612298
 20
1.030021826502581
 30
0.0
 10
804.4554584459197
 20
0.1863453525758896
 30
0.0
 10
804.498793112388
 20
-0.5181166045464813
 30
0.0
 10
804.5178708893892
 20
-0.8282509431524199
 30
0.0
  0
LINE
  5
1C9
330
1F
100
AcDbEntity
  8
0
  6
Continuous
 62
     7
370
    15
100
AcDbLine
 10
804.3481764657
 20
-0.850975214
 30
0.0
 11
804.5178708894
 21
-0.8282509432
 31
0.0
  0
SPLINE
  5
1CA
330
1F
100
AcDbEntity
  8
0
  6
Continuous
 62
     7
370
    15
100
AcDbSpline
210
0.0
220
0.0
230
1.0
 70
     8
 71
     3
 72
     9
 73
     5
 74
     0
 42
0.00000001
 43
0.00000001
 40
0.0
 40
0.0
 40
0.0
 40
0.0
 40
0.5090335661780951
 40
1.0
 40
1.0
 40
1.0
 40
1.0
 10
800.1821992261049
 20
30.03482550528813
 30
0.0
 10
800.2200138203436
 20
30.43679296954788
 30
0.0
 10
800.294300855131
 20
31.22646086370629
 30
0.0
 10
800.4007299930304
 20
31.64659816602899
 30
0.0
 10
800.4529831273195
 20
31.8528714790659
 30
0.0
  0
SPLINE
  5
1CB
330
1F
100
AcDbEntity
  8
0
  6
Continuous
 62
     7
370
    15
100
AcDbSpline
210
0.0
220
0.0
230
1.0
 70
     8
 71
     3
 72
     9
 73
     5
 74
     0
 42
0.00000001
 43
0.00000001
 40
0.0
 40
0.0
 40
0.0
 40
0.0
 40
0.49999632554601
 40
1.0
 40
1.0
 40
1.0
 40
1.0
 10
797.5051460129854
 20
33.03094238189031
 30
0.0
 10
798.044636672624
 20
32.96520827322236
 30
0.0
 10
799.1236259212942
 20
32.83373908973153
 30
0.0
 10
800.0098618876889
 20
32.17982895112959
 30
0.0
 10
800.4529831273195
 20
31.8528714790659
 30
0.0
  0
LINE
  5
1CC
330
1F
100
AcDbEntity
  8
0
  6
Continuous
 62
     7
370
    15
100
AcDbLine
 10
797.505146013
 20
33.0309423819
 30
0.0
 11
795.8836910588
 21
33.0804738417
 31
0.0
  0
SPLINE
  5
1CD
330
1F
100
AcDbEntity
  8
0
  6
Continuous
 62
     7
370
    15
100
AcDbSpline
210
0.0
220
0.0
230
1.0
 70
     8
 71
     3
 72
     9
 73
     5
 74
     0
 42
0.00000001
 43
0.00000001
 40
0.0
 40
0.0
 40
0.0
 40
0.0
 40
0.4904487430514223
 40
1.0
 40
1.0
 40
1.0
 40
1.0
 10
800.4529831273195
 20
-5.084603725401871
 30
0.0
 10
800.4007864242061
 20
-4.878597395339579
 30
0.0
 10
800.2943600058436
 20
-4.458560983826798
 30
0.0
 10
800.2200592630087
 20
-3.668910332431607
 30
0.0
 10
800.1821992261049
 20
-3.266542850462906
 30
0.0
  0
SPLINE
  5
1CE
330
1F
100
AcDbEntity
  8
0
  6
Continuous
 62
     7
370
    15
100
AcDbSpline
210
0.0
220
0.0
230
1.0
 70
     8
 71
     3
 72
     9
 73
     5
 74
     0
 42
0.00000001
 43
0.00000001
 40
0.0
 40
0.0
 40
0.0
 40
0.0
 40
0.5000041110689671
 40
0.9999999999999999
 40
0.9999999999999999
 40
0.9999999999999999
 40
0.9999999999999999
 10
800.4529831273195
 20
-5.084603725401871
 30
0.0
 10
800.0098621302574
 20
-5.411562429567307
 30
0.0
 10
799.1236274228775
 20
-6.065474461343423
 30
0.0
 10
798.0446368590797
 20
-6.196931665444216
 30
0.0
 10
797.5051460129854
 20
-6.262659727065079
 30
0.0
  0
LINE
  5
1CF
330
1F
100
AcDbEntity
  8
0
  6
Continuous
 62
     7
370
    15
100
AcDbLine
 10
795.8836910588
 20
-6.312206088
 30
0.0
 11
797.505146013
 21
-6.2626597271
 31
0.0
  0
SPLINE
  5
1D0
330
1F
100
AcDbEntity
  8
0
  6
Continuous
 62
     7
370
    15
100
AcDbSpline
210
0.0
220
0.0
230
1.0
 70
     8
 71
     3
 72
     9
 73
     5
 74
     0
 42
0.00000001
 43
0.00000001
 40
0.0
 40
0.0
 40
0.0
 40
0.0
 40
0.5596703172849657
 40
1.0
 40
1.0
 40
1.0
 40
1.0
 10
800.4529831273195
 20
-5.084603725401871
 30
0.0
 10
800.6152522198151
 20
-4.978388423715952
 30
0.0
 10
800.9051891478318
 20
-4.788606513892346
 30
0.0
 10
801.2463576433672
 20
-4.718990946483204
 30
0.0
 10
801.3965842587587
 20
-4.68833714577388
 30
0.0
  0
SPLINE
  5
1D1
330
1F
100
AcDbEntity
  8
0
  6
Continuous
 62
     7
370
    15
100
AcDbSpline
210
0.0
220
0.0
230
1.0
 70
     8
 71
     3
 72
     9
 73
     5
 74
     0
 42
0.00000001
 43
0.00000001
 40
0.0
 40
0.0
 40
0.0
 40
0.0
 40
0.5596723474649798
 40
1.0
 40
1.0
 40
1.0
 40
1.0
 10
800.4529831273195
 20
31.8528714790659
 30
0.0
 10
800.6152517699325
 20
31.74665447775216
 30
0.0
 10
800.9051868423866
 20
31.55687021952524
 30
0.0
 10
801.2463574194473
 20
31.48726771015892
 30
0.0
 10
801.3965842587587
 20
31.45661980059911
 30
0.0
  0
LINE
  5
1D2
330
1F
100
AcDbEntity
  8
0
  6
Continuous
 62
     7
370
    15
100
AcDbLine
 10
804.5178708894
 20
27.5965186968
 30
0.0
 11
820.4458711011
 21
24.989381732
 31
0.0
  0
SPLINE
  5
1D3
330
1F
100
AcDbEntity
  8
0
  6
Continuous
 62
     7
370
    15
100
AcDbSpline
210
0.0
220
0.0
230
1.0
 70
    24
 71
     3
 72
    10
 73
     6
 74
     0
 42
0.00000001
 43
0.00000001
 40
0.0
 40
0.0
 40
0.0
 40
0.0
 40
0.4999608645009833
 40
0.7498994911846995
 40
1.0
 40
1.0
 40
1.0
 40
1.0
 10
820.4458711011049
 20
24.98942643550206
 30
0.0
 10
820.445871101105
 20
24.95194577072968
 30
0.0
 10
820.445871101105
 20
24.89572790761718
 30
0.0
 10
820.4458711011048
 20
24.81936836680382
 30
0.0
 10
820.4458711011049
 20
24.78086199894425
 30
0.0
 10
820.4458711011049
 20
24.76160258200932
 30
0.0
  0
LINE
  5
1D4
330
1F
100
AcDbEntity
  8
0
  6
Continuous
 62
     7
370
    15
100
AcDbLine
 10
820.4458711011
 20
1.7788860216
 30
0.0
 11
804.5178708894
 21
-0.8282509432
 31
0.0
  0
SPLINE
  5
1D5
330
1F
100
AcDbEntity
  8
0
  6
Continuous
 62
     7
370
    15
100
AcDbSpline
210
0.0
220
0.0
230
1.0
 70
    24
 71
     3
 72
    10
 73
     6
 74
     0
 42
0.00000001
 43
0.00000001
 40
0.0
 40
0.0
 40
0.0
 40
0.0
 40
0.2500032154314876
 40
0.6249102574839754
 40
1.0
 40
1.0
 40
1.0
 40
1.0
 10
820.4458711011049
 20
2.006680072815903
 30
0.0
 10
820.4458711011049
 20
1.987429784370165
 30
0.0
 10
820.4458711011049
 20
1.939311592416115
 30
0.0
 10
820.4458711011049
 20
1.863145003004107
 30
0.0
 10
820.4458711011049
 20
1.806947109742774
 30
0.0
 10
820.4458711011049
 20
1.778841318161972
 30
0.0
  0
LINE
  5
1D6
330
1F
100
AcDbEntity
  8
0
  6
Continuous
 62
     7
370
    15
100
AcDbLine
 10
820.4458711011
 20
28.599724473
 30
0.0
 11
804.5800385339
 21
29.7630581274
 31
0.0
  0
LINE
  5
1D7
330
1F
100
AcDbEntity
  8
0
  6
Continuous
 62
     7
370
    15
100
AcDbLine
 10
820.4458711011
 20
28.599724473
 30
0.0
 11
820.4458711011
 21
24.989381732
 31
0.0
  0
LINE
  5
1D8
330
1F
100
AcDbEntity
  8
0
  6
Continuous
 62
     7
370
    15
100
AcDbLine
 10
804.5800385339
 20
-2.9947903738
 30
0.0
 11
820.4458711011
 21
-1.8314418182
 31
0.0
  0
LINE
  5
1D9
330
1F
100
AcDbEntity
  8
0
  6
Continuous
 62
     7
370
    15
100
AcDbLine
 10
820.4458711011
 20
1.7788860216
 30
0.0
 11
820.4458711011
 21
-1.8314418182
 31
0.0
  0
SPLINE
  5
1DA
330
1F
100
AcDbEntity
  8
0
  6
Continuous
 62
     7
370
    15
100
AcDbSpline
210
0.0
220
0.0
230
1.0
 70
     8
 71
     3
 72
     9
 73
     5
 74
     0
 42
0.00000001
 43
0.00000001
 40
0.0
 40
0.0
 40
0.0
 40
0.0
 40
0.501859275840002
 40
1.0
 40
1.0
 40
1.0
 40
1.0
 10
820.4458711011049
 20
-2.039804755179397
 30
0.0
 10
817.7572325219882
 20
-2.526822088775971
 30
0.0
 10
812.3998769672531
 20
-3.497248176410617
 30
0.0
 10
807.0019611979125
 20
-4.193713831435075
 30
0.0
 10
804.3130395276186
 20
-4.540651737181656
 30
0.0
  0
SPLINE
  5
1DB
330
1F
100
AcDbEntity
  8
0
  6
Continuous
 62
     7
370
    15
100
AcDbSpline
210
0.0
220
0.0
230
1.0
 70
    24
 71
     3
 72
    10
 73
     6
 74
     0
 42
0.00000001
 43
0.00000001
 40
0.0
 40
0.0
 40
0.0
 40
0.0
 40
0.4996535591267179
 40
0.7498792913520473
 40
1.0
 40
1.0
 40
1.0
 40
1.0
 10
820.4458711011049
 20
-1.831441818205826
 30
0.0
 10
820.4458711011049
 20
-1.867029223514005
 30
0.0
 10
820.4458711011049
 20
-1.920438746544462
 30
0.0
 10
820.4458711011049
 20
-1.989215030060776
 30
0.0
 10
820.4458711011049
 20
-2.022943873387195
 30
0.0
 10
820.4458711011049
 20
-2.039804755179397
 30
0.0
  0
SPLINE
  5
1DC
330
1F
100
AcDbEntity
  8
0
  6
Continuous
 62
     7
370
    15
100
AcDbSpline
210
0.0
220
0.0
230
1.0
 70
     8
 71
     3
 72
     9
 73
     5
 74
     0
 42
0.00000001
 43
0.00000001
 40
0.0
 40
0.0
 40
0.0
 40
0.0
 40
0.4981407241599979
 40
1.0
 40
1.0
 40
1.0
 40
1.0
 10
804.3130395276186
 20
31.30891949084569
 30
0.0
 10
807.0019611979125
 20
30.96198158509916
 30
0.0
 10
812.3998769672529
 20
30.26551593007476
 30
0.0
 10
817.7572325219882
 20
29.29508984244
 30
0.0
 10
820.4458711011049
 20
28.80807250884343
 30
0.0
  0
SPLINE
  5
1DD
330
1F
100
AcDbEntity
  8
0
  6
Continuous
 62
     7
370
    15
100
AcDbSpline
210
0.0
220
0.0
230
1.0
 70
    24
 71
     3
 72
    10
 73
     6
 74
     0
 42
0.00000001
 43
0.00000001
 40
0.0
 40
0.0
 40
0.0
 40
0.0
 40
0.2500471919921993
 40
0.6250667558502778
 40
1.0
 40
1.0
 40
1.0
 40
1.0
 10
820.4458711011049
 20
28.80807250884343
 30
0.0
 10
820.4458711011049
 20
28.79122862327538
 30
0.0
 10
820.4458711011049
 20
28.7491223599573
 30
0.0
 10
820.4458711011049
 20
28.67999006429911
 30
0.0
 10
820.4458711011049
 20
28.6264676825343
 30
0.0
 10
820.4458711011049
 20
28.59970957186986
 30
0.0
  0
SPLINE
  5
1DE
330
1F
100
AcDbEntity
  8
0
  6
Continuous
 62
     7
370
    15
100
AcDbSpline
210
0.0
220
0.0
230
1.0
 70
     8
 71
     3
 72
     9
 73
     5
 74
     0
 42
0.00000001
 43
0.00000001
 40
0.0
 40
0.0
 40
0.0
 40
0.0
 40
0.5020209267406737
 40
1.0
 40
1.0
 40
1.0
 40
1.0
 10
800.47008966037
 20
31.88475996402074
 30
0.0
 10
800.6859455499124
 20
32.18010001383143
 30
0.0
 10
801.1159194375423
 20
32.76840228188271
 30
0.0
 10
801.669966847122
 20
32.85308312184954
 30
0.0
 10
801.9458708626863
 20
32.89525240805913
 30
0.0
  0
SPLINE
  5
1DF
330
1F
100
AcDbEntity
  8
0
  6
Continuous
 62
     7
370
    15
100
AcDbSpline
210
0.0
220
0.0
230
1.0
 70
     8
 71
     3
 72
     9
 73
     5
 74
     0
 42
0.00000001
 43
0.00000001
 40
0.0
 40
0.0
 40
0.0
 40
0.0
 40
0.4997293661816184
 40
0.9999999999999999
 40
0.9999999999999999
 40
0.9999999999999999
 40
0.9999999999999999
 10
800.4529831273195
 20
31.8528714790659
 30
0.0
 10
800.4558200911405
 20
31.85821000703315
 30
0.0
 10
800.4614970915588
 20
31.8688928452423
 30
0.0
 10
800.467224437424
 20
31.87946901624816
 30
0.0
 10
800.47008966037
 20
31.88475996402074
 30
0.0
  0
SPLINE
  5
1E0
330
1F
100
AcDbEntity
  8
0
  6
Continuous
 62
     7
370
    15
100
AcDbSpline
210
0.0
220
0.0
230
1.0
 70
     8
 71
     3
 72
    10
 73
     6
 74
     0
 42
0.00000001
 43
0.00000001
 40
0.0
 40
0.0
 40
0.0
 40
0.0
 40
0.3367400838074756
 40
0.6736824254846477
 40
1.0
 40
1.0
 40
1.0
 40
1.0
 10
801.9458708626863
 20
32.89525240805913
 30
0.0
 10
801.3940361787121
 20
32.91210744175377
 30
0.0
 10
800.2900353595554
 20
32.94582763286569
 30
0.0
 10
798.7726527697718
 20
32.99221903883392
 30
0.0
 10
797.9231119979033
 20
33.01817318745942
 30
0.0
 10
797.5051460129854
 20
33.03094238189031
 30
0.0
  0
SPLINE
  5
1E1
330
1F
100
AcDbEntity
  8
0
  6
Continuous
 62
     7
370
    15
100
AcDbSpline
210
0.0
220
0.0
230
1.0
 70
     8
 71
     3
 72
     9
 73
     5
 74
     0
 42
0.00000001
 43
0.00000001
 40
0.0
 40
0.0
 40
0.0
 40
0.0
 40
0.4977521132359952
 40
1.0
 40
1.0
 40
1.0
 40
1.0
 10
801.9458708626863
 20
-6.126969753233902
 30
0.0
 10
801.6700991101203
 20
-6.084843662396477
 30
0.0
 10
801.1160647921682
 20
-6.000210991399912
 30
0.0
 10
800.6860591070282
 20
-5.411936785797211
 30
0.0
 10
800.47008966037
 20
-5.116477309195511
 30
0.0
  0
SPLINE
  5
1E2
330
1F
100
AcDbEntity
  8
0
  6
Continuous
 62
     7
370
    15
100
AcDbSpline
210
0.0
220
0.0
230
1.0
 70
     8
 71
     3
 72
     9
 73
     5
 74
     0
 42
0.00000001
 43
0.00000001
 40
0.0
 40
0.0
 40
0.0
 40
0.0
 40
0.5002646987518977
 40
1.0
 40
1.0
 40
1.0
 40
1.0
 10
800.47008966037
 20
-5.116477309195511
 30
0.0
 10
800.4672244205843
 20
-5.111192539109521
 30
0.0
 10
800.4614969731094
 20
-5.100628591465095
 30
0.0
 10
800.4558200741374
 20
-5.089943461862645
 30
0.0
 10
800.4529831273195
 20
-5.084603725401871
 30
0.0
  0
SPLINE
  5
1E3
330
1F
100
AcDbEntity
  8
0
  6
Continuous
 62
     7
370
    15
100
AcDbSpline
210
0.0
220
0.0
230
1.0
 70
     8
 71
     3
 72
    10
 73
     6
 74
     0
 42
0.00000001
 43
0.00000001
 40
0.0
 40
0.0
 40
0.0
 40
0.0
 40
0.3262982930865118
 40
0.6632084931493114
 40
0.9999999999999999
 40
0.9999999999999999
 40
0.9999999999999999
 40
0.9999999999999999
 10
797.5051460129854
 20
-6.262659727065079
 30
0.0
 10
797.9231011094798
 20
-6.249887156869304
 30
0.0
 10
798.7726040815246
 20
-6.223926625623322
 30
0.0
 10
800.2898707971415
 20
-6.177585349824932
 30
0.0
 10
801.3939356791318
 20
-6.143839636983617
 30
0.0
 10
801.9458708626863
 20
-6.126969753233902
 30
0.0
  0
SPLINE
  5
1E4
330
1F
100
AcDbEntity
  8
0
  6
Continuous
 62
     7
370
    15
100
AcDbSpline
210
0.0
220
0.0
230
1.0
 70
     8
 71
     3
 72
     9
 73
     5
 74
     0
 42
0.00000001
 43
0.00000001
 40
0.0
 40
0.0
 40
0.0
 40
0.0
 40
0.5596611404304119
 40
1.0
 40
1.0
 40
1.0
 40
1.0
 10
801.4188465935823
 20
31.49172693637181
 30
0.0
 10
801.2273732282339
 20
31.53289871552256
 30
0.0
 10
800.8852494831384
 20
31.60646426470315
 30
0.0
 10
800.5970118784874
 20
31.79967969971587
 30
0.0
 10
800.47008966037
 20
31.88475996402074
 30
0.0
  0
SPLINE
  5
1E5
330
1F
100
AcDbEntity
  8
0
  6
Continuous
 62
     7
370
    15
100
AcDbSpline
210
0.0
220
0.0
230
1.0
 70
     8
 71
     3
 72
     9
 73
     5
 74
     0
 42
0.00000001
 43
0.00000001
 40
0.0
 40
0.0
 40
0.0
 40
0.0
 40
0.5596873054873643
 40
1.0
 40
1.0
 40
1.0
 40
1.0
 10
800.47008966037
 20
-5.116477309195511
 30
0.0
 10
800.6336446516232
 20
-5.010576051625582
 30
0.0
 10
800.9258703098606
 20
-4.821361008633563
 30
0.0
 10
801.268140627688
 20
-4.753388389702407
 30
0.0
 10
801.4188465935823
 20
-4.723459182707779
 30
0.0
  0
SPLINE
  5
1E6
330
1F
100
AcDbEntity
  8
0
  6
Continuous
 62
     7
370
    15
100
AcDbSpline
210
0.0
220
0.0
230
1.0
 70
     8
 71
     3
 72
     9
 73
     5
 74
     0
 42
0.00000001
 43
0.00000001
 40
0.0
 40
0.0
 40
0.0
 40
0.0
 40
0.5014010279960087
 40
1.0
 40
1.0
 40
1.0
 40
1.0
 10
801.4188465935823
 20
-4.723459182707779
 30
0.0
 10
801.516831421377
 20
-5.126298970172583
 30
0.0
 10
801.7122534933787
 20
-5.929727293953357
 30
0.0
 10
801.8681440109035
 20
-6.061345200388257
 30
0.0
 10
801.9458708626863
 20
-6.126969753233902
 30
0.0
  0
SPLINE
  5
1E7
330
1F
100
AcDbEntity
  8
0
  6
Continuous
 62
     7
370
    15
100
AcDbSpline
210
0.0
220
0.0
230
1.0
 70
     8
 71
     3
 72
     9
 73
     5
 74
     0
 42
0.00000001
 43
0.00000001
 40
0.0
 40
0.0
 40
0.0
 40
0.0
 40
0.4988174352204593
 40
1.0
 40
1.0
 40
1.0
 40
1.0
 10
801.9458708626863
 20
32.89525240805913
 30
0.0
 10
801.8681064625893
 20
32.82955752557692
 30
0.0
 10
801.7122089445672
 20
32.69785627008021
 30
0.0
 10
801.5167881091088
 20
31.89440347092948
 30
0.0
 10
801.4188465935823
 20
31.49172693637181
 30
0.0
  0
SPLINE
  5
1E8
330
1F
100
AcDbEntity
  8
0
  6
Continuous
 62
     7
370
    15
100
AcDbSpline
210
0.0
220
0.0
230
1.0
 70
    24
 71
     3
 72
    11
 73
     7
 74
     0
 42
0.00000001
 43
0.00000001
 40
0.0
 40
0.0
 40
0.0
 40
0.0
 40
0.1115018528639367
 40
0.3917956691445608
 40
0.6720882735641082
 40
1.0
 40
1.0
 40
1.0
 40
1.0
 10
820.4458711011049
 20
32.25947946456242
 30
0.0
 10
820.4458711011049
 20
32.27757333253589
 30
0.0
 10
820.4458711011048
 20
32.3411516402321
 30
0.0
 10
820.4458711011049
 20
31.83548890684307
 30
0.0
 10
820.4458711011047
 20
30.77179913850447
 30
0.0
 10
820.4458711011049
 20
29.49590681374814
 30
0.0
 10
820.4458711011049
 20
28.80801290419866
 30
0.0
  0
SPLINE
  5
1E9
330
1F
100
AcDbEntity
  8
0
  6
Continuous
 62
     7
370
    15
100
AcDbSpline
210
0.0
220
0.0
230
1.0
 70
    24
 71
     3
 72
    11
 73
     7
 74
     0
 42
0.00000001
 43
0.00000001
 40
0.0
 40
0.0
 40
0.0
 40
0.0
 40
0.2723452884304972
 40
0.5446751635998957
 40
0.8280786717928115
 40
1.0
 40
1.0
 40
1.0
 40
1.0
 10
820.4458711011049
 20
-2.039745150534622
 30
0.0
 10
820.4458711011049
 20
-2.617139779179323
 30
0.0
 10
820.4458711011049
 20
-3.771896359075266
 30
0.0
 10
820.4458711011049
 20
-4.896745921316892
 30
0.0
 10
820.4458711011049
 20
-5.51357719611878
 30
0.0
 10
820.4458711011049
 20
-5.4973418463094
 30
0.0
 10
820.4458711011049
 20
-5.491211710898392
 30
0.0
  0
LINE
  5
1EA
330
1F
100
AcDbEntity
  8
0
  6
Continuous
 62
     7
370
    15
100
AcDbLine
 10
-23.0483951705
 20
529.5641276255
 30
0.0
 11
-23.0483951705
 21
544.5641133204
 31
0.0
  0
LINE
  5
1EB
330
1F
100
AcDbEntity
  8
0
  6
Continuous
 62
     7
370
    15
100
AcDbLine
 10
-4.6597662108
 20
544.5641133204
 30
0.0
 11
-4.6597662108
 21
529.5641276255
 31
0.0
  0
LINE
  5
1EC
330
1F
100
AcDbEntity
  8
0
  6
Continuous
 62
     7
370
    15
100
AcDbLine
 10
-23.0483951705
 20
529.5641276255
 30
0.0
 11
-4.6597662108
 21
529.5641276255
 31
0.0
  0
LINE
  5
1ED
330
1F
100
AcDbEntity
  8
0
  6
Continuous
 62
     7
370
    15
100
AcDbLine
 10
-4.6597662108
 20
544.5641133204
 30
0.0
 11
-23.0483951705
 21
544.5641133204
 31
0.0
  0
LINE
  5
1EE
330
1F
100
AcDbEntity
  8
0
  6
Continuous
 62
     7
370
    15
100
AcDbLine
 10
4.5344886644
 20
529.5641276255
 30
0.0
 11
4.5344886644
 21
544.5641133204
 31
0.0
  0
LINE
  5
1EF
330
1F
100
AcDbEntity
  8
0
  6
Continuous
 62
     7
370
    15
100
AcDbLine
 10
-4.6597662108
 20
529.5641276255
 30
0.0
 11
4.5344886644
 21
529.5641276255
 31
0.0
  0
LINE
  5
1F0
330
1F
100
AcDbEntity
  8
0
  6
Continuous
 62
     7
370
    15
100
AcDbLine
 10
4.5344886644
 20
544.5641133204
 30
0.0
 11
-4.6597662108
 21
544.5641133204
 31
0.0
  0
LINE
  5
1F1
330
1F
100
AcDbEntity
  8
0
  6
Continuous
 62
     7
370
    15
100
AcDbLine
 10
-32.242769255
 20
529.5641276255
 30
0.0
 11
-32.242769255
 21
544.5641133204
 31
0.0
  0
LINE
  5
1F2
330
1F
100
AcDbEntity
  8
0
  6
Continuous
 62
     7
370
    15
100
AcDbLine
 10
-32.242769255
 20
529.5641276255
 30
0.0
 11
-23.0483951705
 21
529.5641276255
 31
0.0
  0
LINE
  5
1F3
330
1F
100
AcDbEntity
  8
0
  6
Continuous
 62
     7
370
    15
100
AcDbLine
 10
-23.0483951705
 20
544.5641133204
 30
0.0
 11
-32.242769255
 21
544.5641133204
 31
0.0
  0
LINE
  5
1F4
330
1F
100
AcDbEntity
  8
0
  6
Continuous
 62
     7
370
    15
100
AcDbLine
 10
-13.8541402953
 20
546.2141487017
 30
0.0
 11
0.395899759
 21
546.2141487017
 31
0.0
  0
LINE
  5
1F5
330
1F
100
AcDbEntity
  8
0
  6
Continuous
 62
     7
370
    15
100
AcDbLine
 10
-28.1041803496
 20
546.2141487017
 30
0.0
 11
-13.8541402953
 21
546.2141487017
 31
0.0
  0
LINE
  5
1F6
330
1F
100
AcDbEntity
  8
0
  6
Continuous
 62
     7
370
    15
100
AcDbLine
 10
-27.60409738
 20
545.7641336336
 30
0.0
 11
-0.1041832106
 21
545.7641336336
 31
0.0
  0
LINE
  5
1F7
330
1F
100
AcDbEntity
  8
0
  6
Continuous
 62
     7
370
    15
100
AcDbLine
 10
-28.1041803496
 20
545.3141185656
 30
0.0
 11
0.395899759
 21
545.3141185656
 31
0.0
  0
LINE
  5
1F8
330
1F
100
AcDbEntity
  8
0
  6
Continuous
 62
     7
370
    15
100
AcDbLine
 10
-27.60409738
 20
544.8641631022
 30
0.0
 11
-0.1041832106
 21
544.8641631022
 31
0.0
  0
LINE
  5
1F9
330
1F
100
AcDbEntity
  8
0
  6
Continuous
 62
     7
370
    15
100
AcDbLine
 10
-25.904172911
 20
554.6641203776
 30
0.0
 11
-25.904172911
 21
554.5891377344
 31
0.0
  0
LINE
  5
1FA
330
1F
100
AcDbEntity
  8
0
  6
Continuous
 62
     7
370
    15
100
AcDbLine
 10
-20.3133764403
 20
554.5891377344
 30
0.0
 11
-25.904172911
 21
554.5891377344
 31
0.0
  0
SPLINE
  5
1FB
330
1F
100
AcDbEntity
  8
0
  6
Continuous
 62
     7
370
    15
100
AcDbSpline
210
0.0
220
0.0
230
1.0
 70
     8
 71
     3
 72
     9
 73
     5
 74
     0
 42
0.00000001
 43
0.00000001
 40
0.0
 40
0.0
 40
0.0
 40
0.0
 40
0.4001581992368777
 40
1.0
 40
1.0
 40
1.0
 40
1.0
 10
-19.9292841093901
 20
554.3409439935999
 30
0.0
 10
-19.87818704511235
 20
554.3884826742767
 30
0.0
 10
-19.75049488642355
 20
554.5072823909074
 30
0.0
 10
-19.58252674739946
 20
554.5584470394983
 30
0.0
 10
-19.48177243641647
 20
554.5891377344446
 30
0.0
  0
SPLINE
  5
1FC
330
1F
100
AcDbEntity
  8
0
  6
Continuous
 62
     7
370
    15
100
AcDbSpline
210
0.0
220
0.0
230
1.0
 70
     8
 71
     3
 72
     9
 73
     5
 74
     0
 42
0.00000001
 43
0.00000001
 40
0.0
 40
0.0
 40
0.0
 40
0.0
 40
0.0752640767215234
 40
1.0
 40
1.0
 40
1.0
 40
1.0
 10
-19.48177243641647
 20
554.5891377344446
 30
0.0
 10
-19.46652909984525
 20
554.5931758538078
 30
0.0
 10
-19.26399772983167
 20
554.6468285330004
 30
0.0
 10
-19.0532827618346
 20
554.6558125418519
 30
0.0
 10
-18.85842706135543
 20
554.6641203775721
 30
0.0
  0
SPLINE
  5
1FD
330
1F
100
AcDbEntity
  8
0
  6
Continuous
 62
     7
370
    15
100
AcDbSpline
210
0.0
220
0.0
230
1.0
 70
    24
 71
     3
 72
    11
 73
     7
 74
     0
 42
0.00000001
 43
0.00000001
 40
0.0
 40
0.0
 40
0.0
 40
0.0
 40
0.2473071065010498
 40
0.4999999999999999
 40
0.7526928934989502
 40
0.9999999999999999
 40
0.9999999999999999
 40
0.9999999999999999
 40
0.9999999999999999
 10
-8.84985352925094
 20
554.6641203775721
 30
0.0
 10
-9.647728886309714
 20
554.6641203775719
 30
0.0
 10
-11.26085551325406
 20
554.664120377572
 30
0.0
 10
-13.85414029530385
 20
554.6641203775725
 30
0.0
 10
-16.44742507735164
 20
554.6641203775717
 30
0.0
 10
-18.06055170429621
 20
554.6641203775719
 30
0.0
 10
-18.85842706135543
 20
554.6641203775721
 30
0.0
  0
LINE
  5
1FE
330
1F
100
AcDbEntity
  8
0
  6
Continuous
 62
     7
370
    15
100
AcDbLine
 10
-8.8498535293
 20
554.6641203776
 30
0.0
 11
-8.2265081542
 21
554.5891377344
 31
0.0
  0
SPLINE
  5
1FF
330
1F
100
AcDbEntity
  8
0
  6
Continuous
 62
     7
370
    15
100
AcDbSpline
210
0.0
220
0.0
230
1.0
 70
     8
 71
     3
 72
    10
 73
     6
 74
     0
 42
0.00000001
 43
0.00000001
 40
0.0
 40
0.0
 40
0.0
 40
0.0
 40
0.0452370346481364
 40
0.5778117666708259
 40
1.0
 40
1.0
 40
1.0
 40
1.0
 10
-8.226508154189904
 20
554.5891377344446
 30
0.0
 10
-8.218999794117554
 20
554.5870242255689
 30
0.0
 10
-8.123095656457524
 20
554.5600284176684
 30
0.0
 10
-7.955571443498233
 20
554.5028123505464
 30
0.0
 10
-7.833136287658027
 20
554.3905745946819
 30
0.0
 10
-7.778996481216494
 20
554.3409439936
 30
0.0
  0
LINE
  5
200
330
1F
100
AcDbEntity
  8
0
  6
Continuous
 62
     7
370
    15
100
AcDbLine
 10
-2.30407144
 20
554.5891377344
 30
0.0
 11
-7.3949041503
 21
554.5891377344
 31
0.0
  0
LINE
  5
201
330
1F
100
AcDbEntity
  8
0
  6
Continuous
 62
     7
370
    15
100
AcDbLine
 10
-2.30407144
 20
554.6641203776
 30
0.0
 11
-2.30407144
 21
554.5891377344
 31
0.0
  0
SPLINE
  5
202
330
1F
100
AcDbEntity
  8
0
  6
Continuous
 62
     7
370
    15
100
AcDbSpline
210
0.0
220
0.0
230
1.0
 70
     8
 71
     3
 72
    16
 73
    12
 74
     0
 42
0.00000001
 43
0.00000001
 40
0.0
 40
0.0
 40
0.0
 40
0.0
 40
0.4634369987981173
 40
0.6590330585725218
 40
0.7683930658549369
 40
0.8431973396564897
 40
0.8946985082695782
 40
0.9455914140188065
 40
0.9671676246550688
 40
0.9889881273417375
 40
1.0
 40
1.0
 40
1.0
 40
1.0
 10
-17.7582445280915
 20
554.6641203775722
 30
0.0
 10
-17.42331911174411
 20
554.6819619833494
 30
0.0
 10
-16.94703663515806
 20
554.7073337341068
 30
0.0
 10
-16.40315219119537
 20
554.8225028061947
 30
0.0
 10
-16.1388160362097
 20
554.8956489524712
 30
0.0
 10
-15.97803227113248
 20
554.9522732043864
 30
0.0
 10
-15.86136730842291
 20
555.0045427475742
 30
0.0
 10
-15.78346606939141
 20
555.0507101859366
 30
0.0
 10
-15.73433589004991
 20
555.0977640655719
 30
0.0
 10
-15.71246050561115
 20
555.1323864475503
 30
0.0
 10
-15.71025379985547
 20
555.1561676156227
 30
0.0
 10
-15.70951367787154
 20
555.1641437425928
 30
0.0
  0
LINE
  5
203
330
1F
100
AcDbEntity
  8
0
  6
Continuous
 62
     7
370
    15
100
AcDbLine
 10
-11.9987669127
 20
555.1641437426
 30
0.0
 11
-15.7095136779
 21
555.1641437426
 31
0.0
  0
SPLINE
  5
204
330
1F
100
AcDbEntity
  8
0
  6
Continuous
 62
     7
370
    15
100
AcDbSpline
210
0.0
220
0.0
230
1.0
 70
     8
 71
     3
 72
    14
 73
    10
 74
     0
 42
0.00000001
 43
0.00000001
 40
0.0
 40
0.0
 40
0.0
 40
0.0
 40
0.0139372257696762
 40
0.0322137999548253
 40
0.0666358804980941
 40
0.1906271559185684
 40
0.3407293869207585
 40
0.8042188792459827
 40
1.0
 40
1.0
 40
1.0
 40
1.0
 10
-11.99876691273483
 20
555.1641437425928
 30
0.0
 10
-11.99758587050748
 20
555.1540447014575
 30
0.0
 10
-11.99485606913453
 20
555.130702287677
 30
0.0
 10
-11.96776506885322
 20
555.0892026828767
 30
0.0
 10
-11.86934551573415
 20
555.0067532940312
 30
0.0
 10
-11.65886578759778
 20
554.9226638551401
 30
0.0
 10
-11.14917902395818
 20
554.7748941299409
 30
0.0
 10
-10.56686951119046
 20
554.6812799377566
 30
0.0
 10
-10.09118044939084
 20
554.6680494005677
 30
0.0
 10
-9.949916853225771
 20
554.6641203775722
 30
0.0
  0
LINE
  5
205
330
1F
100
AcDbEntity
  8
0
  6
Continuous
 62
     7
370
    15
100
AcDbLine
 10
-11.9987669127
 20
575.5641314402
 30
0.0
 11
-15.7095136779
 21
575.5641314402
 31
0.0
  0
ARC
  5
206
330
1F
100
AcDbEntity
  8
0
  6
Continuous
 62
     7
370
    15
100
AcDbCircle
 10
-13.8541279807
 20
564.1641361644
 30
0.0
 40
11.54999999999932
100
AcDbArc
 50
0.0
 51
80.7559261483
  0
ARC
  5
207
330
1F
100
AcDbEntity
  8
0
  6
Continuous
 62
     7
370
    15
100
AcDbCircle
 10
-13.8541279807
 20
564.1641361644
 30
0.0
 40
11.54999999999928
100
AcDbArc
 50
99.2440738517
 51
180.0
  0
LINE
  5
208
330
1F
100
AcDbEntity
  8
0
  6
Continuous
 62
     7
370
    15
100
AcDbLine
 10
-7.3949041503
 20
554.5891377344
 30
0.0
 11
-8.2265081542
 21
554.5891377344
 31
0.0
  0
ARC
  5
209
330
1F
100
AcDbEntity
  8
0
  6
Continuous
 62
     7
370
    15
100
AcDbCircle
 10
-13.8541279807
 20
564.1641361644
 30
0.0
 40
11.55000000740052
100
AcDbArc
 50
301.7345138684
 51
304.0034060361
  0
ARC
  5
20A
330
1F
100
AcDbEntity
  8
0
  6
Continuous
 62
     7
370
    15
100
AcDbCircle
 10
-13.8541279807
 20
564.1641361644
 30
0.0
 40
11.55000000739953
100
AcDbArc
 50
235.9965939639
 51
238.2654861316
  0
LINE
  5
20B
330
1F
100
AcDbEntity
  8
0
  6
Continuous
 62
     7
370
    15
100
AcDbLine
 10
-19.4817724364
 20
554.5891377344
 30
0.0
 11
-20.3133764403
 21
554.5891377344
 31
0.0
  0
ARC
  5
20C
330
1F
100
AcDbEntity
  8
0
  6
Continuous
 62
     7
370
    15
100
AcDbCircle
 10
-13.8541279807
 20
564.1641361644
 30
0.0
 40
11.54999999999932
100
AcDbArc
 50
80.7559261483
 51
99.2440738517
  0
SPLINE
  5
20D
330
1F
100
AcDbEntity
  8
0
  6
Continuous
 62
     7
370
    15
100
AcDbSpline
210
0.0
220
0.0
230
1.0
 70
    24
 71
     3
 72
    11
 73
     7
 74
     0
 42
0.00000001
 43
0.00000001
 40
0.0
 40
0.0
 40
0.0
 40
0.0
 40
0.0120333752882006
 40
0.3548210200738496
 40
0.697514569397786
 40
1.0
 40
1.0
 40
1.0
 40
1.0
 10
-2.304071440017541
 20
555.1641437425928
 30
0.0
 10
-2.304071440017541
 20
555.1626731172515
 30
0.0
 10
-2.304071440013988
 20
555.119309657602
 30
0.0
 10
-2.304071440019095
 20
555.0360001851398
 30
0.0
 10
-2.304071440017319
 20
554.9166534052757
 30
0.0
 10
-2.304071440017319
 20
554.8606213073303
 30
0.0
 10
-2.304071440017541
 20
554.8343512430506
 30
0.0
  0
SPLINE
  5
20E
330
1F
100
AcDbEntity
  8
0
  6
Continuous
 62
     7
370
    15
100
AcDbSpline
210
0.0
220
0.0
230
1.0
 70
     8
 71
     3
 72
    12
 73
     8
 74
     0
 42
0.00000001
 43
0.00000001
 40
0.0
 40
0.0
 40
0.0
 40
0.0
 40
0.1694629918106313
 40
0.3962664141782951
 40
0.6232559253677333
 40
0.8503237328323612
 40
0.9999999999999999
 40
0.9999999999999999
 40
0.9999999999999999
 40
0.9999999999999999
 10
-25.4040899412995
 20
555.1222416773159
 30
0.0
 10
-25.40863290285822
 20
555.080382378758
 30
0.0
 10
-25.41925600745176
 20
554.9825000390077
 30
0.0
 10
-25.50021702844019
 20
554.8458991280246
 30
0.0
 10
-25.62648864494599
 20
554.7326795691808
 30
0.0
 10
-25.76731830509349
 20
554.672733883495
 30
0.0
 10
-25.86031300370051
 20
554.6665694421529
 30
0.0
 10
-25.89725877217086
 20
554.6641203775721
 30
0.0
  0
SPLINE
  5
20F
330
1F
100
AcDbEntity
  8
0
  6
Continuous
 62
     7
370
    15
100
AcDbSpline
210
0.0
220
0.0
230
1.0
 70
     8
 71
     3
 72
     9
 73
     5
 74
     0
 42
0.00000001
 43
0.00000001
 40
0.0
 40
0.0
 40
0.0
 40
0.0
 40
0.4999925724038267
 40
1.0
 40
1.0
 40
1.0
 40
1.0
 10
-17.75824452809127
 20
575.5641314401942
 30
0.0
 10
-16.45687671841056
 20
575.889122547311
 30
0.0
 10
-13.8541024343366
 20
576.5391144172988
 30
0.0
 10
-11.25132493518288
 20
575.8891289844488
 30
0.0
 10
-9.949916853225549
 20
575.5641314401942
 30
0.0
  0
SPLINE
  5
210
330
1F
100
AcDbEntity
  8
0
  6
Continuous
 62
     7
370
    15
100
AcDbSpline
210
0.0
220
0.0
230
1.0
 70
    24
 71
     3
 72
    14
 73
    10
 74
     0
 42
0.00000001
 43
0.00000001
 40
0.0
 40
0.0
 40
0.0
 40
0.0
 40
0.0139378349078243
 40
0.0322152078859854
 40
0.066657348235973
 40
0.1906421394658689
 40
0.340758810008129
 40
0.8042641921771894
 40
1.0
 40
1.0
 40
1.0
 40
1.0
 10
-15.70951367787154
 20
575.5641314401942
 30
0.0
 10
-15.71069450813178
 20
575.5641314401944
 30
0.0
 10
-15.71342381957486
 20
575.5641314401943
 30
0.0
 10
-15.74052837876838
 20
575.5641314401939
 30
0.0
 10
-15.83886944798163
 20
575.5641314401943
 30
0.0
 10
-16.0494645790521
 20
575.5641314401938
 30
0.0
 10
-16.55903921802793
 20
575.5641314401946
 30
0.0
 10
-17.14138553327938
 20
575.5641314401944
 30
0.0
 10
-17.61702272449806
 20
575.5641314401943
 30
0.0
 10
-17.7582445280915
 20
575.5641314401943
 30
0.0
  0
SPLINE
  5
211
330
1F
100
AcDbEntity
  8
0
  6
Continuous
 62
     7
370
    15
100
AcDbSpline
210
0.0
220
0.0
230
1.0
 70
    24
 71
     3
 72
    16
 73
    12
 74
     0
 42
0.00000001
 43
0.00000001
 40
0.0
 40
0.0
 40
0.0
 40
0.0
 40
0.4634731773258898
 40
0.6590546994025143
 40
0.7516926689532942
 40
0.8317747918802822
 40
0.8868188618581476
 40
0.9388254543757432
 40
0.962163254446057
 40
0.9857760405985977
 40
1.0
 40
1.0
 40
1.0
 40
1.0
 10
-9.949916853225549
 20
575.5641314401942
 30
0.0
 10
-10.28486233359205
 20
575.5641314401942
 30
0.0
 10
-10.76115180120008
 20
575.5641314401945
 30
0.0
 10
-11.29334298486406
 20
575.5641314401938
 30
0.0
 10
-11.54984191824671
 20
575.5641314401945
 30
0.0
 10
-11.70600779926789
 20
575.564131440194
 30
0.0
 10
-11.8300055845566
 20
575.5641314401943
 30
0.0
 10
-11.91299248356703
 20
575.5641314401938
 30
0.0
 10
-11.96659762718855
 20
575.5641314401945
 30
0.0
 10
-11.99414420896172
 20
575.564131440194
 30
0.0
 10
-11.99750390350651
 20
575.5641314401942
 30
0.0
 10
-11.99876691273483
 20
575.5641314401942
 30
0.0
  0
SPLINE
  5
212
330
1F
100
AcDbEntity
  8
0
  6
Continuous
 62
     7
370
    15
100
AcDbSpline
210
0.0
220
0.0
230
1.0
 70
    24
 71
     3
 72
    12
 73
     8
 74
     0
 42
0.00000001
 43
0.00000001
 40
0.0
 40
0.0
 40
0.0
 40
0.0
 40
0.2882575023102933
 40
0.6405723694890645
 40
0.8171783610114256
 40
0.9938160124956716
 40
0.9999999999999999
 40
0.9999999999999999
 40
0.9999999999999999
 40
0.9999999999999999
 10
-25.4040899412995
 20
567.5992223635036
 30
0.0
 10
-25.4040899412995
 20
567.2652484445584
 30
0.0
 10
-25.4040899412995
 20
566.523084015561
 30
0.0
 10
-25.40408994129928
 20
565.58849234283
 30
0.0
 10
-25.40408994129928
 20
564.7863817469932
 30
0.0
 10
-25.40408994129928
 20
564.3785036445074
 30
0.0
 10
-25.40408994129906
 20
564.1711605135353
 30
0.0
 10
-25.40408994129928
 20
564.164147080453
 30
0.0
  0
SPLINE
  5
213
330
1F
100
AcDbEntity
  8
0
  6
Continuous
 62
     7
370
    15
100
AcDbSpline
210
0.0
220
0.0
230
1.0
 70
    24
 71
     3
 72
    12
 73
     8
 74
     0
 42
0.00000001
 43
0.00000001
 40
0.0
 40
0.0
 40
0.0
 40
0.0
 40
0.0061839875043283
 40
0.1828216389885743
 40
0.3594276305109355
 40
0.7117424976897067
 40
1.0
 40
1.0
 40
1.0
 40
1.0
 10
-2.304071440017541
 20
564.164147080453
 30
0.0
 10
-2.304071440017541
 20
564.1711605135353
 30
0.0
 10
-2.304071440016653
 20
564.3785036445059
 30
0.0
 10
-2.304071440018429
 20
564.7863817469939
 30
0.0
 10
-2.304071440016653
 20
565.5884923428293
 30
0.0
 10
-2.304071440018207
 20
566.5230840155613
 30
0.0
 10
-2.304071440017541
 20
567.2652484445582
 30
0.0
 10
-2.304071440017541
 20
567.5992223635035
 30
0.0
  0
LINE
  5
214
330
1F
100
AcDbEntity
  8
0
  6
Continuous
 62
     7
370
    15
100
AcDbLine
 10
-25.4040899413
 20
568.8117000475
 30
0.0
 11
-25.4040899413
 21
567.5992819681
 31
0.0
  0
LINE
  5
215
330
1F
100
AcDbEntity
  8
0
  6
Continuous
 62
     7
370
    15
100
AcDbLine
 10
-2.30407144
 20
567.5992819681
 30
0.0
 11
-2.30407144
 21
568.8117000475
 31
0.0
  0
SPLINE
  5
216
330
1F
100
AcDbEntity
  8
0
  6
Continuous
 62
     7
370
    15
100
AcDbSpline
210
0.0
220
0.0
230
1.0
 70
     8
 71
     3
 72
    11
 73
     7
 74
     0
 42
0.00000001
 43
0.00000001
 40
0.0
 40
0.0
 40
0.0
 40
0.0
 40
0.2473071065010498
 40
0.4999999999999999
 40
0.7526928934989502
 40
0.9999999999999999
 40
0.9999999999999999
 40
0.9999999999999999
 40
0.9999999999999999
 10
-18.85842706135543
 20
575.5641314401942
 30
0.0
 10
-18.06055170429621
 20
575.8597154139494
 30
0.0
 10
-16.44742507735164
 20
576.4573205089614
 30
0.0
 10
-13.85414029530385
 20
576.6933745649762
 30
0.0
 10
-11.26085551325406
 20
576.4573205089613
 30
0.0
 10
-9.647728886309492
 20
575.8597154139493
 30
0.0
 10
-8.84985352925094
 20
575.5641314401942
 30
0.0
  0
LINE
  5
217
330
1F
100
AcDbEntity
  8
0
  6
Continuous
 62
     7
370
    15
100
AcDbLine
 10
-17.7582445281
 20
575.5641314402
 30
0.0
 11
-18.8584270614
 21
575.5641314402
 31
0.0
  0
LINE
  5
218
330
1F
100
AcDbEntity
  8
0
  6
Continuous
 62
     7
370
    15
100
AcDbLine
 10
-8.8498535293
 20
575.5641314402
 30
0.0
 11
-9.9499168532
 21
575.5641314402
 31
0.0
  0
ARC
  5
219
330
1F
100
AcDbEntity
  8
0
  6
Continuous
 62
     7
370
    15
100
AcDbCircle
 10
-13.8541279807
 20
564.1641361644
 30
0.0
 40
12.94999999999937
100
AcDbArc
 50
119.9195542982
 51
206.8880476177
  0
ARC
  5
21A
330
1F
100
AcDbEntity
  8
0
  6
Continuous
 62
     7
370
    15
100
AcDbCircle
 10
-13.8541279807
 20
564.1641361644
 30
0.0
 40
12.94999999999941
100
AcDbArc
 50
61.679645939
 51
118.320354061
  0
ARC
  5
21B
330
1F
100
AcDbEntity
  8
0
  6
Continuous
 62
     7
370
    15
100
AcDbCircle
 10
-13.8541279807
 20
564.1641361644
 30
0.0
 40
12.94999999999938
100
AcDbArc
 50
333.1119523823
 51
60.0804457018
  0
ARC
  5
21C
330
1F
100
AcDbEntity
  8
0
  6
Continuous
 62
     7
370
    15
100
AcDbCircle
 10
-13.8541279807
 20
564.1641361644
 30
0.0
 40
12.71339134382126
100
AcDbArc
 50
24.7023726087
 51
59.4648793228
  0
ARC
  5
21D
330
1F
100
AcDbEntity
  8
0
  6
Continuous
 62
     7
370
    15
100
AcDbCircle
 10
-13.8541279807
 20
564.1641361644
 30
0.0
 40
12.71339134382044
100
AcDbArc
 50
120.5351206772
 51
155.2976273913
  0
LINE
  5
21E
330
1F
100
AcDbEntity
  8
0
  6
Continuous
 62
     7
370
    15
100
AcDbLine
 10
-2.30407144
 20
568.8124153033
 30
0.0
 11
-2.30407144
 21
569.4771263018
 31
0.0
  0
LINE
  5
21F
330
1F
100
AcDbEntity
  8
0
  6
Continuous
 62
     7
370
    15
100
AcDbLine
 10
-25.4040899413
 20
569.4771263018
 30
0.0
 11
-25.4040899413
 21
568.8123556986
 31
0.0
  0
LINE
  5
220
330
1F
100
AcDbEntity
  8
0
  6
Continuous
 62
     7
370
    15
100
AcDbLine
 10
-18.8584270614
 20
575.5641314402
 30
0.0
 11
-19.4817724364
 21
575.5641314402
 31
0.0
  0
SPLINE
  5
221
330
1F
100
AcDbEntity
  8
0
  6
Continuous
 62
     7
370
    15
100
AcDbSpline
210
0.0
220
0.0
230
1.0
 70
    24
 71
     3
 72
     9
 73
     5
 74
     0
 42
0.00000001
 43
0.00000001
 40
0.0
 40
0.0
 40
0.0
 40
0.0
 40
0.075286908204515
 40
1.0
 40
1.0
 40
1.0
 40
1.0
 10
-8.226508154189904
 20
575.5641314401942
 30
0.0
 10
-8.241751292573207
 20
575.5641314401942
 30
0.0
 10
-8.444218610556886
 20
575.5641314401946
 30
0.0
 10
-8.654969459825246
 20
575.5641314401944
 30
0.0
 10
-8.84985352925094
 20
575.5641314401942
 30
0.0
  0
LINE
  5
222
330
1F
100
AcDbEntity
  8
0
  6
Continuous
 62
     7
370
    15
100
AcDbLine
 10
-7.3949041503
 20
575.5641314402
 30
0.0
 11
-8.2265081542
 21
575.5641314402
 31
0.0
  0
LINE
  5
223
330
1F
100
AcDbEntity
  8
0
  6
Continuous
 62
     7
370
    15
100
AcDbLine
 10
-7.3949041503
 20
575.5641314402
 30
0.0
 11
-7.3949041503
 21
575.1144143954
 31
0.0
  0
LINE
  5
224
330
1F
100
AcDbEntity
  8
0
  6
Continuous
 62
     7
370
    15
100
AcDbLine
 10
-19.4817724364
 20
575.5641314402
 30
0.0
 11
-20.3133764403
 21
575.5641314402
 31
0.0
  0
LINE
  5
225
330
1F
100
AcDbEntity
  8
0
  6
Continuous
 62
     7
370
    15
100
AcDbLine
 10
-20.3133764403
 20
575.1144143954
 30
0.0
 11
-20.3133764403
 21
575.5641314402
 31
0.0
  0
ARC
  5
226
330
1F
100
AcDbEntity
  8
0
  6
Continuous
 62
     7
370
    15
100
AcDbCircle
 10
-13.8541279807
 20
564.1641361644
 30
0.0
 40
14.24999999999943
100
AcDbArc
 50
324.1473858073
 51
0.0
  0
ARC
  5
227
330
1F
100
AcDbEntity
  8
0
  6
Continuous
 62
     7
370
    15
100
AcDbCircle
 10
-13.8541279807
 20
564.1641361644
 30
0.0
 40
14.24999999999943
100
AcDbArc
 50
0.0
 51
215.8526141927
  0
LINE
  5
228
330
1F
100
AcDbEntity
  8
0
  6
Continuous
 62
     7
370
    15
100
AcDbLine
 10
-23.0483951705
 20
580.0891372576
 30
0.0
 11
-4.6597662108
 21
580.0891372576
 31
0.0
  0
LINE
  5
229
330
1F
100
AcDbEntity
  8
0
  6
Continuous
 62
     7
370
    15
100
AcDbLine
 10
-4.6597662108
 20
580.0891372576
 30
0.0
 11
4.5344886644
 21
564.1641470805
 31
0.0
  0
LINE
  5
22A
330
1F
100
AcDbEntity
  8
0
  6
Continuous
 62
     7
370
    15
100
AcDbLine
 10
4.5344886644
 20
564.1641470805
 30
0.0
 11
-1.0406913894
 21
554.5075985804
 31
0.0
  0
LINE
  5
22B
330
1F
100
AcDbEntity
  8
0
  6
Continuous
 62
     7
370
    15
100
AcDbLine
 10
-26.667469992
 20
554.5075985804
 30
0.0
 11
-32.242769255
 21
564.1641470805
 31
0.0
  0
LINE
  5
22C
330
1F
100
AcDbEntity
  8
0
  6
Continuous
 62
     7
370
    15
100
AcDbLine
 10
-32.242769255
 20
564.1641470805
 30
0.0
 11
-23.0483951705
 21
580.0891372576
 31
0.0
  0
LINE
  5
22D
330
1F
100
AcDbEntity
  8
0
  6
Continuous
 62
     7
370
    15
100
AcDbLine
 10
17.7829322679
 20
22.7641317263
 30
0.0
 11
12.9828510148
 21
31.078011097
 31
0.0
  0
LINE
  5
22E
330
1F
100
AcDbEntity
  8
0
  6
Continuous
 62
     7
370
    15
100
AcDbLine
 10
10.9643993241
 20
10.9541419163
 30
0.0
 11
17.7829322679
 21
22.7641317263
 31
0.0
  0
LINE
  5
22F
330
1F
100
AcDbEntity
  8
0
  6
Continuous
 62
     7
370
    15
100
AcDbLine
 10
-2.6726665633
 20
10.9541419163
 30
0.0
 11
10.9643993241
 21
10.9541419163
 31
0.0
  0
LINE
  5
230
330
1F
100
AcDbEntity
  8
0
  6
Continuous
 62
     7
370
    15
100
AcDbLine
 10
-9.491199507
 20
22.7641317263
 30
0.0
 11
-2.6726665633
 21
10.9541419163
 31
0.0
  0
LINE
  5
231
330
1F
100
AcDbEntity
  8
0
  6
Continuous
 62
     7
370
    15
100
AcDbLine
 10
-4.691118254
 20
31.078011097
 30
0.0
 11
-9.491199507
 21
22.7641317263
 31
0.0
  0
LINE
  5
232
330
1F
100
AcDbEntity
  8
0
  6
Continuous
 62
     7
370
    15
100
AcDbLine
 10
6.7921933992
 20
6.1541351691
 30
0.0
 11
1.4995393617
 21
6.1541351691
 31
0.0
  0
LINE
  5
233
330
1F
100
AcDbEntity
  8
0
  6
Continuous
 62
     7
370
    15
100
AcDbLine
 10
1.2688693864
 20
6.1541351691
 30
0.0
 11
-1.3775768416
 21
6.1541351691
 31
0.0
  0
LINE
  5
234
330
1F
100
AcDbEntity
  8
0
  6
Continuous
 62
     7
370
    15
100
AcDbLine
 10
9.6693096025
 20
6.1541351691
 30
0.0
 11
7.0229825837
 21
6.1541351691
 31
0.0
  0
LINE
  5
235
330
1F
100
AcDbEntity
  8
0
  6
Continuous
 62
     7
370
    15
100
AcDbLine
 10
1.3457593782
 20
4.1541311159
 30
0.0
 11
1.3457593782
 21
6.1541351691
 31
0.0
  0
LINE
  5
236
330
1F
100
AcDbEntity
  8
0
  6
Continuous
 62
     7
370
    15
100
AcDbLine
 10
1.3457593782
 20
4.1541311159
 30
0.0
 11
-1.4544668334
 21
4.1541311159
 31
0.0
  0
LINE
  5
237
330
1F
100
AcDbEntity
  8
0
  6
Continuous
 62
     7
370
    15
100
AcDbLine
 10
-1.4544668334
 20
4.1541311159
 30
0.0
 11
-1.4544668334
 21
6.1541351691
 31
0.0
  0
LINE
  5
238
330
1F
100
AcDbEntity
  8
0
  6
Continuous
 62
     7
370
    15
100
AcDbLine
 10
-1.3775768416
 20
6.1541351691
 30
0.0
 11
-1.4544668334
 21
6.1541351691
 31
0.0
  0
LINE
  5
239
330
1F
100
AcDbEntity
  8
0
  6
Continuous
 62
     7
370
    15
100
AcDbLine
 10
1.3457593782
 20
6.1541351691
 30
0.0
 11
1.2688693864
 21
6.1541351691
 31
0.0
  0
LINE
  5
23A
330
1F
100
AcDbEntity
  8
0
  6
Continuous
 62
     7
370
    15
100
AcDbLine
 10
6.9459733827
 20
4.1541311159
 30
0.0
 11
6.9459733827
 21
6.1541351691
 31
0.0
  0
LINE
  5
23B
330
1F
100
AcDbEntity
  8
0
  6
Continuous
 62
     7
370
    15
100
AcDbLine
 10
6.9459733827
 20
4.1541311159
 30
0.0
 11
1.3457593782
 21
4.1541311159
 31
0.0
  0
LINE
  5
23C
330
1F
100
AcDbEntity
  8
0
  6
Continuous
 62
     7
370
    15
100
AcDbLine
 10
1.4995393617
 20
6.1541351691
 30
0.0
 11
1.3457593782
 21
6.1541351691
 31
0.0
  0
LINE
  5
23D
330
1F
100
AcDbEntity
  8
0
  6
Continuous
 62
     7
370
    15
100
AcDbLine
 10
6.9459733827
 20
6.1541351691
 30
0.0
 11
6.7921933992
 21
6.1541351691
 31
0.0
  0
LINE
  5
23E
330
1F
100
AcDbEntity
  8
0
  6
Continuous
 62
     7
370
    15
100
AcDbLine
 10
9.7461995942
 20
4.1541311159
 30
0.0
 11
9.7461995942
 21
6.1541351691
 31
0.0
  0
LINE
  5
23F
330
1F
100
AcDbEntity
  8
0
  6
Continuous
 62
     7
370
    15
100
AcDbLine
 10
9.7461995942
 20
6.1541351691
 30
0.0
 11
9.6693096025
 21
6.1541351691
 31
0.0
  0
LINE
  5
240
330
1F
100
AcDbEntity
  8
0
  6
Continuous
 62
     7
370
    15
100
AcDbLine
 10
7.0229825837
 20
6.1541351691
 30
0.0
 11
6.9459733827
 21
6.1541351691
 31
0.0
  0
LINE
  5
241
330
1F
100
AcDbEntity
  8
0
  6
Continuous
 62
     7
370
    15
100
AcDbLine
 10
9.7461995942
 20
4.1541311159
 30
0.0
 11
6.9459733827
 21
4.1541311159
 31
0.0
  0
LINE
  5
242
330
1F
100
AcDbEntity
  8
0
  6
Continuous
 62
     8
370
    15
100
AcDbLine
 10
-7.8540983336
 20
32.9571369305
 30
0.0
 11
16.1458310945
 21
32.9571369305
 31
0.0
  0
LINE
  5
243
330
1F
100
AcDbEntity
  8
0
  6
Continuous
 62
     8
370
    15
100
AcDbLine
 10
4.1458663804
 20
32.0208075657
 30
0.0
 11
-7.2052421706
 21
32.0208075657
 31
0.0
  0
LINE
  5
244
330
1F
100
AcDbEntity
  8
0
  6
Continuous
 62
     8
370
    15
100
AcDbLine
 10
15.4969749314
 20
32.0208075657
 30
0.0
 11
4.1458663804
 21
32.0208075657
 31
0.0
  0
LINE
  5
245
330
1F
100
AcDbEntity
  8
0
  6
Continuous
 62
     8
370
    15
100
AcDbLine
 10
-4.5030059951
 20
31.0074689999
 30
0.0
 11
12.7947387559
 21
31.0074689999
 31
0.0
  0
LINE
  5
246
330
1F
100
AcDbEntity
  8
0
  6
Continuous
 62
     8
370
    15
100
AcDbLine
 10
12.1458825929
 20
30.0711396351
 30
0.0
 11
-3.854149832
 21
30.0711396351
 31
0.0
  0
LINE
  5
247
330
1F
100
AcDbEntity
  8
0
  6
Continuous
 62
     8
370
    15
100
AcDbLine
 10
787.7458689077
 20
106.3341352358
 30
0.0
 11
786.1458716256
 21
106.3341352358
 31
0.0
  0
SPLINE
  5
248
330
1F
100
AcDbEntity
  8
0
  6
Continuous
 62
     8
370
    15
100
AcDbSpline
210
0.0
220
0.0
230
1.0
 70
     8
 71
     3
 72
    11
 73
     7
 74
     0
 42
0.00000001
 43
0.00000001
 40
0.0
 40
0.0
 40
0.0
 40
0.0
 40
0.1664427880684921
 40
0.4512583066392312
 40
0.7252545107742471
 40
1.0
 40
1.0
 40
1.0
 40
1.0
 10
787.745868907654
 20
58.88532132056523
 30
0.0
 10
787.8699126450467
 20
58.86550093918824
 30
0.0
 10
788.206218997125
 20
58.81176408557681
 30
0.0
 10
788.5919342224514
 20
58.69307330781709
 30
0.0
 10
788.8914460551478
 20
58.54128843270357
 30
0.0
 10
788.9277051273356
 20
58.43422420217919
 30
0.0
 10
788.9458594185945
 20
58.38061899092961
 30
0.0
  0
SPLINE
  5
249
330
1F
100
AcDbEntity
  8
0
  6
Continuous
 62
     8
370
    15
100
AcDbSpline
210
0.0
220
0.0
230
1.0
 70
     8
 71
     3
 72
    14
 73
    10
 74
     0
 42
0.00000001
 43
0.00000001
 40
0.0
 40
0.0
 40
0.0
 40
0.0
 40
0.083677112841813
 40
0.2508572847140982
 40
0.4536281078593067
 40
0.6690229319103843
 40
0.7845496561687412
 40
0.8976952832514794
 40
1.0
 40
1.0
 40
1.0
 40
1.0
 10
834.6401808125612
 20
29.15914386657048
 30
0.0
 10
834.356347880361
 20
28.85122040634608
 30
0.0
 10
833.5054394746325
 20
27.92809052640266
 30
0.0
 10
831.7945723033214
 20
26.36659685636022
 30
0.0
 10
829.5155184484772
 20
24.3381992472399
 30
0.0
 10
827.3616912781067
 20
22.46496675390042
 30
0.0
 10
825.5374059054105
 20
20.88806802000054
 30
0.0
 10
824.1749488436036
 20
19.68993526956708
 30
0.0
 10
823.2254136642101
 20
18.96919544916348
 30
0.0
 10
822.7745351655122
 20
18.62695843127538
 30
0.0
  0
LINE
  5
24A
330
1F
100
AcDbEntity
  8
0
  6
Continuous
 62
     8
370
    15
100
AcDbLine
 10
820.6406292779
 20
13.4010019913
 30
0.0
 11
820.6406292779
 21
-5.0710138664
 31
0.0
  0
SPLINE
  5
24B
330
1F
100
AcDbEntity
  8
0
  6
Continuous
 62
     8
370
    15
100
AcDbSpline
210
0.0
220
0.0
230
1.0
 70
     8
 71
     3
 72
    12
 73
     8
 74
     0
 42
0.00000001
 43
0.00000001
 40
0.0
 40
0.0
 40
0.0
 40
0.0
 40
0.2367425772454461
 40
0.4734636784566827
 40
0.7101827218382933
 40
0.9886307476702616
 40
1.0
 40
1.0
 40
1.0
 40
1.0
 10
842.6715490681764
 20
32.07603126910497
 30
0.0
 10
841.9722294002005
 20
32.18669084038284
 30
0.0
 10
840.5736535028294
 20
32.40799994448762
 30
0.0
 10
838.7321870627067
 20
32.69671488807824
 30
0.0
 10
837.4126788675898
 20
32.9009636287011
 30
0.0
 10
836.7463276198716
 20
33.00219135044213
 30
0.0
 10
836.8733234958132
 20
32.97964306296225
 30
0.0
 10
836.8783054215547
 20
32.97875851538945
 30
0.0
  0
SPLINE
  5
24C
330
1F
100
AcDbEntity
  8
0
  6
Continuous
 62
     8
370
    15
100
AcDbSpline
210
0.0
220
0.0
230
1.0
 70
     8
 71
     3
 72
    14
 73
    10
 74
     0
 42
0.00000001
 43
0.00000001
 40
0.0
 40
0.0
 40
0.0
 40
0.0
 40
0.1545487988722324
 40
0.3095869435354531
 40
0.4641520338985292
 40
0.6182281839052038
 40
0.7725403010296961
 40
0.926297175391073
 40
1.0
 40
1.0
 40
1.0
 40
1.0
 10
847.1870479447481
 20
145.5245170011835
 30
0.0
 10
846.7323622349551
 20
145.4906860503659
 30
0.0
 10
845.8215511500986
 20
145.4229170302443
 30
0.0
 10
844.5342069653949
 20
145.3041973527605
 30
0.0
 10
843.3928080213078
 20
145.1807502265198
 30
0.0
 10
842.4512182484392
 20
145.0571874453009
 30
0.0
 10
841.7778559674528
 20
144.9416885620676
 30
0.0
 10
841.4058203410796
 20
144.8533616505118
 30
0.0
 10
841.3796607269151
 20
144.8127834878179
 30
0.0
 10
841.3711843354341
 20
144.7996351137476
 30
0.0
  0
LINE
  5
24D
330
1F
100
AcDbEntity
  8
0
  6
Continuous
 62
     8
370
    15
100
AcDbLine
 10
820.6406292779
 20
32.3392751828
 30
0.0
 11
820.6406292779
 21
18.6239931002
 31
0.0
  0
SPLINE
  5
24E
330
1F
100
AcDbEntity
  8
0
  6
Continuous
 62
     8
370
    15
100
AcDbSpline
210
0.0
220
0.0
230
1.0
 70
     8
 71
     3
 72
    14
 73
    10
 74
     0
 42
0.00000001
 43
0.00000001
 40
0.0
 40
0.0
 40
0.0
 40
0.0
 40
0.0685277597851736
 40
0.2231433808551274
 40
0.3783204519502473
 40
0.533259105013472
 40
0.6886854312109361
 40
0.8445912945925824
 40
1.0
 40
1.0
 40
1.0
 40
1.0
 10
841.3565215928194
 20
145.2770683183985
 30
0.0
 10
841.3629746284125
 20
145.3333408764594
 30
0.0
 10
841.3839873126669
 20
145.5165782811906
 30
0.0
 10
841.7450347443482
 20
145.8172867442867
 30
0.0
 10
842.409064486158
 20
146.1547767428206
 30
0.0
 10
843.3446126775945
 20
146.4426788459803
 30
0.0
 10
844.4822322907266
 20
146.6641494263474
 30
0.0
 10
845.7683225374606
 20
146.8150191139359
 30
0.0
 10
846.6806306007796
 20
146.8435836451401
 30
0.0
 10
847.1360561711427
 20
146.8578431024866
 30
0.0
  0
SPLINE
  5
24F
330
1F
100
AcDbEntity
  8
0
  6
Continuous
 62
     8
370
    15
100
AcDbSpline
210
0.0
220
0.0
230
1.0
 70
     8
 71
     3
 72
    13
 73
     9
 74
     0
 42
0.00000001
 43
0.00000001
 40
0.0
 40
0.0
 40
0.0
 40
0.0
 40
0.1702052095728147
 40
0.3381356065700013
 40
0.5001958210823986
 40
0.6551211252397668
 40
0.9448995552995236
 40
1.0
 40
1.0
 40
1.0
 40
1.0
 10
846.2656197411653
 20
159.3144688024836
 30
0.0
 10
845.8113512121033
 20
159.268009830128
 30
0.0
 10
844.9088855061148
 20
159.1757128150278
 30
0.0
 10
843.695715060672
 20
158.8853191004785
 30
0.0
 10
842.6720405115786
 20
158.5142085275458
 30
0.0
 10
841.6861959839234
 20
157.953270423035
 30
0.0
 10
841.049951318416
 20
157.4040219668534
 30
0.0
 10
841.0937590148027
 20
157.0191341222611
 30
0.0
 10
841.1007580620882
 20
156.9576415434198
 30
0.0
  0
SPLINE
  5
250
330
1F
100
AcDbEntity
  8
0
  6
Continuous
 62
     8
370
    15
100
AcDbSpline
210
0.0
220
0.0
230
1.0
 70
    24
 71
     3
 72
     9
 73
     5
 74
     0
 42
0.00000001
 43
0.00000001
 40
0.0
 40
0.0
 40
0.0
 40
0.0
 40
0.5988655227442901
 40
1.0
 40
1.0
 40
1.0
 40
1.0
 10
786.4458618027803
 20
24.76821869757939
 30
0.0
 10
786.3791793093976
 20
24.76821869757939
 30
0.0
 10
786.2678312840897
 20
24.76821869757939
 30
0.0
 10
786.180787777243
 20
24.76821869757945
 30
0.0
 10
786.1458716256258
 20
24.76821869757939
 30
0.0
  0
SPLINE
  5
251
330
1F
100
AcDbEntity
  8
0
  6
Continuous
 62
     8
370
    15
100
AcDbSpline
210
0.0
220
0.0
230
1.0
 70
    24
 71
     3
 72
     9
 73
     5
 74
     0
 42
0.00000001
 43
0.00000001
 40
0.0
 40
0.0
 40
0.0
 40
0.0
 40
0.4011344772557099
 40
1.0
 40
1.0
 40
1.0
 40
1.0
 10
786.1458716256258
 20
2.000049056084641
 30
0.0
 10
786.180787777243
 20
2.000049056084641
 30
0.0
 10
786.2678312840897
 20
2.000049056084641
 30
0.0
 10
786.3791793093976
 20
2.000049056084641
 30
0.0
 10
786.4458618027803
 20
2.000049056084641
 30
0.0
  0
SPLINE
  5
252
330
1F
100
AcDbEntity
  8
0
  6
Continuous
 62
     8
370
    15
100
AcDbSpline
210
0.0
220
0.0
230
1.0
 70
     8
 71
     3
 72
     9
 73
     5
 74
     0
 42
0.00000001
 43
0.00000001
 40
0.0
 40
0.0
 40
0.0
 40
0.0
 40
0.415234999652816
 40
1.0
 40
1.0
 40
1.0
 40
1.0
 10
786.1458716256258
 20
29.36500340846349
 30
0.0
 10
786.1840123720782
 20
29.39228056058463
 30
0.0
 10
786.2758657719227
 20
29.45797143959039
 30
0.0
 10
786.3921989507903
 20
29.46458177606204
 30
0.0
 10
786.4602265221712
 20
29.46844726947118
 30
0.0
  0
SPLINE
  5
253
330
1F
100
AcDbEntity
  8
0
  6
Continuous
 62
     8
370
    15
100
AcDbSpline
210
0.0
220
0.0
230
1.0
 70
     8
 71
     3
 72
     9
 73
     5
 74
     0
 42
0.00000001
 43
0.00000001
 40
0.0
 40
0.0
 40
0.0
 40
0.0
 40
0.5847780321890815
 40
1.0
 40
1.0
 40
1.0
 40
1.0
 10
786.4602265221712
 20
-2.70016461464595
 30
0.0
 10
786.3921997626113
 20
-2.69629775373198
 30
0.0
 10
786.2758705644964
 20
-2.689685226069993
 30
0.0
 10
786.1840129323882
 20
-2.624006785949207
 30
0.0
 10
786.1458716256258
 20
-2.596735654799454
 30
0.0
  0
SPLINE
  5
254
330
1F
100
AcDbEntity
  8
0
  6
Continuous
 62
     8
370
    15
100
AcDbSpline
210
0.0
220
0.0
230
1.0
 70
     8
 71
     3
 72
     9
 73
     5
 74
     0
 42
0.00000001
 43
0.00000001
 40
0.0
 40
0.0
 40
0.0
 40
0.0
 40
0.4151755257449513
 40
1.0
 40
1.0
 40
1.0
 40
1.0
 10
786.1458716256258
 20
32.78230160620976
 30
0.0
 10
786.1840149287353
 20
32.80957265649486
 30
0.0
 10
786.2758876445973
 20
32.87525824871796
 30
0.0
 10
786.3922026564919
 20
32.8818661207621
 30
0.0
 10
786.4602265221712
 20
32.88573056605626
 30
0.0
  0
SPLINE
  5
255
330
1F
100
AcDbEntity
  8
0
  6
Continuous
 62
     8
370
    15
100
AcDbSpline
210
0.0
220
0.0
230
1.0
 70
     8
 71
     3
 72
     9
 73
     5
 74
     0
 42
0.00000001
 43
0.00000001
 40
0.0
 40
0.0
 40
0.0
 40
0.0
 40
0.5848244742550488
 40
1.0
 40
1.0
 40
1.0
 40
1.0
 10
786.4602265221712
 20
-6.117462812392227
 30
0.0
 10
786.3922026564919
 20
-6.113598367098017
 30
0.0
 10
786.2758876445972
 20
-6.106990495053921
 30
0.0
 10
786.1840149287353
 20
-6.041304902830835
 30
0.0
 10
786.1458716256258
 20
-6.01403385254573
 30
0.0
  0
LINE
  5
256
330
1F
100
AcDbEntity
  8
0
  6
Continuous
 62
     8
370
    15
100
AcDbLine
 10
799.7133788926
 20
-3.6940273628
 30
0.0
 11
800.1812753541
 21
-3.679722248
 31
0.0
  0
LINE
  5
257
330
1F
100
AcDbEntity
  8
0
  6
Continuous
 62
     8
370
    15
100
AcDbLine
 10
-13.8541402953
 20
547.0641109362
 30
0.0
 11
-0.9040775435
 21
547.0641109362
 31
0.0
  0
LINE
  5
258
330
1F
100
AcDbEntity
  8
0
  6
Continuous
 62
     8
370
    15
100
AcDbLine
 10
-26.8040838378
 20
547.0641109362
 30
0.0
 11
-13.8541402953
 21
547.0641109362
 31
0.0
  0
LINE
  5
259
330
1F
100
AcDbEntity
  8
0
  6
Continuous
 62
     8
370
    15
100
AcDbLine
 10
-0.9040775435
 20
554.1641566172
 30
0.0
 11
-26.8040838378
 21
554.1641566172
 31
0.0
  0
SPLINE
  5
25A
330
1F
100
AcDbEntity
  8
0
  6
Continuous
 62
     8
370
    15
100
AcDbSpline
210
0.0
220
0.0
230
1.0
 70
     8
 71
     3
 72
    11
 73
     7
 74
     0
 42
0.00000001
 43
0.00000001
 40
0.0
 40
0.0
 40
0.0
 40
0.0
 40
0.1363992563456314
 40
0.557695147602939
 40
0.9789770990158476
 40
1.0
 40
1.0
 40
1.0
 40
1.0
 10
-25.40408994129928
 20
561.0039088144617
 30
0.0
 10
-25.50504332291137
 20
561.2914868279627
 30
0.0
 10
-25.91781105029911
 20
562.4673060148388
 30
0.0
 10
-25.97219826798525
 20
564.6952748721194
 30
0.0
 10
-25.69535171084269
 20
566.608039134385
 30
0.0
 10
-25.41730556953836
 20
567.5543055992746
 30
0.0
 10
-25.40408994129928
 20
567.5992819681483
 30
0.0
  0
SPLINE
  5
25B
330
1F
100
AcDbEntity
  8
0
  6
Continuous
 62
     8
370
    15
100
AcDbSpline
210
0.0
220
0.0
230
1.0
 70
     8
 71
     3
 72
    11
 73
     7
 74
     0
 42
0.00000001
 43
0.00000001
 40
0.0
 40
0.0
 40
0.0
 40
0.0
 40
0.0210180545242408
 40
0.4423026597618405
 40
0.8635998844205155
 40
1.0
 40
1.0
 40
1.0
 40
1.0
 10
-2.304071440017763
 20
567.5992819681484
 30
0.0
 10
-2.290896577122892
 20
567.5543052946102
 30
0.0
 10
-2.013645564497679
 20
566.6078189150024
 30
0.0
 10
-1.735801476720811
 20
564.6953785693285
 30
0.0
 10
-1.790362127673362
 20
562.4672958517018
 30
0.0
 10
-2.203120184555152
 20
561.2914853778736
 30
0.0
 10
-2.304071440017541
 20
561.0039088144617
 30
0.0
  0
SPLINE
  5
25C
330
1F
100
AcDbEntity
  8
0
  6
Continuous
 62
     8
370
    15
100
AcDbSpline
210
0.0
220
0.0
230
1.0
 70
     8
 71
     3
 72
    11
 73
     7
 74
     0
 42
0.00000001
 43
0.00000001
 40
0.0
 40
0.0
 40
0.0
 40
0.0
 40
0.2873082180379663
 40
0.5928389535060363
 40
0.898369211964502
 40
1.0
 40
1.0
 40
1.0
 40
1.0
 10
-25.40408994129928
 20
559.5911595239954
 30
0.0
 10
-25.69526096307917
 20
560.4511508552563
 30
0.0
 10
-26.29607052231187
 20
562.2256784491088
 30
0.0
 10
-26.36926372745485
 20
565.0878816891806
 30
0.0
 10
-25.96658408631924
 20
567.3129908248151
 30
0.0
 10
-25.5165431229738
 20
568.5126201942807
 30
0.0
 10
-25.40420915058905
 20
568.8120576753932
 30
0.0
  0
SPLINE
  5
25D
330
1F
100
AcDbEntity
  8
0
  6
Continuous
 62
     8
370
    15
100
AcDbSpline
210
0.0
220
0.0
230
1.0
 70
     8
 71
     3
 72
    11
 73
     7
 74
     0
 42
0.00000001
 43
0.00000001
 40
0.0
 40
0.0
 40
0.0
 40
0.0
 40
0.1016323596812308
 40
0.4071622663828351
 40
0.7126921127398673
 40
0.9999999999999999
 40
0.9999999999999999
 40
0.9999999999999999
 40
0.9999999999999999
 10
-2.30395223072799
 20
568.8121172800379
 30
0.0
 10
-2.191663011012368
 20
568.5126578846508
 30
0.0
 10
-1.741806948108771
 20
567.312955678603
 30
0.0
 10
-1.339019601360292
 20
565.0879002514072
 30
0.0
 10
-1.412062989012197
 20
562.2256717124567
 30
0.0
 10
-2.012891142805895
 20
560.4511491812448
 30
0.0
 10
-2.304071440017541
 20
559.5911595239954
 30
0.0
  0
SPLINE
  5
25E
330
1F
100
AcDbEntity
  8
0
  6
Continuous
 62
     8
370
    15
100
AcDbSpline
210
0.0
220
0.0
230
1.0
 70
     8
 71
     3
 72
    18
 73
    14
 74
     0
 42
0.00000001
 43
0.00000001
 40
0.0
 40
0.0
 40
0.0
 40
0.0
 40
0.0870482402198351
 40
0.1793133322675721
 40
0.2754129763167723
 40
0.3735532009201135
 40
0.4716917868850155
 40
0.5677904598252631
 40
0.660055551873
 40
0.7471039849939601
 40
0.8341545204406581
 40
0.9264175835253698
 40
0.9999999999999999
 40
0.9999999999999999
 40
0.9999999999999999
 40
0.9999999999999999
 10
-13.85414029530319
 20
577.6141139879542
 30
0.0
 10
-13.03381608719967
 20
577.5704796518464
 30
0.0
 10
-11.34400516255241
 20
577.4805959484077
 30
0.0
 10
-8.837247204259713
 20
576.7323279790978
 30
0.0
 10
-6.426759226880518
 20
575.4914655278138
 30
0.0
 10
-4.275752453259951
 20
573.7420140978163
 30
0.0
 10
-2.528509307839988
 20
571.5916903372209
 30
0.0
 10
-1.279619335047277
 20
569.1808878086907
 30
0.0
 10
-0.559828657192396
 20
566.6746458970208
 30
0.0
 10
-0.3266161640562704
 20
564.1628750211992
 30
0.0
 10
-0.567674345968161
 20
561.6587868691847
 30
0.0
 10
-1.189995106383623
 20
559.3347366713122
 30
0.0
 10
-1.96168682183484
 20
557.9728598226008
 30
0.0
 10
-2.304071440017763
 20
557.3686215296108
 30
0.0
  0
SPLINE
  5
25F
330
1F
100
AcDbEntity
  8
0
  6
Continuous
 62
     8
370
    15
100
AcDbSpline
210
0.0
220
0.0
230
1.0
 70
     8
 71
     3
 72
    18
 73
    14
 74
     0
 42
0.00000001
 43
0.00000001
 40
0.0
 40
0.0
 40
0.0
 40
0.0
 40
0.0735843140485674
 40
0.1658473211062038
 40
0.2528978036911524
 40
0.3399461839516397
 40
0.4322112199710693
 40
0.5283117768083444
 40
0.6264503031782387
 40
0.7245871909287438
 40
0.8206867766210909
 40
0.9129518126405204
 40
0.9999999999999999
 40
0.9999999999999999
 40
0.9999999999999999
 40
0.9999999999999999
 10
-25.40408994129928
 20
557.3686215296107
 30
0.0
 10
-25.74652281318479
 20
557.9728555137671
 30
0.0
 10
-26.51831195323751
 20
559.3347026531932
 30
0.0
 10
-27.14059712141403
 20
561.6587910454762
 30
0.0
 10
-27.38166864029545
 20
564.16287484072
 30
0.0
 10
-27.14844369679948
 20
566.6746424644246
 30
0.0
 10
-26.42868716196789
 20
569.1809206445838
 30
0.0
 10
-25.17963141182733
 20
571.5916623594218
 30
0.0
 10
-23.43242232792942
 20
573.7419751606822
 30
0.0
 10
-21.2815093412404
 20
575.4915009210101
 30
0.0
 10
-18.87102945135188
 20
576.7323226146958
 30
0.0
 10
-16.36427633144422
 20
577.4805971799585
 30
0.0
 10
-14.67446479863921
 20
577.5704800543231
 30
0.0
 10
-13.85414029530341
 20
577.6141139879543
 30
0.0
  0
SPLINE
  5
260
330
1F
100
AcDbEntity
  8
0
  6
Continuous
 62
     8
370
    15
100
AcDbSpline
210
0.0
220
0.0
230
1.0
 70
     8
 71
     3
 72
    19
 73
    15
 74
     0
 42
0.00000001
 43
0.00000001
 40
0.0
 40
0.0
 40
0.0
 40
0.0
 40
0.0843853441751827
 40
0.1738236613118365
 40
0.2669833465495348
 40
0.3621163059233182
 40
0.4572507913716622
 40
0.5504096352503272
 40
0.6398492986453287
 40
0.7242328645581498
 40
0.8086183883761516
 40
0.8980580517711532
 40
0.9912151498968731
 40
1.0
 40
1.0
 40
1.0
 40
1.0
 10
-13.85414029530319
 20
578.1641456499415
 30
0.0
 10
-13.00024828447688
 20
578.1187405053766
 30
0.0
 10
-11.24133342624511
 20
578.025211367731
 30
0.0
 10
-8.632110539417814
 20
577.2461684978872
 30
0.0
 10
-6.12302217342231
 20
575.9546945200118
 30
0.0
 10
-3.884113990068272
 20
574.1336801282479
 30
0.0
 10
-2.065394770794704
 20
571.8952976820275
 30
0.0
 10
-0.7657250836086149
 20
569.386263673984
 30
0.0
 10
-0.0149661677346646
 20
566.7765147311593
 30
0.0
 10
0.222410384512095
 20
564.1655509747404
 30
0.0
 10
-0.008332623536722
 20
561.5458742877004
 30
0.0
 10
-0.7945894462970671
 20
558.9642250589956
 30
0.0
 10
-1.591658002936258
 20
557.1599969057137
 30
0.0
 10
-2.247549935282978
 20
556.3649650690828
 30
0.0
 10
-2.304071440017763
 20
556.296453179391
 30
0.0
  0
SPLINE
  5
261
330
1F
100
AcDbEntity
  8
0
  6
Continuous
 62
     8
370
    15
100
AcDbSpline
210
0.0
220
0.0
230
1.0
 70
     8
 71
     3
 72
    19
 73
    15
 74
     0
 42
0.00000001
 43
0.00000001
 40
0.0
 40
0.0
 40
0.0
 40
0.0
 40
0.0087873173232216
 40
0.1019442923927042
 40
0.1913838376420285
 40
0.2757688907509026
 40
0.3601519859488469
 40
0.4495915311981712
 40
0.5427502520182926
 40
0.6378846117983618
 40
0.7330204976671291
 40
0.8261765683012167
 40
0.9156147672939716
 40
1.0
 40
1.0
 40
1.0
 40
1.0
 10
-25.40408994129928
 20
556.2964531793909
 30
0.0
 10
-25.46065269380171
 20
556.3649638893392
 30
0.0
 10
-26.1168540767176
 20
557.1597770945624
 30
0.0
 10
-26.91357277065687
 20
558.9643078994645
 30
0.0
 10
-27.70003033842961
 20
561.5458474255466
 30
0.0
 10
-27.93047943270444
 20
564.165556341798
 30
0.0
 10
-27.69337333906807
 20
566.776519467564
 30
0.0
 10
-26.94253944041925
 20
569.3862648321025
 30
0.0
 10
-25.64288584504881
 20
571.8952914228944
 30
0.0
 10
-23.82416401090204
 20
574.1337285698119
 30
0.0
 10
-21.58516825963819
 20
575.9546190291131
 30
0.0
 10
-19.07615009553943
 20
577.2462032107237
 30
0.0
 10
-16.46694391171066
 20
578.0252057370958
 30
0.0
 10
-14.70803124313003
 20
578.1187386652276
 30
0.0
 10
-13.85414029530319
 20
578.1641456499415
 30
0.0
  0
ENDSEC
  0
SECTION
  2
OBJECTS
  0
DICTIONARY
  5
C
330
0
100
AcDbDictionary
281
     1
  3
ACAD_GROUP
350
D
  3
ACAD_LAYOUT
350
1A
  3
ACAD_MATERIAL
350
3B
  3
ACAD_MLEADERSTYLE
350
263
  3
ACAD_MLINESTYLE
350
17
  3
ACAD_PLOTSETTINGS
350
19
  3
ACAD_PLOTSTYLENAME
350
E
  3
ACAD_TABLESTYLE
350
262
  3
ACAD_VISUALSTYLE
350
2A
  0
DICTIONARY
  5
D
102
{ACAD_REACTORS
330
C
102
}
330
C
100
AcDbDictionary
281
     1
  0
DICTIONARY
  5
1A
102
{ACAD_REACTORS
330
C
102
}
330
C
100
AcDbDictionary
281
     1
  3
Layout1
350
1E
  3
Layout2
350
26
  3
Model
350
22
  0
DICTIONARY
  5
3B
102
{ACAD_REACTORS
330
C
102
}
330
C
100
AcDbDictionary
281
     1
  3
ByBlock
350
3D
  3
ByLayer
350
3C
  3
Global
350
3E
  0
DICTIONARY
  5
263
102
{ACAD_REACTORS
330
C
102
}
330
C
100
AcDbDictionary
281
     1
  0
DICTIONARY
  5
17
102
{ACAD_REACTORS
330
C
102
}
330
C
100
AcDbDictionary
281
     1
  3
Standard
350
18
  0
DICTIONARY
  5
19
102
{ACAD_REACTORS
330
C
102
}
330
C
100
AcDbDictionary
281
     1
  0
ACDBDICTIONARYWDFLT
  5
E
102
{ACAD_REACTORS
330
C
102
}
330
C
100
AcDbDictionary
281
     1
  3
Normal
350
F
100
AcDbDictionaryWithDefault
340
F
  0
DICTIONARY
  5
262
102
{ACAD_REACTORS
330
C
102
}
330
C
100
AcDbDictionary
281
     1
  0
DICTIONARY
  5
2A
102
{ACAD_REACTORS
330
C
102
}
330
C
100
AcDbDictionary
281
     1
  3
2dWireframe
350
2F
  3
3D Hidden
350
31
  3
3dWireframe
350
30
  3
Basic
350
32
  3
Brighten
350
36
  3
ColorChange
350
3A
  3
Conceptual
350
34
  3
Dim
350
35
  3
Facepattern
350
39
  3
Flat
350
2B
  3
FlatWithEdges
350
2C
  3
Gouraud
350
2D
  3
GouraudWithEdges
350
2E
  3
Linepattern
350
38
  3
Realistic
350
33
  3
Thicken
350
37
  0
LAYOUT
  5
1E
102
{ACAD_REACTORS
330
1A
102
}
330
1A
100
AcDbPlotSettings
  1

  2
none_device
  4

  6

 40
0.0
 41
0.0
 42
0.0
 43
0.0
 44
0.0
 45
0.0
 46
0.0
 47
0.0
 48
0.0
 49
0.0
140
0.0
141
0.0
142
1.0
143
1.0
 70
   688
 72
     0
 73
     0
 74
     5
  7

 75
    16
 76
     0
 77
     2
 78
   300
147
1.0
148
0.0
149
0.0
100
AcDbLayout
  1
Layout1
 70
     1
 71
     1
 10
0.0
 20
0.0
 11
420.0
 21
297.0
 12
0.0
 22
0.0
 32
0.0
 14
1.0000000000E+20
 24
1.0000000000E+20
 34
1.0000000000E+20
 15
-1.0000000000E+20
 25
-1.0000000000E+20
 35
-1.0000000000E+20
146
0.0
 13
0.0
 23
0.0
 33
0.0
 16
1.0
 26
0.0
 36
0.0
 17
0.0
 27
1.0
 37
0.0
 76
     0
330
1B
  0
LAYOUT
  5
26
102
{ACAD_REACTORS
330
1A
102
}
330
1A
100
AcDbPlotSettings
  1

  2
none_device
  4

  6

 40
0.0
 41
0.0
 42
0.0
 43
0.0
 44
0.0
 45
0.0
 46
0.0
 47
0.0
 48
0.0
 49
0.0
140
0.0
141
0.0
142
1.0
143
1.0
 70
   688
 72
     0
 73
     0
 74
     5
  7

 75
    16
 76
     0
 77
     2
 78
   300
147
1.0
148
0.0
149
0.0
100
AcDbLayout
  1
Layout2
 70
     1
 71
     2
 10
0.0
 20
0.0
 11
0.0
 21
0.0
 12
0.0
 22
0.0
 32
0.0
 14
0.0
 24
0.0
 34
0.0
 15
0.0
 25
0.0
 35
0.0
146
0.0
 13
0.0
 23
0.0
 33
0.0
 16
1.0
 26
0.0
 36
0.0
 17
0.0
 27
1.0
 37
0.0
 76
     0
330
23
  0
LAYOUT
  5
22
102
{ACAD_REACTORS
330
1A
102
}
330
1A
100
AcDbPlotSettings
  1

  2
none_device
  4

  6

 40
0.0
 41
0.0
 42
0.0
 43
0.0
 44
0.0
 45
0.0
 46
0.0
 47
0.0
 48
0.0
 49
0.0
140
0.0
141
0.0
142
1.0
143
1.0
 70
  1712
 72
     0
 73
     0
 74
     0
  7

 75
     0
 76
     0
 77
     2
 78
   300
147
1.0
148
0.0
149
0.0
100
AcDbLayout
  1
Model
 70
     1
 71
     0
 10
0.0
 20
0.0
 11
841.0
 21
594.0
 12
0.0
 22
0.0
 32
0.0
 14
0.0
 24
0.0
 34
0.0
 15
841.0
 25
594.0
 35
0.0
146
0.0
 13
0.0
 23
0.0
 33
0.0
 16
1.0
 26
0.0
 36
0.0
 17
0.0
 27
1.0
 37
0.0
 76
     0
330
1F
331
29
  0
MATERIAL
  5
3D
102
{ACAD_REACTORS
330
3B
102
}
330
3B
100
AcDbMaterial
  1
ByBlock
 72
     1
 94
      127
  0
MATERIAL
  5
3C
102
{ACAD_REACTORS
330
3B
102
}
330
3B
100
AcDbMaterial
  1
ByLayer
 72
     1
 94
      127
  0
MATERIAL
  5
3E
102
{ACAD_REACTORS
330
3B
102
}
330
3B
100
AcDbMaterial
  1
Global
 72
     1
 94
      127
  0
MLINESTYLE
  5
18
102
{ACAD_REACTORS
330
17
102
}
330
17
100
AcDbMlineStyle
  2
Standard
 70
     0
  3

 62
   256
 51
90.0
 52
90.0
 71
     2
 49
0.5
 62
   256
  6
BYLAYER
 49
-0.5
 62
   256
  6
BYLAYER
  0
ACDBPLACEHOLDER
  5
F
102
{ACAD_REACTORS
330
E
102
}
330
E
  0
VISUALSTYLE
  5
2F
102
{ACAD_REACTORS
330
2A
102
}
330
2A
100
AcDbVisualStyle
  2
2dWireframe
 70
     4
 71
     0
 72
     2
 73
     0
 90
        0
 40
-0.6
 41
-30.0
 62
     5
 63
     7
421
 16777215
 74
     1
 91
        4
 64
     7
 65
   257
 75
     1
175
     1
 42
1.0
 92
        0
 66
   257
 43
1.0
 76
     1
 77
     6
 78
     2
 67
     7
 79
     5
170
     0
171
     0
290
     0
174
     0
 93
        1
 44
0.0
173
     0
291
     0
 45
0.0
  0
VISUALSTYLE
  5
31
102
{ACAD_REACTORS
330
2A
102
}
330
2A
100
AcDbVisualStyle
  2
3D Hidden
 70
     6
 71
     1
 72
     2
 73
     2
 90
        0
 40
-0.6
 41
-30.0
 62
     5
 63
     7
421
 16777215
 74
     2
 91
        2
 64
     7
 65
   257
 75
     2
175
     1
 42
40.0
 92
        0
 66
   257
 43
1.0
 76
     1
 77
     6
 78
     2
 67
     7
 79
     3
170
     0
171
     0
290
     0
174
     0
 93
        1
 44
0.0
173
     0
291
     0
 45
0.0
  0
VISUALSTYLE
  5
30
102
{ACAD_REACTORS
330
2A
102
}
330
2A
100
AcDbVisualStyle
  2
3dWireframe
 70
     5
 71
     0
 72
     2
 73
     0
 90
        0
 40
-0.6
 41
-30.0
 62
     5
 63
     7
421
 16777215
 74
     1
 91
        4
 64
     7
 65
   257
 75
     1
175
     1
 42
1.0
 92
        0
 66
   257
 43
1.0
 76
     1
 77
     6
 78
     2
 67
     7
 79
     5
170
     0
171
     0
290
     0
174
     0
 93
        1
 44
0.0
173
     0
291
     0
 45
0.0
  0
VISUALSTYLE
  5
32
102
{ACAD_REACTORS
330
2A
102
}
330
2A
100
AcDbVisualStyle
  2
Basic
 70
     7
 71
     1
 72
     0
 73
     1
 90
        0
 40
-0.6
 41
-30.0
 62
     5
 63
     7
421
 16777215
 74
     0
 91
        4
 64
     7
 65
   257
 75
     1
175
     1
 42
1.0
 92
        8
 66
     7
 43
1.0
 76
     1
 77
     6
 78
     2
 67
     7
 79
     5
170
     0
171
     0
290
     0
174
     0
 93
        1
 44
0.0
173
     0
291
     1
 45
0.0
  0
VISUALSTYLE
  5
36
102
{ACAD_REACTORS
330
2A
102
}
330
2A
100
AcDbVisualStyle
  2
Brighten
 70
    12
 71
     2
 72
     2
 73
     0
 90
        0
 40
-0.6
 41
-30.0
 62
     5
 63
     7
421
 16777215
 74
     1
 91
        4
 64
     7
 65
   257
 75
     1
175
     1
 42
1.0
 92
        8
 66
     7
 43
1.0
 76
     1
 77
     6
 78
     2
 67
     7
 79
     5
170
     0
171
     0
290
     0
174
     0
 93
        1
 44
50.0
173
     0
291
     1
 45
0.0
  0
VISUALSTYLE
  5
3A
102
{ACAD_REACTORS
330
2A
102
}
330
2A
100
AcDbVisualStyle
  2
ColorChange
 70
    16
 71
     2
 72
     2
 73
     3
 90
        0
 40
-0.6
 41
-30.0
 62
     5
 63
     8
421
  8421504
 74
     1
 91
        4
 64
     7
 65
   257
 75
     1
175
     1
 42
1.0
 92
        8
 66
     8
424
  8421504
 43
1.0
 76
     1
 77
     6
 78
     2
 67
     7
 79
     5
170
     0
171
     0
290
     0
174
     0
 93
        1
 44
0.0
173
     0
291
     1
 45
0.0
  0
VISUALSTYLE
  5
34
102
{ACAD_REACTORS
330
2A
102
}
330
2A
100
AcDbVisualStyle
  2
Conceptual
 70
     9
 71
     3
 72
     2
 73
     0
 90
        0
 40
-0.6
 41
-30.0
 62
     5
 63
     7
421
 16777215
 74
     2
 91
        2
 64
     7
 65
   257
 75
     1
175
     1
 42
40.0
 92
        8
 66
     7
 43
1.0
 76
     1
 77
     6
 78
     2
 67
     7
 79
     3
170
     0
171
     0
290
     0
174
     0
 93
        1
 44
0.0
173
     0
291
     0
 45
0.0
  0
VISUALSTYLE
  5
35
102
{ACAD_REACTORS
330
2A
102
}
330
2A
100
AcDbVisualStyle
  2
Dim
 70
    11
 71
     2
 72
     2
 73
     0
 90
        0
 40
-0.6
 41
-30.0
 62
     5
 63
     7
421
 16777215
 74
     1
 91
        4
 64
     7
 65
   257
 75
     1
175
     1
 42
1.0
 92
        8
 66
     7
 43
1.0
 76
     1
 77
     6
 78
     2
 67
     7
 79
     5
170
     0
171
     0
290
     0
174
     0
 93
        1
 44
-50.0
173
     0
291
     1
 45
0.0
  0
VISUALSTYLE
  5
39
102
{ACAD_REACTORS
330
2A
102
}
330
2A
100
AcDbVisualStyle
  2
Facepattern
 70
    15
 71
     2
 72
     2
 73
     0
 90
        0
 40
-0.6
 41
-30.0
 62
     5
 63
     7
421
 16777215
 74
     1
 91
        4
 64
     7
 65
   257
 75
     1
175
     1
 42
1.0
 92
        8
 66
     7
 43
1.0
 76
     1
 77
     6
 78
     2
 67
     7
 79
     5
170
     0
171
     0
290
     0
174
     0
 93
        1
 44
0.0
173
     0
291
     1
 45
0.0
  0
VISUALSTYLE
  5
2B
102
{ACAD_REACTORS
330
2A
102
}
330
2A
100
AcDbVisualStyle
  2
Flat
 70
     0
 71
     2
 72
     1
 73
     1
 90
        2
 40
-0.6
 41
30.0
 62
     5
 63
     7
421
 16777215
 74
     0
 91
        4
 64
     7
 65
   257
 75
     1
175
     1
 42
1.0
 92
        8
 66
     7
 43
1.0
 76
     1
 77
     6
 78
     2
 67
     7
 79
     5
170
     0
171
     0
290
     0
174
     0
 93
       13
 44
0.0
173
     0
291
     1
 45
0.0
  0
VISUALSTYLE
  5
2C
102
{ACAD_REACTORS
330
2A
102
}
330
2A
100
AcDbVisualStyle
  2
FlatWithEdges
 70
     1
 71
     2
 72
     1
 73
     1
 90
        2
 40
-0.6
 41
30.0
 62
     5
 63
     7
421
 16777215
 74
     1
 91
        4
 64
     7
 65
   257
 75
     1
175
     1
 42
1.0
 92
        0
 66
   257
 43
1.0
 76
     1
 77
     6
 78
     2
 67
     7
 79
     5
170
     0
171
     0
290
     0
174
     0
 93
       13
 44
0.0
173
     0
291
     1
 45
0.0
  0
VISUALSTYLE
  5
2D
102
{ACAD_REACTORS
330
2A
102
}
330
2A
100
AcDbVisualStyle
  2
Gouraud
 70
     2
 71
     2
 72
     2
 73
     1
 90
        2
 40
-0.6
 41
30.0
 62
     5
 63
     7
421
 16777215
 74
     0
 91
        4
 64
     7
 65
   257
 75
     1
175
     1
 42
1.0
 92
        0
 66
     7
 43
1.0
 76
     1
 77
     6
 78
     2
 67
     7
 79
     5
170
     0
171
     0
290
     0
174
     0
 93
       13
 44
0.0
173
     0
291
     1
 45
0.0
  0
VISUALSTYLE
  5
2E
102
{ACAD_REACTORS
330
2A
102
}
330
2A
100
AcDbVisualStyle
  2
GouraudWithEdges
 70
     3
 71
     2
 72
     2
 73
     1
 90
        2
 40
-0.6
 41
30.0
 62
     5
 63
     7
421
 16777215
 74
     1
 91
        4
 64
     7
 65
   257
 75
     1
175
     1
 42
1.0
 92
        0
 66
   257
 43
1.0
 76
     1
 77
     6
 78
     2
 67
     7
 79
     5
170
     0
171
     0
290
     0
174
     0
 93
       13
 44
0.0
173
     0
291
     1
 45
0.0
  0
VISUALSTYLE
  5
38
102
{ACAD_REACTORS
330
2A
102
}
330
2A
100
AcDbVisualStyle
  2
Linepattern
 70
    14
 71
     2
 72
     2
 73
     0
 90
        0
 40
-0.6
 41
-30.0
 62
     5
 63
     7
421
 16777215
 74
     1
 91
        4
 64
     7
 65
   257
 75
     7
175
     7
 42
1.0
 92
        8
 66
     7
 43
1.0
 76
     1
 77
     6
 78
     2
 67
     7
 79
     5
170
     0
171
     0
290
     0
174
     0
 93
        1
 44
0.0
173
     0
291
     1
 45
0.0
  0
VISUALSTYLE
  5
33
102
{ACAD_REACTORS
330
2A
102
}
330
2A
100
AcDbVisualStyle
  2
Realistic
 70
     8
 71
     2
 72
     2
 73
     0
 90
        0
 40
-0.6
 41
-30.0
 62
     5
 63
     7
421
 16777215
 74
     1
 91
        0
 64
     7
 65
   257
 75
     1
175
     1
 42
1.0
 92
        8
 66
     8
424
  7895160
 43
1.0
 76
     1
 77
     6
 78
     2
 67
     7
 79
     5
170
     0
171
     0
290
     0
174
     0
 93
       13
 44
0.0
173
     0
291
     0
 45
0.0
  0
VISUALSTYLE
  5
37
102
{ACAD_REACTORS
330
2A
102
}
330
2A
100
AcDbVisualStyle
  2
Thicken
 70
    13
 71
     2
 72
     2
 73
     0
 90
        0
 40
-0.6
 41
-30.0
 62
     5
 63
     7
421
 16777215
 74
     1
 91
        4
 64
     7
 65
   257
 75
     1
175
     1
 42
1.0
 92
       12
 66
     7
 43
1.0
 76
     1
 77
     6
 78
     2
 67
     7
 79
     5
170
     0
171
     0
290
     0
174
     0
 93
        1
 44
0.0
173
     0
291
     1
 45
0.0
  0
ENDSEC
  0
EOF
