  0
SECTION
  2
HEADER
  9
$ACADVER
  1
AC1015
  9
$ACADMAINTVER
 70
     6
  9
$DWGCODEPAGE
  3
ANSI_1252
  9
$INSBASE
 10
0.0
 20
0.0
 30
0.0
  9
$EXTMIN
 10
0.0
 20
0.0
 30
0.0
  9
$EXTMAX
 10
2159.0
 20
1397.0
 30
0.0
  9
$LIMMIN
 10
0.0
 20
0.0
  9
$LIMMAX
 10
2159.0
 20
1397.0
  9
$ORTHOMODE
 70
     0
  9
$REGENMODE
 70
     1
  9
$FILLMODE
 70
     1
  9
$QTEXTMODE
 70
     0
  9
$MIRRTEXT
 70
     1
  9
$LTSCALE
 40
5.0
  9
$ATTMODE
 70
     1
  9
$TEXTSIZE
 40
17.5
  9
$TRACEWID
 40
1.0
  9
$TEXTSTYLE
  7
Standard
  9
$CLAYER
  8
0
  9
$CELTYPE
  6
ByLayer
  9
$CECOLOR
 62
   256
  9
$CELTSCALE
 40
1.0
  9
$DISPSILH
 70
     0
  9
$DIMSCALE
 40
1.0
  9
$DIMASZ
 40
16.51
  9
$DIMEXO
 40
5.0
  9
$DIMDLI
 40
3.75
  9
$DIMRND
 40
0.0
  9
$DIMDLE
 40
0.0
  9
$DIMEXE
 40
5.0
  9
$DIMTP
 40
0.0
  9
$DIMTM
 40
0.0
  9
$DIMTXT
 40
17.5
  9
$DIMCEN
 40
2.5
  9
$DIMTSZ
 40
0.0
  9
$DIMTOL
 70
     0
  9
$DIMLIM
 70
     0
  9
$DIMTIH
 70
     1
  9
$DIMTOH
 70
     1
  9
$DIMSE1
 70
     0
  9
$DIMSE2
 70
     0
  9
$DIMTAD
 70
     1
  9
$DIMZIN
 70
     0
  9
$DIMBLK
  1

  9
$DIMASO
 70
     1
  9
$DIMSHO
 70
     1
  9
$DIMPOST
  1

  9
$DIMAPOST
  1

  9
$DIMALT
 70
     0
  9
$DIMALTD
 70
     3
  9
$DIMALTF
 40
0.0393700787
  9
$DIMLFAC
 40
1.0
  9
$DIMTOFL
 70
     1
  9
$DIMTVP
 40
0.0
  9
$DIMTIX
 70
     0
  9
$DIMSOXD
 70
     0
  9
$DIMSAH
 70
     0
  9
$DIMBLK1
  1

  9
$DIMBLK2
  1

  9
$DIMSTYLE
  2
ISO-25
  9
$DIMCLRD
 70
     0
  9
$DIMCLRE
 70
     0
  9
$DIMCLRT
 70
     0
  9
$DIMTFAC
 40
1.0
  9
$DIMGAP
 40
7.62
  9
$DIMJUST
 70
     0
  9
$DIMSD1
 70
     0
  9
$DIMSD2
 70
     0
  9
$DIMTOLJ
 70
     0
  9
$DIMTZIN
 70
     0
  9
$DIMALTZ
 70
     0
  9
$DIMALTTZ
 70
     0
  9
$DIMUPT
 70
     0
  9
$DIMDEC
 70
     3
  9
$DIMTDEC
 70
     3
  9
$DIMALTU
 70
     2
  9
$DIMALTTD
 70
     3
  9
$DIMTXSTY
  7
Standard
  9
$DIMAUNIT
 70
     0
  9
$DIMADEC
 70
     2
  9
$DIMALTRND
 40
0.0
  9
$DIMAZIN
 70
     0
  9
$DIMDSEP
 70
    44
  9
$DIMATFIT
 70
     3
  9
$DIMFRAC
 70
     0
  9
$DIMLDRBLK
  1

  9
$DIMLUNIT
 70
     2
  9
$DIMLWD
 70
    -2
  9
$DIMLWE
 70
    -2
  9
$DIMTMOVE
 70
     0
  9
$LUNITS
 70
     2
  9
$LUPREC
 70
     8
  9
$SKETCHINC
 40
1.0
  9
$FILLETRAD
 40
10.0
  9
$AUNITS
 70
     0
  9
$AUPREC
 70
     8
  9
$MENU
  1
.
  9
$ELEVATION
 40
0.0
  9
$PELEVATION
 40
0.0
  9
$THICKNESS
 40
0.0
  9
$LIMCHECK
 70
     0
  9
$CHAMFERA
 40
10.0
  9
$CHAMFERB
 40
10.0
  9
$CHAMFERC
 40
20.0
  9
$CHAMFERD
 40
0.0
  9
$SKPOLY
 70
     0
  9
$TDCREATE
 40
2456562.337492164
  9
$TDUCREATE
 40
2456562.295825498
  9
$TDUPDATE
 40
2456562.337492697
  9
$TDUUPDATE
 40
2456562.29582603
  9
$TDINDWG
 40
0.0000000116
  9
$TDUSRTIMER
 40
0.0000000116
  9
$USRTIMER
 70
     1
  9
$ANGBASE
 50
0.0
  9
$ANGDIR
 70
     0
  9
$PDMODE
 70
     0
  9
$PDSIZE
 40
-1.0
  9
$PLINEWID
 40
0.0
  9
$SPLFRAME
 70
     0
  9
$SPLINETYPE
 70
     6
  9
$SPLINESEGS
 70
     8
  9
$HANDSEED
  5
29A
  9
$SURFTAB1
 70
     6
  9
$SURFTAB2
 70
     6
  9
$SURFTYPE
 70
     6
  9
$SURFU
 70
     6
  9
$SURFV
 70
     6
  9
$UCSBASE
  2

  9
$UCSNAME
  2

  9
$UCSORG
 10
0.0
 20
0.0
 30
0.0
  9
$UCSXDIR
 10
1.0
 20
0.0
 30
0.0
  9
$UCSYDIR
 10
0.0
 20
1.0
 30
0.0
  9
$UCSORTHOREF
  2

  9
$UCSORTHOVIEW
 70
     0
  9
$UCSORGTOP
 10
0.0
 20
0.0
 30
0.0
  9
$UCSORGBOTTOM
 10
0.0
 20
0.0
 30
0.0
  9
$UCSORGLEFT
 10
0.0
 20
0.0
 30
0.0
  9
$UCSORGRIGHT
 10
0.0
 20
0.0
 30
0.0
  9
$UCSORGFRONT
 10
0.0
 20
0.0
 30
0.0
  9
$UCSORGBACK
 10
0.0
 20
0.0
 30
0.0
  9
$PUCSBASE
  2

  9
$PUCSNAME
  2

  9
$PUCSORG
 10
0.0
 20
0.0
 30
0.0
  9
$PUCSXDIR
 10
1.0
 20
0.0
 30
0.0
  9
$PUCSYDIR
 10
0.0
 20
1.0
 30
0.0
  9
$PUCSORTHOREF
  2

  9
$PUCSORTHOVIEW
 70
     0
  9
$PUCSORGTOP
 10
0.0
 20
0.0
 30
0.0
  9
$PUCSORGBOTTOM
 10
0.0
 20
0.0
 30
0.0
  9
$PUCSORGLEFT
 10
0.0
 20
0.0
 30
0.0
  9
$PUCSORGRIGHT
 10
0.0
 20
0.0
 30
0.0
  9
$PUCSORGFRONT
 10
0.0
 20
0.0
 30
0.0
  9
$PUCSORGBACK
 10
0.0
 20
0.0
 30
0.0
  9
$USERI1
 70
     0
  9
$USERI2
 70
     0
  9
$USERI3
 70
     0
  9
$USERI4
 70
     0
  9
$USERI5
 70
     0
  9
$USERR1
 40
0.0
  9
$USERR2
 40
0.0
  9
$USERR3
 40
0.0
  9
$USERR4
 40
0.0
  9
$USERR5
 40
0.0
  9
$WORLDVIEW
 70
     1
  9
$SHADEDGE
 70
     3
  9
$SHADEDIF
 70
    70
  9
$TILEMODE
 70
     1
  9
$MAXACTVP
 70
    64
  9
$PINSBASE
 10
0.0
 20
0.0
 30
0.0
  9
$PLIMCHECK
 70
     0
  9
$PEXTMIN
 10
1.0000000000E+20
 20
1.0000000000E+20
 30
1.0000000000E+20
  9
$PEXTMAX
 10
-1.0000000000E+20
 20
-1.0000000000E+20
 30
-1.0000000000E+20
  9
$PLIMMIN
 10
0.0
 20
0.0
  9
$PLIMMAX
 10
420.0
 20
297.0
  9
$UNITMODE
 70
     0
  9
$VISRETAIN
 70
     1
  9
$PLINEGEN
 70
     0
  9
$PSLTSCALE
 70
     1
  9
$TREEDEPTH
 70
  3020
  9
$CMLSTYLE
  2
Standard
  9
$CMLJUST
 70
     0
  9
$CMLSCALE
 40
20.0
  9
$PROXYGRAPHICS
 70
     1
  9
$MEASUREMENT
 70
     1
  9
$CELWEIGHT
370
    -1
  9
$ENDCAPS
280
     0
  9
$JOINSTYLE
280
     0
  9
$LWDISPLAY
290
     1
  9
$INSUNITS
 70
     4
  9
$HYPERLINKBASE
  1

  9
$STYLESHEET
  1

  9
$XEDIT
290
     1
  9
$CEPSNTYPE
380
     0
  9
$PSTYLEMODE
290
     1
  9
$FINGERPRINTGUID
  2
{03AC8504-F18F-4873-B990-D3ADEE14680E}
  9
$VERSIONGUID
  2
{FAEB1C32-E019-11D5-929B-00C0DF256EC4}
  9
$EXTNAMES
290
     1
  9
$PSVPSCALE
 40
0.0
  9
$OLESTARTUP
290
     0
  0
ENDSEC
  0
SECTION
  2
CLASSES
  0
CLASS
  1
ACDBDICTIONARYWDFLT
  2
AcDbDictionaryWithDefault
  3
ObjectDBX Classes
 90
        0
280
     0
281
     0
  0
CLASS
  1
VISUALSTYLE
  2
AcDbVisualStyle
  3
ObjectDBX Classes
 90
     4095
280
     0
281
     0
  0
CLASS
  1
MATERIAL
  2
AcDbMaterial
  3
ObjectDBX Classes
 90
     1153
280
     0
281
     0
  0
CLASS
  1
ACDBPLACEHOLDER
  2
AcDbPlaceHolder
  3
ObjectDBX Classes
 90
        0
280
     0
281
     0
  0
CLASS
  1
LAYOUT
  2
AcDbLayout
  3
ObjectDBX Classes
 90
        0
280
     0
281
     0
  0
ENDSEC
  0
SECTION
  2
TABLES
  0
TABLE
  2
VPORT
  5
8
330
0
100
AcDbSymbolTable
 70
     1
  0
VPORT
  5
29
330
8
100
AcDbSymbolTableRecord
100
AcDbViewportTableRecord
  2
*Active
 70
     0
 10
0.0
 20
0.0
 11
1.0
 21
1.0
 12
1079.5
 22
698.5
 13
0.0
 23
0.0
 14
10.0
 24
10.0
 15
10.0
 25
10.0
 16
0.0
 26
0.0
 36
1.0
 17
0.0
 27
0.0
 37
0.0
 40
1397.0
 41
1.5454545455
 42
50.0
 43
0.0
 44
0.0
 50
0.0
 51
0.0
 71
     0
 72
  2000
 73
     1
 74
     3
 75
     0
 76
     0
 77
     0
 78
     0
281
     0
 65
     1
110
0.0
120
0.0
130
0.0
111
1.0
121
0.0
131
0.0
112
0.0
122
1.0
132
0.0
 79
     0
146
0.0
  0
ENDTAB
  0
TABLE
  2
LTYPE
  5
5
330
0
100
AcDbSymbolTable
 70
     6
  0
LTYPE
  5
14
330
5
100
AcDbSymbolTableRecord
100
AcDbLinetypeTableRecord
  2
ByBlock
 70
     0
  3

 72
    65
 73
     0
 40
0.0
  0
LTYPE
  5
15
330
5
100
AcDbSymbolTableRecord
100
AcDbLinetypeTableRecord
  2
ByLayer
 70
     0
  3

 72
    65
 73
     0
 40
0.0
  0
LTYPE
  5
16
330
5
100
AcDbSymbolTableRecord
100
AcDbLinetypeTableRecord
  2
Continuous
 70
     0
  3
Solid line
 72
    65
 73
     0
 40
0.0
  0
LTYPE
  5
3F
330
5
100
AcDbSymbolTableRecord
100
AcDbLinetypeTableRecord
  2
HIDDEN
 70
     0
  3
Hidden __ __ __ __ __ __ __ __ __ __ __ __ __ __
 72
    65
 73
     2
 40
1.905
 49
1.27
 74
     0
 49
-0.635
 74
     0
  0
LTYPE
  5
40
330
5
100
AcDbSymbolTableRecord
100
AcDbLinetypeTableRecord
  2
PHANTOM
 70
     0
  3
Phantom ______  __  __  ______  __  __  ______
 72
    65
 73
     6
 40
12.7
 49
6.35
 74
     0
 49
-1.27
 74
     0
 49
1.27
 74
     0
 49
-1.27
 74
     0
 49
1.27
 74
     0
 49
-1.27
 74
     0
  0
LTYPE
  5
41
330
5
100
AcDbSymbolTableRecord
100
AcDbLinetypeTableRecord
  2
CENTER
 70
     0
  3
Center ____ _ ____ _ ____ _ ____ _ ____ _ ____
 72
    65
 73
     4
 40
10.16
 49
6.35
 74
     0
 49
-1.27
 74
     0
 49
1.27
 74
     0
 49
-1.27
 74
     0
  0
LTYPE
  5
42
330
5
100
AcDbSymbolTableRecord
100
AcDbLinetypeTableRecord
  2
CENTERX2
 70
     0
  3
Center (2x) ________  __  ________  __  _____
 72
    65
 73
     4
 40
20.32
 49
12.7
 74
     0
 49
-2.54
 74
     0
 49
2.54
 74
     0
 49
-2.54
 74
     0
  0
LTYPE
  5
43
330
5
100
AcDbSymbolTableRecord
100
AcDbLinetypeTableRecord
  2
DOT2
 70
     0
  3
Dot (.5x) ........................................
 72
    65
 73
     2
 40
0.635
 49
0.0
 74
     0
 49
-0.635
 74
     0
  0
ENDTAB
  0
TABLE
  2
LAYER
  5
2
330
0
100
AcDbSymbolTable
 70
     1
  0
LAYER
  5
10
330
2
100
AcDbSymbolTableRecord
100
AcDbLayerTableRecord
  2
0
 70
     0
 62
     7
  6
Continuous
370
    -3
390
F
  0
ENDTAB
  0
TABLE
  2
STYLE
  5
3
330
0
100
AcDbSymbolTable
 70
     1
  0
STYLE
  5
11
330
3
100
AcDbSymbolTableRecord
100
AcDbTextStyleTableRecord
  2
Standard
 70
     0
 40
0.0
 41
1.0
 50
0.0
 71
     0
 42
17.5
  3
txt
  4

  0
ENDTAB
  0
TABLE
  2
VIEW
  5
6
330
0
100
AcDbSymbolTable
 70
     0
  0
ENDTAB
  0
TABLE
  2
UCS
  5
7
330
0
100
AcDbSymbolTable
 70
     0
  0
ENDTAB
  0
TABLE
  2
APPID
  5
9
330
0
100
AcDbSymbolTable
 70
     1
  0
APPID
  5
12
330
9
100
AcDbSymbolTableRecord
100
AcDbRegAppTableRecord
  2
ACAD
 70
     0
  0
ENDTAB
  0
TABLE
  2
DIMSTYLE
  5
A
330
0
100
AcDbSymbolTable
 70
     1
100
AcDbDimStyleTable
  0
DIMSTYLE
105
27
330
A
100
AcDbSymbolTableRecord
100
AcDbDimStyleTableRecord
  2
ISO-25
 70
     0
 41
2.5
 42
0.625
 43
3.75
 44
1.25
 73
     0
 74
     0
 77
     1
 78
     8
140
2.5
141
2.5
143
0.0393700787
147
0.625
171
     3
172
     1
178
     0
271
     2
272
     2
274
     3
278
    44
283
     0
284
     8
340
11
  0
ENDTAB
  0
TABLE
  2
BLOCK_RECORD
  5
1
330
0
100
AcDbSymbolTable
 70
     1
  0
BLOCK_RECORD
  5
1F
330
1
100
AcDbSymbolTableRecord
100
AcDbBlockTableRecord
  2
*Model_Space
340
22
  0
BLOCK_RECORD
  5
1B
330
1
100
AcDbSymbolTableRecord
100
AcDbBlockTableRecord
  2
*Paper_Space
340
1E
  0
BLOCK_RECORD
  5
23
330
1
100
AcDbSymbolTableRecord
100
AcDbBlockTableRecord
  2
*Paper_Space0
340
26
  0
ENDTAB
  0
ENDSEC
  0
SECTION
  2
BLOCKS
  0
BLOCK
  5
20
330
1F
100
AcDbEntity
  8
0
100
AcDbBlockBegin
  2
*Model_Space
 70
     0
 10
0.0
 20
0.0
 30
0.0
  3
*Model_Space
  1

  0
ENDBLK
  5
21
330
1F
100
AcDbEntity
  8
0
100
AcDbBlockEnd
  0
BLOCK
  5
1C
330
1B
100
AcDbEntity
 67
     1
  8
0
100
AcDbBlockBegin
  2
*Paper_Space
 70
     0
 10
0.0
 20
0.0
 30
0.0
  3
*Paper_Space
  1

  0
ENDBLK
  5
1D
330
1B
100
AcDbEntity
 67
     1
  8
0
100
AcDbBlockEnd
  0
BLOCK
  5
24
330
23
100
AcDbEntity
  8
0
100
AcDbBlockBegin
  2
*Paper_Space0
 70
     0
 10
0.0
 20
0.0
 30
0.0
  3
*Paper_Space0
  1

  0
ENDBLK
  5
25
330
23
100
AcDbEntity
  8
0
100
AcDbBlockEnd
  0
ENDSEC
  0
SECTION
  2
ENTITIES
  0
SPLINE
  5
44
330
1F
100
AcDbEntity
  8
0
  6
Continuous
 62
     7
370
    15
100
AcDbSpline
210
0.0
220
0.0
230
1.0
 70
     8
 71
     3
 72
    13
 73
     9
 74
     0
 42
0.00000001
 43
0.00000001
 12
1.0
 22
0.0
 32
0.0
 13
1.0
 23
0.0
 33
0.0
 40
0.0
 40
0.0
 40
0.0
 40
0.0
 40
0.06348881697188
 40
0.2470479163500339
 40
0.4311284030722905
 40
0.6187780680255316
 40
0.8315552682030009
 40
1.0
 40
1.0
 40
1.0
 40
1.0
 10
1317.160829159169
 20
1160.365739690605
 30
0.0
 10
1317.161301491001
 20
1160.355513628451
 30
0.0
 10
1317.163139430352
 20
1160.315721938072
 30
0.0
 10
1317.149794413411
 20
1160.248162494581
 30
0.0
 10
1317.123846468301
 20
1160.178062981008
 30
0.0
 10
1317.091878354638
 20
1160.131594817621
 30
0.0
 10
1317.068863070481
 20
1160.115568192085
 30
0.0
 10
1317.069605561252
 20
1160.116268769934
 30
0.0
 10
1317.069933634346
 20
1160.116578323604
 30
0.0
  0
LINE
  5
45
330
1F
100
AcDbEntity
  8
0
  6
Continuous
 62
     7
370
    15
100
AcDbLine
 10
1317.1626244215
 20
1165.4658485809
 30
0.0
 11
1317.1626244215
 21
1160.3658485809
 31
0.0
  0
ARC
  5
46
330
1F
100
AcDbEntity
  8
0
  6
Continuous
 62
     7
370
    15
100
AcDbCircle
 10
1317.4126244215
 20
1165.4658485809
 30
0.0
 40
0.25
100
AcDbArc
 50
90.0
 51
180.0
  0
ARC
  5
47
330
1F
100
AcDbEntity
  8
0
  6
Continuous
 62
     7
370
    15
100
AcDbCircle
 10
1322.4693185937
 20
1165.4658485809
 30
0.0
 40
0.25
100
AcDbArc
 50
0.0
 51
90.0
  0
LINE
  5
48
330
1F
100
AcDbEntity
  8
0
  6
Continuous
 62
     7
370
    15
100
AcDbLine
 10
1322.7193185937
 20
1160.3658485809
 30
0.0
 11
1322.7193185937
 21
1165.4658485809
 31
0.0
  0
ARC
  5
49
330
1F
100
AcDbEntity
  8
0
  6
Continuous
 62
     7
370
    15
100
AcDbCircle
 10
1322.5016725979
 20
1159.8658485809
 30
0.0
 40
0.2499999999999546
100
AcDbArc
 50
0.0
 51
52.7089330725
  0
ARC
  5
4A
330
1F
100
AcDbEntity
  8
0
  6
Continuous
 62
     7
370
    15
100
AcDbCircle
 10
1322.5016725979
 20
1159.1658485809
 30
0.0
 40
0.25
100
AcDbArc
 50
270.0
 51
0.0
  0
LINE
  5
4B
330
1F
100
AcDbEntity
  8
0
  6
Continuous
 62
     7
370
    15
100
AcDbLine
 10
1322.7516725979
 20
1159.1658485809
 30
0.0
 11
1322.7516725979
 21
1159.8658485809
 31
0.0
  0
LINE
  5
4C
330
1F
100
AcDbEntity
  8
0
  6
Continuous
 62
     7
370
    15
100
AcDbLine
 10
1305.384026602
 20
1165.4658485809
 30
0.0
 11
1305.384026602
 21
1161.1888535421
 31
0.0
  0
ARC
  5
4D
330
1F
100
AcDbEntity
  8
0
  6
Continuous
 62
     7
370
    15
100
AcDbCircle
 10
1305.634026602
 20
1165.4658485809
 30
0.0
 40
0.25
100
AcDbArc
 50
90.0
 51
180.0
  0
ARC
  5
4E
330
1F
100
AcDbEntity
  8
0
  6
Continuous
 62
     7
370
    15
100
AcDbCircle
 10
1322.5016725979
 20
1161.0658485809
 30
0.0
 40
0.2499999999997726
100
AcDbArc
 50
0.0
 51
29.4734267883
  0
LINE
  5
4F
330
1F
100
AcDbEntity
  8
0
  6
Continuous
 62
     7
370
    15
100
AcDbLine
 10
1322.7516725979
 20
1160.3658485809
 30
0.0
 11
1322.7516725979
 21
1161.0658485809
 31
0.0
  0
SPLINE
  5
50
330
1F
100
AcDbEntity
  8
0
  6
Continuous
 62
     7
370
    15
100
AcDbSpline
210
0.0
220
0.0
230
1.0
 70
     8
 71
     3
 72
    13
 73
     9
 74
     0
 42
0.00000001
 43
0.00000001
 12
1.0
 22
0.0
 32
0.0
 13
1.0
 23
0.0
 33
0.0
 40
0.0
 40
0.0
 40
0.0
 40
0.0
 40
0.0546880530890462
 40
0.2134688124131814
 40
0.3745771152216607
 40
0.5445034158369573
 40
0.7475374220926339
 40
1.0
 40
1.0
 40
1.0
 40
1.0
 10
1310.097397687003
 20
1159.865940646009
 30
0.0
 10
1310.096903729116
 20
1159.875524373425
 30
0.0
 10
1310.094975618724
 20
1159.912933401436
 30
0.0
 10
1310.109009966841
 20
1159.976779134103
 30
0.0
 10
1310.136650711139
 20
1160.044170153082
 30
0.0
 10
1310.173556686712
 20
1160.091766168789
 30
0.0
 10
1310.208333589461
 20
1160.114640661267
 30
0.0
 10
1310.220163761949
 20
1160.115094601305
 30
0.0
 10
1310.226720728449
 20
1160.115346201156
 30
0.0
  0
LINE
  5
51
330
1F
100
AcDbEntity
  8
0
  6
Continuous
 62
     7
370
    15
100
AcDbLine
 10
1310.0955228482
 20
1154.7658485809
 30
0.0
 11
1310.0955228482
 21
1159.8658485809
 31
0.0
  0
ARC
  5
52
330
1F
100
AcDbEntity
  8
0
  6
Continuous
 62
     7
370
    15
100
AcDbCircle
 10
1309.8455228482
 20
1154.7658485809
 30
0.0
 40
0.25
100
AcDbArc
 50
270.0
 51
0.0
  0
ARC
  5
53
330
1F
100
AcDbEntity
  8
0
  6
Continuous
 62
     7
370
    15
100
AcDbCircle
 10
1305.1455524489
 20
1154.7658485809
 30
0.0
 40
0.25
100
AcDbArc
 50
180.0
 51
270.0
  0
LINE
  5
54
330
1F
100
AcDbEntity
  8
0
  6
Continuous
 62
     7
370
    15
100
AcDbLine
 10
1304.8955524489
 20
1159.8658485809
 30
0.0
 11
1304.8955524489
 21
1154.7658485809
 31
0.0
  0
ARC
  5
55
330
1F
100
AcDbEntity
  8
0
  6
Continuous
 62
     7
370
    15
100
AcDbCircle
 10
1305.6016725979
 20
1161.0658485809
 30
0.0
 40
0.25
100
AcDbArc
 50
90.0
 51
180.0
  0
ARC
  5
56
330
1F
100
AcDbEntity
  8
0
  6
Continuous
 62
     7
370
    15
100
AcDbCircle
 10
1322.9577927468
 20
1154.7658485809
 30
0.0
 40
0.2500000000002274
100
AcDbArc
 50
270.0
 51
0.0
  0
LINE
  5
57
330
1F
100
AcDbEntity
  8
0
  6
Continuous
 62
     7
370
    15
100
AcDbLine
 10
1323.2077927468
 20
1154.7658485809
 30
0.0
 11
1323.2077927468
 21
1159.8658485809
 31
0.0
  0
LINE
  5
58
330
1F
100
AcDbEntity
  8
0
  6
Continuous
 62
     7
370
    15
100
AcDbLine
 10
1319.5133640017
 20
1166.2492909246
 30
0.0
 11
1319.0516725979
 21
1166.5158485809
 31
0.0
  0
LINE
  5
59
330
1F
100
AcDbEntity
  8
0
  6
Continuous
 62
     7
370
    15
100
AcDbLine
 10
1309.0516725979
 20
1166.5158485809
 30
0.0
 11
1308.589981194
 21
1166.2492909246
 31
0.0
  0
LINE
  5
5A
330
1F
100
AcDbEntity
  8
0
  6
Continuous
 62
     7
370
    15
100
AcDbLine
 10
1308.589981194
 20
1161.5824062372
 30
0.0
 11
1309.0516725979
 21
1161.3158485809
 31
0.0
  0
LINE
  5
5B
330
1F
100
AcDbEntity
  8
0
  6
Continuous
 62
     7
370
    15
100
AcDbLine
 10
1308.8042915444
 20
1153.8586740987
 30
0.0
 11
1309.0516725979
 21
1153.7158485809
 31
0.0
  0
LINE
  5
5C
330
1F
100
AcDbEntity
  8
0
  6
Continuous
 62
     7
370
    15
100
AcDbLine
 10
1319.2990536514
 20
1158.7730230631
 30
0.0
 11
1319.0516725979
 21
1158.9158485809
 31
0.0
  0
LINE
  5
5D
330
1F
100
AcDbEntity
  8
0
  6
Continuous
 62
     7
370
    15
100
AcDbLine
 10
1319.0516725979
 20
1153.7158485809
 30
0.0
 11
1319.2990536514
 21
1153.8586740987
 31
0.0
  0
LINE
  5
5E
330
1F
100
AcDbEntity
  8
0
  6
Continuous
 62
     7
370
    15
100
AcDbLine
 10
1309.0516725979
 20
1153.4658485809
 30
0.0
 11
1308.9624214481
 21
1153.4143194056
 31
0.0
  0
LINE
  5
5F
330
1F
100
AcDbEntity
  8
0
  6
Continuous
 62
     7
370
    15
100
AcDbLine
 10
1317.0516725979
 20
1153.4658485809
 30
0.0
 11
1317.0516725979
 21
1153.7158485809
 31
0.0
  0
LINE
  5
60
330
1F
100
AcDbEntity
  8
0
  6
Continuous
 62
     7
370
    15
100
AcDbLine
 10
1311.0516725979
 20
1153.7158485809
 30
0.0
 11
1311.0516725979
 21
1153.4658485809
 31
0.0
  0
LINE
  5
61
330
1F
100
AcDbEntity
  8
0
  6
Continuous
 62
     7
370
    15
100
AcDbLine
 10
1375.9266725979
 20
1160.6158485809
 30
0.0
 11
1375.9266725979
 21
1167.2158485809
 31
0.0
  0
LINE
  5
62
330
1F
100
AcDbEntity
  8
0
  6
Continuous
 62
     7
370
    15
100
AcDbLine
 10
1342.1766725979
 20
1167.2158485809
 30
0.0
 11
1342.1766725979
 21
1160.6158485809
 31
0.0
  0
ARC
  5
63
330
1F
100
AcDbEntity
  8
0
  6
Continuous
 62
     7
370
    15
100
AcDbCircle
 10
1350.1766725979
 20
1173.7596010829
 30
0.0
 40
8.000000000000078
100
AcDbArc
 50
102.635625093
 51
180.0
  0
ARC
  5
64
330
1F
100
AcDbEntity
  8
0
  6
Continuous
 62
     7
370
    15
100
AcDbCircle
 10
1367.9266725979
 20
1173.7596010829
 30
0.0
 40
8.000000000000078
100
AcDbArc
 50
0.0
 51
77.364374907
  0
LINE
  5
65
330
1F
100
AcDbEntity
  8
0
  6
Continuous
 62
     7
370
    15
100
AcDbLine
 10
1375.9266725979
 20
1172.6158485809
 30
0.0
 11
1375.9266725979
 21
1173.7596010829
 31
0.0
  0
LINE
  5
66
330
1F
100
AcDbEntity
  8
0
  6
Continuous
 62
     7
370
    15
100
AcDbLine
 10
1342.1766725979
 20
1173.7596010829
 30
0.0
 11
1342.1766725979
 21
1172.6158485809
 31
0.0
  0
LINE
  5
67
330
1F
100
AcDbEntity
  8
0
  6
Continuous
 62
     7
370
    15
100
AcDbLine
 10
1374.9016725979
 20
1155.2658485809
 30
0.0
 11
1374.9016725979
 21
1160.6158485809
 31
0.0
  0
LINE
  5
68
330
1F
100
AcDbEntity
  8
0
  6
Continuous
 62
     7
370
    15
100
AcDbLine
 10
1343.2016725979
 20
1160.6158485809
 30
0.0
 11
1343.2016725979
 21
1155.2658485809
 31
0.0
  0
LINE
  5
69
330
1F
100
AcDbEntity
  8
0
  6
Continuous
 62
     7
370
    15
100
AcDbLine
 10
1373.9766725979
 20
1152.3158485809
 30
0.0
 11
1373.9766725979
 21
1155.2658485809
 31
0.0
  0
LINE
  5
6A
330
1F
100
AcDbEntity
  8
0
  6
Continuous
 62
     7
370
    15
100
AcDbLine
 10
1344.1266725979
 20
1155.2658485809
 30
0.0
 11
1344.1266725979
 21
1152.3158485809
 31
0.0
  0
ARC
  5
6B
330
1F
100
AcDbEntity
  8
0
  6
Continuous
 62
     7
370
    15
100
AcDbCircle
 10
1074.9168693374
 20
378.3508129948
 30
0.0
 40
1.000000000000047
100
AcDbArc
 50
187.0271655875
 51
219.7546578804
  0
ARC
  5
6C
330
1F
100
AcDbEntity
  8
0
  6
Continuous
 62
     7
370
    15
100
AcDbCircle
 10
1096.1864758583
 20
378.3508129948
 30
0.0
 40
1.000000000000047
100
AcDbArc
 50
320.2453421196
 51
352.9728344126
  0
SPLINE
  5
6D
330
1F
100
AcDbEntity
  8
0
  6
Continuous
 62
     7
370
    15
100
AcDbSpline
210
0.0
220
0.0
230
1.0
 70
     8
 71
     3
 72
    11
 73
     7
 74
     0
 42
0.00000001
 43
0.00000001
 12
1.0
 22
0.0
 32
0.0
 13
1.0
 23
0.0
 33
0.0
 40
0.0
 40
0.0
 40
0.0
 40
0.0
 40
0.2706728893345035
 40
0.5972761992793214
 40
0.911494237126308
 40
1.0
 40
1.0
 40
1.0
 40
1.0
 10
1095.247125626947
 20
373.8061808119052
 30
0.0
 10
1095.276462113838
 20
374.1481297419836
 30
0.0
 10
1095.341197024799
 20
374.902686128502
 30
0.0
 10
1095.820355209962
 20
376.0838812942839
 30
0.0
 10
1096.42194775502
 20
377.0527798381378
 30
0.0
 10
1096.859176797178
 20
377.5926625936892
 30
0.0
 10
1096.955265704408
 20
377.7113114916607
 30
0.0
  0
SPLINE
  5
6E
330
1F
100
AcDbEntity
  8
0
  6
Continuous
 62
     7
370
    15
100
AcDbSpline
210
0.0
220
0.0
230
1.0
 70
     8
 71
     3
 72
    12
 73
     8
 74
     0
 42
0.00000001
 43
0.00000001
 12
1.0
 22
0.0
 32
0.0
 13
1.0
 23
0.0
 33
0.0
 40
0.0
 40
0.0
 40
0.0
 40
0.0
 40
0.1457385529867214
 40
0.4224065763361352
 40
0.7025645190515138
 40
0.9915723830905631
 40
1.0
 40
1.0
 40
1.0
 40
1.0
 10
1074.148079491328
 20
377.7113114916607
 30
0.0
 10
1074.317028051773
 20
377.4980018373641
 30
0.0
 10
1074.806706187941
 20
376.8797481294447
 30
0.0
 10
1075.394183806208
 20
375.8650546648635
 30
0.0
 10
1075.783008127547
 20
374.6724654469316
 30
0.0
 10
1075.939321464401
 20
373.8790787771136
 30
0.0
 10
1075.882326400612
 20
373.4669777727567
 30
0.0
 10
1075.880711487146
 20
373.4553011920688
 30
0.0
  0
ARC
  5
6F
330
1F
100
AcDbEntity
  8
0
  6
Continuous
 62
     7
370
    15
100
AcDbCircle
 10
1074.9168693374
 20
368.7294668949
 30
0.0
 40
0.9999999999999468
100
AcDbArc
 50
189.4154824284
 51
258.0798679019
  0
ARC
  5
70
330
1F
100
AcDbEntity
  8
0
  6
Continuous
 62
     7
370
    15
100
AcDbCircle
 10
1096.1864758583
 20
368.7294668949
 30
0.0
 40
0.9999999999999468
100
AcDbArc
 50
281.9201320981
 51
350.5845175716
  0
LINE
  5
71
330
1F
100
AcDbEntity
  8
0
  6
Continuous
 62
     7
370
    15
100
AcDbLine
 10
1073.8094251362
 20
369.1199891814
 30
0.0
 11
1073.8988060336
 21
368.5793322398
 31
0.0
  0
SPLINE
  5
72
330
1F
100
AcDbEntity
  8
0
  6
Continuous
 62
     7
370
    15
100
AcDbSpline
210
0.0
220
0.0
230
1.0
 70
     8
 71
     3
 72
    10
 73
     6
 74
     0
 42
0.00000001
 43
0.00000001
 12
1.0
 22
0.0
 32
0.0
 13
1.0
 23
0.0
 33
0.0
 40
0.0
 40
0.0
 40
0.0
 40
0.0
 40
0.1150632308217964
 40
0.7493542734951566
 40
1.0
 40
1.0
 40
1.0
 40
1.0
 10
1071.403485123792
 20
381.6522592727564
 30
0.0
 10
1071.511735882841
 20
381.1665757524527
 30
0.0
 10
1072.216723638905
 20
378.0035407941398
 30
0.0
 10
1073.052388801191
 20
373.8000241263685
 30
0.0
 10
1073.642332104337
 20
370.1529663215755
 30
0.0
 10
1073.80942513625
 20
369.1199891813712
 30
0.0
  0
SPLINE
  5
73
330
1F
100
AcDbEntity
  8
0
  6
Continuous
 62
     7
370
    15
100
AcDbSpline
210
0.0
220
0.0
230
1.0
 70
     8
 71
     3
 72
     9
 73
     5
 74
     0
 42
0.00000001
 43
0.00000001
 12
1.0
 22
0.0
 32
0.0
 13
1.0
 23
0.0
 33
0.0
 40
0.0
 40
0.0
 40
0.0
 40
0.0
 40
0.5208429124923084
 40
0.9999999999999999
 40
0.9999999999999999
 40
0.9999999999999999
 40
0.9999999999999999
 10
1097.174136920475
 20
368.5662585861604
 30
0.0
 10
1097.561340920398
 20
370.8192366647065
 30
0.0
 10
1098.304758927316
 20
375.1448750184386
 30
0.0
 10
1099.252441272721
 20
379.5457119668891
 30
0.0
 10
1099.706529985228
 20
381.6544041817049
 30
0.0
  0
SPLINE
  5
74
330
1F
100
AcDbEntity
  8
0
  6
Continuous
 62
     7
370
    15
100
AcDbSpline
210
0.0
220
0.0
230
1.0
 70
     8
 71
     3
 72
    11
 73
     7
 74
     0
 42
0.00000001
 43
0.00000001
 12
1.0
 22
0.0
 32
0.0
 13
1.0
 23
0.0
 33
0.0
 40
0.0
 40
0.0
 40
0.0
 40
0.0
 40
0.0925535171474315
 40
0.4249799083409273
 40
0.7579032427931919
 40
1.0
 40
1.0
 40
1.0
 40
1.0
 10
1089.544991482657
 20
366.8542926609738
 30
0.0
 10
1089.772184580928
 20
366.8662700113964
 30
0.0
 10
1090.815391852297
 20
366.9212666602722
 30
0.0
 10
1092.605710956011
 20
367.1179542339108
 30
0.0
 10
1094.67136654094
 20
367.4079574748473
 30
0.0
 10
1095.882928321391
 20
367.6493841927165
 30
0.0
 10
1096.393023851022
 20
367.7510304244691
 30
0.0
  0
SPLINE
  5
75
330
1F
100
AcDbEntity
  8
0
  6
Continuous
 62
     7
370
    15
100
AcDbSpline
210
0.0
220
0.0
230
1.0
 70
     8
 71
     3
 72
    12
 73
     8
 74
     0
 42
0.00000001
 43
0.00000001
 12
1.0
 22
0.0
 32
0.0
 13
1.0
 23
0.0
 33
0.0
 40
0.0
 40
0.0
 40
0.0
 40
0.0
 40
0.1036834819918894
 40
0.3447565350566505
 40
0.5855730551622069
 40
0.8263052096578664
 40
1.0
 40
1.0
 40
1.0
 40
1.0
 10
1079.397545406051
 20
367.0405920905592
 30
0.0
 10
1079.732307974293
 20
367.002431946468
 30
0.0
 10
1080.845422434538
 20
366.8755461706299
 30
0.0
 10
1082.833584006511
 20
366.760313218207
 30
0.0
 10
1085.30660516961
 20
366.6992243899841
 30
0.0
 10
1087.5654826001
 20
366.7274500375159
 30
0.0
 10
1088.96036697421
 20
366.8168311941208
 30
0.0
 10
1089.544991482657
 20
366.8542926609738
 30
0.0
  0
SPLINE
  5
76
330
1F
100
AcDbEntity
  8
0
  6
Continuous
 62
     7
370
    15
100
AcDbSpline
210
0.0
220
0.0
230
1.0
 70
     8
 71
     3
 72
    10
 73
     6
 74
     0
 42
0.00000001
 43
0.00000001
 12
1.0
 22
0.0
 32
0.0
 13
1.0
 23
0.0
 33
0.0
 40
0.0
 40
0.0
 40
0.0
 40
0.0
 40
0.2502355006436042
 40
0.7279697107287698
 40
1.0
 40
1.0
 40
1.0
 40
1.0
 10
1074.710321344714
 20
367.7510304244691
 30
0.0
 10
1075.077603808744
 20
367.6772410705526
 30
0.0
 10
1076.146079338424
 20
367.4625776255685
 30
0.0
 10
1077.704904702698
 20
367.2120681875334
 30
0.0
 10
1078.946917212122
 20
367.0862438131772
 30
0.0
 10
1079.397545406051
 20
367.0405920905592
 30
0.0
  0
SPLINE
  5
77
330
1F
100
AcDbEntity
  8
0
  6
Continuous
 62
     7
370
    15
100
AcDbSpline
210
0.0
220
0.0
230
1.0
 70
     8
 71
     3
 72
     9
 73
     5
 74
     0
 42
0.00000001
 43
0.00000001
 12
1.0
 22
0.0
 32
0.0
 13
1.0
 23
0.0
 33
0.0
 40
0.0
 40
0.0
 40
0.0
 40
0.0
 40
0.3870133919670974
 40
0.9999999999999999
 40
0.9999999999999999
 40
0.9999999999999999
 40
0.9999999999999999
 10
1099.697546576489
 20
381.6538837729889
 30
0.0
 10
1099.702389230674
 20
381.6881003093345
 30
0.0
 10
1099.714902115978
 20
381.776512072482
 30
0.0
 10
1099.765651509618
 20
381.8834739090561
 30
0.0
 10
1099.796760208286
 20
381.9490400824466
 30
0.0
  0
LINE
  5
78
330
1F
100
AcDbEntity
  8
0
  6
Continuous
 62
     7
370
    15
100
AcDbLine
 10
1071.3052574543
 20
381.9490400824
 30
0.0
 11
1071.3997184922
 21
381.6552513247
 31
0.0
  0
ARC
  5
79
330
1F
100
AcDbEntity
  8
0
  6
Continuous
 62
     7
370
    15
100
AcDbCircle
 10
974.9168693374
 20
378.3508129948
 30
0.0
 40
1.000000000000093
100
AcDbArc
 50
187.0271655875
 51
219.7546578804
  0
ARC
  5
7A
330
1F
100
AcDbEntity
  8
0
  6
Continuous
 62
     7
370
    15
100
AcDbCircle
 10
996.1864758583
 20
378.3508129948
 30
0.0
 40
1.000000000000005
100
AcDbArc
 50
320.2453421196
 51
352.9728344126
  0
SPLINE
  5
7B
330
1F
100
AcDbEntity
  8
0
  6
Continuous
 62
     7
370
    15
100
AcDbSpline
210
0.0
220
0.0
230
1.0
 70
     8
 71
     3
 72
    11
 73
     7
 74
     0
 42
0.00000001
 43
0.00000001
 12
1.0
 22
0.0
 32
0.0
 13
1.0
 23
0.0
 33
0.0
 40
0.0
 40
0.0
 40
0.0
 40
0.0
 40
0.2706728893345021
 40
0.5972761992793224
 40
0.9114942371263094
 40
0.9999999999999999
 40
0.9999999999999999
 40
0.9999999999999999
 40
0.9999999999999999
 10
995.2471256269458
 20
373.8061808119033
 30
0.0
 10
995.2764621138373
 20
374.1481297419816
 30
0.0
 10
995.3411970247986
 20
374.9026861285001
 30
0.0
 10
995.8203552099612
 20
376.0838812942822
 30
0.0
 10
996.4219477550188
 20
377.052779838136
 30
0.0
 10
996.8591767971768
 20
377.5926625936871
 30
0.0
 10
996.9552657044068
 20
377.7113114916588
 30
0.0
  0
SPLINE
  5
7C
330
1F
100
AcDbEntity
  8
0
  6
Continuous
 62
     7
370
    15
100
AcDbSpline
210
0.0
220
0.0
230
1.0
 70
     8
 71
     3
 72
    12
 73
     8
 74
     0
 42
0.00000001
 43
0.00000001
 12
1.0
 22
0.0
 32
0.0
 13
1.0
 23
0.0
 33
0.0
 40
0.0
 40
0.0
 40
0.0
 40
0.0
 40
0.1457385529867214
 40
0.4224065763361352
 40
0.7025645190515138
 40
0.9915723830905631
 40
1.0
 40
1.0
 40
1.0
 40
1.0
 10
974.1480794913274
 20
377.7113114916588
 30
0.0
 10
974.3170280517722
 20
377.4980018373623
 30
0.0
 10
974.8067061879404
 20
376.8797481294428
 30
0.0
 10
975.394183806207
 20
375.8650546648615
 30
0.0
 10
975.7830081275454
 20
374.6724654469302
 30
0.0
 10
975.9393214643999
 20
373.8790787771106
 30
0.0
 10
975.8823264006107
 20
373.4669777727548
 30
0.0
 10
975.8807114871449
 20
373.4553011920669
 30
0.0
  0
ARC
  5
7D
330
1F
100
AcDbEntity
  8
0
  6
Continuous
 62
     7
370
    15
100
AcDbCircle
 10
996.1864758583
 20
368.7294668949
 30
0.0
 40
0.9999999999999468
100
AcDbArc
 50
281.9201320981
 51
350.5845175716
  0
ARC
  5
7E
330
1F
100
AcDbEntity
  8
0
  6
Continuous
 62
     7
370
    15
100
AcDbCircle
 10
974.9168693374
 20
368.7294668949
 30
0.0
 40
1.000000000000072
100
AcDbArc
 50
189.4154824284
 51
258.0798679019
  0
SPLINE
  5
7F
330
1F
100
AcDbEntity
  8
0
  6
Continuous
 62
     7
370
    15
100
AcDbSpline
210
0.0
220
0.0
230
1.0
 70
     8
 71
     3
 72
     9
 73
     5
 74
     0
 42
0.00000001
 43
0.00000001
 12
1.0
 22
0.0
 32
0.0
 13
1.0
 23
0.0
 33
0.0
 40
0.0
 40
0.0
 40
0.0
 40
0.0
 40
0.5208429124923084
 40
0.9999999999999999
 40
0.9999999999999999
 40
0.9999999999999999
 40
0.9999999999999999
 10
997.1741369204741
 20
368.5662585861585
 30
0.0
 10
997.5613409203967
 20
370.8192366647046
 30
0.0
 10
998.304758927315
 20
375.1448750184366
 30
0.0
 10
999.25244127272
 20
379.5457119668872
 30
0.0
 10
999.7065299852269
 20
381.654404181703
 30
0.0
  0
LINE
  5
80
330
1F
100
AcDbEntity
  8
0
  6
Continuous
 62
     7
370
    15
100
AcDbLine
 10
973.8094251362
 20
369.1199891814
 30
0.0
 11
973.8988060336
 21
368.5793322398
 31
0.0
  0
SPLINE
  5
81
330
1F
100
AcDbEntity
  8
0
  6
Continuous
 62
     7
370
    15
100
AcDbSpline
210
0.0
220
0.0
230
1.0
 70
     8
 71
     3
 72
    10
 73
     6
 74
     0
 42
0.00000001
 43
0.00000001
 12
1.0
 22
0.0
 32
0.0
 13
1.0
 23
0.0
 33
0.0
 40
0.0
 40
0.0
 40
0.0
 40
0.0
 40
0.1150632308217964
 40
0.7493542734951566
 40
1.0
 40
1.0
 40
1.0
 40
1.0
 10
971.403485123791
 20
381.6522592727546
 30
0.0
 10
971.51173588284
 20
381.1665757524508
 30
0.0
 10
972.2167236389035
 20
378.0035407941379
 30
0.0
 10
973.05238880119
 20
373.8000241263666
 30
0.0
 10
973.6423321043357
 20
370.1529663215737
 30
0.0
 10
973.809425136249
 20
369.1199891813693
 30
0.0
  0
SPLINE
  5
82
330
1F
100
AcDbEntity
  8
0
  6
Continuous
 62
     7
370
    15
100
AcDbSpline
210
0.0
220
0.0
230
1.0
 70
     8
 71
     3
 72
    11
 73
     7
 74
     0
 42
0.00000001
 43
0.00000001
 12
1.0
 22
0.0
 32
0.0
 13
1.0
 23
0.0
 33
0.0
 40
0.0
 40
0.0
 40
0.0
 40
0.0
 40
0.0925535171474309
 40
0.4249799083409279
 40
0.7579032427931927
 40
1.0
 40
1.0
 40
1.0
 40
1.0
 10
989.5449914826554
 20
366.8542926609719
 30
0.0
 10
989.7721845809267
 20
366.8662700113945
 30
0.0
 10
990.8153918522956
 20
366.9212666602703
 30
0.0
 10
992.6057109560102
 20
367.117954233909
 30
0.0
 10
994.6713665409386
 20
367.4079574748455
 30
0.0
 10
995.8829283213902
 20
367.6493841927147
 30
0.0
 10
996.3930238510208
 20
367.7510304244673
 30
0.0
  0
SPLINE
  5
83
330
1F
100
AcDbEntity
  8
0
  6
Continuous
 62
     7
370
    15
100
AcDbSpline
210
0.0
220
0.0
230
1.0
 70
     8
 71
     3
 72
    12
 73
     8
 74
     0
 42
0.00000001
 43
0.00000001
 12
1.0
 22
0.0
 32
0.0
 13
1.0
 23
0.0
 33
0.0
 40
0.0
 40
0.0
 40
0.0
 40
0.0
 40
0.103683481991888
 40
0.34475653505665
 40
0.5855730551622065
 40
0.8263052096578661
 40
1.0
 40
1.0
 40
1.0
 40
1.0
 10
979.3975454060503
 20
367.0405920905573
 30
0.0
 10
979.7323079742921
 20
367.0024319464662
 30
0.0
 10
980.8454224345372
 20
366.8755461706283
 30
0.0
 10
982.83358400651
 20
366.7603132182051
 30
0.0
 10
985.3066051696087
 20
366.6992243899822
 30
0.0
 10
987.5654826000988
 20
366.7274500375139
 30
0.0
 10
988.9603669742091
 20
366.8168311941189
 30
0.0
 10
989.5449914826554
 20
366.8542926609719
 30
0.0
  0
SPLINE
  5
84
330
1F
100
AcDbEntity
  8
0
  6
Continuous
 62
     7
370
    15
100
AcDbSpline
210
0.0
220
0.0
230
1.0
 70
     8
 71
     3
 72
    10
 73
     6
 74
     0
 42
0.00000001
 43
0.00000001
 12
1.0
 22
0.0
 32
0.0
 13
1.0
 23
0.0
 33
0.0
 40
0.0
 40
0.0
 40
0.0
 40
0.0
 40
0.2502355006436019
 40
0.7279697107287677
 40
0.9999999999999999
 40
0.9999999999999999
 40
0.9999999999999999
 40
0.9999999999999999
 10
974.7103213447134
 20
367.7510304244673
 30
0.0
 10
975.0776038087424
 20
367.6772410705508
 30
0.0
 10
976.1460793384227
 20
367.4625776255669
 30
0.0
 10
977.7049047026967
 20
367.2120681875316
 30
0.0
 10
978.9469172121211
 20
367.0862438131754
 30
0.0
 10
979.3975454060503
 20
367.0405920905573
 30
0.0
  0
SPLINE
  5
85
330
1F
100
AcDbEntity
  8
0
  6
Continuous
 62
     7
370
    15
100
AcDbSpline
210
0.0
220
0.0
230
1.0
 70
     8
 71
     3
 72
     9
 73
     5
 74
     0
 42
0.00000001
 43
0.00000001
 12
1.0
 22
0.0
 32
0.0
 13
1.0
 23
0.0
 33
0.0
 40
0.0
 40
0.0
 40
0.0
 40
0.0
 40
0.3870133919647438
 40
0.9999999999999999
 40
0.9999999999999999
 40
0.9999999999999999
 40
0.9999999999999999
 10
999.6975465764884
 20
381.6538837729869
 30
0.0
 10
999.7023892306732
 20
381.6881003093325
 30
0.0
 10
999.7149021159768
 20
381.7765120724806
 30
0.0
 10
999.765651509618
 20
381.8834739090554
 30
0.0
 10
999.796760208286
 20
381.9490400824466
 30
0.0
  0
LINE
  5
86
330
1F
100
AcDbEntity
  8
0
  6
Continuous
 62
     7
370
    15
100
AcDbLine
 10
971.3052574543
 20
381.9490400824
 30
0.0
 11
971.3997184922
 21
381.6552513247
 31
0.0
  0
LINE
  5
87
330
1F
100
AcDbEntity
  8
0
  6
Continuous
 62
     7
370
    15
100
AcDbLine
 10
635.5516725979
 20
362.9559660109
 30
0.0
 11
1435.5516725979
 21
362.9559660109
 31
0.0
  0
LINE
  5
88
330
1F
100
AcDbEntity
  8
0
  6
Continuous
 62
     7
370
    15
100
AcDbLine
 10
1434.3516725979
 20
382.7658485809
 30
0.0
 11
1435.5516725979
 21
382.7658485809
 31
0.0
  0
LINE
  5
89
330
1F
100
AcDbEntity
  8
0
  6
Continuous
 62
     7
370
    15
100
AcDbLine
 10
635.5516725979
 20
382.7658485809
 30
0.0
 11
636.7516725979
 21
382.7658485809
 31
0.0
  0
LINE
  5
8A
330
1F
100
AcDbEntity
  8
0
  6
Continuous
 62
     7
370
    15
100
AcDbLine
 10
636.7516725979
 20
381.9490400824
 30
0.0
 11
1434.3516725979
 21
381.9490400824
 31
0.0
  0
LINE
  5
8B
330
1F
100
AcDbEntity
  8
0
  6
Continuous
 62
     7
370
    15
100
AcDbLine
 10
1434.7516725979
 20
1148.5158485809
 30
0.0
 11
636.3516725979
 21
1148.5158485809
 31
0.0
  0
LINE
  5
8C
330
1F
100
AcDbEntity
  8
0
  6
Continuous
 62
     7
370
    15
100
AcDbLine
 10
1434.7516725979
 20
1145.9352695385
 30
0.0
 11
636.3516725979
 21
1145.9352695385
 31
0.0
  0
LINE
  5
8D
330
1F
100
AcDbEntity
  8
0
  6
Continuous
 62
     7
370
    15
100
AcDbLine
 10
636.3516725979
 20
1148.5158485809
 30
0.0
 11
636.3516725979
 21
1145.9352695385
 31
0.0
  0
LINE
  5
8E
330
1F
100
AcDbEntity
  8
0
  6
Continuous
 62
     7
370
    15
100
AcDbLine
 10
1434.7516725979
 20
1148.5158485809
 30
0.0
 11
1434.7516725979
 21
1145.9352695385
 31
0.0
  0
LINE
  5
8F
330
1F
100
AcDbEntity
  8
0
  6
Continuous
 62
     7
370
    15
100
AcDbLine
 10
1434.7516725979
 20
1112.6383172173
 30
0.0
 11
636.3516725979
 21
1112.6383172173
 31
0.0
  0
LINE
  5
90
330
1F
100
AcDbEntity
  8
0
  6
Continuous
 62
     7
370
    15
100
AcDbLine
 10
636.3516725979
 20
1145.9352695385
 30
0.0
 11
636.3516725979
 21
1112.6383172173
 31
0.0
  0
LINE
  5
91
330
1F
100
AcDbEntity
  8
0
  6
Continuous
 62
     7
370
    15
100
AcDbLine
 10
1434.7516725979
 20
1145.9352695385
 30
0.0
 11
1434.7516725979
 21
1112.6383172173
 31
0.0
  0
LINE
  5
92
330
1F
100
AcDbEntity
  8
0
  6
Continuous
 62
     7
370
    15
100
AcDbLine
 10
635.5516725979
 20
1146.168206679
 30
0.0
 11
636.3516725979
 21
1146.168206679
 31
0.0
  0
LINE
  5
93
330
1F
100
AcDbEntity
  8
0
  6
Continuous
 62
     7
370
    15
100
AcDbLine
 10
635.5516725979
 20
1147.6158485809
 30
0.0
 11
635.5516725979
 21
1146.168206679
 31
0.0
  0
LINE
  5
94
330
1F
100
AcDbEntity
  8
0
  6
Continuous
 62
     7
370
    15
100
AcDbLine
 10
635.5516725979
 20
1147.6158485809
 30
0.0
 11
636.3516725979
 21
1147.6158485809
 31
0.0
  0
LINE
  5
95
330
1F
100
AcDbEntity
  8
0
  6
Continuous
 62
     7
370
    15
100
AcDbLine
 10
1435.5516725979
 20
1147.6158485809
 30
0.0
 11
1434.7516725979
 21
1147.6158485809
 31
0.0
  0
LINE
  5
96
330
1F
100
AcDbEntity
  8
0
  6
Continuous
 62
     7
370
    15
100
AcDbLine
 10
1435.5516725979
 20
1146.168206679
 30
0.0
 11
1434.7516725979
 21
1146.168206679
 31
0.0
  0
LINE
  5
97
330
1F
100
AcDbEntity
  8
0
  6
Continuous
 62
     7
370
    15
100
AcDbLine
 10
1435.5516725979
 20
1147.6158485809
 30
0.0
 11
1435.5516725979
 21
1146.168206679
 31
0.0
  0
LINE
  5
98
330
1F
100
AcDbEntity
  8
0
  6
Continuous
 62
     7
370
    15
100
AcDbLine
 10
635.5516725979
 20
1112.8712543579
 30
0.0
 11
636.3516725979
 21
1112.8712543579
 31
0.0
  0
LINE
  5
99
330
1F
100
AcDbEntity
  8
0
  6
Continuous
 62
     7
370
    15
100
AcDbLine
 10
635.5516725979
 20
1146.168206679
 30
0.0
 11
635.5516725979
 21
1112.8712543579
 31
0.0
  0
LINE
  5
9A
330
1F
100
AcDbEntity
  8
0
  6
Continuous
 62
     7
370
    15
100
AcDbLine
 10
1435.5516725979
 20
1112.8712543579
 30
0.0
 11
1434.7516725979
 21
1112.8712543579
 31
0.0
  0
LINE
  5
9B
330
1F
100
AcDbEntity
  8
0
  6
Continuous
 62
     7
370
    15
100
AcDbLine
 10
1435.5516725979
 20
1146.168206679
 30
0.0
 11
1435.5516725979
 21
1112.8712543579
 31
0.0
  0
LINE
  5
9C
330
1F
100
AcDbEntity
  8
0
  6
Continuous
 62
     7
370
    15
100
AcDbLine
 10
1434.7516725979
 20
1112.6383172173
 30
0.0
 11
1434.7516725979
 21
1093.5158485809
 31
0.0
  0
LINE
  5
9D
330
1F
100
AcDbEntity
  8
0
  6
Continuous
 62
     7
370
    15
100
AcDbLine
 10
1434.7516725979
 20
1093.5158485809
 30
0.0
 11
1430.041052086
 21
1093.5158485809
 31
0.0
  0
LINE
  5
9E
330
1F
100
AcDbEntity
  8
0
  6
Continuous
 62
     7
370
    15
100
AcDbLine
 10
641.0622931097
 20
1093.5158485809
 30
0.0
 11
636.3516725979
 21
1093.5158485809
 31
0.0
  0
LINE
  5
9F
330
1F
100
AcDbEntity
  8
0
  6
Continuous
 62
     7
370
    15
100
AcDbLine
 10
636.3516725979
 20
1112.6383172173
 30
0.0
 11
636.3516725979
 21
1093.5158485809
 31
0.0
  0
LINE
  5
A0
330
1F
100
AcDbEntity
  8
0
  6
Continuous
 62
     7
370
    15
100
AcDbLine
 10
635.5516725979
 20
1094.4158485809
 30
0.0
 11
636.3516725979
 21
1094.4158485809
 31
0.0
  0
LINE
  5
A1
330
1F
100
AcDbEntity
  8
0
  6
Continuous
 62
     7
370
    15
100
AcDbLine
 10
635.5516725979
 20
1112.8712543579
 30
0.0
 11
635.5516725979
 21
1094.4158485809
 31
0.0
  0
LINE
  5
A2
330
1F
100
AcDbEntity
  8
0
  6
Continuous
 62
     7
370
    15
100
AcDbLine
 10
1435.5516725979
 20
1094.4158485809
 30
0.0
 11
1434.7516725979
 21
1094.4158485809
 31
0.0
  0
LINE
  5
A3
330
1F
100
AcDbEntity
  8
0
  6
Continuous
 62
     7
370
    15
100
AcDbLine
 10
1435.5516725979
 20
1112.8712543579
 30
0.0
 11
1435.5516725979
 21
1094.4158485809
 31
0.0
  0
LWPOLYLINE
  5
A4
330
1F
100
AcDbEntity
  8
0
  6
Continuous
 62
     7
370
    15
100
AcDbPolyline
 90
        3
 70
   128
 43
0.0
 10
636.3516725979
 20
1148.0906562618
 10
636.1521036964
 20
1147.9154174823
 10
635.904616323
 20
1147.6158485809
  0
LWPOLYLINE
  5
A5
330
1F
100
AcDbEntity
  8
0
  6
Continuous
 62
     7
370
    15
100
AcDbPolyline
 90
        3
 70
   128
 43
0.0
 10
1435.1987288727
 20
1147.6158485809
 10
1434.9512414993
 20
1147.9154174823
 10
1434.7516725979
 20
1148.0906562618
  0
LWPOLYLINE
  5
A6
330
1F
100
AcDbEntity
  8
0
  6
Continuous
 62
     7
370
    15
100
AcDbPolyline
 90
        3
 70
   128
 43
0.0
 10
635.904616323
 20
1094.4158485809
 10
636.1521036964
 20
1094.1162796795
 10
636.3516725979
 20
1093.9410409
  0
LWPOLYLINE
  5
A7
330
1F
100
AcDbEntity
  8
0
  6
Continuous
 62
     7
370
    15
100
AcDbPolyline
 90
        3
 70
   128
 43
0.0
 10
1434.7516725979
 20
1093.9410409
 10
1434.9512414993
 20
1094.1162796795
 10
1435.1987288727
 20
1094.4158485809
  0
SPLINE
  5
A8
330
1F
100
AcDbEntity
  8
0
  6
Continuous
 62
     7
370
    15
100
AcDbSpline
210
0.0
220
0.0
230
1.0
 70
     8
 71
     3
 72
    13
 73
     9
 74
     0
 42
0.00000001
 43
0.00000001
 12
1.0
 22
0.0
 32
0.0
 13
1.0
 23
0.0
 33
0.0
 40
0.0
 40
0.0
 40
0.0
 40
0.0
 40
0.1695411050600376
 40
0.3386458383077952
 40
0.5184804584271157
 40
0.7277236211488665
 40
0.9924537768854024
 40
1.0
 40
1.0
 40
1.0
 40
1.0
 10
1316.782677852502
 20
1159.865848580919
 30
0.0
 10
1316.783380655897
 20
1159.890459728206
 30
0.0
 10
1316.784784453784
 20
1159.939618677605
 30
0.0
 10
1316.795422379476
 20
1160.005754470985
 30
0.0
 10
1316.811415043805
 20
1160.061426074089
 30
0.0
 10
1316.834291288885
 20
1160.104144853362
 30
0.0
 10
1316.852755888069
 20
1160.115730512972
 30
0.0
 10
1316.86304823071
 20
1160.115845396877
 30
0.0
 10
1316.863333486134
 20
1160.115848580919
 30
0.0
  0
LINE
  5
A9
330
1F
100
AcDbEntity
  8
0
  6
Continuous
 62
     7
370
    15
100
AcDbLine
 10
1310.4408131981
 20
1160.1158485809
 30
0.0
 11
1316.8633334861
 21
1160.1158485809
 31
0.0
  0
SPLINE
  5
AA
330
1F
100
AcDbEntity
  8
0
  6
Continuous
 62
     7
370
    15
100
AcDbSpline
210
0.0
220
0.0
230
1.0
 70
     8
 71
     3
 72
    13
 73
     9
 74
     0
 42
0.00000001
 43
0.00000001
 12
1.0
 22
0.0
 32
0.0
 13
1.0
 23
0.0
 33
0.0
 40
0.0
 40
0.0
 40
0.0
 40
0.0
 40
0.0075462231145234
 40
0.2722763788512814
 40
0.4815195415730616
 40
0.6613541616924996
 40
0.8304588949399018
 40
1.0
 40
1.0
 40
1.0
 40
1.0
 10
1316.863333486134
 20
1158.915848580919
 30
0.0
 10
1316.86304823071
 20
1158.915851764962
 30
0.0
 10
1316.852755888069
 20
1158.915966648865
 30
0.0
 10
1316.834291288885
 20
1158.927552308478
 30
0.0
 10
1316.811415043805
 20
1158.97027108775
 30
0.0
 10
1316.795422379476
 20
1159.025942690854
 30
0.0
 10
1316.784784453783
 20
1159.092078484234
 30
0.0
 10
1316.783380655897
 20
1159.141237433633
 30
0.0
 10
1316.782677852502
 20
1159.165848580919
 30
0.0
  0
LINE
  5
AB
330
1F
100
AcDbEntity
  8
0
  6
Continuous
 62
     7
370
    15
100
AcDbLine
 10
1316.8633334861
 20
1158.9158485809
 30
0.0
 11
1310.0955228482
 21
1158.9158485809
 31
0.0
  0
LINE
  5
AC
330
1F
100
AcDbEntity
  8
0
  6
Continuous
 62
     7
370
    15
100
AcDbLine
 10
1316.7826778525
 20
1159.8658485809
 30
0.0
 11
1316.7826778525
 21
1159.1658485809
 31
0.0
  0
SPLINE
  5
AD
330
1F
100
AcDbEntity
  8
0
  6
Continuous
 62
     7
370
    15
100
AcDbSpline
210
0.0
220
0.0
230
1.0
 70
     8
 71
     3
 72
    12
 73
     8
 74
     0
 42
0.00000001
 43
0.00000001
 12
1.0
 22
0.0
 32
0.0
 13
1.0
 23
0.0
 33
0.0
 40
0.0
 40
0.0
 40
0.0
 40
0.0
 40
0.2289440738516548
 40
0.4594214300241942
 40
0.6825355698157439
 40
0.8947175231628302
 40
1.0
 40
1.0
 40
1.0
 40
1.0
 10
1321.650799966659
 20
1158.915848580919
 30
0.0
 10
1321.772610881023
 20
1158.933183065497
 30
0.0
 10
1322.01704850078
 20
1158.967968127016
 30
0.0
 10
1322.336988262173
 20
1159.241837972828
 30
0.0
 10
1322.566434752667
 20
1159.638874507311
 30
0.0
 10
1322.669180962039
 20
1160.039750496664
 30
0.0
 10
1322.677919295294
 20
1160.284635889751
 30
0.0
 10
1322.680817236861
 20
1160.365848580919
 30
0.0
  0
SPLINE
  5
AE
330
1F
100
AcDbEntity
  8
0
  6
Continuous
 62
     7
370
    15
100
AcDbSpline
210
0.0
220
0.0
230
1.0
 70
     8
 71
     3
 72
    12
 73
     8
 74
     0
 42
0.00000001
 43
0.00000001
 12
1.0
 22
0.0
 32
0.0
 13
1.0
 23
0.0
 33
0.0
 40
0.0
 40
0.0
 40
0.0
 40
0.0
 40
0.2028202020467332
 40
0.4049472449426848
 40
0.6098312030740695
 40
0.8226939241827304
 40
1.0
 40
1.0
 40
1.0
 40
1.0
 10
1317.98500866534
 20
1160.365848580919
 30
0.0
 10
1317.975557000417
 20
1160.208707740384
 30
0.0
 10
1317.956685972621
 20
1159.894963104491
 30
0.0
 10
1317.810339864014
 20
1159.474566854022
 30
0.0
 10
1317.59370323
 20
1159.147488318582
 30
0.0
 10
1317.334475169605
 20
1158.949279052316
 30
0.0
 10
1317.152692856721
 20
1158.926293846394
 30
0.0
 10
1317.070084742478
 20
1158.915848580919
 30
0.0
  0
LINE
  5
AF
330
1F
100
AcDbEntity
  8
0
  6
Continuous
 62
     7
370
    15
100
AcDbLine
 10
1317.9850086653
 20
1160.3658485809
 30
0.0
 11
1322.6808172369
 21
1160.3658485809
 31
0.0
  0
LINE
  5
B0
330
1F
100
AcDbEntity
  8
0
  6
Continuous
 62
     7
370
    15
100
AcDbLine
 10
1321.6507999667
 20
1158.9158485809
 30
0.0
 11
1317.0700847425
 21
1158.9158485809
 31
0.0
  0
LINE
  5
B1
330
1F
100
AcDbEntity
  8
0
  6
Continuous
 62
     7
370
    15
100
AcDbLine
 10
1322.6808172369
 20
1160.3658485809
 30
0.0
 11
1322.6808172369
 21
1165.4658485809
 31
0.0
  0
LINE
  5
B2
330
1F
100
AcDbEntity
  8
0
  6
Continuous
 62
     7
370
    15
100
AcDbLine
 10
1317.9850086653
 20
1165.4658485809
 30
0.0
 11
1317.9850086653
 21
1160.3658485809
 31
0.0
  0
LINE
  5
B3
330
1F
100
AcDbEntity
  8
0
  6
Continuous
 62
     7
370
    15
100
AcDbLine
 10
1322.6808172369
 20
1165.4658485809
 30
0.0
 11
1317.9850086653
 21
1165.4658485809
 31
0.0
  0
LWPOLYLINE
  5
B4
330
1F
100
AcDbEntity
  8
0
  6
Continuous
 62
     7
370
    15
100
AcDbPolyline
 90
        9
 70
   128
 43
0.0
 10
1317.9850086653
 20
1165.4658485809
 10
1317.9831562646
 20
1165.5146211614
 10
1317.9776702492
 20
1165.561519439
 10
1317.9687614435
 20
1165.6047411392
 10
1317.956772208
 20
1165.6426252762
 10
1317.9421632822
 20
1165.673715984
 10
1317.9254960791
 20
1165.696818464
 10
1317.9074111098
 20
1165.711044901
 10
1317.8886033696
 20
1165.7158485809
  0
LINE
  5
B5
330
1F
100
AcDbEntity
  8
0
  6
Continuous
 62
     7
370
    15
100
AcDbLine
 10
1317.8886033696
 20
1165.7158485809
 30
0.0
 11
1322.4693185937
 21
1165.7158485809
 31
0.0
  0
ARC
  5
B6
330
1F
100
AcDbEntity
  8
0
  6
Continuous
 62
     7
370
    15
100
AcDbCircle
 10
1322.448315712
 20
1165.4836169049
 30
0.0
 40
0.2331794853688626
100
AcDbArc
 50
355.6298138039
 51
84.8322658057
  0
SPLINE
  5
B7
330
1F
100
AcDbEntity
  8
0
  6
Continuous
 62
     7
370
    15
100
AcDbSpline
210
0.0
220
0.0
230
1.0
 70
     8
 71
     3
 72
    12
 73
     8
 74
     0
 42
0.00000001
 43
0.00000001
 12
1.0
 22
0.0
 32
0.0
 13
1.0
 23
0.0
 33
0.0
 40
0.0
 40
0.0
 40
0.0
 40
0.0
 40
0.1789601577903786
 40
0.3929009169381299
 40
0.597697617281255
 40
0.7987833678438155
 40
0.9999999999999999
 40
0.9999999999999999
 40
0.9999999999999999
 40
0.9999999999999999
 10
1316.879221608138
 20
1159.165848580919
 30
0.0
 10
1316.953791775097
 20
1159.174460550773
 30
0.0
 10
1317.117508030919
 20
1159.193367836585
 30
0.0
 10
1317.349437795951
 20
1159.356903861737
 30
0.0
 10
1317.542533276953
 20
1159.627476173503
 30
0.0
 10
1317.672594349828
 20
1159.975606293063
 30
0.0
 10
1317.689356455682
 20
1160.235739608456
 30
0.0
 10
1317.697740235228
 20
1160.365848580919
 30
0.0
  0
LINE
  5
B8
330
1F
100
AcDbEntity
  8
0
  6
Continuous
 62
     7
370
    15
100
AcDbLine
 10
1317.6977402352
 20
1160.3658485809
 30
0.0
 11
1317.9850086653
 21
1160.3658485809
 31
0.0
  0
ARC
  5
B9
330
1F
100
AcDbEntity
  8
0
  6
Continuous
 62
     7
370
    15
100
AcDbCircle
 10
1317.1042339039
 20
1159.139777317
 30
0.0
 40
0.2265176462367208
100
AcDbArc
 50
173.3908406061
 51
261.3291912467
  0
ARC
  5
BA
330
1F
100
AcDbEntity
  8
0
  6
Continuous
 62
     7
370
    15
100
AcDbCircle
 10
1317.922752531
 20
1165.4919198449
 30
0.0
 40
0.2265176462361217
100
AcDbArc
 50
98.670808753
 51
186.6091593941
  0
LINE
  5
BB
330
1F
100
AcDbEntity
  8
0
  6
Continuous
 62
     7
370
    15
100
AcDbLine
 10
1317.6977402352
 20
1165.4658485809
 30
0.0
 11
1317.9850086653
 21
1165.4658485809
 31
0.0
  0
LINE
  5
BC
330
1F
100
AcDbEntity
  8
0
  6
Continuous
 62
     7
370
    15
100
AcDbLine
 10
1317.6977402352
 20
1160.3658485809
 30
0.0
 11
1317.6977402352
 21
1165.4658485809
 31
0.0
  0
LINE
  5
BD
330
1F
100
AcDbEntity
  8
0
  6
Continuous
 62
     7
370
    15
100
AcDbLine
 10
1317.2217612872
 20
1165.4658485809
 30
0.0
 11
1317.2217612872
 21
1160.3658485809
 31
0.0
  0
LINE
  5
BE
330
1F
100
AcDbEntity
  8
0
  6
Continuous
 62
     7
370
    15
100
AcDbLine
 10
1317.6977402352
 20
1165.4658485809
 30
0.0
 11
1317.2217612872
 21
1165.4658485809
 31
0.0
  0
LINE
  5
BF
330
1F
100
AcDbEntity
  8
0
  6
Continuous
 62
     7
370
    15
100
AcDbLine
 10
1316.7826778525
 20
1159.1658485809
 30
0.0
 11
1316.8792216081
 21
1159.1658485809
 31
0.0
  0
LINE
  5
C0
330
1F
100
AcDbEntity
  8
0
  6
Continuous
 62
     7
370
    15
100
AcDbLine
 10
1316.8792216081
 20
1159.8658485809
 30
0.0
 11
1316.7826778525
 21
1159.8658485809
 31
0.0
  0
SPLINE
  5
C1
330
1F
100
AcDbEntity
  8
0
  6
Continuous
 62
     7
370
    15
100
AcDbSpline
210
0.0
220
0.0
230
1.0
 70
     8
 71
     3
 72
    12
 73
     8
 74
     0
 42
0.00000001
 43
0.00000001
 12
1.0
 22
0.0
 32
0.0
 13
1.0
 23
0.0
 33
0.0
 40
0.0
 40
0.0
 40
0.0
 40
0.0
 40
0.1818603118645285
 40
0.3964966430176411
 40
0.6005836871107084
 40
0.8002123703305012
 40
1.0
 40
1.0
 40
1.0
 40
1.0
 10
1316.879221608138
 20
1159.865848580919
 30
0.0
 10
1316.910861081028
 20
1159.869566332513
 30
0.0
 10
1316.979842293361
 20
1159.877671872482
 30
0.0
 10
1317.076978640768
 20
1159.946826571489
 30
0.0
 10
1317.157275469699
 20
1160.059665978442
 30
0.0
 10
1317.211300826076
 20
1160.204087079188
 30
0.0
 10
1317.218273541882
 20
1160.311913777245
 30
0.0
 10
1317.22176128717
 20
1160.365848580919
 30
0.0
  0
ARC
  5
C2
330
1F
100
AcDbEntity
  8
0
  6
Continuous
 62
     7
370
    15
100
AcDbCircle
 10
1317.446773583
 20
1165.4919198449
 30
0.0
 40
0.2265176462354468
100
AcDbArc
 50
98.6708087528
 51
186.6091593941
  0
LINE
  5
C3
330
1F
100
AcDbEntity
  8
0
  6
Continuous
 62
     7
370
    15
100
AcDbLine
 10
1317.4126244215
 20
1165.7158485809
 30
0.0
 11
1317.8886033696
 21
1165.7158485809
 31
0.0
  0
ARC
  5
C4
330
1F
100
AcDbEntity
  8
0
  6
Continuous
 62
     7
370
    15
100
AcDbCircle
 10
1317.1042339039
 20
1159.8919198449
 30
0.0
 40
0.2265176462371463
100
AcDbArc
 50
98.6708087534
 51
186.6091593938
  0
LINE
  5
C5
330
1F
100
AcDbEntity
  8
0
  6
Continuous
 62
     7
370
    15
100
AcDbLine
 10
1316.8633334861
 20
1160.1158485809
 30
0.0
 11
1317.0700847425
 21
1160.1158485809
 31
0.0
  0
LINE
  5
C6
330
1F
100
AcDbEntity
  8
0
  6
Continuous
 62
     7
370
    15
100
AcDbLine
 10
1317.0700847425
 20
1158.9158485809
 30
0.0
 11
1316.8633334861
 21
1158.9158485809
 31
0.0
  0
LINE
  5
C7
330
1F
100
AcDbEntity
  8
0
  6
Continuous
 62
     7
370
    15
100
AcDbLine
 10
1322.6808172369
 20
1160.3658485809
 30
0.0
 11
1322.7193185937
 21
1160.3658485809
 31
0.0
  0
LINE
  5
C8
330
1F
100
AcDbEntity
  8
0
  6
Continuous
 62
     7
370
    15
100
AcDbLine
 10
1322.5016725979
 20
1158.9158485809
 30
0.0
 11
1321.6507999667
 21
1158.9158485809
 31
0.0
  0
LINE
  5
C9
330
1F
100
AcDbEntity
  8
0
  6
Continuous
 62
     7
370
    15
100
AcDbLine
 10
1305.9191424157
 20
1165.4658485809
 30
0.0
 11
1305.4431634677
 21
1165.4658485809
 31
0.0
  0
LINE
  5
CA
330
1F
100
AcDbEntity
  8
0
  6
Continuous
 62
     7
370
    15
100
AcDbLine
 10
1306.3246452
 20
1165.4658485809
 30
0.0
 11
1305.9191424157
 21
1165.4658485809
 31
0.0
  0
ARC
  5
CB
330
1F
100
AcDbEntity
  8
0
  6
Continuous
 62
     7
370
    15
100
AcDbCircle
 10
1306.1441547115
 20
1165.4919198449
 30
0.0
 40
0.2265176462356962
100
AcDbArc
 50
98.670808753
 51
186.6091593941
  0
ARC
  5
CC
330
1F
100
AcDbEntity
  8
0
  6
Continuous
 62
     7
370
    15
100
AcDbCircle
 10
1306.0908690337
 20
1165.4822784016
 30
0.0
 40
0.2343528001295418
100
AcDbArc
 50
355.9798550466
 51
85.3161909111
  0
LINE
  5
CD
330
1F
100
AcDbEntity
  8
0
  6
Continuous
 62
     7
370
    15
100
AcDbLine
 10
1306.1100055501
 20
1165.7158485809
 30
0.0
 11
1308.3218845615
 21
1165.7158485809
 31
0.0
  0
LINE
  5
CE
330
1F
100
AcDbEntity
  8
0
  6
Continuous
 62
     7
370
    15
100
AcDbLine
 10
1305.634026602
 20
1165.7158485809
 30
0.0
 11
1306.1100055501
 21
1165.7158485809
 31
0.0
  0
ARC
  5
CF
330
1F
100
AcDbEntity
  8
0
  6
Continuous
 62
     7
370
    15
100
AcDbCircle
 10
1305.6681757635
 20
1165.4919198449
 30
0.0
 40
0.2265176462357744
100
AcDbArc
 50
98.670808753
 51
186.609159394
  0
SPLINE
  5
D0
330
1F
100
AcDbEntity
  8
0
  6
Continuous
 62
     7
370
    15
100
AcDbSpline
210
0.0
220
0.0
230
1.0
 70
     8
 71
     3
 72
    13
 73
     9
 74
     0
 42
0.00000001
 43
0.00000001
 12
1.0
 22
0.0
 32
0.0
 13
1.0
 23
0.0
 33
0.0
 40
0.0
 40
0.0
 40
0.0
 40
0.0
 40
0.1695411050600982
 40
0.338645838307614
 40
0.5184804584266692
 40
0.7277236211486195
 40
0.9924537768854708
 40
1.0
 40
1.0
 40
1.0
 40
1.0
 10
1310.508077054645
 20
1161.065848580919
 30
0.0
 10
1310.507627063409
 20
1161.090459728206
 30
0.0
 10
1310.506728239143
 20
1161.139618677604
 30
0.0
 10
1310.499929097015
 20
1161.205754470985
 30
0.0
 10
1310.489743405403
 20
1161.261426074089
 30
0.0
 10
1310.475245890625
 20
1161.304144853362
 30
0.0
 10
1310.463630932198
 20
1161.315730512973
 30
0.0
 10
1310.457187707007
 20
1161.315845396877
 30
0.0
 10
1310.45700913105
 20
1161.315848580919
 30
0.0
  0
LINE
  5
D1
330
1F
100
AcDbEntity
  8
0
  6
Continuous
 62
     7
370
    15
100
AcDbLine
 10
1310.4570091311
 20
1161.3158485809
 30
0.0
 11
1317.0516725979
 21
1161.3158485809
 31
0.0
  0
SPLINE
  5
D2
330
1F
100
AcDbEntity
  8
0
  6
Continuous
 62
     7
370
    15
100
AcDbSpline
210
0.0
220
0.0
230
1.0
 70
     8
 71
     3
 72
    13
 73
     9
 74
     0
 42
0.00000001
 43
0.00000001
 12
1.0
 22
0.0
 32
0.0
 13
1.0
 23
0.0
 33
0.0
 40
0.0
 40
0.0
 40
0.0
 40
0.0
 40
0.007546223114551
 40
0.272276378851588
 40
0.4815195415734723
 40
0.6613541616924622
 40
0.8304588949399108
 40
0.9999999999999999
 40
0.9999999999999999
 40
0.9999999999999999
 40
0.9999999999999999
 10
1310.45700913105
 20
1160.115848580919
 30
0.0
 10
1310.457187707007
 20
1160.115851764962
 30
0.0
 10
1310.463630932195
 20
1160.115966648864
 30
0.0
 10
1310.475245890626
 20
1160.127552308478
 30
0.0
 10
1310.489743405403
 20
1160.170271087749
 30
0.0
 10
1310.499929097015
 20
1160.225942690853
 30
0.0
 10
1310.506728239142
 20
1160.292078484234
 30
0.0
 10
1310.507627063409
 20
1160.341237433632
 30
0.0
 10
1310.508077054646
 20
1160.365848580919
 30
0.0
  0
LINE
  5
D3
330
1F
100
AcDbEntity
  8
0
  6
Continuous
 62
     7
370
    15
100
AcDbLine
 10
1316.874914065
 20
1160.1158485809
 30
0.0
 11
1310.4570091311
 21
1160.1158485809
 31
0.0
  0
LINE
  5
D4
330
1F
100
AcDbEntity
  8
0
  6
Continuous
 62
     7
370
    15
100
AcDbLine
 10
1310.5080770546
 20
1160.3658485809
 30
0.0
 11
1310.5080770546
 21
1161.0658485809
 31
0.0
  0
SPLINE
  5
D5
330
1F
100
AcDbEntity
  8
0
  6
Continuous
 62
     7
370
    15
100
AcDbSpline
210
0.0
220
0.0
230
1.0
 70
     8
 71
     3
 72
    12
 73
     8
 74
     0
 42
0.00000001
 43
0.00000001
 12
1.0
 22
0.0
 32
0.0
 13
1.0
 23
0.0
 33
0.0
 40
0.0
 40
0.0
 40
0.0
 40
0.0
 40
0.2028202020467033
 40
0.4049472449427146
 40
0.6098312030741209
 40
0.8226939241827481
 40
1.0
 40
1.0
 40
1.0
 40
1.0
 10
1309.196653999699
 20
1159.865848580919
 30
0.0
 10
1309.207280949936
 20
1160.022989421455
 30
0.0
 10
1309.228498531701
 20
1160.336734057347
 30
0.0
 10
1309.393081785714
 20
1160.757130307817
 30
0.0
 10
1309.636853855551
 20
1161.084208843257
 30
0.0
 10
1309.928757092438
 20
1161.282418109522
 30
0.0
 10
1310.133710088606
 20
1161.305403315444
 30
0.0
 10
1310.226847755596
 20
1161.315848580919
 30
0.0
  0
LINE
  5
D6
330
1F
100
AcDbEntity
  8
0
  6
Continuous
 62
     7
370
    15
100
AcDbLine
 10
1309.1966539997
 20
1159.8658485809
 30
0.0
 11
1304.9217805859
 21
1159.8658485809
 31
0.0
  0
SPLINE
  5
D7
330
1F
100
AcDbEntity
  8
0
  6
Continuous
 62
     7
370
    15
100
AcDbSpline
210
0.0
220
0.0
230
1.0
 70
     8
 71
     3
 72
    12
 73
     8
 74
     0
 42
0.00000001
 43
0.00000001
 12
1.0
 22
0.0
 32
0.0
 13
1.0
 23
0.0
 33
0.0
 40
0.0
 40
0.0
 40
0.0
 40
0.0
 40
0.2289440738515655
 40
0.4594214300241378
 40
0.6825355698157385
 40
0.8947175231628774
 40
1.0
 40
1.0
 40
1.0
 40
1.0
 10
1306.056750650969
 20
1161.315848580919
 30
0.0
 10
1305.922658634349
 20
1161.298514096341
 30
0.0
 10
1305.653576561187
 20
1161.263729034822
 30
0.0
 10
1305.300969505745
 20
1160.98985918901
 30
0.0
 10
1305.047959937078
 20
1160.592822654527
 30
0.0
 10
1304.934617092212
 20
1160.191946665175
 30
0.0
 10
1304.924977437632
 20
1159.947061272087
 30
0.0
 10
1304.921780585911
 20
1159.865848580919
 30
0.0
  0
LINE
  5
D8
330
1F
100
AcDbEntity
  8
0
  6
Continuous
 62
     7
370
    15
100
AcDbLine
 10
1306.056750651
 20
1161.3158485809
 30
0.0
 11
1310.2268477556
 21
1161.3158485809
 31
0.0
  0
LINE
  5
D9
330
1F
100
AcDbEntity
  8
0
  6
Continuous
 62
     7
370
    15
100
AcDbLine
 10
1309.1966539997
 20
1154.7658485809
 30
0.0
 11
1309.1966539997
 21
1159.8658485809
 31
0.0
  0
LINE
  5
DA
330
1F
100
AcDbEntity
  8
0
  6
Continuous
 62
     7
370
    15
100
AcDbLine
 10
1304.9217805859
 20
1154.7658485809
 30
0.0
 11
1309.1966539997
 21
1154.7658485809
 31
0.0
  0
LINE
  5
DB
330
1F
100
AcDbEntity
  8
0
  6
Continuous
 62
     7
370
    15
100
AcDbLine
 10
1304.9217805859
 20
1159.8658485809
 30
0.0
 11
1304.9217805859
 21
1154.7658485809
 31
0.0
  0
LINE
  5
DC
330
1F
100
AcDbEntity
  8
0
  6
Continuous
 62
     7
370
    15
100
AcDbLine
 10
1309.3156495536
 20
1154.5158485809
 30
0.0
 11
1305.1455524489
 21
1154.5158485809
 31
0.0
  0
ARC
  5
DD
330
1F
100
AcDbEntity
  8
0
  6
Continuous
 62
     7
370
    15
100
AcDbCircle
 10
1305.1594350626
 20
1154.7534224276
 30
0.0
 40
0.2379791158743345
100
AcDbArc
 50
177.0069219839
 51
266.65572755
  0
LWPOLYLINE
  5
DE
330
1F
100
AcDbEntity
  8
0
  6
Continuous
 62
     7
370
    15
100
AcDbPolyline
 90
        9
 70
   128
 43
0.0
 10
1309.3156495536
 20
1154.5158485809
 10
1309.2924346727
 20
1154.5206522608
 10
1309.2701119266
 20
1154.5348786978
 10
1309.249539166
 20
1154.5579811778
 10
1309.2315069905
 20
1154.5890718856
 10
1309.2167083665
 20
1154.6269560227
 10
1309.2057119969
 20
1154.6701777228
 10
1309.1989404659
 20
1154.7170760004
 10
1309.1966539997
 20
1154.7658485809
  0
SPLINE
  5
DF
330
1F
100
AcDbEntity
  8
0
  6
Continuous
 62
     7
370
    15
100
AcDbSpline
210
0.0
220
0.0
230
1.0
 70
     8
 71
     3
 72
    12
 73
     8
 74
     0
 42
0.00000001
 43
0.00000001
 12
1.0
 22
0.0
 32
0.0
 13
1.0
 23
0.0
 33
0.0
 40
0.0
 40
0.0
 40
0.0
 40
0.0
 40
0.1789601577905155
 40
0.3929009169381857
 40
0.5976976172813047
 40
0.7987833678438431
 40
1.0
 40
1.0
 40
1.0
 40
1.0
 10
1310.400601801622
 20
1161.065848580919
 30
0.0
 10
1310.31758817211
 20
1161.057236611065
 30
0.0
 10
1310.135334582505
 20
1161.038329325253
 30
0.0
 10
1309.877143775482
 20
1160.874793300102
 30
0.0
 10
1309.662184397303
 20
1160.604220988336
 30
0.0
 10
1309.517396714
 20
1160.256090868776
 30
0.0
 10
1309.498736661302
 20
1159.995957553383
 30
0.0
 10
1309.489403599602
 20
1159.865848580919
 30
0.0
  0
LINE
  5
E0
330
1F
100
AcDbEntity
  8
0
  6
Continuous
 62
     7
370
    15
100
AcDbLine
 10
1309.4894035996
 20
1159.8658485809
 30
0.0
 11
1309.1966539997
 21
1159.8658485809
 31
0.0
  0
ARC
  5
E1
330
1F
100
AcDbEntity
  8
0
  6
Continuous
 62
     7
370
    15
100
AcDbCircle
 10
1310.1803603036
 20
1161.0981581124
 30
0.0
 40
0.2225987944103281
100
AcDbArc
 50
351.6542123667
 51
77.9456391699
  0
LINE
  5
E2
330
1F
100
AcDbEntity
  8
0
  6
Continuous
 62
     7
370
    15
100
AcDbLine
 10
1309.4894035996
 20
1159.8658485809
 30
0.0
 11
1309.4894035996
 21
1154.7658485809
 31
0.0
  0
LINE
  5
E3
330
1F
100
AcDbEntity
  8
0
  6
Continuous
 62
     7
370
    15
100
AcDbLine
 10
1309.4894035996
 20
1154.7658485809
 30
0.0
 11
1309.1966539997
 21
1154.7658485809
 31
0.0
  0
ARC
  5
E4
330
1F
100
AcDbEntity
  8
0
  6
Continuous
 62
     7
370
    15
100
AcDbCircle
 10
1309.2691621016
 20
1154.7335390494
 30
0.0
 40
0.2225987944105201
100
AcDbArc
 50
282.0543608303
 51
8.3457876332
  0
LINE
  5
E5
330
1F
100
AcDbEntity
  8
0
  6
Continuous
 62
     7
370
    15
100
AcDbLine
 10
1310.0192768943
 20
1154.7658485809
 30
0.0
 11
1310.0192768943
 21
1159.8658485809
 31
0.0
  0
LINE
  5
E6
330
1F
100
AcDbEntity
  8
0
  6
Continuous
 62
     7
370
    15
100
AcDbLine
 10
1309.4894035996
 20
1154.7658485809
 30
0.0
 11
1310.0192768943
 21
1154.7658485809
 31
0.0
  0
LINE
  5
E7
330
1F
100
AcDbEntity
  8
0
  6
Continuous
 62
     7
370
    15
100
AcDbLine
 10
1310.5080770546
 20
1161.0658485809
 30
0.0
 11
1310.4006018016
 21
1161.0658485809
 31
0.0
  0
LINE
  5
E8
330
1F
100
AcDbEntity
  8
0
  6
Continuous
 62
     7
370
    15
100
AcDbLine
 10
1310.4006018016
 20
1160.3658485809
 30
0.0
 11
1310.5080770546
 21
1160.3658485809
 31
0.0
  0
SPLINE
  5
E9
330
1F
100
AcDbEntity
  8
0
  6
Continuous
 62
     7
370
    15
100
AcDbSpline
210
0.0
220
0.0
230
1.0
 70
     8
 71
     3
 72
    12
 73
     8
 74
     0
 42
0.00000001
 43
0.00000001
 12
1.0
 22
0.0
 32
0.0
 13
1.0
 23
0.0
 33
0.0
 40
0.0
 40
0.0
 40
0.0
 40
0.0
 40
0.1818603118645831
 40
0.3964966430180821
 40
0.6005836871111132
 40
0.8002123703308462
 40
1.0
 40
1.0
 40
1.0
 40
1.0
 10
1310.400601801622
 20
1160.365848580919
 30
0.0
 10
1310.365379841051
 20
1160.362130829325
 30
0.0
 10
1310.288587994694
 20
1160.354025289357
 30
0.0
 10
1310.180453051665
 20
1160.28487059035
 30
0.0
 10
1310.091064339269
 20
1160.172031183396
 30
0.0
 10
1310.030921776881
 20
1160.027610082651
 30
0.0
 10
1310.023159551447
 20
1159.919783384593
 30
0.0
 10
1310.019276894253
 20
1159.865848580919
 30
0.0
  0
ARC
  5
EA
330
1F
100
AcDbEntity
  8
0
  6
Continuous
 62
     7
370
    15
100
AcDbCircle
 10
1309.7990353962
 20
1154.7335390494
 30
0.0
 40
0.2225987944105201
100
AcDbArc
 50
282.0543608302
 51
8.3457876332
  0
LINE
  5
EB
330
1F
100
AcDbEntity
  8
0
  6
Continuous
 62
     7
370
    15
100
AcDbLine
 10
1309.8455228482
 20
1154.5158485809
 30
0.0
 11
1309.3156495536
 21
1154.5158485809
 31
0.0
  0
ARC
  5
EC
330
1F
100
AcDbEntity
  8
0
  6
Continuous
 62
     7
370
    15
100
AcDbCircle
 10
1310.1803603036
 20
1160.3335390494
 30
0.0
 40
0.222598794410712
100
AcDbArc
 50
282.0543608301
 51
8.3457876332
  0
LINE
  5
ED
330
1F
100
AcDbEntity
  8
0
  6
Continuous
 62
     7
370
    15
100
AcDbLine
 10
1310.2268477556
 20
1161.3158485809
 30
0.0
 11
1310.4570091311
 21
1161.3158485809
 31
0.0
  0
LINE
  5
EE
330
1F
100
AcDbEntity
  8
0
  6
Continuous
 62
     7
370
    15
100
AcDbLine
 10
1310.4570091311
 20
1160.1158485809
 30
0.0
 11
1310.2268477556
 21
1160.1158485809
 31
0.0
  0
LINE
  5
EF
330
1F
100
AcDbEntity
  8
0
  6
Continuous
 62
     7
370
    15
100
AcDbLine
 10
1304.9217805859
 20
1159.8658485809
 30
0.0
 11
1304.8955524489
 21
1159.8658485809
 31
0.0
  0
LINE
  5
F0
330
1F
100
AcDbEntity
  8
0
  6
Continuous
 62
     7
370
    15
100
AcDbLine
 10
1305.6016725979
 20
1161.3158485809
 30
0.0
 11
1306.056750651
 21
1161.3158485809
 31
0.0
  0
LINE
  5
F1
330
1F
100
AcDbEntity
  8
0
  6
Continuous
 62
     7
370
    15
100
AcDbLine
 10
1323.1315467928
 20
1154.7658485809
 30
0.0
 11
1323.1315467928
 21
1159.8658485809
 31
0.0
  0
LINE
  5
F2
330
1F
100
AcDbEntity
  8
0
  6
Continuous
 62
     7
370
    15
100
AcDbLine
 10
1322.6016734982
 20
1154.7658485809
 30
0.0
 11
1323.1315467928
 21
1154.7658485809
 31
0.0
  0
SPLINE
  5
F3
330
1F
100
AcDbEntity
  8
0
  6
Continuous
 62
     7
370
    15
100
AcDbSpline
210
0.0
220
0.0
230
1.0
 70
     8
 71
     3
 72
    11
 73
     7
 74
     0
 42
0.00000001
 43
0.00000001
 12
1.0
 22
0.0
 32
0.0
 13
1.0
 23
0.0
 33
0.0
 40
0.0
 40
0.0
 40
0.0
 40
0.0
 40
0.0449088511987476
 40
0.4391056468594715
 40
0.8139875175674192
 40
1.0
 40
1.0
 40
1.0
 40
1.0
 10
1322.751672597882
 20
1160.993022805619
 30
0.0
 10
1322.764652807255
 20
1160.983628298477
 30
0.0
 10
1322.8915695081
 20
1160.891771548078
 30
0.0
 10
1323.050711723833
 20
1160.582784069118
 30
0.0
 10
1323.169231242941
 20
1160.193027390554
 30
0.0
 10
1323.178493061855
 20
1159.947330419993
 30
0.0
 10
1323.181564609854
 20
1159.865848580919
 30
0.0
  0
LINE
  5
F4
330
1F
100
AcDbEntity
  8
0
  6
Continuous
 62
     7
370
    15
100
AcDbLine
 10
1322.201534402
 20
1154.7658485809
 30
0.0
 11
1322.6016734982
 21
1154.7658485809
 31
0.0
  0
ARC
  5
F5
330
1F
100
AcDbEntity
  8
0
  6
Continuous
 62
     7
370
    15
100
AcDbCircle
 10
1322.3814320002
 20
1154.7335390494
 30
0.0
 40
0.2225987944094943
100
AcDbArc
 50
282.05436083
 51
8.3457876334
  0
ARC
  5
F6
330
1F
100
AcDbEntity
  8
0
  6
Continuous
 62
     7
370
    15
100
AcDbCircle
 10
1322.4403427649
 20
1154.7545987718
 30
0.0
 40
0.2390731945683668
100
AcDbArc
 50
177.3028984186
 51
267.0213133887
  0
LINE
  5
F7
330
1F
100
AcDbEntity
  8
0
  6
Continuous
 62
     7
370
    15
100
AcDbLine
 10
1322.9577927468
 20
1154.5158485809
 30
0.0
 11
1322.4279194522
 21
1154.5158485809
 31
0.0
  0
ARC
  5
F8
330
1F
100
AcDbEntity
  8
0
  6
Continuous
 62
     7
370
    15
100
AcDbCircle
 10
1322.9113052948
 20
1154.7335390494
 30
0.0
 40
0.2225987944110206
100
AcDbArc
 50
282.0543608302
 51
8.345787633
  0
LINE
  5
F9
330
1F
100
AcDbEntity
  8
0
  6
Continuous
 62
     7
370
    15
100
AcDbLine
 10
1322.4279194522
 20
1154.5158485809
 30
0.0
 11
1319.6918578553
 21
1154.5158485809
 31
0.0
  0
LINE
  5
FA
330
1F
100
AcDbEntity
  8
0
  6
Continuous
 62
     7
370
    15
100
AcDbLine
 10
1316.3024438325
 20
1161.7624305683
 30
0.0
 11
1313.4375498143
 21
1161.3158485809
 31
0.0
  0
SPLINE
  5
FB
330
1F
100
AcDbEntity
  8
0
  6
Continuous
 62
     7
370
    15
100
AcDbSpline
210
0.0
220
0.0
230
1.0
 70
     8
 71
     3
 72
     9
 73
     5
 74
     0
 42
0.00000001
 43
0.00000001
 12
1.0
 22
0.0
 32
0.0
 13
1.0
 23
0.0
 33
0.0
 40
0.0
 40
0.0
 40
0.0
 40
0.0
 40
0.0702005767034437
 40
1.0
 40
1.0
 40
1.0
 40
1.0
 10
1313.437549814256
 20
1161.315848580919
 30
0.0
 10
1313.369634874625
 20
1161.316294697187
 30
0.0
 10
1312.402193539797
 20
1161.322649577567
 30
0.0
 10
1311.454147995965
 20
1161.550539059462
 30
0.0
 10
1310.572655796052
 20
1161.762430568304
 30
0.0
  0
LINE
  5
FC
330
1F
100
AcDbEntity
  8
0
  6
Continuous
 62
     7
370
    15
100
AcDbLine
 10
1310.5726557961
 20
1161.7624305683
 30
0.0
 11
1310.5726557961
 21
1166.0692665935
 31
0.0
  0
SPLINE
  5
FD
330
1F
100
AcDbEntity
  8
0
  6
Continuous
 62
     7
370
    15
100
AcDbSpline
210
0.0
220
0.0
230
1.0
 70
     8
 71
     3
 72
     9
 73
     5
 74
     0
 42
0.00000001
 43
0.00000001
 12
1.0
 22
0.0
 32
0.0
 13
1.0
 23
0.0
 33
0.0
 40
0.0
 40
0.0
 40
0.0
 40
0.0
 40
0.0702005767034435
 40
1.0
 40
1.0
 40
1.0
 40
1.0
 10
1313.437549814256
 20
1166.515848580919
 30
0.0
 10
1313.369634874625
 20
1166.515402464652
 30
0.0
 10
1312.402193539797
 20
1166.509047584271
 30
0.0
 10
1311.454147995965
 20
1166.281158102376
 30
0.0
 10
1310.572655796052
 20
1166.069266593534
 30
0.0
  0
LINE
  5
FE
330
1F
100
AcDbEntity
  8
0
  6
Continuous
 62
     7
370
    15
100
AcDbLine
 10
1316.3024438325
 20
1166.0692665935
 30
0.0
 11
1313.4375498143
 21
1166.5158485809
 31
0.0
  0
LINE
  5
FF
330
1F
100
AcDbEntity
  8
0
  6
Continuous
 62
     7
370
    15
100
AcDbLine
 10
1316.3024438325
 20
1161.7624305683
 30
0.0
 11
1316.3024438325
 21
1166.0692665935
 31
0.0
  0
LINE
  5
100
330
1F
100
AcDbEntity
  8
0
  6
Continuous
 62
     7
370
    15
100
AcDbLine
 10
1317.1626244215
 20
1161.4830903249
 30
0.0
 11
1316.3024438325
 21
1161.7624305683
 31
0.0
  0
SPLINE
  5
101
330
1F
100
AcDbEntity
  8
0
  6
Continuous
 62
     7
370
    15
100
AcDbSpline
210
0.0
220
0.0
230
1.0
 70
     8
 71
     3
 72
     9
 73
     5
 74
     0
 42
0.00000001
 43
0.00000001
 12
1.0
 22
0.0
 32
0.0
 13
1.0
 23
0.0
 33
0.0
 40
0.0
 40
0.0
 40
0.0
 40
0.0
 40
0.2686336050555664
 40
1.0
 40
1.0
 40
1.0
 40
1.0
 10
1318.041952233376
 20
1166.515848580919
 30
0.0
 10
1317.883782245088
 20
1166.509219628335
 30
0.0
 10
1317.294987748378
 20
1166.484543070898
 30
0.0
 10
1316.721715725301
 20
1166.244688307298
 30
0.0
 10
1316.302443832461
 20
1166.069266593534
 30
0.0
  0
LINE
  5
102
330
1F
100
AcDbEntity
  8
0
  6
Continuous
 62
     7
370
    15
100
AcDbLine
 10
1313.4375498143
 20
1166.5158485809
 30
0.0
 11
1318.0419522334
 21
1166.5158485809
 31
0.0
  0
LINE
  5
103
330
1F
100
AcDbEntity
  8
0
  6
Continuous
 62
     7
370
    15
100
AcDbLine
 10
1310.5726557961
 20
1166.0692665935
 30
0.0
 11
1309.4472701788
 21
1166.5158485809
 31
0.0
  0
LINE
  5
104
330
1F
100
AcDbEntity
  8
0
  6
Continuous
 62
     7
370
    15
100
AcDbLine
 10
1309.4472701788
 20
1166.5158485809
 30
0.0
 11
1313.4375498143
 21
1166.5158485809
 31
0.0
  0
LINE
  5
105
330
1F
100
AcDbEntity
  8
0
  6
Continuous
 62
     7
370
    15
100
AcDbLine
 10
1310.5726557961
 20
1161.7624305683
 30
0.0
 11
1309.4472701788
 21
1161.3158485809
 31
0.0
  0
SPLINE
  5
106
330
1F
100
AcDbEntity
  8
0
  6
Continuous
 62
     7
370
    15
100
AcDbSpline
210
0.0
220
0.0
230
1.0
 70
     8
 71
     3
 72
     9
 73
     5
 74
     0
 42
0.00000001
 43
0.00000001
 12
1.0
 22
0.0
 32
0.0
 13
1.0
 23
0.0
 33
0.0
 40
0.0
 40
0.0
 40
0.0
 40
0.0
 40
0.257551345103801
 40
1.0
 40
1.0
 40
1.0
 40
1.0
 10
1319.781460634291
 20
1166.069266593534
 30
0.0
 10
1319.635425881765
 20
1166.136681816309
 30
0.0
 10
1319.068413690594
 20
1166.398436313253
 30
0.0
 10
1318.479322325214
 20
1166.465819801045
 30
0.0
 10
1318.041952233376
 20
1166.515848580919
 30
0.0
  0
LINE
  5
107
330
1F
100
AcDbEntity
  8
0
  6
Continuous
 62
     7
370
    15
100
AcDbLine
 10
1319.7814606343
 20
1165.7158485809
 30
0.0
 11
1319.7814606343
 21
1166.0692665935
 31
0.0
  0
LINE
  5
108
330
1F
100
AcDbEntity
  8
0
  6
Continuous
 62
     7
370
    15
100
AcDbLine
 10
1308.620635426
 20
1161.6355009245
 30
0.0
 11
1308.3218845615
 21
1161.7624305683
 31
0.0
  0
LINE
  5
109
330
1F
100
AcDbEntity
  8
0
  6
Continuous
 62
     7
370
    15
100
AcDbLine
 10
1308.3218845615
 20
1161.7624305683
 30
0.0
 11
1308.3218845615
 21
1166.0692665935
 31
0.0
  0
SPLINE
  5
10A
330
1F
100
AcDbEntity
  8
0
  6
Continuous
 62
     7
370
    15
100
AcDbSpline
210
0.0
220
0.0
230
1.0
 70
     8
 71
     3
 72
     9
 73
     5
 74
     0
 42
0.00000001
 43
0.00000001
 12
1.0
 22
0.0
 32
0.0
 13
1.0
 23
0.0
 33
0.0
 40
0.0
 40
0.0
 40
0.0
 40
0.0
 40
0.0702005767034177
 40
1.0
 40
1.0
 40
1.0
 40
1.0
 10
1309.447270178763
 20
1166.515848580919
 30
0.0
 10
1309.420591880796
 20
1166.515402464652
 30
0.0
 10
1309.040562268229
 20
1166.509047584271
 30
0.0
 10
1308.668151696394
 20
1166.281158102376
 30
0.0
 10
1308.321884561473
 20
1166.069266593534
 30
0.0
  0
LINE
  5
10B
330
1F
100
AcDbEntity
  8
0
  6
Continuous
 62
     7
370
    15
100
AcDbLine
 10
1319.4827097698
 20
1166.1961962374
 30
0.0
 11
1319.7814606343
 21
1166.0692665935
 31
0.0
  0
LINE
  5
10C
330
1F
100
AcDbEntity
  8
0
  6
Continuous
 62
     7
370
    15
100
AcDbLine
 10
1318.0419522334
 20
1166.5158485809
 30
0.0
 11
1319.0516725979
 21
1166.5158485809
 31
0.0
  0
LINE
  5
10D
330
1F
100
AcDbEntity
  8
0
  6
Continuous
 62
     7
370
    15
100
AcDbLine
 10
1309.0516725979
 20
1166.5158485809
 30
0.0
 11
1309.4472701788
 21
1166.5158485809
 31
0.0
  0
LINE
  5
10E
330
1F
100
AcDbEntity
  8
0
  6
Continuous
 62
     7
370
    15
100
AcDbLine
 10
1317.9400501588
 20
1154.1624305683
 30
0.0
 11
1315.1199575301
 21
1153.7158485809
 31
0.0
  0
SPLINE
  5
10F
330
1F
100
AcDbEntity
  8
0
  6
Continuous
 62
     7
370
    15
100
AcDbSpline
210
0.0
220
0.0
230
1.0
 70
     8
 71
     3
 72
     9
 73
     5
 74
     0
 42
0.00000001
 43
0.00000001
 12
1.0
 22
0.0
 32
0.0
 13
1.0
 23
0.0
 33
0.0
 40
0.0
 40
0.0
 40
0.0
 40
0.0
 40
0.0702005767034345
 40
1.0
 40
1.0
 40
1.0
 40
1.0
 10
1315.119957530096
 20
1153.715848580919
 30
0.0
 10
1315.053104648482
 20
1153.716294697187
 30
0.0
 10
1314.100792220962
 20
1153.722649577567
 30
0.0
 10
1313.167572271863
 20
1153.950539059463
 30
0.0
 10
1312.299864901381
 20
1154.162430568304
 30
0.0
  0
LINE
  5
110
330
1F
100
AcDbEntity
  8
0
  6
Continuous
 62
     7
370
    15
100
AcDbLine
 10
1312.2998649014
 20
1154.1624305683
 30
0.0
 11
1312.2998649014
 21
1158.4692665935
 31
0.0
  0
SPLINE
  5
111
330
1F
100
AcDbEntity
  8
0
  6
Continuous
 62
     7
370
    15
100
AcDbSpline
210
0.0
220
0.0
230
1.0
 70
     8
 71
     3
 72
     9
 73
     5
 74
     0
 42
0.00000001
 43
0.00000001
 12
1.0
 22
0.0
 32
0.0
 13
1.0
 23
0.0
 33
0.0
 40
0.0
 40
0.0
 40
0.0
 40
0.0
 40
0.0702005767034343
 40
1.0
 40
1.0
 40
1.0
 40
1.0
 10
1315.119957530096
 20
1158.915848580919
 30
0.0
 10
1315.053104648482
 20
1158.915402464651
 30
0.0
 10
1314.100792220962
 20
1158.909047584271
 30
0.0
 10
1313.167572271863
 20
1158.681158102375
 30
0.0
 10
1312.299864901381
 20
1158.469266593534
 30
0.0
  0
LINE
  5
112
330
1F
100
AcDbEntity
  8
0
  6
Continuous
 62
     7
370
    15
100
AcDbLine
 10
1317.9400501588
 20
1158.4692665935
 30
0.0
 11
1315.1199575301
 21
1158.9158485809
 31
0.0
  0
LINE
  5
113
330
1F
100
AcDbEntity
  8
0
  6
Continuous
 62
     7
370
    15
100
AcDbLine
 10
1317.9400501588
 20
1154.1624305683
 30
0.0
 11
1317.9400501588
 21
1158.4692665935
 31
0.0
  0
LINE
  5
114
330
1F
100
AcDbEntity
  8
0
  6
Continuous
 62
     7
370
    15
100
AcDbLine
 10
1312.2998649014
 20
1154.1624305683
 30
0.0
 11
1310.3556761209
 21
1153.7158485809
 31
0.0
  0
LINE
  5
115
330
1F
100
AcDbEntity
  8
0
  6
Continuous
 62
     7
370
    15
100
AcDbLine
 10
1315.1199575301
 20
1153.7158485809
 30
0.0
 11
1310.3556761209
 21
1153.7158485809
 31
0.0
  0
LINE
  5
116
330
1F
100
AcDbEntity
  8
0
  6
Continuous
 62
     7
370
    15
100
AcDbLine
 10
1312.2998649014
 20
1158.4692665935
 30
0.0
 11
1310.3556761209
 21
1158.9158485809
 31
0.0
  0
SPLINE
  5
117
330
1F
100
AcDbEntity
  8
0
  6
Continuous
 62
     7
370
    15
100
AcDbSpline
210
0.0
220
0.0
230
1.0
 70
     8
 71
     3
 72
     9
 73
     5
 74
     0
 42
0.00000001
 43
0.00000001
 12
1.0
 22
0.0
 32
0.0
 13
1.0
 23
0.0
 33
0.0
 40
0.0
 40
0.0
 40
0.0
 40
0.0
 40
0.2686336050555645
 40
0.9999999999999999
 40
0.9999999999999999
 40
0.9999999999999999
 40
0.9999999999999999
 10
1318.815954007062
 20
1153.715848580919
 30
0.0
 10
1318.736309837856
 20
1153.722477533504
 30
0.0
 10
1318.439831036588
 20
1153.74715409094
 30
0.0
 10
1318.151168348415
 20
1153.98700885454
 30
0.0
 10
1317.940050158812
 20
1154.162430568304
 30
0.0
  0
LINE
  5
118
330
1F
100
AcDbEntity
  8
0
  6
Continuous
 62
     7
370
    15
100
AcDbLine
 10
1318.8159540071
 20
1153.7158485809
 30
0.0
 11
1315.1199575301
 21
1153.7158485809
 31
0.0
  0
SPLINE
  5
119
330
1F
100
AcDbEntity
  8
0
  6
Continuous
 62
     7
370
    15
100
AcDbSpline
210
0.0
220
0.0
230
1.0
 70
     8
 71
     3
 72
     9
 73
     5
 74
     0
 42
0.00000001
 43
0.00000001
 12
1.0
 22
0.0
 32
0.0
 13
1.0
 23
0.0
 33
0.0
 40
0.0
 40
0.0
 40
0.0
 40
0.0
 40
0.2686336050555636
 40
1.0
 40
1.0
 40
1.0
 40
1.0
 10
1318.815954007062
 20
1158.915848580919
 30
0.0
 10
1318.736309837856
 20
1158.909219628335
 30
0.0
 10
1318.439831036589
 20
1158.884543070898
 30
0.0
 10
1318.151168348415
 20
1158.644688307298
 30
0.0
 10
1317.940050158812
 20
1158.469266593534
 30
0.0
  0
SPLINE
  5
11A
330
1F
100
AcDbEntity
  8
0
  6
Continuous
 62
     7
370
    15
100
AcDbSpline
210
0.0
220
0.0
230
1.0
 70
     8
 71
     3
 72
     9
 73
     5
 74
     0
 42
0.00000001
 43
0.00000001
 12
1.0
 22
0.0
 32
0.0
 13
1.0
 23
0.0
 33
0.0
 40
0.0
 40
0.0
 40
0.0
 40
0.0
 40
0.0702005767034164
 40
1.0
 40
1.0
 40
1.0
 40
1.0
 10
1310.355676120916
 20
1153.715848580919
 30
0.0
 10
1310.309587343175
 20
1153.716294697187
 30
0.0
 10
1309.653057441204
 20
1153.722649577567
 30
0.0
 10
1309.009690008421
 20
1153.950539059463
 30
0.0
 10
1308.411487340451
 20
1154.162430568304
 30
0.0
  0
LINE
  5
11B
330
1F
100
AcDbEntity
  8
0
  6
Continuous
 62
     7
370
    15
100
AcDbLine
 10
1308.4114873405
 20
1154.1624305683
 30
0.0
 11
1308.4114873405
 21
1154.5158485809
 31
0.0
  0
SPLINE
  5
11C
330
1F
100
AcDbEntity
  8
0
  6
Continuous
 62
     7
370
    15
100
AcDbSpline
210
0.0
220
0.0
230
1.0
 70
     8
 71
     3
 72
     9
 73
     5
 74
     0
 42
0.00000001
 43
0.00000001
 12
1.0
 22
0.0
 32
0.0
 13
1.0
 23
0.0
 33
0.0
 40
0.0
 40
0.0
 40
0.0
 40
0.0
 40
0.5278771639350593
 40
1.0
 40
1.0
 40
1.0
 40
1.0
 10
1310.355676120916
 20
1158.915848580919
 30
0.0
 10
1310.309446376814
 20
1158.917775038231
 30
0.0
 10
1310.221869669085
 20
1158.921424480646
 30
0.0
 10
1310.136043393069
 20
1158.895612794889
 30
0.0
 10
1310.095522848227
 20
1158.883426508605
 30
0.0
  0
SPLINE
  5
11D
330
1F
100
AcDbEntity
  8
0
  6
Continuous
 62
     7
370
    15
100
AcDbSpline
210
0.0
220
0.0
230
1.0
 70
     8
 71
     3
 72
     9
 73
     5
 74
     0
 42
0.00000001
 43
0.00000001
 12
1.0
 22
0.0
 32
0.0
 13
1.0
 23
0.0
 33
0.0
 40
0.0
 40
0.0
 40
0.0
 40
0.0
 40
0.2575513451037991
 40
1.0
 40
1.0
 40
1.0
 40
1.0
 10
1319.691857855313
 20
1154.162430568304
 30
0.0
 10
1319.618324205433
 20
1154.09501534553
 30
0.0
 10
1319.332813563467
 20
1153.833260848585
 30
0.0
 10
1319.036185278351
 20
1153.765877360793
 30
0.0
 10
1318.815954007062
 20
1153.715848580919
 30
0.0
  0
SPLINE
  5
11E
330
1F
100
AcDbEntity
  8
0
  6
Continuous
 62
     7
370
    15
100
AcDbSpline
210
0.0
220
0.0
230
1.0
 70
     8
 71
     3
 72
     9
 73
     5
 74
     0
 42
0.00000001
 43
0.00000001
 12
1.0
 22
0.0
 32
0.0
 13
1.0
 23
0.0
 33
0.0
 40
0.0
 40
0.0
 40
0.0
 40
0.0
 40
0.5569342110492237
 40
0.9999999999999999
 40
0.9999999999999999
 40
0.9999999999999999
 40
0.9999999999999999
 10
1319.691857855313
 20
1158.469266593534
 30
0.0
 10
1319.618609952802
 20
1158.541677569778
 30
0.0
 10
1319.487090105289
 20
1158.671694679174
 30
0.0
 10
1319.350428961209
 20
1158.711825920791
 30
0.0
 10
1319.289879083589
 20
1158.729606701019
 30
0.0
  0
LINE
  5
11F
330
1F
100
AcDbEntity
  8
0
  6
Continuous
 62
     7
370
    15
100
AcDbLine
 10
1319.6918578553
 20
1154.1624305683
 30
0.0
 11
1319.6918578553
 21
1158.4692665935
 31
0.0
  0
LINE
  5
120
330
1F
100
AcDbEntity
  8
0
  6
Continuous
 62
     7
370
    15
100
AcDbLine
 10
1308.8154107235
 20
1153.9019274295
 30
0.0
 11
1308.4114873405
 21
1154.1624305683
 31
0.0
  0
LINE
  5
121
330
1F
100
AcDbEntity
  8
0
  6
Continuous
 62
     7
370
    15
100
AcDbLine
 10
1309.0516725979
 20
1153.7158485809
 30
0.0
 11
1310.3556761209
 21
1153.7158485809
 31
0.0
  0
LINE
  5
122
330
1F
100
AcDbEntity
  8
0
  6
Continuous
 62
     7
370
    15
100
AcDbLine
 10
1319.0516725979
 20
1153.7158485809
 30
0.0
 11
1318.8159540071
 21
1153.7158485809
 31
0.0
  0
LINE
  5
123
330
1F
100
AcDbEntity
  8
0
  6
Continuous
 62
     7
370
    15
100
AcDbLine
 10
1315.1281920099
 20
1148.7124305683
 30
0.0
 11
1313.9285414929
 21
1148.5158485809
 31
0.0
  0
LINE
  5
124
330
1F
100
AcDbEntity
  8
0
  6
Continuous
 62
     7
370
    15
100
AcDbLine
 10
1310.7980894353
 20
1148.5158485809
 30
0.0
 11
1309.6776182396
 21
1148.7124305683
 31
0.0
  0
LINE
  5
125
330
1F
100
AcDbEntity
  8
0
  6
Continuous
 62
     7
370
    15
100
AcDbLine
 10
1309.6776182396
 20
1148.7124305683
 30
0.0
 11
1309.6776182396
 21
1153.0192665935
 31
0.0
  0
SPLINE
  5
126
330
1F
100
AcDbEntity
  8
0
  6
Continuous
 62
     7
370
    15
100
AcDbSpline
210
0.0
220
0.0
230
1.0
 70
     8
 71
     3
 72
     9
 73
     5
 74
     0
 42
0.00000001
 43
0.00000001
 12
1.0
 22
0.0
 32
0.0
 13
1.0
 23
0.0
 33
0.0
 40
0.0
 40
0.0
 40
0.0
 40
0.0
 40
0.0702005767034118
 40
1.0
 40
1.0
 40
1.0
 40
1.0
 10
1312.402905124766
 20
1153.465848580919
 30
0.0
 10
1312.338299700234
 20
1153.465402464652
 30
0.0
 10
1311.418002067849
 20
1153.459047584271
 30
0.0
 10
1310.516155063828
 20
1153.231158102376
 30
0.0
 10
1309.677618239587
 20
1153.019266593534
 30
0.0
  0
LINE
  5
127
330
1F
100
AcDbEntity
  8
0
  6
Continuous
 62
     7
370
    15
100
AcDbLine
 10
1315.1281920099
 20
1153.0192665935
 30
0.0
 11
1312.4029051248
 21
1153.4658485809
 31
0.0
  0
LINE
  5
128
330
1F
100
AcDbEntity
  8
0
  6
Continuous
 62
     7
370
    15
100
AcDbLine
 10
1315.1281920099
 20
1148.7124305683
 30
0.0
 11
1315.1281920099
 21
1153.0192665935
 31
0.0
  0
SPLINE
  5
129
330
1F
100
AcDbEntity
  8
0
  6
Continuous
 62
     7
370
    15
100
AcDbSpline
210
0.0
220
0.0
230
1.0
 70
     8
 71
     3
 72
     9
 73
     5
 74
     0
 42
0.00000001
 43
0.00000001
 12
1.0
 22
0.0
 32
0.0
 13
1.0
 23
0.0
 33
0.0
 40
0.0
 40
0.0
 40
0.0
 40
0.0
 40
0.070200576703435
 40
1.0
 40
1.0
 40
1.0
 40
1.0
 10
1317.315219189094
 20
1153.465848580919
 30
0.0
 10
1317.263373704444
 20
1153.465402464652
 30
0.0
 10
1316.524840104228
 20
1153.459047584271
 30
0.0
 10
1315.801113028024
 20
1153.231158102376
 30
0.0
 10
1315.128192009946
 20
1153.019266593534
 30
0.0
  0
LINE
  5
12A
330
1F
100
AcDbEntity
  8
0
  6
Continuous
 62
     7
370
    15
100
AcDbLine
 10
1312.4029051248
 20
1153.4658485809
 30
0.0
 11
1317.3152191891
 21
1153.4658485809
 31
0.0
  0
LINE
  5
12B
330
1F
100
AcDbEntity
  8
0
  6
Continuous
 62
     7
370
    15
100
AcDbLine
 10
1316.0273637528
 20
1148.5158485809
 30
0.0
 11
1315.1281920099
 21
1148.7124305683
 31
0.0
  0
LINE
  5
12C
330
1F
100
AcDbEntity
  8
0
  6
Continuous
 62
     7
370
    15
100
AcDbLine
 10
1319.5022463682
 20
1148.7124305683
 30
0.0
 11
1318.5395336716
 21
1148.5158485809
 31
0.0
  0
LINE
  5
12D
330
1F
100
AcDbEntity
  8
0
  6
Continuous
 62
     7
370
    15
100
AcDbLine
 10
1319.5022463682
 20
1153.0192665935
 30
0.0
 11
1317.3152191891
 21
1153.4658485809
 31
0.0
  0
LINE
  5
12E
330
1F
100
AcDbEntity
  8
0
  6
Continuous
 62
     7
370
    15
100
AcDbLine
 10
1319.5022463682
 20
1148.7124305683
 30
0.0
 11
1319.5022463682
 21
1153.0192665935
 31
0.0
  0
SPLINE
  5
12F
330
1F
100
AcDbEntity
  8
0
  6
Continuous
 62
     7
370
    15
100
AcDbSpline
210
0.0
220
0.0
230
1.0
 70
     8
 71
     3
 72
     9
 73
     5
 74
     0
 42
0.00000001
 43
0.00000001
 12
1.0
 22
0.0
 32
0.0
 13
1.0
 23
0.0
 33
0.0
 40
0.0
 40
0.0
 40
0.0
 40
0.0
 40
0.268633605055572
 40
0.9999999999999999
 40
0.9999999999999999
 40
0.9999999999999999
 40
0.9999999999999999
 10
1309.139358533555
 20
1153.465848580919
 30
0.0
 10
1309.18830140233
 20
1153.459219628335
 30
0.0
 10
1309.370493309277
 20
1153.434543070898
 30
0.0
 10
1309.54788206489
 20
1153.194688307298
 30
0.0
 10
1309.677618239587
 20
1153.019266593534
 30
0.0
  0
LINE
  5
130
330
1F
100
AcDbEntity
  8
0
  6
Continuous
 62
     7
370
    15
100
AcDbLine
 10
1309.1393585336
 20
1153.4658485809
 30
0.0
 11
1312.4029051248
 21
1153.4658485809
 31
0.0
  0
LINE
  5
131
330
1F
100
AcDbEntity
  8
0
  6
Continuous
 62
     7
370
    15
100
AcDbLine
 10
1309.4903064162
 20
1148.5158485809
 30
0.0
 11
1309.6776182396
 21
1148.7124305683
 31
0.0
  0
LINE
  5
132
330
1F
100
AcDbEntity
  8
0
  6
Continuous
 62
     7
370
    15
100
AcDbLine
 10
1319.3149345449
 20
1148.5158485809
 30
0.0
 11
1319.5022463682
 21
1148.7124305683
 31
0.0
  0
SPLINE
  5
133
330
1F
100
AcDbEntity
  8
0
  6
Continuous
 62
     7
370
    15
100
AcDbSpline
210
0.0
220
0.0
230
1.0
 70
     8
 71
     3
 72
     9
 73
     5
 74
     0
 42
0.00000001
 43
0.00000001
 12
1.0
 22
0.0
 32
0.0
 13
1.0
 23
0.0
 33
0.0
 40
0.0
 40
0.0
 40
0.0
 40
0.0
 40
0.2686336050555638
 40
1.0
 40
1.0
 40
1.0
 40
1.0
 10
1318.96398666221
 20
1153.465848580919
 30
0.0
 10
1319.012929530985
 20
1153.459219628335
 30
0.0
 10
1319.195121437931
 20
1153.434543070898
 30
0.0
 10
1319.372510193545
 20
1153.194688307298
 30
0.0
 10
1319.502246368241
 20
1153.019266593534
 30
0.0
  0
LINE
  5
134
330
1F
100
AcDbEntity
  8
0
  6
Continuous
 62
     7
370
    15
100
AcDbLine
 10
1317.3152191891
 20
1153.4658485809
 30
0.0
 11
1319.0436498104
 21
1153.4658485809
 31
0.0
  0
SPLINE
  5
135
330
1F
100
AcDbEntity
  8
0
  6
Continuous
 62
     7
370
    15
100
AcDbSpline
210
0.0
220
0.0
230
1.0
 70
     8
 71
     3
 72
     9
 73
     5
 74
     0
 42
0.00000001
 43
0.00000001
 12
1.0
 22
0.0
 32
0.0
 13
1.0
 23
0.0
 33
0.0
 40
0.0
 40
0.0
 40
0.0
 40
0.0
 40
0.925052869314716
 40
1.0
 40
1.0
 40
1.0
 40
1.0
 10
1308.601098827523
 20
1148.712430568304
 30
0.0
 10
1308.64589515491
 20
1148.633876855539
 30
0.0
 10
1308.694320849129
 20
1148.5489587764
 30
0.0
 10
1308.744648696291
 20
1148.518157079704
 30
0.0
 10
1308.748420624029
 20
1148.515848580917
 30
0.0
  0
LINE
  5
136
330
1F
100
AcDbEntity
  8
0
  6
Continuous
 62
     7
370
    15
100
AcDbLine
 10
1308.6010988275
 20
1148.7124305683
 30
0.0
 11
1308.6010988275
 21
1153.0192665935
 31
0.0
  0
SPLINE
  5
137
330
1F
100
AcDbEntity
  8
0
  6
Continuous
 62
     7
370
    15
100
AcDbSpline
210
0.0
220
0.0
230
1.0
 70
     8
 71
     3
 72
     9
 73
     5
 74
     0
 42
0.00000001
 43
0.00000001
 12
1.0
 22
0.0
 32
0.0
 13
1.0
 23
0.0
 33
0.0
 40
0.0
 40
0.0
 40
0.0
 40
0.0
 40
0.2575513451037943
 40
1.0
 40
1.0
 40
1.0
 40
1.0
 10
1308.601098827523
 20
1153.019266593534
 30
0.0
 10
1308.646286665032
 20
1153.086681816309
 30
0.0
 10
1308.821738427826
 20
1153.348436313253
 30
0.0
 10
1309.004022195463
 20
1153.415819801045
 30
0.0
 10
1309.139358533555
 20
1153.465848580919
 30
0.0
  0
LINE
  5
138
330
1F
100
AcDbEntity
  8
0
  6
Continuous
 62
     7
370
    15
100
AcDbLine
 10
1308.6010988275
 20
1148.7124305683
 30
0.0
 11
1309.5638115242
 21
1148.5158485809
 31
0.0
  0
LINE
  5
139
330
1F
100
AcDbEntity
  8
0
  6
Continuous
 62
     7
370
    15
100
AcDbLine
 10
1308.6010988275
 20
1153.0192665935
 30
0.0
 11
1310.7881260067
 21
1153.4658485809
 31
0.0
  0
LINE
  5
13A
330
1F
100
AcDbEntity
  8
0
  6
Continuous
 62
     7
370
    15
100
AcDbLine
 10
1348.8747279613
 20
1172.6158485809
 30
0.0
 11
1348.8747279613
 21
1167.2158485809
 31
0.0
  0
LINE
  5
13B
330
1F
100
AcDbEntity
  8
0
  6
Continuous
 62
     7
370
    15
100
AcDbLine
 10
1368.5001307808
 20
1172.6158485809
 30
0.0
 11
1368.5001307808
 21
1167.2158485809
 31
0.0
  0
LINE
  5
13C
330
1F
100
AcDbEntity
  8
0
  6
Continuous
 62
     7
370
    15
100
AcDbLine
 10
1348.8747279613
 20
1172.6158485809
 30
0.0
 11
1368.5001307808
 21
1172.6158485809
 31
0.0
  0
LINE
  5
13D
330
1F
100
AcDbEntity
  8
0
  6
Continuous
 62
     7
370
    15
100
AcDbLine
 10
1348.8747279613
 20
1167.2158485809
 30
0.0
 11
1368.5001307808
 21
1167.2158485809
 31
0.0
  0
LINE
  5
13E
330
1F
100
AcDbEntity
  8
0
  6
Continuous
 62
     7
370
    15
100
AcDbLine
 10
1349.6540552622
 20
1152.3158485809
 30
0.0
 11
1349.6540552622
 21
1148.5158485809
 31
0.0
  0
LINE
  5
13F
330
1F
100
AcDbEntity
  8
0
  6
Continuous
 62
     7
370
    15
100
AcDbLine
 10
1367.7594765836
 20
1152.3158485809
 30
0.0
 11
1367.7594765836
 21
1148.5158485809
 31
0.0
  0
LINE
  5
140
330
1F
100
AcDbEntity
  8
0
  6
Continuous
 62
     7
370
    15
100
AcDbLine
 10
1349.6540552622
 20
1152.3158485809
 30
0.0
 11
1367.7594765836
 21
1152.3158485809
 31
0.0
  0
LINE
  5
141
330
1F
100
AcDbEntity
  8
0
  6
Continuous
 62
     7
370
    15
100
AcDbLine
 10
1350.3127952956
 20
1160.6158485809
 30
0.0
 11
1375.9266725979
 21
1160.6158485809
 31
0.0
  0
LINE
  5
142
330
1F
100
AcDbEntity
  8
0
  6
Continuous
 62
     7
370
    15
100
AcDbLine
 10
1342.1766725979
 20
1160.6158485809
 30
0.0
 11
1350.3127952956
 21
1160.6158485809
 31
0.0
  0
LINE
  5
143
330
1F
100
AcDbEntity
  8
0
  6
Continuous
 62
     7
370
    15
100
AcDbLine
 10
1353.5494165186
 20
1181.5658485809
 30
0.0
 11
1369.6766725979
 21
1181.5658485809
 31
0.0
  0
LINE
  5
144
330
1F
100
AcDbEntity
  8
0
  6
Continuous
 62
     7
370
    15
100
AcDbLine
 10
1348.4266725979
 20
1181.5658485809
 30
0.0
 11
1353.5494165186
 21
1181.5658485809
 31
0.0
  0
LINE
  5
145
330
1F
100
AcDbEntity
  8
0
  6
Continuous
 62
     7
370
    15
100
AcDbLine
 10
1350.8436011761
 20
1155.2658485809
 30
0.0
 11
1374.9016725979
 21
1155.2658485809
 31
0.0
  0
LINE
  5
146
330
1F
100
AcDbEntity
  8
0
  6
Continuous
 62
     7
370
    15
100
AcDbLine
 10
1343.2016725979
 20
1155.2658485809
 30
0.0
 11
1350.8436011761
 21
1155.2658485809
 31
0.0
  0
LINE
  5
147
330
1F
100
AcDbEntity
  8
0
  6
Continuous
 62
     7
370
    15
100
AcDbLine
 10
1378.6770754174
 20
1172.6158485809
 30
0.0
 11
1378.6770754174
 21
1167.2158485809
 31
0.0
  0
LINE
  5
148
330
1F
100
AcDbEntity
  8
0
  6
Continuous
 62
     7
370
    15
100
AcDbLine
 10
1368.5001307808
 20
1172.6158485809
 30
0.0
 11
1378.6770754174
 21
1172.6158485809
 31
0.0
  0
LINE
  5
149
330
1F
100
AcDbEntity
  8
0
  6
Continuous
 62
     7
370
    15
100
AcDbLine
 10
1368.5001307808
 20
1167.2158485809
 30
0.0
 11
1378.6770754174
 21
1167.2158485809
 31
0.0
  0
LINE
  5
14A
330
1F
100
AcDbEntity
  8
0
  6
Continuous
 62
     7
370
    15
100
AcDbLine
 10
1368.5847479866
 20
1152.3158485809
 30
0.0
 11
1368.5847479866
 21
1148.5158485809
 31
0.0
  0
LINE
  5
14B
330
1F
100
AcDbEntity
  8
0
  6
Continuous
 62
     7
370
    15
100
AcDbLine
 10
1367.7594765836
 20
1152.3158485809
 30
0.0
 11
1368.5847479866
 21
1152.3158485809
 31
0.0
  0
LINE
  5
14C
330
1F
100
AcDbEntity
  8
0
  6
Continuous
 62
     7
370
    15
100
AcDbLine
 10
1339.4262697783
 20
1172.6158485809
 30
0.0
 11
1339.4262697783
 21
1167.2158485809
 31
0.0
  0
LINE
  5
14D
330
1F
100
AcDbEntity
  8
0
  6
Continuous
 62
     7
370
    15
100
AcDbLine
 10
1339.4262697783
 20
1172.6158485809
 30
0.0
 11
1348.8747279613
 21
1172.6158485809
 31
0.0
  0
LINE
  5
14E
330
1F
100
AcDbEntity
  8
0
  6
Continuous
 62
     7
370
    15
100
AcDbLine
 10
1339.4262697783
 20
1167.2158485809
 30
0.0
 11
1348.8747279613
 21
1167.2158485809
 31
0.0
  0
LINE
  5
14F
330
1F
100
AcDbEntity
  8
0
  6
Continuous
 62
     7
370
    15
100
AcDbLine
 10
1348.8483118066
 20
1152.3158485809
 30
0.0
 11
1348.8483118066
 21
1148.5158485809
 31
0.0
  0
LINE
  5
150
330
1F
100
AcDbEntity
  8
0
  6
Continuous
 62
     7
370
    15
100
AcDbLine
 10
1348.8483118066
 20
1152.3158485809
 30
0.0
 11
1349.6540552622
 21
1152.3158485809
 31
0.0
  0
LINE
  5
151
330
1F
100
AcDbEntity
  8
0
  6
Continuous
 62
     7
370
    15
100
AcDbLine
 10
1377.9628333358
 20
1152.3158485809
 30
0.0
 11
1377.9628333358
 21
1148.5158485809
 31
0.0
  0
LINE
  5
152
330
1F
100
AcDbEntity
  8
0
  6
Continuous
 62
     7
370
    15
100
AcDbLine
 10
1368.5847479866
 20
1152.3158485809
 30
0.0
 11
1377.9628333358
 21
1152.3158485809
 31
0.0
  0
LINE
  5
153
330
1F
100
AcDbEntity
  8
0
  6
Continuous
 62
     7
370
    15
100
AcDbLine
 10
1340.1209714942
 20
1152.3158485809
 30
0.0
 11
1340.1209714942
 21
1148.5158485809
 31
0.0
  0
LINE
  5
154
330
1F
100
AcDbEntity
  8
0
  6
Continuous
 62
     7
370
    15
100
AcDbLine
 10
1340.1209714942
 20
1152.3158485809
 30
0.0
 11
1348.8483118066
 21
1152.3158485809
 31
0.0
  0
LINE
  5
155
330
1F
100
AcDbEntity
  8
0
  6
Continuous
 62
     7
370
    15
100
AcDbLine
 10
1377.9823737016
 20
1152.3158485809
 30
0.0
 11
1377.9823737016
 21
1148.5158485809
 31
0.0
  0
LINE
  5
156
330
1F
100
AcDbEntity
  8
0
  6
Continuous
 62
     7
370
    15
100
AcDbLine
 10
1377.9628333358
 20
1152.3158485809
 30
0.0
 11
1377.9823737016
 21
1152.3158485809
 31
0.0
  0
LINE
  5
157
330
1F
100
AcDbEntity
  8
0
  6
Continuous
 62
     7
370
    15
100
AcDbLine
 10
639.5516725979
 20
478.4304142029
 30
0.0
 11
1431.5516725979
 21
478.4304142029
 31
0.0
  0
LINE
  5
158
330
1F
100
AcDbEntity
  8
0
  6
Continuous
 62
     7
370
    15
100
AcDbLine
 10
639.5516725979
 20
502.0158485809
 30
0.0
 11
639.5516725979
 21
478.4304142029
 31
0.0
  0
LINE
  5
159
330
1F
100
AcDbEntity
  8
0
  6
Continuous
 62
     7
370
    15
100
AcDbLine
 10
1431.5516725979
 20
502.0158485809
 30
0.0
 11
639.5516725979
 21
502.0158485809
 31
0.0
  0
LINE
  5
15A
330
1F
100
AcDbEntity
  8
0
  6
Continuous
 62
     7
370
    15
100
AcDbLine
 10
1431.5516725979
 20
478.4304142029
 30
0.0
 11
1431.5516725979
 21
502.0158485809
 31
0.0
  0
LINE
  5
15B
330
1F
100
AcDbEntity
  8
0
  6
Continuous
 62
     7
370
    15
100
AcDbLine
 10
1431.5516725979
 20
504.4658485809
 30
0.0
 11
639.5516725979
 21
504.4658485809
 31
0.0
  0
LINE
  5
15C
330
1F
100
AcDbEntity
  8
0
  6
Continuous
 62
     7
370
    15
100
AcDbLine
 10
1431.5516725979
 20
504.4658485809
 30
0.0
 11
1431.5516725979
 21
502.0158485809
 31
0.0
  0
LINE
  5
15D
330
1F
100
AcDbEntity
  8
0
  6
Continuous
 62
     7
370
    15
100
AcDbLine
 10
639.5516725979
 20
502.0158485809
 30
0.0
 11
639.5516725979
 21
504.4658485809
 31
0.0
  0
LINE
  5
15E
330
1F
100
AcDbEntity
  8
0
  6
Continuous
 62
     7
370
    15
100
AcDbLine
 10
1431.5516725979
 20
477.7963075424
 30
0.0
 11
639.5516725979
 21
477.7963075424
 31
0.0
  0
LINE
  5
15F
330
1F
100
AcDbEntity
  8
0
  6
Continuous
 62
     7
370
    15
100
AcDbLine
 10
639.5516725979
 20
477.7963075424
 30
0.0
 11
639.5516725979
 21
478.4304142029
 31
0.0
  0
LINE
  5
160
330
1F
100
AcDbEntity
  8
0
  6
Continuous
 62
     7
370
    15
100
AcDbLine
 10
1431.5516725979
 20
478.4304142029
 30
0.0
 11
1431.5516725979
 21
477.7963075424
 31
0.0
  0
ARC
  5
161
330
1F
100
AcDbEntity
  8
0
  6
Continuous
 62
     7
370
    15
100
AcDbCircle
 10
1426.6354067205
 20
475.1441761906
 30
0.0
 40
4.917030097156976
100
AcDbArc
 50
269.0242395005
 51
358.9898148908
  0
LINE
  5
162
330
1F
100
AcDbEntity
  8
0
  6
Continuous
 62
     7
370
    15
100
AcDbLine
 10
1426.5516725979
 20
470.2278591165
 30
0.0
 11
644.5516725979
 21
470.2278591165
 31
0.0
  0
ARC
  5
163
330
1F
100
AcDbEntity
  8
0
  6
Continuous
 62
     7
370
    15
100
AcDbCircle
 10
644.4679384752
 20
475.1441761906
 30
0.0
 40
4.917030097156922
100
AcDbArc
 50
181.0101851092
 51
270.9757604995
  0
LINE
  5
164
330
1F
100
AcDbEntity
  8
0
  6
Continuous
 62
     7
370
    15
100
AcDbLine
 10
639.5516725979
 20
475.0574882479
 30
0.0
 11
639.5516725979
 21
477.7963075424
 31
0.0
  0
LINE
  5
165
330
1F
100
AcDbEntity
  8
0
  6
Continuous
 62
     7
370
    15
100
AcDbLine
 10
1431.5516725979
 20
477.7963075424
 30
0.0
 11
1431.5516725979
 21
475.0574882479
 31
0.0
  0
LINE
  5
166
330
1F
100
AcDbEntity
  8
0
  6
Continuous
 62
     7
370
    15
100
AcDbLine
 10
638.5516725979
 20
500.0158485809
 30
0.0
 11
638.5516725979
 21
500.3103465434
 31
0.0
  0
LINE
  5
167
330
1F
100
AcDbEntity
  8
0
  6
Continuous
 62
     7
370
    15
100
AcDbLine
 10
1432.5516725979
 20
501.2158485809
 30
0.0
 11
1431.5516725979
 21
501.2158485809
 31
0.0
  0
LINE
  5
168
330
1F
100
AcDbEntity
  8
0
  6
Continuous
 62
     7
370
    15
100
AcDbLine
 10
639.5516725979
 20
501.2158485809
 30
0.0
 11
638.5516725979
 21
501.2158485809
 31
0.0
  0
LINE
  5
169
330
1F
100
AcDbEntity
  8
0
  6
Continuous
 62
     7
370
    15
100
AcDbLine
 10
1432.5516725979
 20
500.0158485809
 30
0.0
 11
1431.5516725979
 21
500.0158485809
 31
0.0
  0
LINE
  5
16A
330
1F
100
AcDbEntity
  8
0
  6
Continuous
 62
     7
370
    15
100
AcDbLine
 10
639.5516725979
 20
500.0158485809
 30
0.0
 11
638.5516725979
 21
500.0158485809
 31
0.0
  0
LINE
  5
16B
330
1F
100
AcDbEntity
  8
0
  6
Continuous
 62
     7
370
    15
100
AcDbLine
 10
1432.5516725979
 20
500.0158485809
 30
0.0
 11
1432.5516725979
 21
500.3103465434
 31
0.0
  0
LINE
  5
16C
330
1F
100
AcDbEntity
  8
0
  6
Continuous
 62
     7
370
    15
100
AcDbLine
 10
1432.5516725979
 20
598.9582891915
 30
0.0
 11
638.5516725979
 21
598.9582891915
 31
0.0
  0
LINE
  5
16D
330
1F
100
AcDbEntity
  8
0
  6
Continuous
 62
     7
370
    15
100
AcDbLine
 10
1432.5516725979
 20
567.0970769927
 30
0.0
 11
638.5516725979
 21
567.0970769927
 31
0.0
  0
LINE
  5
16E
330
1F
100
AcDbEntity
  8
0
  6
Continuous
 62
     7
370
    15
100
AcDbLine
 10
638.5516725979
 20
566.9339192524
 30
0.0
 11
1432.5516725979
 21
566.9339192524
 31
0.0
  0
LINE
  5
16F
330
1F
100
AcDbEntity
  8
0
  6
Continuous
 62
     7
370
    15
100
AcDbLine
 10
719.2516725979
 20
564.0970769927
 30
0.0
 11
716.7139570898
 21
564.0970769927
 31
0.0
  0
ARC
  5
170
330
1F
100
AcDbEntity
  8
0
  6
Continuous
 62
     7
370
    15
100
AcDbCircle
 10
719.2516725979
 20
548.0970769927
 30
0.0
 40
16.19999999999999
100
AcDbArc
 50
99.0124514993
 51
180.0
  0
LINE
  5
171
330
1F
100
AcDbEntity
  8
0
  6
Continuous
 62
     7
370
    15
100
AcDbLine
 10
703.0516725979
 20
548.0970769927
 30
0.0
 11
703.0516725979
 21
530.0970769927
 31
0.0
  0
ARC
  5
172
330
1F
100
AcDbEntity
  8
0
  6
Continuous
 62
     7
370
    15
100
AcDbCircle
 10
719.2516725979
 20
530.0970769927
 30
0.0
 40
16.19999999999997
100
AcDbArc
 50
180.0
 51
260.9875485007
  0
LINE
  5
173
330
1F
100
AcDbEntity
  8
0
  6
Continuous
 62
     7
370
    15
100
AcDbLine
 10
719.2516725979
 20
514.0970769909
 30
0.0
 11
716.7139570898
 21
514.0970769927
 31
0.0
  0
LINE
  5
174
330
1F
100
AcDbEntity
  8
0
  6
Continuous
 62
     7
370
    15
100
AcDbLine
 10
777.2516725979
 20
514.0970769927
 30
0.0
 11
719.2516725979
 21
514.0970769909
 31
0.0
  0
LINE
  5
175
330
1F
100
AcDbEntity
  8
0
  6
Continuous
 62
     7
370
    15
100
AcDbLine
 10
779.789388106
 20
514.0970769927
 30
0.0
 11
777.2516725979
 21
514.0970769927
 31
0.0
  0
ARC
  5
176
330
1F
100
AcDbEntity
  8
0
  6
Continuous
 62
     7
370
    15
100
AcDbCircle
 10
777.2516725979
 20
530.0970769927
 30
0.0
 40
16.19999999999999
100
AcDbArc
 50
279.0124514993
 51
0.0
  0
LINE
  5
177
330
1F
100
AcDbEntity
  8
0
  6
Continuous
 62
     7
370
    15
100
AcDbLine
 10
793.4516725979
 20
530.0970769927
 30
0.0
 11
793.4516725979
 21
548.0970769927
 31
0.0
  0
ARC
  5
178
330
1F
100
AcDbEntity
  8
0
  6
Continuous
 62
     7
370
    15
100
AcDbCircle
 10
777.2516725979
 20
548.0970769927
 30
0.0
 40
16.19999999999999
100
AcDbArc
 50
0.0
 51
80.9875485007
  0
LINE
  5
179
330
1F
100
AcDbEntity
  8
0
  6
Continuous
 62
     7
370
    15
100
AcDbLine
 10
779.789388106
 20
564.0970769927
 30
0.0
 11
777.2516725979
 21
564.0970769927
 31
0.0
  0
LINE
  5
17A
330
1F
100
AcDbEntity
  8
0
  6
Continuous
 62
     7
370
    15
100
AcDbLine
 10
777.2516725979
 20
564.0970769927
 30
0.0
 11
719.2516725979
 21
564.0970769927
 31
0.0
  0
LINE
  5
17B
330
1F
100
AcDbEntity
  8
0
  6
Continuous
 62
     7
370
    15
100
AcDbLine
 10
719.2516725979
 20
520.0970769927
 30
0.0
 11
717.6851815435
 21
520.2205337828
 31
0.0
  0
LINE
  5
17C
330
1F
100
AcDbEntity
  8
0
  6
Continuous
 62
     7
370
    15
100
AcDbLine
 10
719.2516725979
 20
514.0970769909
 30
0.0
 11
719.2516725979
 21
520.0970769927
 31
0.0
  0
LINE
  5
17D
330
1F
100
AcDbEntity
  8
0
  6
Continuous
 62
     7
370
    15
100
AcDbLine
 10
716.7139570898
 20
514.0970769927
 30
0.0
 11
717.6851815435
 21
520.2205337828
 31
0.0
  0
LINE
  5
17E
330
1F
100
AcDbEntity
  8
0
  6
Continuous
 62
     7
370
    15
100
AcDbLine
 10
777.2516725979
 20
520.0970769927
 30
0.0
 11
719.2516725979
 21
520.0970769927
 31
0.0
  0
LINE
  5
17F
330
1F
100
AcDbEntity
  8
0
  6
Continuous
 62
     7
370
    15
100
AcDbLine
 10
777.2516725979
 20
520.0970769927
 30
0.0
 11
777.2516725979
 21
514.0970769927
 31
0.0
  0
ARC
  5
180
330
1F
100
AcDbEntity
  8
0
  6
Continuous
 62
     7
370
    15
100
AcDbCircle
 10
777.2516725979
 20
530.0970769927
 30
0.0
 40
10.0
100
AcDbArc
 50
279.0124514993
 51
0.0
  0
LINE
  5
181
330
1F
100
AcDbEntity
  8
0
  6
Continuous
 62
     7
370
    15
100
AcDbLine
 10
787.2516725979
 20
530.0970769927
 30
0.0
 11
793.4516725979
 21
530.0970769927
 31
0.0
  0
LINE
  5
182
330
1F
100
AcDbEntity
  8
0
  6
Continuous
 62
     7
370
    15
100
AcDbLine
 10
778.8181636523
 20
520.2205337828
 30
0.0
 11
779.789388106
 21
514.0970769927
 31
0.0
  0
LINE
  5
183
330
1F
100
AcDbEntity
  8
0
  6
Continuous
 62
     7
370
    15
100
AcDbLine
 10
787.2516725979
 20
548.0970769927
 30
0.0
 11
787.2516725979
 21
530.0970769927
 31
0.0
  0
LINE
  5
184
330
1F
100
AcDbEntity
  8
0
  6
Continuous
 62
     7
370
    15
100
AcDbLine
 10
787.2516725979
 20
548.0970769927
 30
0.0
 11
793.4516725979
 21
548.0970769927
 31
0.0
  0
ARC
  5
185
330
1F
100
AcDbEntity
  8
0
  6
Continuous
 62
     7
370
    15
100
AcDbCircle
 10
719.2516725979
 20
548.0970769927
 30
0.0
 40
10.00000000000001
100
AcDbArc
 50
99.0124514993
 51
180.0
  0
LINE
  5
186
330
1F
100
AcDbEntity
  8
0
  6
Continuous
 62
     7
370
    15
100
AcDbLine
 10
703.0516725979
 20
548.0970769927
 30
0.0
 11
709.2516725979
 21
548.0970769927
 31
0.0
  0
LINE
  5
187
330
1F
100
AcDbEntity
  8
0
  6
Continuous
 62
     7
370
    15
100
AcDbLine
 10
716.7139570898
 20
564.0970769927
 30
0.0
 11
717.6851815435
 21
557.9736202025
 31
0.0
  0
LINE
  5
188
330
1F
100
AcDbEntity
  8
0
  6
Continuous
 62
     7
370
    15
100
AcDbLine
 10
719.2516725979
 20
558.0970769927
 30
0.0
 11
777.2516725979
 21
558.0970769927
 31
0.0
  0
LINE
  5
189
330
1F
100
AcDbEntity
  8
0
  6
Continuous
 62
     7
370
    15
100
AcDbLine
 10
719.2516725979
 20
564.0970769927
 30
0.0
 11
719.2516725979
 21
558.0970769927
 31
0.0
  0
LINE
  5
18A
330
1F
100
AcDbEntity
  8
0
  6
Continuous
 62
     7
370
    15
100
AcDbLine
 10
777.2516725979
 20
558.0970769927
 30
0.0
 11
777.2516725979
 21
564.0970769927
 31
0.0
  0
LINE
  5
18B
330
1F
100
AcDbEntity
  8
0
  6
Continuous
 62
     7
370
    15
100
AcDbLine
 10
777.2516725979
 20
558.0970769927
 30
0.0
 11
778.8181636523
 21
557.9736202025
 31
0.0
  0
LINE
  5
18C
330
1F
100
AcDbEntity
  8
0
  6
Continuous
 62
     7
370
    15
100
AcDbLine
 10
778.8181636523
 20
557.9736202025
 30
0.0
 11
779.789388106
 21
564.0970769927
 31
0.0
  0
ARC
  5
18D
330
1F
100
AcDbEntity
  8
0
  6
Continuous
 62
     7
370
    15
100
AcDbCircle
 10
719.2516725979
 20
530.0970769927
 30
0.0
 40
10.00000000000001
100
AcDbArc
 50
180.0
 51
260.9875485007
  0
LINE
  5
18E
330
1F
100
AcDbEntity
  8
0
  6
Continuous
 62
     7
370
    15
100
AcDbLine
 10
703.0516725979
 20
530.0970769927
 30
0.0
 11
709.2516725979
 21
530.0970769927
 31
0.0
  0
LINE
  5
18F
330
1F
100
AcDbEntity
  8
0
  6
Continuous
 62
     7
370
    15
100
AcDbLine
 10
709.2516725979
 20
530.0970769927
 30
0.0
 11
709.2516725979
 21
548.0970769927
 31
0.0
  0
LINE
  5
190
330
1F
100
AcDbEntity
  8
0
  6
Continuous
 62
     7
370
    15
100
AcDbLine
 10
778.8181636523
 20
520.2205337828
 30
0.0
 11
777.2516725979
 21
520.0970769927
 31
0.0
  0
LINE
  5
191
330
1F
100
AcDbEntity
  8
0
  6
Continuous
 62
     7
370
    15
100
AcDbLine
 10
717.6851815435
 20
557.9736202025
 30
0.0
 11
719.2516725979
 21
558.0970769927
 31
0.0
  0
ARC
  5
192
330
1F
100
AcDbEntity
  8
0
  6
Continuous
 62
     7
370
    15
100
AcDbCircle
 10
777.2516725979
 20
548.0970769927
 30
0.0
 40
10.0
100
AcDbArc
 50
0.0
 51
80.9875485007
  0
LINE
  5
193
330
1F
100
AcDbEntity
  8
0
  6
Continuous
 62
     7
370
    15
100
AcDbLine
 10
640.0516725979
 20
1090.4294156243
 30
0.0
 11
640.0516725979
 21
1086.3437713263
 31
0.0
  0
LWPOLYLINE
  5
194
330
1F
100
AcDbEntity
  8
0
  6
Continuous
 62
     7
370
    15
100
AcDbPolyline
 90
        9
 70
   128
 43
0.0
 10
645.0516725979
 20
1092.542506933
 10
644.0762209878
 20
1092.501904476
 10
643.1382554361
 20
1092.3816574347
 10
642.2738214328
 20
1092.1863868355
 10
641.5161386919
 20
1091.9235968179
 10
640.8943245364
 20
1091.603386255
 10
640.4322749353
 20
1091.2380606592
 10
640.1477461959
 20
1090.8416592881
 10
640.0516725979
 20
1090.4294156243
  0
LINE
  5
195
330
1F
100
AcDbEntity
  8
0
  6
Continuous
 62
     7
370
    15
100
AcDbLine
 10
1426.0516725979
 20
1092.542506933
 30
0.0
 11
645.0516725979
 21
1092.542506933
 31
0.0
  0
LWPOLYLINE
  5
196
330
1F
100
AcDbEntity
  8
0
  6
Continuous
 62
     7
370
    15
100
AcDbPolyline
 90
        9
 70
   128
 43
0.0
 10
1431.0516725979
 20
1090.4294156243
 10
1430.9555989999
 20
1090.8416592881
 10
1430.6710702604
 20
1091.2380606592
 10
1430.2090206594
 20
1091.603386255
 10
1429.5872065038
 20
1091.9235968179
 10
1428.829523763
 20
1092.1863868355
 10
1427.9650897597
 20
1092.3816574347
 10
1427.027124208
 20
1092.501904476
 10
1426.0516725979
 20
1092.542506933
  0
LINE
  5
197
330
1F
100
AcDbEntity
  8
0
  6
Continuous
 62
     7
370
    15
100
AcDbLine
 10
1431.0516725979
 20
1086.3437713263
 30
0.0
 11
1431.0516725979
 21
1090.4294156243
 31
0.0
  0
LINE
  5
198
330
1F
100
AcDbEntity
  8
0
  6
Continuous
 62
     7
370
    15
100
AcDbLine
 10
1431.0516725979
 20
1086.3437713263
 30
0.0
 11
640.0516725979
 21
1086.3437713263
 31
0.0
  0
LINE
  5
199
330
1F
100
AcDbEntity
  8
0
  6
Continuous
 62
     7
370
    15
100
AcDbLine
 10
640.0516725979
 20
1090.4294156243
 30
0.0
 11
640.0516725979
 21
1092.2420311983
 31
0.0
  0
LINE
  5
19A
330
1F
100
AcDbEntity
  8
0
  6
Continuous
 62
     7
370
    15
100
AcDbLine
 10
1431.0516725979
 20
1090.4294156243
 30
0.0
 11
1431.0516725979
 21
1092.2420311983
 31
0.0
  0
ARC
  5
19B
330
1F
100
AcDbEntity
  8
0
  6
Continuous
 62
     7
370
    15
100
AcDbCircle
 10
1428.8207265198
 20
1091.5535656578
 30
0.0
 40
2.334760202666626
100
AcDbArc
 50
17.1501222545
 51
76.4139141933
  0
LINE
  5
19C
330
1F
100
AcDbEntity
  8
0
  6
Continuous
 62
     7
370
    15
100
AcDbLine
 10
1431.0516725979
 20
1086.3437713263
 30
0.0
 11
1431.0516725979
 21
1086.0158485809
 31
0.0
  0
LINE
  5
19D
330
1F
100
AcDbEntity
  8
0
  6
Continuous
 62
     7
370
    15
100
AcDbLine
 10
1431.0516725979
 20
1086.0158485809
 30
0.0
 11
640.0516725979
 21
1086.0158485809
 31
0.0
  0
LINE
  5
19E
330
1F
100
AcDbEntity
  8
0
  6
Continuous
 62
     7
370
    15
100
AcDbLine
 10
640.0516725979
 20
1086.0158485809
 30
0.0
 11
640.0516725979
 21
1086.3437713263
 31
0.0
  0
LINE
  5
19F
330
1F
100
AcDbEntity
  8
0
  6
Continuous
 62
     7
370
    15
100
AcDbLine
 10
638.5516725979
 20
1084.5158485809
 30
0.0
 11
636.5516725979
 21
1084.5158485809
 31
0.0
  0
SPLINE
  5
1A0
330
1F
100
AcDbEntity
  8
0
  6
Continuous
 62
     7
370
    15
100
AcDbSpline
210
0.0
220
0.0
230
1.0
 70
     8
 71
     3
 72
    11
 73
     7
 74
     0
 42
0.00000001
 43
0.00000001
 12
1.0
 22
0.0
 32
0.0
 13
1.0
 23
0.0
 33
0.0
 40
0.0
 40
0.0
 40
0.0
 40
0.0
 40
0.2500000000000002
 40
0.4999999999999929
 40
0.7499999999999997
 40
0.9999999999999999
 40
0.9999999999999999
 40
0.9999999999999999
 40
0.9999999999999999
 10
640.051672597876
 20
1088.015848580922
 30
0.0
 10
639.593042944554
 20
1087.963238076167
 30
0.0
 10
638.6757836379105
 20
1087.858017066655
 30
0.0
 10
637.5188763580711
 20
1087.048644820727
 30
0.0
 10
636.7095041121429
 20
1085.891737540888
 30
0.0
 10
636.6042831026315
 20
1084.974478234244
 30
0.0
 10
636.551672597876
 20
1084.515848580922
 30
0.0
  0
SPLINE
  5
1A1
330
1F
100
AcDbEntity
  8
0
  6
Continuous
 62
     7
370
    15
100
AcDbSpline
210
0.0
220
0.0
230
1.0
 70
     8
 71
     3
 72
    11
 73
     7
 74
     0
 42
0.00000001
 43
0.00000001
 12
1.0
 22
0.0
 32
0.0
 13
1.0
 23
0.0
 33
0.0
 40
0.0
 40
0.0
 40
0.0
 40
0.0
 40
0.2500000000000126
 40
0.5
 40
0.7499999999999875
 40
1.0
 40
1.0
 40
1.0
 40
1.0
 10
640.051672597876
 20
1086.015848580922
 30
0.0
 10
639.8551170321665
 20
1085.993301221741
 30
0.0
 10
639.4620059007477
 20
1085.948206503379
 30
0.0
 10
638.9661884951025
 20
1085.601332683696
 30
0.0
 10
638.619314675419
 20
1085.10551527805
 30
0.0
 10
638.5742199570568
 20
1084.712404146632
 30
0.0
 10
638.551672597876
 20
1084.515848580922
 30
0.0
  0
LINE
  5
1A2
330
1F
100
AcDbEntity
  8
0
  6
Continuous
 62
     7
370
    15
100
AcDbLine
 10
1432.5516725979
 20
1084.5158485809
 30
0.0
 11
1434.5516725979
 21
1084.5158485809
 31
0.0
  0
SPLINE
  5
1A3
330
1F
100
AcDbEntity
  8
0
  6
Continuous
 62
     7
370
    15
100
AcDbSpline
210
0.0
220
0.0
230
1.0
 70
     8
 71
     3
 72
    11
 73
     7
 74
     0
 42
0.00000001
 43
0.00000001
 12
1.0
 22
0.0
 32
0.0
 13
1.0
 23
0.0
 33
0.0
 40
0.0
 40
0.0
 40
0.0
 40
0.0
 40
0.2499999999999959
 40
0.4999999999999949
 40
0.749999999999994
 40
0.9999999999999999
 40
0.9999999999999999
 40
0.9999999999999999
 40
0.9999999999999999
 10
1434.551672597876
 20
1084.515848580922
 30
0.0
 10
1434.49906209312
 20
1084.974478234244
 30
0.0
 10
1434.393841083609
 20
1085.891737540888
 30
0.0
 10
1433.584468837681
 20
1087.048644820727
 30
0.0
 10
1432.427561557842
 20
1087.858017066655
 30
0.0
 10
1431.510302251198
 20
1087.963238076167
 30
0.0
 10
1431.051672597876
 20
1088.015848580922
 30
0.0
  0
SPLINE
  5
1A4
330
1F
100
AcDbEntity
  8
0
  6
Continuous
 62
     7
370
    15
100
AcDbSpline
210
0.0
220
0.0
230
1.0
 70
     8
 71
     3
 72
    11
 73
     7
 74
     0
 42
0.00000001
 43
0.00000001
 12
1.0
 22
0.0
 32
0.0
 13
1.0
 23
0.0
 33
0.0
 40
0.0
 40
0.0
 40
0.0
 40
0.0
 40
0.2499999999999904
 40
0.5000000000000184
 40
0.7499999999999825
 40
1.0
 40
1.0
 40
1.0
 40
1.0
 10
1432.551672597876
 20
1084.515848580922
 30
0.0
 10
1432.529125238695
 20
1084.712404146632
 30
0.0
 10
1432.484030520333
 20
1085.10551527805
 30
0.0
 10
1432.137156700649
 20
1085.601332683696
 30
0.0
 10
1431.641339295004
 20
1085.948206503379
 30
0.0
 10
1431.248228163586
 20
1085.993301221741
 30
0.0
 10
1431.051672597876
 20
1086.015848580922
 30
0.0
  0
LINE
  5
1A5
330
1F
100
AcDbEntity
  8
0
  6
Continuous
 62
     7
370
    15
100
AcDbLine
 10
1434.5516725979
 20
514.5448156803
 30
0.0
 11
1432.5516725979
 21
514.5448156803
 31
0.0
  0
LINE
  5
1A6
330
1F
100
AcDbEntity
  8
0
  6
Continuous
 62
     7
370
    15
100
AcDbLine
 10
1432.5516725979
 20
1084.5158485809
 30
0.0
 11
1432.5516725979
 21
514.5448156803
 31
0.0
  0
LINE
  5
1A7
330
1F
100
AcDbEntity
  8
0
  6
Continuous
 62
     7
370
    15
100
AcDbLine
 10
1434.5516725979
 20
1084.5158485809
 30
0.0
 11
1434.5516725979
 21
514.5448156803
 31
0.0
  0
LINE
  5
1A8
330
1F
100
AcDbEntity
  8
0
  6
Continuous
 62
     7
370
    15
100
AcDbLine
 10
638.5516725979
 20
514.5448156803
 30
0.0
 11
638.5516725979
 21
1084.5158485809
 31
0.0
  0
LINE
  5
1A9
330
1F
100
AcDbEntity
  8
0
  6
Continuous
 62
     7
370
    15
100
AcDbLine
 10
636.5516725979
 20
514.5448156803
 30
0.0
 11
638.5516725979
 21
514.5448156803
 31
0.0
  0
LINE
  5
1AA
330
1F
100
AcDbEntity
  8
0
  6
Continuous
 62
     7
370
    15
100
AcDbLine
 10
636.5516725979
 20
514.5448156803
 30
0.0
 11
636.5516725979
 21
1084.5158485809
 31
0.0
  0
LINE
  5
1AB
330
1F
100
AcDbEntity
  8
0
  6
Continuous
 62
     7
370
    15
100
AcDbLine
 10
1434.5516725979
 20
507.9697996646
 30
0.0
 11
1432.5516725979
 21
507.9697996646
 31
0.0
  0
LINE
  5
1AC
330
1F
100
AcDbEntity
  8
0
  6
Continuous
 62
     7
370
    15
100
AcDbLine
 10
1432.5516725979
 20
514.5448156803
 30
0.0
 11
1432.5516725979
 21
507.9697996646
 31
0.0
  0
LINE
  5
1AD
330
1F
100
AcDbEntity
  8
0
  6
Continuous
 62
     7
370
    15
100
AcDbLine
 10
1434.5516725979
 20
514.5448156803
 30
0.0
 11
1434.5516725979
 21
507.9697996646
 31
0.0
  0
LINE
  5
1AE
330
1F
100
AcDbEntity
  8
0
  6
Continuous
 62
     7
370
    15
100
AcDbLine
 10
636.5516725979
 20
507.9697996646
 30
0.0
 11
638.5516725979
 21
507.9697996646
 31
0.0
  0
LINE
  5
1AF
330
1F
100
AcDbEntity
  8
0
  6
Continuous
 62
     7
370
    15
100
AcDbLine
 10
636.5516725979
 20
507.9697996646
 30
0.0
 11
636.5516725979
 21
514.5448156803
 31
0.0
  0
LINE
  5
1B0
330
1F
100
AcDbEntity
  8
0
  6
Continuous
 62
     7
370
    15
100
AcDbLine
 10
638.5516725979
 20
507.9697996646
 30
0.0
 11
638.5516725979
 21
514.5448156803
 31
0.0
  0
LINE
  5
1B1
330
1F
100
AcDbEntity
  8
0
  6
Continuous
 62
     7
370
    15
100
AcDbLine
 10
636.5516725979
 20
501.0281641245
 30
0.0
 11
638.5516725979
 21
501.0281641245
 31
0.0
  0
LINE
  5
1B2
330
1F
100
AcDbEntity
  8
0
  6
Continuous
 62
     7
370
    15
100
AcDbLine
 10
636.5516725979
 20
501.0281641245
 30
0.0
 11
636.5516725979
 21
507.9697996646
 31
0.0
  0
LINE
  5
1B3
330
1F
100
AcDbEntity
  8
0
  6
Continuous
 62
     7
370
    15
100
AcDbLine
 10
638.5516725979
 20
501.0281641245
 30
0.0
 11
638.5516725979
 21
507.9697996646
 31
0.0
  0
LINE
  5
1B4
330
1F
100
AcDbEntity
  8
0
  6
Continuous
 62
     7
370
    15
100
AcDbLine
 10
1434.5516725979
 20
501.0281641245
 30
0.0
 11
1432.5516725979
 21
501.0281641245
 31
0.0
  0
LINE
  5
1B5
330
1F
100
AcDbEntity
  8
0
  6
Continuous
 62
     7
370
    15
100
AcDbLine
 10
1432.5516725979
 20
507.9697996646
 30
0.0
 11
1432.5516725979
 21
501.0281641245
 31
0.0
  0
LINE
  5
1B6
330
1F
100
AcDbEntity
  8
0
  6
Continuous
 62
     7
370
    15
100
AcDbLine
 10
1434.5516725979
 20
507.9697996646
 30
0.0
 11
1434.5516725979
 21
501.0281641245
 31
0.0
  0
LINE
  5
1B7
330
1F
100
AcDbEntity
  8
0
  6
Continuous
 62
     7
370
    15
100
AcDbLine
 10
636.5516725979
 20
500.0158485809
 30
0.0
 11
638.5516725979
 21
500.0158485809
 31
0.0
  0
LINE
  5
1B8
330
1F
100
AcDbEntity
  8
0
  6
Continuous
 62
     7
370
    15
100
AcDbLine
 10
636.5516725979
 20
500.0158485809
 30
0.0
 11
636.5516725979
 21
501.0281641245
 31
0.0
  0
LINE
  5
1B9
330
1F
100
AcDbEntity
  8
0
  6
Continuous
 62
     7
370
    15
100
AcDbLine
 10
638.5516725979
 20
500.3103465434
 30
0.0
 11
638.5516725979
 21
501.0281641245
 31
0.0
  0
LINE
  5
1BA
330
1F
100
AcDbEntity
  8
0
  6
Continuous
 62
     7
370
    15
100
AcDbLine
 10
1434.5516725979
 20
500.0158485809
 30
0.0
 11
1432.5516725979
 21
500.0158485809
 31
0.0
  0
LINE
  5
1BB
330
1F
100
AcDbEntity
  8
0
  6
Continuous
 62
     7
370
    15
100
AcDbLine
 10
1432.5516725979
 20
501.0281641245
 30
0.0
 11
1432.5516725979
 21
500.3103465434
 31
0.0
  0
LINE
  5
1BC
330
1F
100
AcDbEntity
  8
0
  6
Continuous
 62
     7
370
    15
100
AcDbLine
 10
1434.5516725979
 20
501.0281641245
 30
0.0
 11
1434.5516725979
 21
500.0158485809
 31
0.0
  0
LINE
  5
1BD
330
1F
100
AcDbEntity
  8
0
  6
Continuous
 62
     7
370
    15
100
AcDbLine
 10
638.5516725979
 20
599.0158485809
 30
0.0
 11
1432.5516725979
 21
599.0158485809
 31
0.0
  0
ARC
  5
1BE
330
1F
100
AcDbEntity
  8
0
  6
Continuous
 62
     7
370
    15
100
AcDbCircle
 10
1086.11391223
 20
325.6028766485
 30
0.0
 40
53.64539100497655
100
AcDbArc
 50
78.6179185718
 51
88.9983771753
  0
LINE
  5
1BF
330
1F
100
AcDbEntity
  8
0
  6
Continuous
 62
     7
370
    15
100
AcDbLine
 10
1087.0516725979
 20
379.2400706613
 30
0.0
 11
1087.0516725979
 21
380.7099253008
 31
0.0
  0
LINE
  5
1C0
330
1F
100
AcDbEntity
  8
0
  6
Continuous
 62
     7
370
    15
100
AcDbLine
 10
1086.971044238
 20
381.9490400824
 30
0.0
 11
1087.0516725979
 21
380.7099253008
 31
0.0
  0
LINE
  5
1C1
330
1F
100
AcDbEntity
  8
0
  6
Continuous
 62
     7
370
    15
100
AcDbLine
 10
1084.1323009578
 20
381.9490400824
 30
0.0
 11
1084.0516725979
 21
380.7099253008
 31
0.0
  0
LINE
  5
1C2
330
1F
100
AcDbEntity
  8
0
  6
Continuous
 62
     7
370
    15
100
AcDbLine
 10
1084.0516725979
 20
380.7099253008
 30
0.0
 11
1084.0516725979
 21
379.2400706613
 31
0.0
  0
ARC
  5
1C3
330
1F
100
AcDbEntity
  8
0
  6
Continuous
 62
     7
370
    15
100
AcDbCircle
 10
1084.9894329658
 20
325.6028766486
 30
0.0
 40
53.64539100492945
100
AcDbArc
 50
91.0016228247
 51
101.3820814282
  0
SPLINE
  5
1C4
330
1F
100
AcDbEntity
  8
0
  6
Continuous
 62
     7
370
    15
100
AcDbSpline
210
0.0
220
0.0
230
1.0
 70
     8
 71
     3
 72
    14
 73
    10
 74
     0
 42
0.00000001
 43
0.00000001
 12
1.0
 22
0.0
 32
0.0
 13
1.0
 23
0.0
 33
0.0
 40
0.0
 40
0.0
 40
0.0
 40
0.0
 40
0.0450030444519004
 40
0.1924547383736289
 40
0.4101035079917435
 40
0.6281156181474836
 40
0.8446514255152129
 40
0.959762100966298
 40
0.9999999999999999
 40
0.9999999999999999
 40
0.9999999999999999
 40
0.9999999999999999
 10
1085.019076786577
 20
380.3790389299526
 30
0.0
 10
1084.999133755082
 20
380.3916706656103
 30
0.0
 10
1084.913847727092
 20
380.4456900638714
 30
0.0
 10
1084.697893543615
 20
380.4765922180145
 30
0.0
 10
1084.427710696503
 20
380.5194345537413
 30
0.0
 10
1084.192149319905
 20
380.5542099359524
 30
0.0
 10
1084.079627810194
 20
380.599105547369
 30
0.0
 10
1084.053097650226
 20
380.6640721752068
 30
0.0
 10
1084.051965773116
 20
380.71205614548
 30
0.0
 10
1084.051672597868
 20
380.7244848025017
 30
0.0
  0
SPLINE
  5
1C5
330
1F
100
AcDbEntity
  8
0
  6
Continuous
 62
     7
370
    15
100
AcDbSpline
210
0.0
220
0.0
230
1.0
 70
     8
 71
     3
 72
    15
 73
    11
 74
     0
 42
0.00000001
 43
0.00000001
 12
1.0
 22
0.0
 32
0.0
 13
1.0
 23
0.0
 33
0.0
 40
0.0
 40
0.0
 40
0.0
 40
0.0
 40
0.0802877089726522
 40
0.2296499816480054
 40
0.4389296531616562
 40
0.649732450384002
 40
0.866513924576168
 40
0.9462885555629001
 40
0.9895230058021713
 40
1.0
 40
1.0
 40
1.0
 40
1.0
 10
1087.051672597868
 20
380.7244848025017
 30
0.0
 10
1087.050473962609
 20
380.7013768739676
 30
0.0
 10
1087.047045460678
 20
380.6352803888186
 30
0.0
 10
1086.994259254354
 20
380.5830731580594
 30
0.0
 10
1086.847106534299
 20
380.5425055742097
 30
0.0
 10
1086.595031434906
 20
380.5071045110599
 30
0.0
 10
1086.344996099682
 20
380.4727321976691
 30
0.0
 10
1086.175389274049
 20
380.4281977675727
 30
0.0
 10
1086.109627857177
 20
380.4010516311167
 30
0.0
 10
1086.088407640351
 20
380.3826318970133
 30
0.0
 10
1086.084268409114
 20
380.3790389300144
 30
0.0
  0
LWPOLYLINE
  5
1C6
330
1F
100
AcDbEntity
  8
0
  6
Continuous
 62
     7
370
    15
100
AcDbPolyline
 90
        3
 70
   128
 43
0.0
 10
1086.0516725979
 20
380.346838069
 10
1086.0561447226
 20
380.3512548553
 10
1086.0842684092
 20
380.37903893
  0
LINE
  5
1C7
330
1F
100
AcDbEntity
  8
0
  6
Continuous
 62
     7
370
    15
100
AcDbLine
 10
1085.0516725979
 20
380.346838069
 30
0.0
 11
1086.0516725979
 21
380.346838069
 31
0.0
  0
LWPOLYLINE
  5
1C8
330
1F
100
AcDbEntity
  8
0
  6
Continuous
 62
     7
370
    15
100
AcDbPolyline
 90
        3
 70
   128
 43
0.0
 10
1085.0190767866
 20
380.3790389299
 10
1085.0472004731
 20
380.3512548553
 10
1085.0516725979
 20
380.346838069
  0
LINE
  5
1C9
330
1F
100
AcDbEntity
  8
0
  6
Continuous
 62
     7
370
    15
100
AcDbLine
 10
1073.948502045
 20
378.2572948592
 30
0.0
 11
1073.4197436612
 21
381.9490400824
 31
0.0
  0
LWPOLYLINE
  5
1CA
330
1F
100
AcDbEntity
  8
0
  6
Continuous
 62
     7
370
    15
100
AcDbPolyline
 90
        3
 70
   128
 43
0.0
 10
1073.9243810791
 20
378.2284730702
 10
1073.9264122765
 20
378.237487234
 10
1073.948502045
 20
378.2572948592
  0
LINE
  5
1CB
330
1F
100
AcDbEntity
  8
0
  6
Continuous
 62
     7
370
    15
100
AcDbLine
 10
1097.6836015346
 20
381.9490400824
 30
0.0
 11
1097.1548431507
 21
378.2572948592
 31
0.0
  0
LWPOLYLINE
  5
1CC
330
1F
100
AcDbEntity
  8
0
  6
Continuous
 62
     7
370
    15
100
AcDbPolyline
 90
        3
 70
   128
 43
0.0
 10
1097.1548431507
 20
378.2572948592
 10
1097.1769329192
 20
378.237487234
 10
1097.1789641166
 20
378.2284730702
  0
LWPOLYLINE
  5
1CD
330
1F
100
AcDbEntity
  8
0
  6
Continuous
 62
     7
370
    15
100
AcDbPolyline
 90
        3
 70
   128
 43
0.0
 10
1075.885001135
 20
373.4237996607
 10
1075.8858477077
 20
373.52354172
 10
1075.884858086
 20
373.631381888
  0
LINE
  5
1CE
330
1F
100
AcDbEntity
  8
0
  6
Continuous
 62
     7
370
    15
100
AcDbLine
 10
1071.4567924644
 20
381.9594824977
 30
0.0
 11
1073.948502045
 21
368.7897885807
 31
0.0
  0
LINE
  5
1CF
330
1F
100
AcDbEntity
  8
0
  6
Continuous
 62
     7
370
    15
100
AcDbLine
 10
1097.1548431507
 20
368.7897885807
 30
0.0
 11
1099.6465527313
 21
381.9594824977
 31
0.0
  0
LINE
  5
1D0
330
1F
100
AcDbEntity
  8
0
  6
Continuous
 62
     7
370
    15
100
AcDbLine
 10
1095.2258366341
 20
373.8365773547
 30
0.0
 11
1095.2184871097
 21
373.631381888
 31
0.0
  0
LINE
  5
1D1
330
1F
100
AcDbEntity
  8
0
  6
Continuous
 62
     7
370
    15
100
AcDbLine
 10
1085.0516725979
 20
379.5526408248
 30
0.0
 11
1085.0516725979
 21
380.346838069
 31
0.0
  0
ARC
  5
1D2
330
1F
100
AcDbEntity
  8
0
  6
Continuous
 62
     7
370
    15
100
AcDbCircle
 10
1085.0277997222
 20
378.5764828816
 30
0.0
 40
0.9764498166439377
100
AcDbArc
 50
88.5990561917
 51
178.5269450075
  0
ARC
  5
1D3
330
1F
100
AcDbEntity
  8
0
  6
Continuous
 62
     7
370
    15
100
AcDbCircle
 10
1086.0755454736
 20
378.5764828816
 30
0.0
 40
0.9764498166443931
100
AcDbArc
 50
1.4730549926
 51
91.4009438083
  0
LINE
  5
1D4
330
1F
100
AcDbEntity
  8
0
  6
Continuous
 62
     7
370
    15
100
AcDbLine
 10
1086.0516725979
 20
380.346838069
 30
0.0
 11
1086.0516725979
 21
379.5526408248
 31
0.0
  0
ARC
  5
1D5
330
1F
100
AcDbEntity
  8
0
  6
Continuous
 62
     7
370
    15
100
AcDbCircle
 10
1095.5557184674
 20
378.3721412564
 30
0.0
 40
1.159045746516634
100
AcDbArc
 50
302.9702880511
 51
351.1198026018
  0
ARC
  5
1D6
330
1F
100
AcDbEntity
  8
0
  6
Continuous
 62
     7
370
    15
100
AcDbCircle
 10
1086.098467157
 20
327.3108991164
 30
0.0
 40
51.09463329346499
100
AcDbArc
 50
78.6128353668
 51
88.9310459101
  0
SPLINE
  5
1D7
330
1F
100
AcDbEntity
  8
0
  6
Continuous
 62
     7
370
    15
100
AcDbSpline
210
0.0
220
0.0
230
1.0
 70
    24
 71
     3
 72
    11
 73
     7
 74
     0
 42
0.00000001
 43
0.00000001
 12
1.0
 22
0.0
 32
0.0
 13
1.0
 23
0.0
 33
0.0
 40
0.0
 40
0.0
 40
0.0
 40
0.0
 40
0.2947335968589367
 40
0.5894836108223117
 40
0.8837752324727164
 40
1.0
 40
1.0
 40
1.0
 40
1.0
 10
1087.051672597868
 20
378.3966402853947
 30
0.0
 10
1087.051672597868
 20
378.4421349316772
 30
0.0
 10
1087.051672597868
 20
378.5331267583625
 30
0.0
 10
1087.051672597868
 20
378.7907627342449
 30
0.0
 10
1087.051672597868
 20
379.0409355120749
 30
0.0
 10
1087.051672597868
 20
379.196131743458
 30
0.0
 10
1087.051672597868
 20
379.2400706613407
 30
0.0
  0
ARC
  5
1D8
330
1F
100
AcDbEntity
  8
0
  6
Continuous
 62
     7
370
    15
100
AcDbCircle
 10
1085.0048780387
 20
327.3108991164
 30
0.0
 40
51.09463329354173
100
AcDbArc
 50
91.0689540899
 51
101.3871646332
  0
ARC
  5
1D9
330
1F
100
AcDbEntity
  8
0
  6
Continuous
 62
     7
370
    15
100
AcDbCircle
 10
1075.5476267283
 20
378.3721412564
 30
0.0
 40
1.159045746516424
100
AcDbArc
 50
188.8801973982
 51
237.0297119489
  0
SPLINE
  5
1DA
330
1F
100
AcDbEntity
  8
0
  6
Continuous
 62
     7
370
    15
100
AcDbSpline
210
0.0
220
0.0
230
1.0
 70
    24
 71
     3
 72
    11
 73
     7
 74
     0
 42
0.00000001
 43
0.00000001
 12
1.0
 22
0.0
 32
0.0
 13
1.0
 23
0.0
 33
0.0
 40
0.0
 40
0.0
 40
0.0
 40
0.0
 40
0.2933118760926005
 40
0.5865991201418539
 40
0.8805021461501891
 40
1.0
 40
1.0
 40
1.0
 40
1.0
 10
1084.051672597868
 20
379.2400706613407
 30
0.0
 10
1084.051672597868
 20
379.1293883761081
 30
0.0
 10
1084.051672597868
 20
378.9080331006326
 30
0.0
 10
1084.051672597868
 20
378.6301392399355
 30
0.0
 10
1084.051672597868
 20
378.4675428920297
 30
0.0
 10
1084.051672597868
 20
378.412539571299
 30
0.0
 10
1084.051672597868
 20
378.3966402853947
 30
0.0
  0
LWPOLYLINE
  5
1DB
330
1F
100
AcDbEntity
  8
0
  6
Continuous
 62
     7
370
    15
100
AcDbPolyline
 90
        9
 70
   128
 43
0.0
 10
1084.0516725979
 20
367.3357945242
 10
1084.1658532991
 20
367.1584109981
 10
1084.4910124261
 20
367.0080325058
 10
1084.9776474493
 20
366.9075528097
 10
1085.5516725979
 20
366.8722690326
 10
1086.1256977464
 20
366.9075528097
 10
1086.6123327696
 20
367.0080325058
 10
1086.9374918966
 20
367.1584109981
 10
1087.0516725979
 20
367.3357945242
  0
ARC
  5
1DC
330
1F
100
AcDbEntity
  8
0
  6
Continuous
 62
     7
370
    15
100
AcDbCircle
 10
1101.2283055227
 20
372.5890834286
 30
0.0
 40
6.968688654149011
100
AcDbArc
 50
136.3440107032
 51
223.6559892968
  0
ARC
  5
1DD
330
1F
100
AcDbEntity
  8
0
  6
Continuous
 62
     7
370
    15
100
AcDbCircle
 10
1085.5516725979
 20
422.1454829807
 30
0.0
 40
55.39745141893008
100
AcDbArc
 50
258.9320636459
 51
281.0679363541
  0
ARC
  5
1DE
330
1F
100
AcDbEntity
  8
0
  6
Continuous
 62
     7
370
    15
100
AcDbCircle
 10
1069.875039673
 20
372.5890834286
 30
0.0
 40
6.968688654148518
100
AcDbArc
 50
316.3440107032
 51
43.6559892968
  0
LINE
  5
1DF
330
1F
100
AcDbEntity
  8
0
  6
Continuous
 62
     7
370
    15
100
AcDbLine
 10
1084.0516725979
 20
378.3966402854
 30
0.0
 11
1084.0516725979
 21
367.3357945242
 31
0.0
  0
LINE
  5
1E0
330
1F
100
AcDbEntity
  8
0
  6
Continuous
 62
     7
370
    15
100
AcDbLine
 10
1087.0516725979
 20
367.3357945242
 30
0.0
 11
1087.0516725979
 21
378.3966402854
 31
0.0
  0
LINE
  5
1E1
330
1F
100
AcDbEntity
  8
0
  6
Continuous
 62
     7
370
    15
100
AcDbLine
 10
1086.0516725979
 20
379.5526408248
 30
0.0
 11
1085.0516725979
 21
379.5526408248
 31
0.0
  0
ARC
  5
1E2
330
1F
100
AcDbEntity
  8
0
  6
Continuous
 62
     7
370
    15
100
AcDbCircle
 10
1086.0755454736
 20
367.7862213553
 30
0.0
 40
0.9764498166444324
100
AcDbArc
 50
1.4730549926
 51
91.4009438083
  0
LINE
  5
1E3
330
1F
100
AcDbEntity
  8
0
  6
Continuous
 62
     7
370
    15
100
AcDbLine
 10
1086.0516725979
 20
368.7623792986
 30
0.0
 11
1086.0516725979
 21
379.5526408248
 31
0.0
  0
LINE
  5
1E4
330
1F
100
AcDbEntity
  8
0
  6
Continuous
 62
     7
370
    15
100
AcDbLine
 10
1085.0516725979
 20
379.5526408248
 30
0.0
 11
1085.0516725979
 21
368.7623792986
 31
0.0
  0
ARC
  5
1E5
330
1F
100
AcDbEntity
  8
0
  6
Continuous
 62
     7
370
    15
100
AcDbCircle
 10
1085.0277997222
 20
367.7862213553
 30
0.0
 40
0.976449816643824
100
AcDbArc
 50
88.5990561917
 51
178.5269450075
  0
LWPOLYLINE
  5
1E6
330
1F
100
AcDbEntity
  8
0
  6
Continuous
 62
     7
370
    15
100
AcDbPolyline
 90
        9
 70
   128
 43
0.0
 10
1085.0516725979
 20
368.7623792986
 10
1085.0897328316
 20
368.7032514566
 10
1085.1981192073
 20
368.6531252925
 10
1085.3603308817
 20
368.6196320605
 10
1085.5516725979
 20
368.6078708014
 10
1085.7430143141
 20
368.6196320605
 10
1085.9052259885
 20
368.6531252925
 10
1086.0136123641
 20
368.7032514566
 10
1086.0516725979
 20
368.7623792986
  0
ARC
  5
1E7
330
1F
100
AcDbEntity
  8
0
  6
Continuous
 62
     7
370
    15
100
AcDbCircle
 10
1096.0996164402
 20
368.8308577793
 30
0.0
 40
1.056025610322329
100
AcDbArc
 50
274.7179789945
 51
357.771185392
  0
ARC
  5
1E8
330
1F
100
AcDbEntity
  8
0
  6
Continuous
 62
     7
370
    15
100
AcDbCircle
 10
1075.0037287556
 20
368.8308577793
 30
0.0
 40
1.056025610322463
100
AcDbArc
 50
182.228814608
 51
265.2820210055
  0
LWPOLYLINE
  5
1E9
330
1F
100
AcDbEntity
  8
0
  6
Continuous
 62
     7
370
    15
100
AcDbPolyline
 90
        3
 70
   128
 43
0.0
 10
1073.9303413457
 20
368.5658743478
 10
1073.9283517906
 20
368.5790921902
 10
1073.9279446724
 20
368.5821823803
  0
LWPOLYLINE
  5
1EA
330
1F
100
AcDbEntity
  8
0
  6
Continuous
 62
     7
370
    15
100
AcDbPolyline
 90
        9
 70
   128
 43
0.0
 10
1087.0516725979
 20
367.8113227823
 10
1086.9374918966
 20
367.6339392562
 10
1086.6123327696
 20
367.483560764
 10
1086.1256977464
 20
367.3830810679
 10
1085.5516725979
 20
367.3477972908
 10
1084.9776474493
 20
367.3830810679
 10
1084.4910124261
 20
367.483560764
 10
1084.1658532991
 20
367.6339392562
 10
1084.0516725979
 20
367.8113227823
  0
ARC
  5
1EB
330
1F
100
AcDbEntity
  8
0
  6
Continuous
 62
     7
370
    15
100
AcDbCircle
 10
986.11391223
 20
325.6028766485
 30
0.0
 40
53.64539100497262
100
AcDbArc
 50
78.6179185718
 51
88.9983771753
  0
LINE
  5
1EC
330
1F
100
AcDbEntity
  8
0
  6
Continuous
 62
     7
370
    15
100
AcDbLine
 10
987.0516725979
 20
379.2400706613
 30
0.0
 11
987.0516725979
 21
380.7099253008
 31
0.0
  0
LINE
  5
1ED
330
1F
100
AcDbEntity
  8
0
  6
Continuous
 62
     7
370
    15
100
AcDbLine
 10
986.971044238
 20
381.9490400824
 30
0.0
 11
987.0516725979
 21
380.7099253008
 31
0.0
  0
LINE
  5
1EE
330
1F
100
AcDbEntity
  8
0
  6
Continuous
 62
     7
370
    15
100
AcDbLine
 10
984.1323009578
 20
381.9490400824
 30
0.0
 11
984.0516725979
 21
380.7099253008
 31
0.0
  0
LINE
  5
1EF
330
1F
100
AcDbEntity
  8
0
  6
Continuous
 62
     7
370
    15
100
AcDbLine
 10
984.0516725979
 20
380.7099253008
 30
0.0
 11
984.0516725979
 21
379.2400706613
 31
0.0
  0
ARC
  5
1F0
330
1F
100
AcDbEntity
  8
0
  6
Continuous
 62
     7
370
    15
100
AcDbCircle
 10
984.9894329658
 20
325.6028766486
 30
0.0
 40
53.64539100493882
100
AcDbArc
 50
91.0016228247
 51
101.3820814282
  0
SPLINE
  5
1F1
330
1F
100
AcDbEntity
  8
0
  6
Continuous
 62
     7
370
    15
100
AcDbSpline
210
0.0
220
0.0
230
1.0
 70
     8
 71
     3
 72
    14
 73
    10
 74
     0
 42
0.00000001
 43
0.00000001
 12
1.0
 22
0.0
 32
0.0
 13
1.0
 23
0.0
 33
0.0
 40
0.0
 40
0.0
 40
0.0
 40
0.0
 40
0.0450030444518998
 40
0.1924547383736224
 40
0.4101035079917338
 40
0.6281156181474837
 40
0.8446514255151939
 40
0.9597621009662641
 40
1.0
 40
1.0
 40
1.0
 40
1.0
 10
985.0190767865756
 20
380.3790389299507
 30
0.0
 10
984.9991337550806
 20
380.3916706656084
 30
0.0
 10
984.9138477270907
 20
380.4456900638693
 30
0.0
 10
984.6978935436138
 20
380.4765922180129
 30
0.0
 10
984.4277106965015
 20
380.5194345537395
 30
0.0
 10
984.1921493199039
 20
380.5542099359506
 30
0.0
 10
984.0796278101933
 20
380.5991055473671
 30
0.0
 10
984.053097650225
 20
380.6640721752049
 30
0.0
 10
984.0519657731152
 20
380.712056145478
 30
0.0
 10
984.0516725978671
 20
380.7244848024998
 30
0.0
  0
SPLINE
  5
1F2
330
1F
100
AcDbEntity
  8
0
  6
Continuous
 62
     7
370
    15
100
AcDbSpline
210
0.0
220
0.0
230
1.0
 70
     8
 71
     3
 72
    15
 73
    11
 74
     0
 42
0.00000001
 43
0.00000001
 12
1.0
 22
0.0
 32
0.0
 13
1.0
 23
0.0
 33
0.0
 40
0.0
 40
0.0
 40
0.0
 40
0.0
 40
0.0802877089726673
 40
0.2296499816480206
 40
0.4389296531616561
 40
0.649732450384002
 40
0.866513924576168
 40
0.9462885555629001
 40
0.9895230058021713
 40
1.0
 40
1.0
 40
1.0
 40
1.0
 10
987.051672597867
 20
380.7244848024998
 30
0.0
 10
987.0504739626081
 20
380.7013768739657
 30
0.0
 10
987.0470454606774
 20
380.6352803888169
 30
0.0
 10
986.9942592543528
 20
380.5830731580575
 30
0.0
 10
986.8471065342977
 20
380.5425055742076
 30
0.0
 10
986.5950314349052
 20
380.5071045110579
 30
0.0
 10
986.3449960996812
 20
380.4727321976673
 30
0.0
 10
986.1753892740484
 20
380.4281977675707
 30
0.0
 10
986.1096278571763
 20
380.401051631115
 30
0.0
 10
986.0884076403495
 20
380.3826318970114
 30
0.0
 10
986.0842684091131
 20
380.3790389300124
 30
0.0
  0
LWPOLYLINE
  5
1F3
330
1F
100
AcDbEntity
  8
0
  6
Continuous
 62
     7
370
    15
100
AcDbPolyline
 90
        3
 70
   128
 43
0.0
 10
986.0516725979
 20
380.346838069
 10
986.0561447226
 20
380.3512548553
 10
986.0842684092
 20
380.37903893
  0
LINE
  5
1F4
330
1F
100
AcDbEntity
  8
0
  6
Continuous
 62
     7
370
    15
100
AcDbLine
 10
985.0516725979
 20
380.346838069
 30
0.0
 11
986.0516725979
 21
380.346838069
 31
0.0
  0
LWPOLYLINE
  5
1F5
330
1F
100
AcDbEntity
  8
0
  6
Continuous
 62
     7
370
    15
100
AcDbPolyline
 90
        3
 70
   128
 43
0.0
 10
985.0190767866
 20
380.3790389299
 10
985.0472004731
 20
380.3512548553
 10
985.0516725979
 20
380.346838069
  0
LINE
  5
1F6
330
1F
100
AcDbEntity
  8
0
  6
Continuous
 62
     7
370
    15
100
AcDbLine
 10
973.948502045
 20
378.2572948592
 30
0.0
 11
973.4197436612
 21
381.9490400824
 31
0.0
  0
LWPOLYLINE
  5
1F7
330
1F
100
AcDbEntity
  8
0
  6
Continuous
 62
     7
370
    15
100
AcDbPolyline
 90
        3
 70
   128
 43
0.0
 10
973.9243810791
 20
378.2284730702
 10
973.9264122765
 20
378.237487234
 10
973.948502045
 20
378.2572948592
  0
LINE
  5
1F8
330
1F
100
AcDbEntity
  8
0
  6
Continuous
 62
     7
370
    15
100
AcDbLine
 10
997.6836015346
 20
381.9490400824
 30
0.0
 11
997.1548431507
 21
378.2572948592
 31
0.0
  0
LWPOLYLINE
  5
1F9
330
1F
100
AcDbEntity
  8
0
  6
Continuous
 62
     7
370
    15
100
AcDbPolyline
 90
        3
 70
   128
 43
0.0
 10
997.1548431507
 20
378.2572948592
 10
997.1769329192
 20
378.237487234
 10
997.1789641166
 20
378.2284730702
  0
LWPOLYLINE
  5
1FA
330
1F
100
AcDbEntity
  8
0
  6
Continuous
 62
     7
370
    15
100
AcDbPolyline
 90
        3
 70
   128
 43
0.0
 10
975.885001135
 20
373.4237996607
 10
975.8858477077
 20
373.52354172
 10
975.884858086
 20
373.631381888
  0
LINE
  5
1FB
330
1F
100
AcDbEntity
  8
0
  6
Continuous
 62
     7
370
    15
100
AcDbLine
 10
971.4567924644
 20
381.9594824977
 30
0.0
 11
973.948502045
 21
368.7897885807
 31
0.0
  0
LINE
  5
1FC
330
1F
100
AcDbEntity
  8
0
  6
Continuous
 62
     7
370
    15
100
AcDbLine
 10
997.1548431507
 20
368.7897885807
 30
0.0
 11
999.6465527313
 21
381.9594824977
 31
0.0
  0
LINE
  5
1FD
330
1F
100
AcDbEntity
  8
0
  6
Continuous
 62
     7
370
    15
100
AcDbLine
 10
995.2258366341
 20
373.8365773547
 30
0.0
 11
995.2184871097
 21
373.631381888
 31
0.0
  0
LINE
  5
1FE
330
1F
100
AcDbEntity
  8
0
  6
Continuous
 62
     7
370
    15
100
AcDbLine
 10
985.0516725979
 20
379.5526408248
 30
0.0
 11
985.0516725979
 21
380.346838069
 31
0.0
  0
ARC
  5
1FF
330
1F
100
AcDbEntity
  8
0
  6
Continuous
 62
     7
370
    15
100
AcDbCircle
 10
985.0277997222
 20
378.5764828816
 30
0.0
 40
0.9764498166443244
100
AcDbArc
 50
88.5990561917
 51
178.5269450074
  0
ARC
  5
200
330
1F
100
AcDbEntity
  8
0
  6
Continuous
 62
     7
370
    15
100
AcDbCircle
 10
986.0755454736
 20
378.5764828816
 30
0.0
 40
0.9764498166440971
100
AcDbArc
 50
1.4730549925
 51
91.4009438083
  0
LINE
  5
201
330
1F
100
AcDbEntity
  8
0
  6
Continuous
 62
     7
370
    15
100
AcDbLine
 10
986.0516725979
 20
380.346838069
 30
0.0
 11
986.0516725979
 21
379.5526408248
 31
0.0
  0
ARC
  5
202
330
1F
100
AcDbEntity
  8
0
  6
Continuous
 62
     7
370
    15
100
AcDbCircle
 10
995.5557184674
 20
378.3721412564
 30
0.0
 40
1.159045746514886
100
AcDbArc
 50
302.9702880511
 51
351.1198026019
  0
ARC
  5
203
330
1F
100
AcDbEntity
  8
0
  6
Continuous
 62
     7
370
    15
100
AcDbCircle
 10
986.098467157
 20
327.3108991164
 30
0.0
 40
51.09463329348467
100
AcDbArc
 50
78.6128353668
 51
88.9310459101
  0
SPLINE
  5
204
330
1F
100
AcDbEntity
  8
0
  6
Continuous
 62
     7
370
    15
100
AcDbSpline
210
0.0
220
0.0
230
1.0
 70
    24
 71
     3
 72
    11
 73
     7
 74
     0
 42
0.00000001
 43
0.00000001
 12
1.0
 22
0.0
 32
0.0
 13
1.0
 23
0.0
 33
0.0
 40
0.0
 40
0.0
 40
0.0
 40
0.0
 40
0.2947335968589367
 40
0.5894836108223117
 40
0.8837752324727164
 40
1.0
 40
1.0
 40
1.0
 40
1.0
 10
987.051672597867
 20
378.3966402853928
 30
0.0
 10
987.051672597867
 20
378.4421349316753
 30
0.0
 10
987.0516725978672
 20
378.5331267583606
 30
0.0
 10
987.051672597867
 20
378.790762734243
 30
0.0
 10
987.051672597867
 20
379.0409355120731
 30
0.0
 10
987.051672597867
 20
379.1961317434561
 30
0.0
 10
987.051672597867
 20
379.2400706613388
 30
0.0
  0
ARC
  5
205
330
1F
100
AcDbEntity
  8
0
  6
Continuous
 62
     7
370
    15
100
AcDbCircle
 10
985.0048780387
 20
327.3108991164
 30
0.0
 40
51.09463329352983
100
AcDbArc
 50
91.0689540899
 51
101.3871646332
  0
ARC
  5
206
330
1F
100
AcDbEntity
  8
0
  6
Continuous
 62
     7
370
    15
100
AcDbCircle
 10
975.5476267283
 20
378.3721412564
 30
0.0
 40
1.159045746516158
100
AcDbArc
 50
188.8801973982
 51
237.0297119489
  0
SPLINE
  5
207
330
1F
100
AcDbEntity
  8
0
  6
Continuous
 62
     7
370
    15
100
AcDbSpline
210
0.0
220
0.0
230
1.0
 70
    24
 71
     3
 72
    11
 73
     7
 74
     0
 42
0.00000001
 43
0.00000001
 12
1.0
 22
0.0
 32
0.0
 13
1.0
 23
0.0
 33
0.0
 40
0.0
 40
0.0
 40
0.0
 40
0.0
 40
0.2933118760926005
 40
0.5865991201418539
 40
0.8805021461501891
 40
1.0
 40
1.0
 40
1.0
 40
1.0
 10
984.0516725978671
 20
379.2400706613388
 30
0.0
 10
984.0516725978671
 20
379.1293883761062
 30
0.0
 10
984.0516725978671
 20
378.9080331006307
 30
0.0
 10
984.0516725978671
 20
378.6301392399338
 30
0.0
 10
984.0516725978671
 20
378.4675428920278
 30
0.0
 10
984.0516725978671
 20
378.412539571297
 30
0.0
 10
984.0516725978671
 20
378.3966402853928
 30
0.0
  0
LWPOLYLINE
  5
208
330
1F
100
AcDbEntity
  8
0
  6
Continuous
 62
     7
370
    15
100
AcDbPolyline
 90
        9
 70
   128
 43
0.0
 10
984.0516725979
 20
367.3357945242
 10
984.1658532991
 20
367.1584109981
 10
984.4910124261
 20
367.0080325058
 10
984.9776474493
 20
366.9075528097
 10
985.5516725979
 20
366.8722690326
 10
986.1256977464
 20
366.9075528097
 10
986.6123327696
 20
367.0080325058
 10
986.9374918966
 20
367.1584109981
 10
987.0516725979
 20
367.3357945242
  0
ARC
  5
209
330
1F
100
AcDbEntity
  8
0
  6
Continuous
 62
     7
370
    15
100
AcDbCircle
 10
1001.2283055227
 20
372.5890834286
 30
0.0
 40
6.968688654148972
100
AcDbArc
 50
136.3440107032
 51
223.6559892968
  0
ARC
  5
20A
330
1F
100
AcDbEntity
  8
0
  6
Continuous
 62
     7
370
    15
100
AcDbCircle
 10
985.5516725979
 20
422.1454829807
 30
0.0
 40
55.39745141892658
100
AcDbArc
 50
258.9320636459
 51
281.0679363541
  0
ARC
  5
20B
330
1F
100
AcDbEntity
  8
0
  6
Continuous
 62
     7
370
    15
100
AcDbCircle
 10
969.875039673
 20
372.5890834286
 30
0.0
 40
6.9686886541493
100
AcDbArc
 50
316.3440107032
 51
43.6559892968
  0
LINE
  5
20C
330
1F
100
AcDbEntity
  8
0
  6
Continuous
 62
     7
370
    15
100
AcDbLine
 10
984.0516725979
 20
378.3966402854
 30
0.0
 11
984.0516725979
 21
367.3357945242
 31
0.0
  0
LINE
  5
20D
330
1F
100
AcDbEntity
  8
0
  6
Continuous
 62
     7
370
    15
100
AcDbLine
 10
987.0516725979
 20
367.3357945242
 30
0.0
 11
987.0516725979
 21
378.3966402854
 31
0.0
  0
LINE
  5
20E
330
1F
100
AcDbEntity
  8
0
  6
Continuous
 62
     7
370
    15
100
AcDbLine
 10
986.0516725979
 20
379.5526408248
 30
0.0
 11
985.0516725979
 21
379.5526408248
 31
0.0
  0
LINE
  5
20F
330
1F
100
AcDbEntity
  8
0
  6
Continuous
 62
     7
370
    15
100
AcDbLine
 10
985.0516725979
 20
379.5526408248
 30
0.0
 11
985.0516725979
 21
368.7623792986
 31
0.0
  0
ARC
  5
210
330
1F
100
AcDbEntity
  8
0
  6
Continuous
 62
     7
370
    15
100
AcDbCircle
 10
985.0277997222
 20
367.7862213553
 30
0.0
 40
0.9764498166442676
100
AcDbArc
 50
88.5990561917
 51
178.5269450074
  0
ARC
  5
211
330
1F
100
AcDbEntity
  8
0
  6
Continuous
 62
     7
370
    15
100
AcDbCircle
 10
986.0755454736
 20
367.7862213553
 30
0.0
 40
0.9764498166443946
100
AcDbArc
 50
1.4730549926
 51
91.4009438083
  0
LINE
  5
212
330
1F
100
AcDbEntity
  8
0
  6
Continuous
 62
     7
370
    15
100
AcDbLine
 10
986.0516725979
 20
368.7623792986
 30
0.0
 11
986.0516725979
 21
379.5526408248
 31
0.0
  0
LWPOLYLINE
  5
213
330
1F
100
AcDbEntity
  8
0
  6
Continuous
 62
     7
370
    15
100
AcDbPolyline
 90
        9
 70
   128
 43
0.0
 10
985.0516725979
 20
368.7623792986
 10
985.0897328316
 20
368.7032514566
 10
985.1981192073
 20
368.6531252925
 10
985.3603308817
 20
368.6196320605
 10
985.5516725979
 20
368.6078708014
 10
985.743014314
 20
368.6196320605
 10
985.9052259885
 20
368.6531252925
 10
986.0136123641
 20
368.7032514566
 10
986.0516725979
 20
368.7623792986
  0
ARC
  5
214
330
1F
100
AcDbEntity
  8
0
  6
Continuous
 62
     7
370
    15
100
AcDbCircle
 10
996.0996164402
 20
368.8308577793
 30
0.0
 40
1.056025610322213
100
AcDbArc
 50
274.7179789945
 51
357.771185392
  0
ARC
  5
215
330
1F
100
AcDbEntity
  8
0
  6
Continuous
 62
     7
370
    15
100
AcDbCircle
 10
975.0037287556
 20
368.8308577793
 30
0.0
 40
1.056025610322086
100
AcDbArc
 50
182.228814608
 51
265.2820210055
  0
LWPOLYLINE
  5
216
330
1F
100
AcDbEntity
  8
0
  6
Continuous
 62
     7
370
    15
100
AcDbPolyline
 90
        3
 70
   128
 43
0.0
 10
973.9303413457
 20
368.5658743477
 10
973.9283517906
 20
368.5790921902
 10
973.9279446724
 20
368.5821823803
  0
LWPOLYLINE
  5
217
330
1F
100
AcDbEntity
  8
0
  6
Continuous
 62
     7
370
    15
100
AcDbPolyline
 90
        9
 70
   128
 43
0.0
 10
987.0516725979
 20
367.8113227823
 10
986.9374918966
 20
367.6339392562
 10
986.6123327696
 20
367.483560764
 10
986.1256977464
 20
367.3830810679
 10
985.5516725979
 20
367.3477972908
 10
984.9776474493
 20
367.3830810679
 10
984.4910124261
 20
367.483560764
 10
984.1658532991
 20
367.6339392562
 10
984.0516725979
 20
367.8113227823
  0
LINE
  5
218
330
1F
100
AcDbEntity
  8
0
  6
Continuous
 62
     7
370
    15
100
AcDbLine
 10
844.5016725979
 20
381.9490400824
 30
0.0
 11
844.5016725979
 21
380.7567405766
 31
0.0
  0
LINE
  5
219
330
1F
100
AcDbEntity
  8
0
  6
Continuous
 62
     7
370
    15
100
AcDbLine
 10
844.5016725979
 20
380.7567405766
 30
0.0
 11
674.5016725979
 21
380.7567405766
 31
0.0
  0
LINE
  5
21A
330
1F
100
AcDbEntity
  8
0
  6
Continuous
 62
     7
370
    15
100
AcDbLine
 10
674.5016725979
 20
381.9490400824
 30
0.0
 11
674.5016725979
 21
380.7567405766
 31
0.0
  0
LINE
  5
21B
330
1F
100
AcDbEntity
  8
0
  6
Continuous
 62
     7
370
    15
100
AcDbLine
 10
844.5016725979
 20
380.7567405766
 30
0.0
 11
844.5016725979
 21
378.5916371849
 31
0.0
  0
LWPOLYLINE
  5
21C
330
1F
100
AcDbEntity
  8
0
  6
Continuous
 62
     7
370
    15
100
AcDbPolyline
 90
        9
 70
   128
 43
0.0
 10
834.5016725979
 20
375.4986323397
 10
836.452575818
 20
375.5580635605
 10
838.3285069215
 20
375.7340733144
 10
840.0573749281
 20
376.0198976454
 10
841.5727404097
 20
376.4045524846
 10
842.8163687209
 20
376.8732557623
 10
843.740467923
 20
377.4079954744
 10
844.3095254019
 20
377.9882218737
 10
844.5016725979
 20
378.5916371849
  0
LINE
  5
21D
330
1F
100
AcDbEntity
  8
0
  6
Continuous
 62
     7
370
    15
100
AcDbLine
 10
834.5016725979
 20
375.4986323397
 30
0.0
 11
684.5016725979
 21
375.4986323397
 31
0.0
  0
LWPOLYLINE
  5
21E
330
1F
100
AcDbEntity
  8
0
  6
Continuous
 62
     7
370
    15
100
AcDbPolyline
 90
        9
 70
   128
 43
0.0
 10
674.5016725979
 20
378.5916371849
 10
674.6938197938
 20
377.9882218737
 10
675.2628772728
 20
377.4079954744
 10
676.1869764748
 20
376.8732557623
 10
677.430604786
 20
376.4045524846
 10
678.9459702677
 20
376.0198976454
 10
680.6748382742
 20
375.7340733144
 10
682.5507693777
 20
375.5580635605
 10
684.5016725979
 20
375.4986323397
  0
LINE
  5
21F
330
1F
100
AcDbEntity
  8
0
  6
Continuous
 62
     7
370
    15
100
AcDbLine
 10
674.5016725979
 20
380.7567405766
 30
0.0
 11
674.5016725979
 21
378.5916371849
 31
0.0
  0
ARC
  5
220
330
1F
100
AcDbEntity
  8
0
  6
Continuous
 62
     7
370
    15
100
AcDbCircle
 10
1074.3669804562
 20
374.769328932
 30
0.0
 40
1.815328789264734
100
AcDbArc
 50
180.2751403211
 51
221.1227580923
  0
LINE
  5
221
330
1F
100
AcDbEntity
  8
0
  6
Continuous
 62
     7
370
    15
100
AcDbLine
 10
1435.5516725979
 20
370.062148463
 30
0.0
 11
1435.5516725979
 21
382.7658485809
 31
0.0
  0
LINE
  5
222
330
1F
100
AcDbEntity
  8
0
  6
Continuous
 62
     7
370
    15
100
AcDbLine
 10
635.5516725979
 20
370.062148463
 30
0.0
 11
635.5516725979
 21
382.7658485809
 31
0.0
  0
ARC
  5
223
330
1F
100
AcDbEntity
  8
0
  6
Continuous
 62
     7
370
    15
100
AcDbCircle
 10
1074.3662628866
 20
374.8033747709
 30
0.0
 40
1.814610484367957
100
AcDbArc
 50
180.270317987
 51
220.6340608915
  0
LINE
  5
224
330
1F
100
AcDbEntity
  8
0
  6
Continuous
 62
     7
370
    15
100
AcDbLine
 10
1435.5516725979
 20
362.9559660109
 30
0.0
 11
1435.5516725979
 21
370.062148463
 31
0.0
  0
LINE
  5
225
330
1F
100
AcDbEntity
  8
0
  6
Continuous
 62
     7
370
    15
100
AcDbLine
 10
635.5516725979
 20
362.9559660109
 30
0.0
 11
635.5516725979
 21
370.062148463
 31
0.0
  0
LINE
  5
226
330
1F
100
AcDbEntity
  8
0
  6
Continuous
 62
     7
370
    15
100
AcDbLine
 10
1435.5516725979
 20
405.7658485809
 30
0.0
 11
1434.3516725979
 21
405.7658485809
 31
0.0
  0
LINE
  5
227
330
1F
100
AcDbEntity
  8
0
  6
Continuous
 62
     7
370
    15
100
AcDbLine
 10
1435.5516725979
 20
382.7658485809
 30
0.0
 11
1435.5516725979
 21
405.7658485809
 31
0.0
  0
LINE
  5
228
330
1F
100
AcDbEntity
  8
0
  6
Continuous
 62
     7
370
    15
100
AcDbLine
 10
1435.5516725979
 20
496.7658485809
 30
0.0
 11
1434.3516725979
 21
496.7658485809
 31
0.0
  0
LINE
  5
229
330
1F
100
AcDbEntity
  8
0
  6
Continuous
 62
     7
370
    15
100
AcDbLine
 10
1435.5516725979
 20
405.7658485809
 30
0.0
 11
1435.5516725979
 21
496.7658485809
 31
0.0
  0
LINE
  5
22A
330
1F
100
AcDbEntity
  8
0
  6
Continuous
 62
     7
370
    15
100
AcDbLine
 10
1435.5516725979
 20
498.7658485809
 30
0.0
 11
1434.3516725979
 21
498.7658485809
 31
0.0
  0
LINE
  5
22B
330
1F
100
AcDbEntity
  8
0
  6
Continuous
 62
     7
370
    15
100
AcDbLine
 10
1435.5516725979
 20
496.7658485809
 30
0.0
 11
1435.5516725979
 21
498.7658485809
 31
0.0
  0
LINE
  5
22C
330
1F
100
AcDbEntity
  8
0
  6
Continuous
 62
     7
370
    15
100
AcDbLine
 10
636.7516725979
 20
496.7658485809
 30
0.0
 11
635.5516725979
 21
496.7658485809
 31
0.0
  0
LINE
  5
22D
330
1F
100
AcDbEntity
  8
0
  6
Continuous
 62
     7
370
    15
100
AcDbLine
 10
636.7516725979
 20
405.7658485809
 30
0.0
 11
635.5516725979
 21
405.7658485809
 31
0.0
  0
LINE
  5
22E
330
1F
100
AcDbEntity
  8
0
  6
Continuous
 62
     7
370
    15
100
AcDbLine
 10
635.5516725979
 20
405.7658485809
 30
0.0
 11
635.5516725979
 21
496.7658485809
 31
0.0
  0
LINE
  5
22F
330
1F
100
AcDbEntity
  8
0
  6
Continuous
 62
     7
370
    15
100
AcDbLine
 10
635.5516725979
 20
382.7658485809
 30
0.0
 11
635.5516725979
 21
405.7658485809
 31
0.0
  0
LINE
  5
230
330
1F
100
AcDbEntity
  8
0
  6
Continuous
 62
     7
370
    15
100
AcDbLine
 10
636.7516725979
 20
498.7658485809
 30
0.0
 11
635.5516725979
 21
498.7658485809
 31
0.0
  0
LINE
  5
231
330
1F
100
AcDbEntity
  8
0
  6
Continuous
 62
     7
370
    15
100
AcDbLine
 10
635.5516725979
 20
496.7658485809
 30
0.0
 11
635.5516725979
 21
498.7658485809
 31
0.0
  0
LINE
  5
232
330
1F
100
AcDbEntity
  8
0
  6
Continuous
 62
     7
370
    15
100
AcDbLine
 10
1434.3516725979
 20
499.0158485809
 30
0.0
 11
1431.5516725979
 21
499.0158485809
 31
0.0
  0
LINE
  5
233
330
1F
100
AcDbEntity
  8
0
  6
Continuous
 62
     7
370
    15
100
AcDbLine
 10
639.5516725979
 20
499.0158485809
 30
0.0
 11
636.7516725979
 21
499.0158485809
 31
0.0
  0
LINE
  5
234
330
1F
100
AcDbEntity
  8
0
  6
Continuous
 62
     7
370
    15
100
AcDbLine
 10
1434.3516725979
 20
496.5658485809
 30
0.0
 11
1434.3516725979
 21
499.0158485809
 31
0.0
  0
LINE
  5
235
330
1F
100
AcDbEntity
  8
0
  6
Continuous
 62
     7
370
    15
100
AcDbLine
 10
636.7516725979
 20
496.5658485809
 30
0.0
 11
636.7516725979
 21
499.0158485809
 31
0.0
  0
LINE
  5
236
330
1F
100
AcDbEntity
  8
0
  6
Continuous
 62
     7
370
    15
100
AcDbLine
 10
1434.3516725979
 20
405.2490400824
 30
0.0
 11
636.7516725979
 21
405.2490400824
 31
0.0
  0
LINE
  5
237
330
1F
100
AcDbEntity
  8
0
  6
Continuous
 62
     7
370
    15
100
AcDbLine
 10
1434.3516725979
 20
381.9490400824
 30
0.0
 11
1434.3516725979
 21
405.2490400824
 31
0.0
  0
LINE
  5
238
330
1F
100
AcDbEntity
  8
0
  6
Continuous
 62
     7
370
    15
100
AcDbLine
 10
636.7516725979
 20
381.9490400824
 30
0.0
 11
636.7516725979
 21
405.2490400824
 31
0.0
  0
LINE
  5
239
330
1F
100
AcDbEntity
  8
0
  6
Continuous
 62
     7
370
    15
100
AcDbLine
 10
1434.3516725979
 20
405.2490400824
 30
0.0
 11
1434.3516725979
 21
496.5658485809
 31
0.0
  0
LINE
  5
23A
330
1F
100
AcDbEntity
  8
0
  6
Continuous
 62
     7
370
    15
100
AcDbLine
 10
636.7516725979
 20
405.2490400824
 30
0.0
 11
636.7516725979
 21
496.5658485809
 31
0.0
  0
LINE
  5
23B
330
1F
100
AcDbEntity
  8
0
  6
Continuous
 62
     7
370
    15
100
AcDbLine
 10
1433.0516725979
 20
499.0158485809
 30
0.0
 11
1433.0516725979
 21
500.0158485809
 31
0.0
  0
LINE
  5
23C
330
1F
100
AcDbEntity
  8
0
  6
Continuous
 62
     7
370
    15
100
AcDbLine
 10
638.0516725979
 20
500.0158485809
 30
0.0
 11
638.0516725979
 21
499.0158485809
 31
0.0
  0
LINE
  5
23D
330
1F
100
AcDbEntity
  8
0
  6
Continuous
 62
     7
370
    15
100
AcDbLine
 10
1435.5516725979
 20
500.2658485809
 30
0.0
 11
1435.5516725979
 21
1094.4158485809
 31
0.0
  0
LINE
  5
23E
330
1F
100
AcDbEntity
  8
0
  6
Continuous
 62
     7
370
    15
100
AcDbLine
 10
1434.5516725979
 20
500.2658485809
 30
0.0
 11
1435.5516725979
 21
500.2658485809
 31
0.0
  0
LINE
  5
23F
330
1F
100
AcDbEntity
  8
0
  6
Continuous
 62
     7
370
    15
100
AcDbLine
 10
635.5516725979
 20
500.2658485809
 30
0.0
 11
635.5516725979
 21
1094.4158485809
 31
0.0
  0
LINE
  5
240
330
1F
100
AcDbEntity
  8
0
  6
Continuous
 62
     7
370
    15
100
AcDbLine
 10
636.5516725979
 20
500.2658485809
 30
0.0
 11
635.5516725979
 21
500.2658485809
 31
0.0
  0
LINE
  5
241
330
1F
100
AcDbEntity
  8
0
  6
Continuous
 62
     7
370
    15
100
AcDbLine
 10
676.7516725979
 20
1148.9158485809
 30
0.0
 11
676.7516725979
 21
1148.5158485809
 31
0.0
  0
LINE
  5
242
330
1F
100
AcDbEntity
  8
0
  6
Continuous
 62
     7
370
    15
100
AcDbLine
 10
674.7516725979
 20
1148.9158485809
 30
0.0
 11
676.7516725979
 21
1148.9158485809
 31
0.0
  0
LINE
  5
243
330
1F
100
AcDbEntity
  8
0
  6
Continuous
 62
     7
370
    15
100
AcDbLine
 10
638.0016725979
 20
1148.9158485809
 30
0.0
 11
674.7516725979
 21
1148.9158485809
 31
0.0
  0
LINE
  5
244
330
1F
100
AcDbEntity
  8
0
  6
Continuous
 62
     7
370
    15
100
AcDbLine
 10
638.0016725979
 20
1148.9158485809
 30
0.0
 11
638.0016725979
 21
1148.5158485809
 31
0.0
  0
SPLINE
  5
245
330
1F
100
AcDbEntity
  8
0
  6
Continuous
 62
     7
370
    15
100
AcDbSpline
210
0.0
220
0.0
230
1.0
 70
     8
 71
     3
 72
    10
 73
     6
 74
     0
 42
0.00000001
 43
0.00000001
 12
1.0
 22
0.0
 32
0.0
 13
1.0
 23
0.0
 33
0.0
 40
0.0
 40
0.0
 40
0.0
 40
0.0
 40
0.4283390695166053
 40
0.8135536929276824
 40
1.0
 40
1.0
 40
1.0
 40
1.0
 10
1433.101672597865
 20
1148.915848580917
 30
0.0
 10
1433.297337119971
 20
1148.900030431897
 30
0.0
 10
1433.668966994207
 20
1148.869986678091
 30
0.0
 10
1434.119439696058
 20
1148.728625302432
 30
0.0
 10
1434.319490415293
 20
1148.568178161736
 30
0.0
 10
1434.384736640528
 20
1148.515848580917
 30
0.0
  0
SPLINE
  5
246
330
1F
100
AcDbEntity
  8
0
  6
Continuous
 62
     7
370
    15
100
AcDbSpline
210
0.0
220
0.0
230
1.0
 70
     8
 71
     3
 72
     9
 73
     5
 74
     0
 42
0.00000001
 43
0.00000001
 12
1.0
 22
0.0
 32
0.0
 13
1.0
 23
0.0
 33
0.0
 40
0.0
 40
0.0
 40
0.0
 40
0.0
 40
0.1885382359482444
 40
0.9999999999999999
 40
0.9999999999999999
 40
0.9999999999999999
 40
0.9999999999999999
 10
1434.751672597865
 20
1148.245865832472
 30
0.0
 10
1434.795419562216
 20
1148.215637866982
 30
0.0
 10
1435.027451882509
 20
1148.055309828813
 30
0.0
 10
1435.146481216388
 20
1147.812709484373
 30
0.0
 10
1435.243068969632
 20
1147.615848580914
 30
0.0
  0
LINE
  5
247
330
1F
100
AcDbEntity
  8
0
  6
Continuous
 62
     7
370
    15
100
AcDbLine
 10
1433.1016725979
 20
1148.9158485809
 30
0.0
 11
1433.1016725979
 21
1148.5158485809
 31
0.0
  0
LINE
  5
248
330
1F
100
AcDbEntity
  8
0
  6
Continuous
 62
     7
370
    15
100
AcDbLine
 10
1433.1016725979
 20
1148.9158485809
 30
0.0
 11
1396.3516725979
 21
1148.9158485809
 31
0.0
  0
LINE
  5
249
330
1F
100
AcDbEntity
  8
0
  6
Continuous
 62
     7
370
    15
100
AcDbLine
 10
1394.3516725979
 20
1148.5158485809
 30
0.0
 11
1394.3516725979
 21
1148.9158485809
 31
0.0
  0
LINE
  5
24A
330
1F
100
AcDbEntity
  8
0
  6
Continuous
 62
     7
370
    15
100
AcDbLine
 10
1394.3516725979
 20
1148.9158485809
 30
0.0
 11
1396.3516725979
 21
1148.9158485809
 31
0.0
  0
ARC
  5
24B
330
1F
100
AcDbEntity
  8
0
  6
Continuous
 62
     7
370
    15
100
AcDbCircle
 10
638.0016725979
 20
1146.4658485809
 30
0.0
 40
2.450000000000043
100
AcDbArc
 50
132.3354018762
 51
152.0054382678
  0
ARC
  5
24C
330
1F
100
AcDbEntity
  8
0
  6
Continuous
 62
     7
370
    15
100
AcDbCircle
 10
638.0016725979
 20
1146.4658485809
 30
0.0
 40
2.450000000000045
100
AcDbArc
 50
90.0
 51
123.2030991981
  0
LINE
  5
24D
330
1F
100
AcDbEntity
  8
0
  6
Continuous
 62
     7
370
    15
100
AcDbLine
 10
636.7516725979
 20
499.0158485809
 30
0.0
 11
636.7516725979
 21
500.0158485809
 31
0.0
  0
LINE
  5
24E
330
1F
100
AcDbEntity
  8
0
  6
Continuous
 62
     7
370
    15
100
AcDbLine
 10
635.5516725979
 20
498.7658485809
 30
0.0
 11
635.5516725979
 21
500.2658485809
 31
0.0
  0
LINE
  5
24F
330
1F
100
AcDbEntity
  8
0
  6
Continuous
 62
     7
370
    15
100
AcDbLine
 10
1435.5516725979
 20
500.2658485809
 30
0.0
 11
1435.5516725979
 21
498.7658485809
 31
0.0
  0
LINE
  5
250
330
1F
100
AcDbEntity
  8
0
  6
Continuous
 62
     7
370
    15
100
AcDbLine
 10
1434.3516725979
 20
500.0158485809
 30
0.0
 11
1434.3516725979
 21
499.0158485809
 31
0.0
  0
LINE
  5
251
330
1F
100
AcDbEntity
  8
0
  6
Continuous
 62
     8
370
    15
100
AcDbLine
 10
1316.7826778525
 20
1159.8658485809
 30
0.0
 11
1310.0955228482
 21
1159.8658485809
 31
0.0
  0
LINE
  5
252
330
1F
100
AcDbEntity
  8
0
  6
Continuous
 62
     8
370
    15
100
AcDbLine
 10
1310.0955228482
 20
1159.1658485809
 30
0.0
 11
1316.7826778525
 21
1159.1658485809
 31
0.0
  0
LINE
  5
253
330
1F
100
AcDbEntity
  8
0
  6
Continuous
 62
     8
370
    15
100
AcDbLine
 10
1317.2217612872
 20
1160.3658485809
 30
0.0
 11
1317.1626388822
 21
1160.3658485809
 31
0.0
  0
LINE
  5
254
330
1F
100
AcDbEntity
  8
0
  6
Continuous
 62
     8
370
    15
100
AcDbLine
 10
1317.2217612872
 20
1165.4658485809
 30
0.0
 11
1317.1626244215
 21
1165.4658485809
 31
0.0
  0
LINE
  5
255
330
1F
100
AcDbEntity
  8
0
  6
Continuous
 62
     8
370
    15
100
AcDbLine
 10
1322.6808172369
 20
1165.4658485809
 30
0.0
 11
1322.7193185937
 21
1165.4658485809
 31
0.0
  0
LINE
  5
256
330
1F
100
AcDbEntity
  8
0
  6
Continuous
 62
     8
370
    15
100
AcDbLine
 10
1322.3692336055
 20
1159.1658485809
 30
0.0
 11
1322.7516725979
 21
1159.1658485809
 31
0.0
  0
LINE
  5
257
330
1F
100
AcDbEntity
  8
0
  6
Continuous
 62
     8
370
    15
100
AcDbLine
 10
1305.4431634677
 20
1165.4658485809
 30
0.0
 11
1305.4431634677
 21
1161.2591743569
 31
0.0
  0
LINE
  5
258
330
1F
100
AcDbEntity
  8
0
  6
Continuous
 62
     8
370
    15
100
AcDbLine
 10
1305.9191424157
 20
1161.3158485809
 30
0.0
 11
1305.9191424157
 21
1165.4658485809
 31
0.0
  0
LINE
  5
259
330
1F
100
AcDbEntity
  8
0
  6
Continuous
 62
     8
370
    15
100
AcDbLine
 10
1306.3246452
 20
1165.4658485809
 30
0.0
 11
1306.3246452
 21
1161.3158485809
 31
0.0
  0
LINE
  5
25A
330
1F
100
AcDbEntity
  8
0
  6
Continuous
 62
     8
370
    15
100
AcDbLine
 10
1308.3218845615
 20
1165.4658485809
 30
0.0
 11
1306.3246452
 21
1165.4658485809
 31
0.0
  0
LINE
  5
25B
330
1F
100
AcDbEntity
  8
0
  6
Continuous
 62
     8
370
    15
100
AcDbLine
 10
1305.384026602
 20
1165.4658485809
 30
0.0
 11
1305.4431634677
 21
1165.4658485809
 31
0.0
  0
LINE
  5
25C
330
1F
100
AcDbEntity
  8
0
  6
Continuous
 62
     8
370
    15
100
AcDbLine
 10
1322.7516725979
 20
1161.0658485809
 30
0.0
 11
1322.7193185937
 21
1161.0658485809
 31
0.0
  0
LINE
  5
25D
330
1F
100
AcDbEntity
  8
0
  6
Continuous
 62
     8
370
    15
100
AcDbLine
 10
1317.1626244215
 20
1161.0658485809
 30
0.0
 11
1310.5080770546
 21
1161.0658485809
 31
0.0
  0
LINE
  5
25E
330
1F
100
AcDbEntity
  8
0
  6
Continuous
 62
     8
370
    15
100
AcDbLine
 10
1310.5080770546
 20
1160.3658485809
 30
0.0
 11
1317.1722054481
 21
1160.3658485809
 31
0.0
  0
LINE
  5
25F
330
1F
100
AcDbEntity
  8
0
  6
Continuous
 62
     8
370
    15
100
AcDbLine
 10
1322.7193185937
 20
1160.3658485809
 30
0.0
 11
1322.7516725979
 21
1160.3658485809
 31
0.0
  0
LINE
  5
260
330
1F
100
AcDbEntity
  8
0
  6
Continuous
 62
     8
370
    15
100
AcDbLine
 10
1310.0192768943
 20
1159.8658485809
 30
0.0
 11
1310.0955102256
 21
1159.8658485809
 31
0.0
  0
LINE
  5
261
330
1F
100
AcDbEntity
  8
0
  6
Continuous
 62
     8
370
    15
100
AcDbLine
 10
1310.0192768943
 20
1154.7658485809
 30
0.0
 11
1310.0955228482
 21
1154.7658485809
 31
0.0
  0
LINE
  5
262
330
1F
100
AcDbEntity
  8
0
  6
Continuous
 62
     8
370
    15
100
AcDbLine
 10
1304.9217805859
 20
1154.7658485809
 30
0.0
 11
1304.8955524489
 21
1154.7658485809
 31
0.0
  0
SPLINE
  5
263
330
1F
100
AcDbEntity
  8
0
  6
Continuous
 62
     8
370
    15
100
AcDbSpline
210
0.0
220
0.0
230
1.0
 70
     8
 71
     3
 72
    11
 73
     7
 74
     0
 42
0.00000001
 43
0.00000001
 12
1.0
 22
0.0
 32
0.0
 13
1.0
 23
0.0
 33
0.0
 40
0.0
 40
0.0
 40
0.0
 40
0.0
 40
0.1765355567984994
 40
0.5328390668038828
 40
0.9091282388555594
 40
1.0
 40
1.0
 40
1.0
 40
1.0
 10
1323.131546792842
 20
1159.865848580919
 30
0.0
 10
1323.12904902363
 20
1159.933250223883
 30
0.0
 10
1323.121509981412
 20
1160.13668928845
 30
0.0
 10
1323.026843766751
 20
1160.46149393215
 30
0.0
 10
1322.887755304307
 20
1160.727133963421
 30
0.0
 10
1322.773832724555
 20
1160.809252729151
 30
0.0
 10
1322.751672597882
 20
1160.825226404035
 30
0.0
  0
LINE
  5
264
330
1F
100
AcDbEntity
  8
0
  6
Continuous
 62
     8
370
    15
100
AcDbLine
 10
1322.6016734982
 20
1158.9367201891
 30
0.0
 11
1322.6016734982
 21
1154.7658485809
 31
0.0
  0
LINE
  5
265
330
1F
100
AcDbEntity
  8
0
  6
Continuous
 62
     8
370
    15
100
AcDbLine
 10
1323.2077927468
 20
1159.8658485809
 30
0.0
 11
1323.1315467928
 21
1159.8658485809
 31
0.0
  0
LINE
  5
266
330
1F
100
AcDbEntity
  8
0
  6
Continuous
 62
     8
370
    15
100
AcDbLine
 10
1322.201534402
 20
1154.7658485809
 30
0.0
 11
1322.201534402
 21
1158.9158485809
 31
0.0
  0
LINE
  5
267
330
1F
100
AcDbEntity
  8
0
  6
Continuous
 62
     8
370
    15
100
AcDbLine
 10
1319.6918578553
 20
1154.7658485809
 30
0.0
 11
1322.201534402
 21
1154.7658485809
 31
0.0
  0
LINE
  5
268
330
1F
100
AcDbEntity
  8
0
  6
Continuous
 62
     8
370
    15
100
AcDbLine
 10
1323.2077927468
 20
1154.7658485809
 30
0.0
 11
1323.1315467928
 21
1154.7658485809
 31
0.0
  0
LINE
  5
269
330
1F
100
AcDbEntity
  8
0
  6
Continuous
 62
     8
370
    15
100
AcDbLine
 10
1350.3127952956
 20
1173.7596010829
 30
0.0
 11
1342.1766725979
 21
1173.7596010829
 31
0.0
  0
LINE
  5
26A
330
1F
100
AcDbEntity
  8
0
  6
Continuous
 62
     8
370
    15
100
AcDbLine
 10
1375.9266725979
 20
1173.7596010829
 30
0.0
 11
1350.3127952956
 21
1173.7596010829
 31
0.0
  0
LINE
  5
26B
330
1F
100
AcDbEntity
  8
0
  6
Continuous
 62
     8
370
    15
100
AcDbLine
 10
1432.5516725979
 20
502.4658485809
 30
0.0
 11
1431.5516725979
 21
502.4658485809
 31
0.0
  0
LINE
  5
26C
330
1F
100
AcDbEntity
  8
0
  6
Continuous
 62
     8
370
    15
100
AcDbLine
 10
639.5516725979
 20
502.4658485809
 30
0.0
 11
638.5516725979
 21
502.4658485809
 31
0.0
  0
LINE
  5
26D
330
1F
100
AcDbEntity
  8
0
  6
Continuous
 62
     8
370
    15
100
AcDbLine
 10
645.0516725979
 20
1092.542506933
 30
0.0
 11
645.0516725979
 21
1094.0556485651
 31
0.0
  0
LINE
  5
26E
330
1F
100
AcDbEntity
  8
0
  6
Continuous
 62
     8
370
    15
100
AcDbLine
 10
1426.0516725979
 20
1092.542506933
 30
0.0
 11
1426.0516725979
 21
1094.0556485651
 31
0.0
  0
LINE
  5
26F
330
1F
100
AcDbEntity
  8
0
  6
Continuous
 62
     8
370
    15
100
AcDbLine
 10
1096.7008710546
 20
378.1932206189
 30
0.0
 11
1097.2335313342
 21
381.9490400824
 31
0.0
  0
LINE
  5
270
330
1F
100
AcDbEntity
  8
0
  6
Continuous
 62
     8
370
    15
100
AcDbLine
 10
1073.8698138615
 20
381.9490400824
 30
0.0
 11
1074.4024741411
 21
378.1932206189
 31
0.0
  0
LINE
  5
271
330
1F
100
AcDbEntity
  8
0
  6
Continuous
 62
     8
370
    15
100
AcDbLine
 10
1085.0737330972
 20
381.9490400824
 30
0.0
 11
1085.0190767866
 21
380.3790389299
 31
0.0
  0
LINE
  5
272
330
1F
100
AcDbEntity
  8
0
  6
Continuous
 62
     8
370
    15
100
AcDbLine
 10
1086.0842684092
 20
380.37903893
 30
0.0
 11
1086.0396807013
 21
381.9490400824
 31
0.0
  0
ARC
  5
273
330
1F
100
AcDbEntity
  8
0
  6
Continuous
 62
     8
370
    15
100
AcDbCircle
 10
1074.2107794307
 20
378.8530313179
 30
0.0
 40
0.6870931672292623
100
AcDbArc
 50
245.3656338026
 51
286.2001587113
  0
ARC
  5
274
330
1F
100
AcDbEntity
  8
0
  6
Continuous
 62
     8
370
    15
100
AcDbCircle
 10
1096.8722670807
 20
379.1283216806
 30
0.0
 40
0.9506790169893611
100
AcDbArc
 50
259.6134641064
 51
288.8207433797
  0
ARC
  5
275
330
1F
100
AcDbEntity
  8
0
  6
Continuous
 62
     8
370
    15
100
AcDbCircle
 10
1068.4203393618
 20
373.8215688917
 30
0.0
 40
7.475252219822761
100
AcDbArc
 50
317.6912735645
 51
356.9497662045
  0
ARC
  5
276
330
1F
100
AcDbEntity
  8
0
  6
Continuous
 62
     8
370
    15
100
AcDbCircle
 10
1102.5381188203
 20
373.7507977102
 30
0.0
 40
7.320605747928359
100
AcDbArc
 50
180.9346666549
 51
222.6624130453
  0
ARC
  5
277
330
1F
100
AcDbEntity
  8
0
  6
Continuous
 62
     8
370
    15
100
AcDbCircle
 10
1074.8307367767
 20
378.2915230269
 30
0.0
 40
0.8959165111200247
100
AcDbArc
 50
220.3622387085
 51
275.5168825743
  0
ARC
  5
278
330
1F
100
AcDbEntity
  8
0
  6
Continuous
 62
     8
370
    15
100
AcDbCircle
 10
1096.2711543917
 20
378.2951109693
 30
0.0
 40
0.8993498308180412
100
AcDbArc
 50
264.5972971136
 51
319.5235816035
  0
LWPOLYLINE
  5
279
330
1F
100
AcDbEntity
  8
0
  6
Continuous
 62
     8
370
    15
100
AcDbPolyline
 90
        3
 70
   128
 43
0.0
 10
1073.9279446724
 20
368.5821823803
 10
1073.9264122765
 20
368.683887489
 10
1073.948502045
 20
368.7897885807
  0
ARC
  5
27A
330
1F
100
AcDbEntity
  8
0
  6
Continuous
 62
     8
370
    15
100
AcDbCircle
 10
1074.7727023934
 20
368.0732072682
 30
0.0
 40
0.3281605001926597
100
AcDbArc
 50
259.0417822095
 51
296.0604001114
  0
ARC
  5
27B
330
1F
100
AcDbEntity
  8
0
  6
Continuous
 62
     8
370
    15
100
AcDbCircle
 10
1096.3306428024
 20
368.0732072682
 30
0.0
 40
0.3281605001933852
100
AcDbArc
 50
243.9395998887
 51
280.9582177905
  0
ARC
  5
27C
330
1F
100
AcDbEntity
  8
0
  6
Continuous
 62
     8
370
    15
100
AcDbCircle
 10
1096.7099651604
 20
368.6410128984
 30
0.0
 40
0.4690955445150042
100
AcDbArc
 50
350.7828010117
 51
18.4909177243
  0
ARC
  5
27D
330
1F
100
AcDbEntity
  8
0
  6
Continuous
 62
     8
370
    15
100
AcDbCircle
 10
1071.868342237
 20
381.7420705449
 30
0.0
 40
0.4654472822168296
100
AcDbArc
 50
152.1535720481
 51
190.9661246198
  0
ARC
  5
27E
330
1F
100
AcDbEntity
  8
0
  6
Continuous
 62
     8
370
    15
100
AcDbCircle
 10
1099.2345085481
 20
381.7419200456
 30
0.0
 40
0.4659547504431696
100
AcDbArc
 50
349.441902098
 51
27.834393571
  0
LINE
  5
27F
330
1F
100
AcDbEntity
  8
0
  6
Continuous
 62
     8
370
    15
100
AcDbLine
 10
996.7008710546
 20
378.1932206189
 30
0.0
 11
997.2335313342
 21
381.9490400824
 31
0.0
  0
LINE
  5
280
330
1F
100
AcDbEntity
  8
0
  6
Continuous
 62
     8
370
    15
100
AcDbLine
 10
973.8698138615
 20
381.9490400824
 30
0.0
 11
974.4024741411
 21
378.1932206189
 31
0.0
  0
LINE
  5
281
330
1F
100
AcDbEntity
  8
0
  6
Continuous
 62
     8
370
    15
100
AcDbLine
 10
985.0737330972
 20
381.9490400824
 30
0.0
 11
985.0190767866
 21
380.3790389299
 31
0.0
  0
LINE
  5
282
330
1F
100
AcDbEntity
  8
0
  6
Continuous
 62
     8
370
    15
100
AcDbLine
 10
986.0842684092
 20
380.37903893
 30
0.0
 11
986.0396807012
 21
381.9490400824
 31
0.0
  0
ARC
  5
283
330
1F
100
AcDbEntity
  8
0
  6
Continuous
 62
     8
370
    15
100
AcDbCircle
 10
974.2107794307
 20
378.8530313178
 30
0.0
 40
0.6870931672284537
100
AcDbArc
 50
245.3656338026
 51
286.2001587113
  0
ARC
  5
284
330
1F
100
AcDbEntity
  8
0
  6
Continuous
 62
     8
370
    15
100
AcDbCircle
 10
996.8722670807
 20
379.1283216806
 30
0.0
 40
0.9506790169883546
100
AcDbArc
 50
259.6134641064
 51
288.8207433797
  0
ARC
  5
285
330
1F
100
AcDbEntity
  8
0
  6
Continuous
 62
     8
370
    15
100
AcDbCircle
 10
968.4203393618
 20
373.8215688917
 30
0.0
 40
7.475252219823615
100
AcDbArc
 50
317.6912735645
 51
356.9497662045
  0
ARC
  5
286
330
1F
100
AcDbEntity
  8
0
  6
Continuous
 62
     8
370
    15
100
AcDbCircle
 10
1002.5381188202
 20
373.7507977102
 30
0.0
 40
7.320605747915538
100
AcDbArc
 50
180.9346666548
 51
222.6624130453
  0
ARC
  5
287
330
1F
100
AcDbEntity
  8
0
  6
Continuous
 62
     8
370
    15
100
AcDbCircle
 10
974.8307367767
 20
378.2915230269
 30
0.0
 40
0.8959165111193784
100
AcDbArc
 50
220.3622387085
 51
275.5168825743
  0
ARC
  5
288
330
1F
100
AcDbEntity
  8
0
  6
Continuous
 62
     8
370
    15
100
AcDbCircle
 10
996.2711543917
 20
378.2951109693
 30
0.0
 40
0.8993498308171005
100
AcDbArc
 50
264.5972971136
 51
319.5235816035
  0
ARC
  5
289
330
1F
100
AcDbEntity
  8
0
  6
Continuous
 62
     8
370
    15
100
AcDbCircle
 10
996.3306428024
 20
368.0732072682
 30
0.0
 40
0.3281605001933944
100
AcDbArc
 50
243.9395998886
 51
280.9582177905
  0
ARC
  5
28A
330
1F
100
AcDbEntity
  8
0
  6
Continuous
 62
     8
370
    15
100
AcDbCircle
 10
996.7099651604
 20
368.6410128984
 30
0.0
 40
0.4690955445170888
100
AcDbArc
 50
350.7828010117
 51
18.4909177243
  0
LWPOLYLINE
  5
28B
330
1F
100
AcDbEntity
  8
0
  6
Continuous
 62
     8
370
    15
100
AcDbPolyline
 90
        3
 70
   128
 43
0.0
 10
973.9279446724
 20
368.5821823803
 10
973.9264122765
 20
368.683887489
 10
973.948502045
 20
368.7897885807
  0
ARC
  5
28C
330
1F
100
AcDbEntity
  8
0
  6
Continuous
 62
     8
370
    15
100
AcDbCircle
 10
974.7727023934
 20
368.0732072682
 30
0.0
 40
0.3281605001936996
100
AcDbArc
 50
259.0417822095
 51
296.0604001114
  0
ARC
  5
28D
330
1F
100
AcDbEntity
  8
0
  6
Continuous
 62
     8
370
    15
100
AcDbCircle
 10
999.2345085481
 20
381.7419200456
 30
0.0
 40
0.4659547504432709
100
AcDbArc
 50
349.441902098
 51
27.834393571
  0
ARC
  5
28E
330
1F
100
AcDbEntity
  8
0
  6
Continuous
 62
     8
370
    15
100
AcDbCircle
 10
971.868342237
 20
381.7420705449
 30
0.0
 40
0.4654472822186837
100
AcDbArc
 50
152.1535720482
 51
190.9661246197
  0
LINE
  5
28F
330
1F
100
AcDbEntity
  8
0
  6
Continuous
 62
     8
370
    15
100
AcDbLine
 10
1435.5516725979
 20
370.062148463
 30
0.0
 11
1097.4426786878
 21
370.062148463
 31
0.0
  0
LINE
  5
290
330
1F
100
AcDbEntity
  8
0
  6
Continuous
 62
     8
370
    15
100
AcDbLine
 10
1073.6536682495
 20
370.062148463
 30
0.0
 11
997.4426786878
 21
370.062148463
 31
0.0
  0
LINE
  5
291
330
1F
100
AcDbEntity
  8
0
  6
Continuous
 62
     8
370
    15
100
AcDbLine
 10
973.6536682495
 20
370.062148463
 30
0.0
 11
635.5516725979
 21
370.062148463
 31
0.0
  0
LINE
  5
292
330
1F
100
AcDbEntity
  8
0
  6
Continuous
 62
     8
370
    15
100
AcDbLine
 10
1434.3516725979
 20
496.5658485809
 30
0.0
 11
1431.5516725979
 21
496.5658485809
 31
0.0
  0
LINE
  5
293
330
1F
100
AcDbEntity
  8
0
  6
Continuous
 62
     8
370
    15
100
AcDbLine
 10
639.5516725979
 20
496.5658485809
 30
0.0
 11
636.7516725979
 21
496.5658485809
 31
0.0
  0
LINE
  5
294
330
1F
100
AcDbEntity
  8
0
  6
Continuous
 62
     8
370
    15
100
AcDbLine
 10
1433.1016725979
 20
1087.2746138681
 30
0.0
 11
1433.1016725979
 21
1093.5158485809
 31
0.0
  0
LINE
  5
295
330
1F
100
AcDbEntity
  8
0
  6
Continuous
 62
     8
370
    15
100
AcDbLine
 10
638.0016725979
 20
1093.5158485809
 30
0.0
 11
638.0016725979
 21
1087.274613868
 31
0.0
  0
LINE
  5
296
330
1F
100
AcDbEntity
  8
0
  6
Continuous
 62
     8
370
    15
100
AcDbLine
 10
674.7516725979
 20
1148.5158485809
 30
0.0
 11
674.7516725979
 21
1148.9158485809
 31
0.0
  0
LINE
  5
297
330
1F
100
AcDbEntity
  8
0
  6
Continuous
 62
     8
370
    15
100
AcDbLine
 10
1396.3516725979
 20
1148.9158485809
 30
0.0
 11
1396.3516725979
 21
1148.5158485809
 31
0.0
  0
LINE
  5
298
330
1F
100
AcDbEntity
  8
0
  6
Continuous
 62
     8
370
    15
100
AcDbLine
 10
1433.1016725979
 20
500.0158485809
 30
0.0
 11
1433.1016725979
 21
499.0158485809
 31
0.0
  0
LINE
  5
299
330
1F
100
AcDbEntity
  8
0
  6
Continuous
 62
     8
370
    15
100
AcDbLine
 10
638.0016725979
 20
499.0158485809
 30
0.0
 11
638.0016725979
 21
500.0158485809
 31
0.0
  0
ENDSEC
  0
SECTION
  2
OBJECTS
  0
DICTIONARY
  5
C
330
0
100
AcDbDictionary
281
     1
  3
ACAD_GROUP
350
D
  3
ACAD_LAYOUT
350
1A
  3
ACAD_MLINESTYLE
350
17
  3
ACAD_PLOTSETTINGS
350
19
  3
ACAD_PLOTSTYLENAME
350
E
  0
DICTIONARY
  5
D
102
{ACAD_REACTORS
330
C
102
}
330
C
100
AcDbDictionary
281
     1
  0
DICTIONARY
  5
1A
102
{ACAD_REACTORS
330
C
102
}
330
C
100
AcDbDictionary
281
     1
  3
Layout1
350
1E
  3
Layout2
350
26
  3
Model
350
22
  0
DICTIONARY
  5
17
102
{ACAD_REACTORS
330
C
102
}
330
C
100
AcDbDictionary
281
     1
  3
Standard
350
18
  0
DICTIONARY
  5
19
102
{ACAD_REACTORS
330
C
102
}
330
C
100
AcDbDictionary
281
     1
  0
ACDBDICTIONARYWDFLT
  5
E
102
{ACAD_REACTORS
330
C
102
}
330
C
100
AcDbDictionary
281
     1
  3
Normal
350
F
100
AcDbDictionaryWithDefault
340
F
  0
LAYOUT
  5
1E
102
{ACAD_REACTORS
330
1A
102
}
330
1A
100
AcDbPlotSettings
  1

  2
none_device
  4

  6

 40
0.0
 41
0.0
 42
0.0
 43
0.0
 44
0.0
 45
0.0
 46
0.0
 47
0.0
 48
0.0
 49
0.0
140
0.0
141
0.0
142
1.0
143
1.0
 70
   688
 72
     0
 73
     0
 74
     5
  7

 75
    16
147
1.0
148
0.0
149
0.0
100
AcDbLayout
  1
Layout1
 70
     1
 71
     1
 10
0.0
 20
0.0
 11
420.0
 21
297.0
 12
0.0
 22
0.0
 32
0.0
 14
1.0000000000E+20
 24
1.0000000000E+20
 34
1.0000000000E+20
 15
-1.0000000000E+20
 25
-1.0000000000E+20
 35
-1.0000000000E+20
146
0.0
 13
0.0
 23
0.0
 33
0.0
 16
1.0
 26
0.0
 36
0.0
 17
0.0
 27
1.0
 37
0.0
 76
     0
330
1B
  0
LAYOUT
  5
26
102
{ACAD_REACTORS
330
1A
102
}
330
1A
100
AcDbPlotSettings
  1

  2
none_device
  4

  6

 40
0.0
 41
0.0
 42
0.0
 43
0.0
 44
0.0
 45
0.0
 46
0.0
 47
0.0
 48
0.0
 49
0.0
140
0.0
141
0.0
142
1.0
143
1.0
 70
   688
 72
     0
 73
     0
 74
     5
  7

 75
    16
147
1.0
148
0.0
149
0.0
100
AcDbLayout
  1
Layout2
 70
     1
 71
     2
 10
0.0
 20
0.0
 11
0.0
 21
0.0
 12
0.0
 22
0.0
 32
0.0
 14
0.0
 24
0.0
 34
0.0
 15
0.0
 25
0.0
 35
0.0
146
0.0
 13
0.0
 23
0.0
 33
0.0
 16
1.0
 26
0.0
 36
0.0
 17
0.0
 27
1.0
 37
0.0
 76
     0
330
23
  0
LAYOUT
  5
22
102
{ACAD_REACTORS
330
1A
102
}
330
1A
100
AcDbPlotSettings
  1

  2
none_device
  4

  6

 40
0.0
 41
0.0
 42
0.0
 43
0.0
 44
0.0
 45
0.0
 46
0.0
 47
0.0
 48
0.0
 49
0.0
140
0.0
141
0.0
142
1.0
143
1.0
 70
  1712
 72
     0
 73
     0
 74
     0
  7

 75
     0
147
1.0
148
0.0
149
0.0
100
AcDbLayout
  1
Model
 70
     1
 71
     0
 10
0.0
 20
0.0
 11
2159.0
 21
1397.0
 12
0.0
 22
0.0
 32
0.0
 14
0.0
 24
0.0
 34
0.0
 15
2159.0
 25
1397.0
 35
0.0
146
0.0
 13
0.0
 23
0.0
 33
0.0
 16
1.0
 26
0.0
 36
0.0
 17
0.0
 27
1.0
 37
0.0
 76
     0
330
1F
331
29
  0
MLINESTYLE
  5
18
102
{ACAD_REACTORS
330
17
102
}
330
17
100
AcDbMlineStyle
  2
Standard
 70
     0
  3

 62
   256
 51
90.0
 52
90.0
 71
     2
 49
0.5
 62
   256
  6
BYLAYER
 49
-0.5
 62
   256
  6
BYLAYER
  0
ACDBPLACEHOLDER
  5
F
102
{ACAD_REACTORS
330
E
102
}
330
E
  0
ENDSEC
  0
EOF
