  0
SECTION
  2
HEADER
  9
$ACADVER
  1
AC1015
  9
$ACADMAINTVER
 70
     6
  9
$DWGCODEPAGE
  3
ANSI_1252
  9
$INSBASE
 10
0.0
 20
0.0
 30
0.0
  9
$EXTMIN
 10
0.0
 20
0.0
 30
0.0
  9
$EXTMAX
 10
841.0
 20
594.0
 30
0.0
  9
$LIMMIN
 10
0.0
 20
0.0
  9
$LIMMAX
 10
841.0
 20
594.0
  9
$ORTHOMODE
 70
     0
  9
$REGENMODE
 70
     1
  9
$FILLMODE
 70
     1
  9
$QTEXTMODE
 70
     0
  9
$MIRRTEXT
 70
     1
  9
$LTSCALE
 40
1.0
  9
$ATTMODE
 70
     1
  9
$TEXTSIZE
 40
3.5
  9
$TRACEWID
 40
1.0
  9
$TEXTSTYLE
  7
Standard
  9
$CLAYER
  8
0
  9
$CELTYPE
  6
ByLayer
  9
$CECOLOR
 62
   256
  9
$CELTSCALE
 40
1.0
  9
$DISPSILH
 70
     0
  9
$DIMSCALE
 40
1.0
  9
$DIMASZ
 40
3.302
  9
$DIMEXO
 40
1.0
  9
$DIMDLI
 40
3.75
  9
$DIMRND
 40
0.0
  9
$DIMDLE
 40
0.0
  9
$DIMEXE
 40
1.0
  9
$DIMTP
 40
0.0
  9
$DIMTM
 40
0.0
  9
$DIMTXT
 40
3.5
  9
$DIMCEN
 40
2.5
  9
$DIMTSZ
 40
0.0
  9
$DIMTOL
 70
     0
  9
$DIMLIM
 70
     0
  9
$DIMTIH
 70
     1
  9
$DIMTOH
 70
     1
  9
$DIMSE1
 70
     0
  9
$DIMSE2
 70
     0
  9
$DIMTAD
 70
     1
  9
$DIMZIN
 70
     0
  9
$DIMBLK
  1

  9
$DIMASO
 70
     1
  9
$DIMSHO
 70
     1
  9
$DIMPOST
  1

  9
$DIMAPOST
  1

  9
$DIMALT
 70
     0
  9
$DIMALTD
 70
     3
  9
$DIMALTF
 40
0.0393700787
  9
$DIMLFAC
 40
3.0
  9
$DIMTOFL
 70
     1
  9
$DIMTVP
 40
0.0
  9
$DIMTIX
 70
     0
  9
$DIMSOXD
 70
     0
  9
$DIMSAH
 70
     0
  9
$DIMBLK1
  1

  9
$DIMBLK2
  1

  9
$DIMSTYLE
  2
ISO-25
  9
$DIMCLRD
 70
     0
  9
$DIMCLRE
 70
     0
  9
$DIMCLRT
 70
     0
  9
$DIMTFAC
 40
1.0
  9
$DIMGAP
 40
1.524
  9
$DIMJUST
 70
     0
  9
$DIMSD1
 70
     0
  9
$DIMSD2
 70
     0
  9
$DIMTOLJ
 70
     0
  9
$DIMTZIN
 70
     0
  9
$DIMALTZ
 70
     0
  9
$DIMALTTZ
 70
     0
  9
$DIMUPT
 70
     0
  9
$DIMDEC
 70
     1
  9
$DIMTDEC
 70
     1
  9
$DIMALTU
 70
     2
  9
$DIMALTTD
 70
     3
  9
$DIMTXSTY
  7
Standard
  9
$DIMAUNIT
 70
     0
  9
$DIMADEC
 70
     1
  9
$DIMALTRND
 40
0.0
  9
$DIMAZIN
 70
     0
  9
$DIMDSEP
 70
    44
  9
$DIMATFIT
 70
     3
  9
$DIMFRAC
 70
     0
  9
$DIMLDRBLK
  1

  9
$DIMLUNIT
 70
     2
  9
$DIMLWD
 70
    -2
  9
$DIMLWE
 70
    -2
  9
$DIMTMOVE
 70
     0
  9
$LUNITS
 70
     2
  9
$LUPREC
 70
     1
  9
$SKETCHINC
 40
1.0
  9
$FILLETRAD
 40
10.0
  9
$AUNITS
 70
     0
  9
$AUPREC
 70
     1
  9
$MENU
  1
.
  9
$ELEVATION
 40
0.0
  9
$PELEVATION
 40
0.0
  9
$THICKNESS
 40
0.0
  9
$LIMCHECK
 70
     0
  9
$CHAMFERA
 40
10.0
  9
$CHAMFERB
 40
10.0
  9
$CHAMFERC
 40
20.0
  9
$CHAMFERD
 40
0.0
  9
$SKPOLY
 70
     0
  9
$TDCREATE
 40
2455860.401772755
  9
$TDUCREATE
 40
2455860.360106088
  9
$TDUPDATE
 40
2455860.401772766
  9
$TDUUPDATE
 40
2455860.360106099
  9
$TDINDWG
 40
0.0000000116
  9
$TDUSRTIMER
 40
0.0000000116
  9
$USRTIMER
 70
     1
  9
$ANGBASE
 50
0.0
  9
$ANGDIR
 70
     0
  9
$PDMODE
 70
     0
  9
$PDSIZE
 40
-1.0
  9
$PLINEWID
 40
0.0
  9
$SPLFRAME
 70
     0
  9
$SPLINETYPE
 70
     6
  9
$SPLINESEGS
 70
     8
  9
$HANDSEED
  5
31A
  9
$SURFTAB1
 70
     6
  9
$SURFTAB2
 70
     6
  9
$SURFTYPE
 70
     6
  9
$SURFU
 70
     6
  9
$SURFV
 70
     6
  9
$UCSBASE
  2

  9
$UCSNAME
  2

  9
$UCSORG
 10
0.0
 20
0.0
 30
0.0
  9
$UCSXDIR
 10
1.0
 20
0.0
 30
0.0
  9
$UCSYDIR
 10
0.0
 20
1.0
 30
0.0
  9
$UCSORTHOREF
  2

  9
$UCSORTHOVIEW
 70
     0
  9
$UCSORGTOP
 10
0.0
 20
0.0
 30
0.0
  9
$UCSORGBOTTOM
 10
0.0
 20
0.0
 30
0.0
  9
$UCSORGLEFT
 10
0.0
 20
0.0
 30
0.0
  9
$UCSORGRIGHT
 10
0.0
 20
0.0
 30
0.0
  9
$UCSORGFRONT
 10
0.0
 20
0.0
 30
0.0
  9
$UCSORGBACK
 10
0.0
 20
0.0
 30
0.0
  9
$PUCSBASE
  2

  9
$PUCSNAME
  2

  9
$PUCSORG
 10
0.0
 20
0.0
 30
0.0
  9
$PUCSXDIR
 10
1.0
 20
0.0
 30
0.0
  9
$PUCSYDIR
 10
0.0
 20
1.0
 30
0.0
  9
$PUCSORTHOREF
  2

  9
$PUCSORTHOVIEW
 70
     0
  9
$PUCSORGTOP
 10
0.0
 20
0.0
 30
0.0
  9
$PUCSORGBOTTOM
 10
0.0
 20
0.0
 30
0.0
  9
$PUCSORGLEFT
 10
0.0
 20
0.0
 30
0.0
  9
$PUCSORGRIGHT
 10
0.0
 20
0.0
 30
0.0
  9
$PUCSORGFRONT
 10
0.0
 20
0.0
 30
0.0
  9
$PUCSORGBACK
 10
0.0
 20
0.0
 30
0.0
  9
$USERI1
 70
     0
  9
$USERI2
 70
     0
  9
$USERI3
 70
     0
  9
$USERI4
 70
     0
  9
$USERI5
 70
     0
  9
$USERR1
 40
0.0
  9
$USERR2
 40
0.0
  9
$USERR3
 40
0.0
  9
$USERR4
 40
0.0
  9
$USERR5
 40
0.0
  9
$WORLDVIEW
 70
     1
  9
$SHADEDGE
 70
     3
  9
$SHADEDIF
 70
    70
  9
$TILEMODE
 70
     1
  9
$MAXACTVP
 70
    64
  9
$PINSBASE
 10
0.0
 20
0.0
 30
0.0
  9
$PLIMCHECK
 70
     0
  9
$PEXTMIN
 10
1.0000000000E+20
 20
1.0000000000E+20
 30
1.0000000000E+20
  9
$PEXTMAX
 10
-1.0000000000E+20
 20
-1.0000000000E+20
 30
-1.0000000000E+20
  9
$PLIMMIN
 10
0.0
 20
0.0
  9
$PLIMMAX
 10
420.0
 20
297.0
  9
$UNITMODE
 70
     0
  9
$VISRETAIN
 70
     1
  9
$PLINEGEN
 70
     0
  9
$PSLTSCALE
 70
     1
  9
$TREEDEPTH
 70
  3020
  9
$CMLSTYLE
  2
Standard
  9
$CMLJUST
 70
     0
  9
$CMLSCALE
 40
20.0
  9
$PROXYGRAPHICS
 70
     1
  9
$MEASUREMENT
 70
     1
  9
$CELWEIGHT
370
    -1
  9
$ENDCAPS
280
     0
  9
$JOINSTYLE
280
     0
  9
$LWDISPLAY
290
     1
  9
$INSUNITS
 70
     4
  9
$HYPERLINKBASE
  1

  9
$STYLESHEET
  1

  9
$XEDIT
290
     1
  9
$CEPSNTYPE
380
     0
  9
$PSTYLEMODE
290
     1
  9
$FINGERPRINTGUID
  2
{31641816-128C-4443-A2E5-C5F1A6FA47B2}
  9
$VERSIONGUID
  2
{FAEB1C32-E019-11D5-929B-00C0DF256EC4}
  9
$EXTNAMES
290
     1
  9
$PSVPSCALE
 40
0.0
  9
$OLESTARTUP
290
     0
  0
ENDSEC
  0
SECTION
  2
CLASSES
  0
CLASS
  1
ACDBDICTIONARYWDFLT
  2
AcDbDictionaryWithDefault
  3
ObjectDBX Classes
 90
        0
280
     0
281
     0
  0
CLASS
  1
VISUALSTYLE
  2
AcDbVisualStyle
  3
ObjectDBX Classes
 90
     4095
280
     0
281
     0
  0
CLASS
  1
MATERIAL
  2
AcDbMaterial
  3
ObjectDBX Classes
 90
     1153
280
     0
281
     0
  0
CLASS
  1
ACDBPLACEHOLDER
  2
AcDbPlaceHolder
  3
ObjectDBX Classes
 90
        0
280
     0
281
     0
  0
CLASS
  1
LAYOUT
  2
AcDbLayout
  3
ObjectDBX Classes
 90
        0
280
     0
281
     0
  0
ENDSEC
  0
SECTION
  2
TABLES
  0
TABLE
  2
VPORT
  5
8
330
0
100
AcDbSymbolTable
 70
     1
  0
VPORT
  5
29
330
8
100
AcDbSymbolTableRecord
100
AcDbViewportTableRecord
  2
*Active
 70
     0
 10
0.0
 20
0.0
 11
1.0
 21
1.0
 12
420.5
 22
297.0
 13
0.0
 23
0.0
 14
10.0
 24
10.0
 15
10.0
 25
10.0
 16
0.0
 26
0.0
 36
1.0
 17
0.0
 27
0.0
 37
0.0
 40
594.0
 41
1.4158249158
 42
50.0
 43
0.0
 44
0.0
 50
0.0
 51
0.0
 71
     0
 72
  2000
 73
     1
 74
     3
 75
     0
 76
     0
 77
     0
 78
     0
281
     0
 65
     1
110
0.0
120
0.0
130
0.0
111
1.0
121
0.0
131
0.0
112
0.0
122
1.0
132
0.0
 79
     0
146
0.0
  0
ENDTAB
  0
TABLE
  2
LTYPE
  5
5
330
0
100
AcDbSymbolTable
 70
     6
  0
LTYPE
  5
14
330
5
100
AcDbSymbolTableRecord
100
AcDbLinetypeTableRecord
  2
ByBlock
 70
     0
  3

 72
    65
 73
     0
 40
0.0
  0
LTYPE
  5
15
330
5
100
AcDbSymbolTableRecord
100
AcDbLinetypeTableRecord
  2
ByLayer
 70
     0
  3

 72
    65
 73
     0
 40
0.0
  0
LTYPE
  5
16
330
5
100
AcDbSymbolTableRecord
100
AcDbLinetypeTableRecord
  2
Continuous
 70
     0
  3
Solid line
 72
    65
 73
     0
 40
0.0
  0
LTYPE
  5
3F
330
5
100
AcDbSymbolTableRecord
100
AcDbLinetypeTableRecord
  2
HIDDEN
 70
     0
  3
Hidden __ __ __ __ __ __ __ __ __ __ __ __ __ __
 72
    65
 73
     2
 40
1.905
 49
1.27
 74
     0
 49
-0.635
 74
     0
  0
LTYPE
  5
40
330
5
100
AcDbSymbolTableRecord
100
AcDbLinetypeTableRecord
  2
PHANTOM
 70
     0
  3
Phantom ______  __  __  ______  __  __  ______
 72
    65
 73
     6
 40
12.7
 49
6.35
 74
     0
 49
-1.27
 74
     0
 49
1.27
 74
     0
 49
-1.27
 74
     0
 49
1.27
 74
     0
 49
-1.27
 74
     0
  0
LTYPE
  5
41
330
5
100
AcDbSymbolTableRecord
100
AcDbLinetypeTableRecord
  2
CENTER
 70
     0
  3
Center ____ _ ____ _ ____ _ ____ _ ____ _ ____
 72
    65
 73
     4
 40
10.16
 49
6.35
 74
     0
 49
-1.27
 74
     0
 49
1.27
 74
     0
 49
-1.27
 74
     0
  0
LTYPE
  5
42
330
5
100
AcDbSymbolTableRecord
100
AcDbLinetypeTableRecord
  2
CENTERX2
 70
     0
  3
Center (2x) ________  __  ________  __  _____
 72
    65
 73
     4
 40
20.32
 49
12.7
 74
     0
 49
-2.54
 74
     0
 49
2.54
 74
     0
 49
-2.54
 74
     0
  0
LTYPE
  5
43
330
5
100
AcDbSymbolTableRecord
100
AcDbLinetypeTableRecord
  2
DOT2
 70
     0
  3
Dot (.5x) ........................................
 72
    65
 73
     2
 40
0.635
 49
0.0
 74
     0
 49
-0.635
 74
     0
  0
ENDTAB
  0
TABLE
  2
LAYER
  5
2
330
0
100
AcDbSymbolTable
 70
     1
  0
LAYER
  5
10
330
2
100
AcDbSymbolTableRecord
100
AcDbLayerTableRecord
  2
0
 70
     0
 62
     7
  6
Continuous
370
    -3
390
F
  0
ENDTAB
  0
TABLE
  2
STYLE
  5
3
330
0
100
AcDbSymbolTable
 70
     1
  0
STYLE
  5
11
330
3
100
AcDbSymbolTableRecord
100
AcDbTextStyleTableRecord
  2
Standard
 70
     0
 40
0.0
 41
1.0
 50
0.0
 71
     0
 42
2.5
  3
txt
  4

  0
ENDTAB
  0
TABLE
  2
VIEW
  5
6
330
0
100
AcDbSymbolTable
 70
     0
  0
ENDTAB
  0
TABLE
  2
UCS
  5
7
330
0
100
AcDbSymbolTable
 70
     0
  0
ENDTAB
  0
TABLE
  2
APPID
  5
9
330
0
100
AcDbSymbolTable
 70
     1
  0
APPID
  5
12
330
9
100
AcDbSymbolTableRecord
100
AcDbRegAppTableRecord
  2
ACAD
 70
     0
  0
ENDTAB
  0
TABLE
  2
DIMSTYLE
  5
A
330
0
100
AcDbSymbolTable
 70
     1
100
AcDbDimStyleTable
  0
DIMSTYLE
105
27
330
A
100
AcDbSymbolTableRecord
100
AcDbDimStyleTableRecord
  2
ISO-25
 70
     0
 41
2.5
 42
0.625
 43
3.75
 44
1.25
 73
     0
 74
     0
 77
     1
 78
     8
140
2.5
141
2.5
143
0.0393700787
147
0.625
171
     3
172
     1
178
     0
271
     2
272
     2
274
     3
278
    44
283
     0
284
     8
340
11
  0
ENDTAB
  0
TABLE
  2
BLOCK_RECORD
  5
1
330
0
100
AcDbSymbolTable
 70
     1
  0
BLOCK_RECORD
  5
1F
330
1
100
AcDbSymbolTableRecord
100
AcDbBlockTableRecord
  2
*Model_Space
340
22
  0
BLOCK_RECORD
  5
1B
330
1
100
AcDbSymbolTableRecord
100
AcDbBlockTableRecord
  2
*Paper_Space
340
1E
  0
BLOCK_RECORD
  5
23
330
1
100
AcDbSymbolTableRecord
100
AcDbBlockTableRecord
  2
*Paper_Space0
340
26
  0
ENDTAB
  0
ENDSEC
  0
SECTION
  2
BLOCKS
  0
BLOCK
  5
20
330
1F
100
AcDbEntity
  8
0
100
AcDbBlockBegin
  2
*Model_Space
 70
     0
 10
0.0
 20
0.0
 30
0.0
  3
*Model_Space
  1

  0
ENDBLK
  5
21
330
1F
100
AcDbEntity
  8
0
100
AcDbBlockEnd
  0
BLOCK
  5
1C
330
1B
100
AcDbEntity
 67
     1
  8
0
100
AcDbBlockBegin
  2
*Paper_Space
 70
     0
 10
0.0
 20
0.0
 30
0.0
  3
*Paper_Space
  1

  0
ENDBLK
  5
1D
330
1B
100
AcDbEntity
 67
     1
  8
0
100
AcDbBlockEnd
  0
BLOCK
  5
24
330
23
100
AcDbEntity
  8
0
100
AcDbBlockBegin
  2
*Paper_Space0
 70
     0
 10
0.0
 20
0.0
 30
0.0
  3
*Paper_Space0
  1

  0
ENDBLK
  5
25
330
23
100
AcDbEntity
  8
0
100
AcDbBlockEnd
  0
ENDSEC
  0
SECTION
  2
ENTITIES
  0
CIRCLE
  5
44
330
1F
100
AcDbEntity
  8
0
  6
Continuous
 62
     7
100
AcDbCircle
 10
316.2819934479
 20
423.6242269631
 30
0.0
 40
1.33333333333333
  0
ARC
  5
45
330
1F
100
AcDbEntity
  8
0
  6
Continuous
 62
     7
370
    15
100
AcDbCircle
 10
472.9143751777
 20
398.2974248598
 30
0.0
 40
0.3333333333333494
100
AcDbArc
 50
225.0
 51
306.46923439
  0
ARC
  5
46
330
1F
100
AcDbEntity
  8
0
  6
Continuous
 62
     7
370
    15
100
AcDbCircle
 10
488.9421288846
 20
414.3251785667
 30
0.0
 40
0.3333333333333359
100
AcDbArc
 50
323.5307656099
 51
45.0
  0
LINE
  5
47
330
1F
100
AcDbEntity
  8
0
  6
Continuous
 62
     7
370
    15
100
AcDbLine
 10
472.1745542463
 20
398.5658453062
 30
0.0
 11
472.6786704636
 21
398.0617228801
 31
0.0
  0
LINE
  5
48
330
1F
100
AcDbEntity
  8
0
  6
Continuous
 62
     7
370
    15
100
AcDbLine
 10
489.1778321839
 20
414.5608808751
 30
0.0
 11
488.6737060325
 21
415.0650039221
 31
0.0
  0
LINE
  5
49
330
1F
100
AcDbEntity
  8
0
  6
Continuous
 62
     7
370
    15
100
AcDbLine
 10
473.1125028706
 20
398.0293662503
 30
0.0
 11
477.8411082205
 21
401.5244224325
 31
0.0
  0
LINE
  5
4A
330
1F
100
AcDbEntity
  8
0
  6
Continuous
 62
     7
370
    15
100
AcDbLine
 10
485.715130148
 20
409.3984424974
 30
0.0
 11
489.2101875719
 21
414.1270484681
 31
0.0
  0
ARC
  5
4B
330
1F
100
AcDbEntity
  8
0
  6
Continuous
 62
     7
370
    15
100
AcDbCircle
 10
478.2373718507
 20
400.9883050402
 30
0.0
 40
0.6666666666666988
100
AcDbArc
 50
45.0
 51
126.46923439
  0
ARC
  5
4C
330
1F
100
AcDbEntity
  8
0
  6
Continuous
 62
     7
370
    15
100
AcDbCircle
 10
486.2512487042
 20
409.0021818937
 30
0.0
 40
0.6666666666666988
100
AcDbArc
 50
143.5307656099
 51
225.0
  0
LINE
  5
4D
330
1F
100
AcDbEntity
  8
0
  6
Continuous
 62
     7
370
    15
100
AcDbLine
 10
478.7087730344
 20
401.4597094834
 30
0.0
 11
479.2456221358
 21
400.922868143
 31
0.0
  0
LINE
  5
4E
330
1F
100
AcDbEntity
  8
0
  6
Continuous
 62
     7
370
    15
100
AcDbLine
 10
486.3166900254
 20
407.9939360326
 30
0.0
 11
485.779840924
 21
408.5307773729
 31
0.0
  0
LINE
  5
4F
330
1F
100
AcDbEntity
  8
0
  6
Continuous
 62
     7
370
    15
100
AcDbLine
 10
479.2456221358
 20
400.922868143
 30
0.0
 11
479.7170253373
 21
400.4514636998
 31
0.0
  0
LINE
  5
50
330
1F
100
AcDbEntity
  8
0
  6
Continuous
 62
     7
370
    15
100
AcDbLine
 10
486.7880932268
 20
407.5225314342
 30
0.0
 11
486.3166900254
 21
407.9939360326
 31
0.0
  0
LINE
  5
51
330
1F
100
AcDbEntity
  8
0
  6
Continuous
 62
     7
370
    15
100
AcDbLine
 10
479.7170253373
 20
400.4514636998
 30
0.0
 11
479.7509205119
 21
400.4423671618
 31
0.0
  0
LINE
  5
52
330
1F
100
AcDbEntity
  8
0
  6
Continuous
 62
     7
370
    15
100
AcDbLine
 10
486.7971829351
 20
407.4886320685
 30
0.0
 11
486.7880932268
 21
407.5225314342
 31
0.0
  0
ARC
  5
53
330
1F
100
AcDbEntity
  8
0
  6
Continuous
 62
     7
370
    15
100
AcDbCircle
 10
480.3769886196
 20
396.4916656674
 30
0.0
 40
4.000000000000021
100
AcDbArc
 50
1.5913213036
 51
99.0047717622
  0
ARC
  5
54
330
1F
100
AcDbEntity
  8
0
  6
Continuous
 62
     7
370
    15
100
AcDbCircle
 10
490.747888077
 20
406.8625651248
 30
0.0
 40
3.999999999999994
100
AcDbArc
 50
170.9952282378
 51
268.4086786964
  0
LINE
  5
55
330
1F
100
AcDbEntity
  8
0
  6
Continuous
 62
     7
370
    15
100
AcDbLine
 10
484.8629625416
 20
395.470518361
 30
0.0
 11
504.0768476105
 21
376.2566258416
 31
0.0
  0
LINE
  5
56
330
1F
100
AcDbEntity
  8
0
  6
Continuous
 62
     7
370
    15
100
AcDbLine
 10
510.9829199092
 20
383.1627031073
 30
0.0
 11
491.7690348403
 21
402.3765953163
 31
0.0
  0
ARC
  5
57
330
1F
100
AcDbEntity
  8
0
  6
Continuous
 62
     7
370
    15
100
AcDbCircle
 10
505.2553622043
 20
377.4351379144
 30
0.0
 40
1.666666666666667
100
AcDbArc
 50
225.0
 51
315.0
  0
ARC
  5
58
330
1F
100
AcDbEntity
  8
0
  6
Continuous
 62
     7
370
    15
100
AcDbCircle
 10
509.8044158299
 20
381.98419154
 30
0.0
 40
1.666666666666667
100
AcDbArc
 50
315.0
 51
45.0
  0
ARC
  5
59
330
1F
100
AcDbEntity
  8
0
  6
Continuous
 62
     7
370
    15
100
AcDbCircle
 10
486.0414698394
 20
396.6490302793
 30
0.0
 40
1.666666666666667
100
AcDbArc
 50
181.5913213036
 51
225.0
  0
ARC
  5
5A
330
1F
100
AcDbEntity
  8
0
  6
Continuous
 62
     7
370
    15
100
AcDbCircle
 10
490.590523465
 20
401.1980839049
 30
0.0
 40
1.666666666666705
100
AcDbArc
 50
45.0
 51
88.4086786964
  0
LINE
  5
5B
330
1F
100
AcDbEntity
  8
0
  6
Continuous
 62
     7
370
    15
100
AcDbLine
 10
442.7870007134
 20
434.5371633674
 30
0.0
 11
446.1203408019
 21
435.8704969193
 31
0.0
  0
LINE
  5
5C
330
1F
100
AcDbEntity
  8
0
  6
Continuous
 62
     7
370
    15
100
AcDbLine
 10
443.8506257312
 20
455.7783787355
 30
0.0
 11
442.7870007134
 21
456.2038317228
 31
0.0
  0
LINE
  5
5D
330
1F
100
AcDbEntity
  8
0
  6
Continuous
 62
     7
370
    15
100
AcDbLine
 10
446.1203408019
 20
454.8704956874
 30
0.0
 11
445.3048896567
 21
455.1966771389
 31
0.0
  0
LINE
  5
5E
330
1F
100
AcDbEntity
  8
0
  6
Continuous
 62
     7
370
    15
100
AcDbLine
 10
446.272322712
 20
454.8021043246
 30
0.0
 11
446.1203408019
 21
454.8704956874
 31
0.0
  0
LINE
  5
5F
330
1F
100
AcDbEntity
  8
0
  6
Continuous
 62
     7
370
    15
100
AcDbLine
 10
446.1203408019
 20
435.8704969193
 30
0.0
 11
452.5904547946
 21
438.7820521896
 31
0.0
  0
ARC
  5
60
330
1F
100
AcDbEntity
  8
0
  6
Continuous
 62
     7
370
    15
100
AcDbCircle
 10
452.4536712652
 20
439.0860254996
 30
0.0
 40
0.3333333333333712
100
AcDbArc
 50
294.227745318
 51
0.0
  0
LINE
  5
61
330
1F
100
AcDbEntity
  8
0
  6
Continuous
 62
     7
370
    15
100
AcDbLine
 10
442.1203426298
 20
442.9998929208
 30
0.0
 11
442.7870007134
 21
442.9882575974
 31
0.0
  0
LINE
  5
62
330
1F
100
AcDbEntity
  8
0
  6
Continuous
 62
     7
370
    15
100
AcDbLine
 10
444.1035580413
 20
455.6807959979
 30
0.0
 11
443.8501886305
 21
455.7821437622
 31
0.0
  0
LINE
  5
63
330
1F
100
AcDbEntity
  8
0
  6
Continuous
 62
     7
370
    15
100
AcDbLine
 10
445.3077904161
 20
455.1991060282
 30
0.0
 11
445.0601529853
 21
455.2981590137
 31
0.0
  0
LINE
  5
64
330
1F
100
AcDbEntity
  8
0
  6
Continuous
 62
     7
370
    15
100
AcDbLine
 10
443.2870042102
 20
427.7538294499
 30
0.0
 11
442.1203426298
 21
428.1371643052
 31
0.0
  0
LINE
  5
65
330
1F
100
AcDbEntity
  8
0
  6
Continuous
 62
     7
370
    15
100
AcDbLine
 10
481.3669415093
 20
407.7582336557
 30
0.0
 11
467.7129578368
 21
421.412214379
 31
0.0
  0
LINE
  5
66
330
1F
100
AcDbEntity
  8
0
  6
Continuous
 62
     7
370
    15
100
AcDbLine
 10
465.827335097
 20
419.5265953645
 30
0.0
 11
479.4813187695
 21
405.8726156308
 31
0.0
  0
LINE
  5
67
330
1F
100
AcDbEntity
  8
0
  6
Continuous
 62
     7
370
    15
100
AcDbLine
 10
465.5916384634
 20
422.2908936347
 30
0.0
 11
451.2835136827
 21
422.2908936347
 31
0.0
  0
LINE
  5
68
330
1F
100
AcDbEntity
  8
0
  6
Continuous
 62
     7
370
    15
100
AcDbLine
 10
434.6138131396
 20
422.2908936347
 30
0.0
 11
423.5486578719
 21
422.2908936347
 31
0.0
  0
LINE
  5
69
330
1F
100
AcDbEntity
  8
0
  6
Continuous
 62
     7
370
    15
100
AcDbLine
 10
423.5486578719
 20
419.6242265309
 30
0.0
 11
465.5916384634
 21
419.6242265309
 31
0.0
  0
ARC
  5
6A
330
1F
100
AcDbEntity
  8
0
  6
Continuous
 62
     7
370
    15
100
AcDbCircle
 10
465.5916375106
 20
419.2908936298
 30
0.0
 40
0.3333333333333494
100
AcDbArc
 50
45.0
 51
90.0
  0
ARC
  5
6B
330
1F
100
AcDbEntity
  8
0
  6
Continuous
 62
     7
370
    15
100
AcDbCircle
 10
465.5916375106
 20
419.2908936298
 30
0.0
 40
3.0
100
AcDbArc
 50
45.0
 51
90.0
  0
LINE
  5
6C
330
1F
100
AcDbEntity
  8
0
  6
Continuous
 62
     7
370
    15
100
AcDbLine
 10
427.2819947974
 20
423.790894191
 30
0.0
 11
424.865324475
 21
423.790894191
 31
0.0
  0
LINE
  5
6D
330
1F
100
AcDbEntity
  8
0
  6
Continuous
 62
     7
370
    15
100
AcDbLine
 10
441.6153224087
 20
426.2908930486
 30
0.0
 11
441.6153224087
 21
422.5575598483
 31
0.0
  0
LINE
  5
6E
330
1F
100
AcDbEntity
  8
0
  6
Continuous
 62
     7
370
    15
100
AcDbLine
 10
444.2819944795
 20
422.5575598483
 30
0.0
 11
444.2819944795
 21
426.2908930486
 31
0.0
  0
LINE
  5
6F
330
1F
100
AcDbEntity
  8
0
  6
Continuous
 62
     7
370
    15
100
AcDbLine
 10
424.865324475
 20
428.4538313652
 30
0.0
 11
424.865324475
 21
430.9538314646
 31
0.0
  0
LINE
  5
70
330
1F
100
AcDbEntity
  8
0
  6
Continuous
 62
     7
370
    15
100
AcDbLine
 10
424.865324475
 20
422.2908936347
 30
0.0
 11
424.865324475
 21
428.4538313652
 31
0.0
  0
ARC
  5
71
330
1F
100
AcDbEntity
  8
0
  6
Continuous
 62
     7
370
    15
100
AcDbCircle
 10
440.0319934479
 20
27.5033924735
 30
0.0
 40
0.333333333333368
100
AcDbArc
 50
0.0
 51
84.0575267544
  0
ARC
  5
72
330
1F
100
AcDbEntity
  8
0
  6
Continuous
 62
     7
370
    15
100
AcDbCircle
 10
424.8653267813
 20
27.5033924735
 30
0.0
 40
0.333333333333368
100
AcDbArc
 50
95.9424732456
 51
180.0
  0
LINE
  5
73
330
1F
100
AcDbEntity
  8
0
  6
Continuous
 62
     7
370
    15
100
AcDbLine
 10
440.3653236008
 20
25.1038109168
 30
0.0
 11
440.3653236008
 21
27.5033747062
 31
0.0
  0
LINE
  5
74
330
1F
100
AcDbEntity
  8
0
  6
Continuous
 62
     7
370
    15
100
AcDbLine
 10
424.5319954332
 20
27.5033747062
 30
0.0
 11
424.5319954332
 21
25.1038109168
 31
0.0
  0
ARC
  5
75
330
1F
100
AcDbEntity
  8
0
  6
Continuous
 62
     7
370
    15
100
AcDbCircle
 10
440.0319934479
 20
25.1038302964
 30
0.0
 40
0.3333333333333144
100
AcDbArc
 50
270.0
 51
0.0
  0
ARC
  5
76
330
1F
100
AcDbEntity
  8
0
  6
Continuous
 62
     7
370
    15
100
AcDbCircle
 10
424.8653267813
 20
25.1038302964
 30
0.0
 40
0.3333333333333144
100
AcDbArc
 50
180.0
 51
270.0
  0
LINE
  5
77
330
1F
100
AcDbEntity
  8
0
  6
Continuous
 62
     7
370
    15
100
AcDbLine
 10
440.0665056483
 20
27.8349354769
 30
0.0
 11
435.8819913642
 21
28.2704864845
 31
0.0
  0
LINE
  5
78
330
1F
100
AcDbEntity
  8
0
  6
Continuous
 62
     7
370
    15
100
AcDbLine
 10
429.0153276698
 20
28.2704864845
 30
0.0
 11
424.8308133857
 21
27.8349354769
 31
0.0
  0
LINE
  5
79
330
1F
100
AcDbEntity
  8
0
  6
Continuous
 62
     7
370
    15
100
AcDbLine
 10
434.4486586031
 20
29.6038423881
 30
0.0
 11
434.4486586031
 21
41.1871706352
 31
0.0
  0
LINE
  5
7A
330
1F
100
AcDbEntity
  8
0
  6
Continuous
 62
     7
370
    15
100
AcDbLine
 10
430.4486604309
 20
41.1871706352
 30
0.0
 11
430.4486604309
 21
29.6038423881
 31
0.0
  0
LINE
  5
7B
330
1F
100
AcDbEntity
  8
0
  6
Continuous
 62
     7
370
    15
100
AcDbLine
 10
275.3653269784
 20
25.1038109168
 30
0.0
 11
275.3653269784
 21
27.5033747062
 31
0.0
  0
LINE
  5
7C
330
1F
100
AcDbEntity
  8
0
  6
Continuous
 62
     7
370
    15
100
AcDbLine
 10
259.5319938437
 20
27.5033747062
 30
0.0
 11
259.5319938437
 21
25.1038109168
 31
0.0
  0
ARC
  5
7D
330
1F
100
AcDbEntity
  8
0
  6
Continuous
 62
     7
370
    15
100
AcDbCircle
 10
275.0319934479
 20
27.5033924735
 30
0.0
 40
0.333333333333434
100
AcDbArc
 50
0.0
 51
84.0575267544
  0
ARC
  5
7E
330
1F
100
AcDbEntity
  8
0
  6
Continuous
 62
     7
370
    15
100
AcDbCircle
 10
259.8653267813
 20
27.5033924735
 30
0.0
 40
0.333333333333434
100
AcDbArc
 50
95.9424732456
 51
180.0
  0
ARC
  5
7F
330
1F
100
AcDbEntity
  8
0
  6
Continuous
 62
     7
370
    15
100
AcDbCircle
 10
275.0319934479
 20
25.1038302964
 30
0.0
 40
0.3333333333333712
100
AcDbArc
 50
270.0
 51
0.0
  0
ARC
  5
80
330
1F
100
AcDbEntity
  8
0
  6
Continuous
 62
     7
370
    15
100
AcDbCircle
 10
259.8653267813
 20
25.1038302964
 30
0.0
 40
0.3333333333333144
100
AcDbArc
 50
180.0
 51
270.0
  0
LINE
  5
81
330
1F
100
AcDbEntity
  8
0
  6
Continuous
 62
     7
370
    15
100
AcDbLine
 10
275.0665040589
 20
27.8349354769
 30
0.0
 11
270.8819947418
 21
28.2704864845
 31
0.0
  0
LINE
  5
82
330
1F
100
AcDbEntity
  8
0
  6
Continuous
 62
     7
370
    15
100
AcDbLine
 10
264.0153260804
 20
28.2704864845
 30
0.0
 11
259.8308167633
 21
27.8349354769
 31
0.0
  0
LINE
  5
83
330
1F
100
AcDbEntity
  8
0
  6
Continuous
 62
     7
370
    15
100
AcDbLine
 10
269.4486619807
 20
29.6038423881
 30
0.0
 11
269.4486619807
 21
41.1871706352
 31
0.0
  0
LINE
  5
84
330
1F
100
AcDbEntity
  8
0
  6
Continuous
 62
     7
370
    15
100
AcDbLine
 10
265.4486588415
 20
41.1871706352
 30
0.0
 11
265.4486588415
 21
29.6038423881
 31
0.0
  0
ARC
  5
85
330
1F
100
AcDbEntity
  8
0
  6
Continuous
 62
     7
370
    15
100
AcDbCircle
 10
279.7944866358
 20
48.8185692957
 30
0.0
 40
30.34582652118759
100
AcDbArc
 50
179.9648577449
 51
187.7798396978
  0
ARC
  5
86
330
1F
100
AcDbEntity
  8
0
  6
Continuous
 62
     7
370
    15
100
AcDbCircle
 10
249.8931098768
 20
44.733308295
 30
0.0
 40
0.1666666666667069
100
AcDbArc
 50
187.7798396978
 51
270.0
  0
ARC
  5
87
330
1F
100
AcDbEntity
  8
0
  6
Continuous
 62
     7
370
    15
100
AcDbCircle
 10
393.4361669267
 20
383.8185692958
 30
0.0
 40
30.34582652118761
100
AcDbArc
 50
352.2201603022
 51
0.0351421709
  0
ARC
  5
88
330
1F
100
AcDbEntity
  8
0
  6
Continuous
 62
     7
370
    15
100
AcDbCircle
 10
423.3375436857
 20
379.733308295
 30
0.0
 40
0.1666666666666556
100
AcDbArc
 50
270.0
 51
352.2201603022
  0
ARC
  5
89
330
1F
100
AcDbEntity
  8
0
  6
Continuous
 62
     7
370
    15
100
AcDbCircle
 10
279.7944866358
 20
48.8557579639
 30
0.0
 40
30.34582652118756
100
AcDbArc
 50
172.2201603022
 51
187.7798396978
  0
ARC
  5
8A
330
1F
100
AcDbEntity
  8
0
  6
Continuous
 62
     7
370
    15
100
AcDbCircle
 10
249.8931098768
 20
44.7704969631
 30
0.0
 40
0.1666666666667354
100
AcDbArc
 50
187.7798396978
 51
270.0
  0
ARC
  5
8B
330
1F
100
AcDbEntity
  8
0
  6
Continuous
 62
     7
370
    15
100
AcDbCircle
 10
249.8931098768
 20
52.9410189646
 30
0.0
 40
0.1666666666666556
100
AcDbArc
 50
90.0
 51
172.2201603022
  0
ARC
  5
8C
330
1F
100
AcDbEntity
  8
0
  6
Continuous
 62
     7
370
    15
100
AcDbCircle
 10
420.1028335934
 20
48.8557579639
 30
0.0
 40
30.34582652118758
100
AcDbArc
 50
352.2201603022
 51
7.7798396978
  0
ARC
  5
8D
330
1F
100
AcDbEntity
  8
0
  6
Continuous
 62
     7
370
    15
100
AcDbCircle
 10
450.0042103523
 20
44.7704969631
 30
0.0
 40
0.1666666666666556
100
AcDbArc
 50
270.0
 51
352.2201603022
  0
ARC
  5
8E
330
1F
100
AcDbEntity
  8
0
  6
Continuous
 62
     7
370
    15
100
AcDbCircle
 10
450.0042103523
 20
52.9410189646
 30
0.0
 40
0.1666666666667354
100
AcDbArc
 50
7.7798396978
 51
90.0
  0
ARC
  5
8F
330
1F
100
AcDbEntity
  8
0
  6
Continuous
 62
     7
370
    15
100
AcDbCircle
 10
393.4361669267
 20
383.8557579639
 30
0.0
 40
30.34582652118759
100
AcDbArc
 50
352.2201603022
 51
0.0
  0
ARC
  5
90
330
1F
100
AcDbEntity
  8
0
  6
Continuous
 62
     7
370
    15
100
AcDbCircle
 10
393.4361669267
 20
383.8557579639
 30
0.0
 40
30.34582652118758
100
AcDbArc
 50
0.0
 51
7.7798396978
  0
ARC
  5
91
330
1F
100
AcDbEntity
  8
0
  6
Continuous
 62
     7
370
    15
100
AcDbCircle
 10
423.3375436857
 20
387.9410189646
 30
0.0
 40
0.1666666666666989
100
AcDbArc
 50
7.7798396978
 51
52.280009848
  0
ARC
  5
92
330
1F
100
AcDbEntity
  8
0
  6
Continuous
 62
     7
370
    15
100
AcDbCircle
 10
423.3375436857
 20
379.7704969631
 30
0.0
 40
0.1666666666666856
100
AcDbArc
 50
270.0
 51
352.2201603022
  0
LINE
  5
93
330
1F
100
AcDbEntity
  8
0
  6
Continuous
 62
     7
370
    15
100
AcDbLine
 10
263.2153274393
 20
44.603828083
 30
0.0
 11
263.2153274393
 21
41.5204798088
 31
0.0
  0
LINE
  5
94
330
1F
100
AcDbEntity
  8
0
  6
Continuous
 62
     7
370
    15
100
AcDbLine
 10
271.6819933828
 20
41.5204798088
 30
0.0
 11
271.6819933828
 21
44.603828083
 31
0.0
  0
LINE
  5
95
330
1F
100
AcDbEntity
  8
0
  6
Continuous
 62
     7
370
    15
100
AcDbLine
 10
263.2153274393
 20
41.5204798088
 30
0.0
 11
263.5486614482
 21
41.1871706352
 31
0.0
  0
LINE
  5
96
330
1F
100
AcDbEntity
  8
0
  6
Continuous
 62
     7
370
    15
100
AcDbLine
 10
271.348659374
 20
41.1871706352
 30
0.0
 11
271.6819933828
 21
41.5204798088
 31
0.0
  0
LINE
  5
97
330
1F
100
AcDbEntity
  8
0
  6
Continuous
 62
     7
370
    15
100
AcDbLine
 10
428.2153240617
 20
44.603828083
 30
0.0
 11
428.2153240617
 21
41.5204798088
 31
0.0
  0
LINE
  5
98
330
1F
100
AcDbEntity
  8
0
  6
Continuous
 62
     7
370
    15
100
AcDbLine
 10
436.6819949723
 20
41.5204798088
 30
0.0
 11
436.6819949723
 21
44.603828083
 31
0.0
  0
LINE
  5
99
330
1F
100
AcDbEntity
  8
0
  6
Continuous
 62
     7
370
    15
100
AcDbLine
 10
428.2153240617
 20
41.5204798088
 30
0.0
 11
428.5486630377
 21
41.1871706352
 31
0.0
  0
LINE
  5
9A
330
1F
100
AcDbEntity
  8
0
  6
Continuous
 62
     7
370
    15
100
AcDbLine
 10
436.3486559964
 20
41.1871706352
 30
0.0
 11
436.6819949723
 21
41.5204798088
 31
0.0
  0
SPLINE
  5
9B
330
1F
100
AcDbEntity
  8
0
  6
Continuous
 62
     7
370
    15
100
AcDbSpline
210
0.0
220
0.0
230
1.0
 70
     8
 71
     3
 72
     9
 73
     5
 74
     0
 42
0.00000001
 43
0.00000001
 40
0.0
 40
0.0
 40
0.0
 40
0.0
 40
0.3007849926564635
 40
1.0
 40
1.0
 40
1.0
 40
1.0
 10
422.8653253889427
 20
546.0631584033448
 30
0.0
 10
422.8734393051012
 20
546.0398667887982
 30
0.0
 10
422.9004151062769
 20
545.9624306961899
 30
0.0
 10
422.9086890911911
 20
545.8592821248085
 30
0.0
 10
422.9144743856138
 20
545.7871590957124
 30
0.0
  0
LINE
  5
9C
330
1F
100
AcDbEntity
  8
0
  6
Continuous
 62
     7
370
    15
100
AcDbLine
 10
310.8229604141
 20
555.6832884654
 30
0.0
 11
310.4627447105
 21
555.5521781152
 31
0.0
  0
LINE
  5
9D
330
1F
100
AcDbEntity
  8
0
  6
Continuous
 62
     7
370
    15
100
AcDbLine
 10
280.1153254287
 20
550.8063271547
 30
0.0
 11
280.1153254287
 21
546.4704965457
 31
0.0
  0
LINE
  5
9E
330
1F
100
AcDbEntity
  8
0
  6
Continuous
 62
     7
370
    15
100
AcDbLine
 10
280.4986578004
 20
550.8063271547
 30
0.0
 11
280.1153254287
 21
550.8063271547
 31
0.0
  0
LINE
  5
9F
330
1F
100
AcDbEntity
  8
0
  6
Continuous
 62
     7
370
    15
100
AcDbLine
 10
314.1761413988
 20
546.4704965457
 30
0.0
 11
310.8229604141
 21
555.6832884654
 31
0.0
  0
LWPOLYLINE
  5
A0
330
1F
100
AcDbEntity
  8
0
  6
Continuous
 62
     7
370
    15
100
AcDbPolyline
 90
        9
 70
   128
 43
0.0
 10
310.3349920885
 20
556.3587879047
 10
310.3374458131
 20
556.343290697
 10
310.3447150962
 20
556.2973851865
 10
310.3565217829
 20
556.2228495782
 10
310.3724089043
 20
556.122534961
 10
310.3917679962
 20
556.0003057028
 10
310.4138564841
 20
555.8608507022
 10
310.4378225184
 20
555.7095343774
 10
310.4627447105
 20
555.5521781152
  0
LWPOLYLINE
  5
A1
330
1F
100
AcDbEntity
  8
0
  6
Continuous
 62
     7
370
    15
100
AcDbPolyline
 90
        9
 70
   128
 43
0.0
 10
280.4986578004
 20
550.8063271547
 10
280.4737380918
 20
550.9636933511
 10
280.4497720576
 20
551.1150096759
 10
280.4276835696
 20
551.2544646765
 10
280.4083219942
 20
551.3766939347
 10
280.3924373563
 20
551.4770085519
 10
280.3806306696
 20
551.5515441602
 10
280.373358903
 20
551.5974397366
 10
280.3709051784
 20
551.6129468784
  0
LINE
  5
A2
330
1F
100
AcDbEntity
  8
0
  6
Continuous
 62
     7
370
    15
100
AcDbLine
 10
280.3709051784
 20
551.6129468784
 30
0.0
 11
310.3349920885
 21
556.3587879047
 31
0.0
  0
LINE
  5
A3
330
1F
100
AcDbEntity
  8
0
  6
Continuous
 62
     7
370
    15
100
AcDbLine
 10
314.5425212161
 20
546.7308595682
 30
0.0
 11
311.2301619625
 21
555.8314954147
 31
0.0
  0
LINE
  5
A4
330
1F
100
AcDbEntity
  8
0
  6
Continuous
 62
     7
370
    15
100
AcDbLine
 10
314.5425212161
 20
546.7308595682
 30
0.0
 11
314.166644392
 21
546.5940569744
 31
0.0
  0
LINE
  5
A5
330
1F
100
AcDbEntity
  8
0
  6
Continuous
 62
     7
370
    15
100
AcDbLine
 10
314.166644392
 20
546.5940569744
 30
0.0
 11
310.8542851385
 21
555.6946828867
 31
0.0
  0
LINE
  5
A6
330
1F
100
AcDbEntity
  8
0
  6
Continuous
 62
     7
370
    15
100
AcDbLine
 10
310.8542851385
 20
555.6946828867
 30
0.0
 11
311.2301619625
 21
555.8314954147
 31
0.0
  0
LINE
  5
A7
330
1F
100
AcDbEntity
  8
0
  6
Continuous
 62
     7
370
    15
100
AcDbLine
 10
279.6819946941
 20
546.887162815
 30
0.0
 11
279.6819946941
 21
550.8063271547
 31
0.0
  0
LINE
  5
A8
330
1F
100
AcDbEntity
  8
0
  6
Continuous
 62
     7
370
    15
100
AcDbLine
 10
280.0819915311
 20
550.8063271547
 30
0.0
 11
279.6819946941
 21
550.8063271547
 31
0.0
  0
LINE
  5
A9
330
1F
100
AcDbEntity
  8
0
  6
Continuous
 62
     7
370
    15
100
AcDbLine
 10
280.0819915311
 20
546.887162815
 30
0.0
 11
280.0819915311
 21
550.8063271547
 31
0.0
  0
LINE
  5
AA
330
1F
100
AcDbEntity
  8
0
  6
Continuous
 62
     7
370
    15
100
AcDbLine
 10
279.6819946941
 20
546.887162815
 30
0.0
 11
280.0819915311
 21
546.887162815
 31
0.0
  0
ARC
  5
AB
330
1F
100
AcDbEntity
  8
0
  6
Continuous
 62
     7
370
    15
100
AcDbCircle
 10
310.4627456848
 20
555.5521759929
 30
0.0
 40
0.4166666666667395
100
AcDbArc
 50
20.0
 51
99.0
  0
ARC
  5
AC
330
1F
100
AcDbEntity
  8
0
  6
Continuous
 62
     7
370
    15
100
AcDbCircle
 10
310.4627456848
 20
555.5521759929
 30
0.0
 40
0.8166666666667043
100
AcDbArc
 50
20.0
 51
99.0
  0
LWPOLYLINE
  5
AD
330
1F
100
AcDbEntity
  8
0
  6
Continuous
 62
     7
370
    15
100
AcDbPolyline
 90
        3
 70
   128
 43
0.0
 10
314.166644392
 20
546.5940569744
 10
314.2180658158
 20
546.4805597966
 10
314.2236785865
 20
546.4704965457
  0
ARC
  5
AE
330
1F
100
AcDbEntity
  8
0
  6
Continuous
 62
     7
370
    15
100
AcDbCircle
 10
314.9340590986
 20
546.8733687801
 30
0.0
 40
0.4166666666667005
100
AcDbArc
 50
200.0
 51
255.2154781694
  0
ARC
  5
AF
330
1F
100
AcDbEntity
  8
0
  6
Continuous
 62
     7
370
    15
100
AcDbCircle
 10
279.2653267812
 20
546.8871636298
 30
0.0
 40
0.4166666666666288
100
AcDbArc
 50
270.0
 51
0.0
  0
ARC
  5
B0
330
1F
100
AcDbEntity
  8
0
  6
Continuous
 62
     7
370
    15
100
AcDbCircle
 10
279.2653267812
 20
546.8871636298
 30
0.0
 40
0.8166666666667197
100
AcDbArc
 50
329.3225755274
 51
0.0
  0
ARC
  5
B1
330
1F
100
AcDbEntity
  8
0
  6
Continuous
 62
     7
370
    15
100
AcDbCircle
 10
280.4986601146
 20
550.80633107
 30
0.0
 40
0.8166666666666629
100
AcDbArc
 50
99.0
 51
180.0
  0
ARC
  5
B2
330
1F
100
AcDbEntity
  8
0
  6
Continuous
 62
     7
370
    15
100
AcDbCircle
 10
280.4986601146
 20
550.80633107
 30
0.0
 40
0.4166666666666904
100
AcDbArc
 50
99.0
 51
180.0
  0
LINE
  5
B3
330
1F
100
AcDbEntity
  8
0
  6
Continuous
 62
     7
370
    15
100
AcDbLine
 10
423.7203391171
 20
388.8038307334
 30
0.0
 11
423.5486578719
 21
388.8038307334
 31
0.0
  0
LINE
  5
B4
330
1F
100
AcDbEntity
  8
0
  6
Continuous
 62
     7
370
    15
100
AcDbLine
 10
324.5409396069
 20
538.8704970385
 30
0.0
 11
325.6819935418
 21
538.7303963209
 31
0.0
  0
LINE
  5
B5
330
1F
100
AcDbEntity
  8
0
  6
Continuous
 62
     7
370
    15
100
AcDbLine
 10
329.0153261797
 20
538.3211110935
 30
0.0
 11
330.6819937404
 21
538.1164684797
 31
0.0
  0
LINE
  5
B6
330
1F
100
AcDbEntity
  8
0
  6
Continuous
 62
     7
370
    15
100
AcDbLine
 10
334.0153269993
 20
537.7071931864
 30
0.0
 11
335.6819933182
 21
537.5025505727
 31
0.0
  0
LINE
  5
B7
330
1F
100
AcDbEntity
  8
0
  6
Continuous
 62
     7
370
    15
100
AcDbLine
 10
339.0153267711
 20
537.0932653452
 30
0.0
 11
340.6819934393
 21
536.8886227315
 31
0.0
  0
LINE
  5
B8
330
1F
100
AcDbEntity
  8
0
  6
Continuous
 62
     7
370
    15
100
AcDbLine
 10
344.0153267757
 20
536.4793474381
 30
0.0
 11
345.6819937156
 21
536.2747048244
 31
0.0
  0
LINE
  5
B9
330
1F
100
AcDbEntity
  8
0
  6
Continuous
 62
     7
370
    15
100
AcDbLine
 10
349.0153269744
 20
535.8654195969
 30
0.0
 11
350.6819932934
 21
535.6607769832
 31
0.0
  0
LINE
  5
BA
330
1F
100
AcDbEntity
  8
0
  6
Continuous
 62
     7
370
    15
100
AcDbLine
 10
354.0153271731
 20
535.2515016899
 30
0.0
 11
355.6819934921
 21
535.0468590761
 31
0.0
  0
LINE
  5
BB
330
1F
100
AcDbEntity
  8
0
  6
Continuous
 62
     7
370
    15
100
AcDbLine
 10
359.0153273718
 20
534.6375738487
 30
0.0
 11
360.681992449
 21
534.4329312349
 31
0.0
  0
LINE
  5
BC
330
1F
100
AcDbEntity
  8
0
  6
Continuous
 62
     7
370
    15
100
AcDbLine
 10
364.0153275705
 20
534.0236559416
 30
0.0
 11
365.6819926477
 21
533.8190133279
 31
0.0
  0
LINE
  5
BD
330
1F
100
AcDbEntity
  8
0
  6
Continuous
 62
     7
370
    15
100
AcDbLine
 10
369.0153277692
 20
533.4097281004
 30
0.0
 11
370.6819928464
 21
533.2050854867
 31
0.0
  0
LINE
  5
BE
330
1F
100
AcDbEntity
  8
0
  6
Continuous
 62
     7
370
    15
100
AcDbLine
 10
374.0153279678
 20
532.7958101933
 30
0.0
 11
375.681993045
 21
532.5911675796
 31
0.0
  0
LINE
  5
BF
330
1F
100
AcDbEntity
  8
0
  6
Continuous
 62
     7
370
    15
100
AcDbLine
 10
379.015325683
 20
532.1818823521
 30
0.0
 11
380.6819932437
 21
531.9772397384
 31
0.0
  0
LINE
  5
C0
330
1F
100
AcDbEntity
  8
0
  6
Continuous
 62
     7
370
    15
100
AcDbLine
 10
384.0153258817
 20
531.5679644451
 30
0.0
 11
385.6819959259
 21
531.3633218313
 31
0.0
  0
LINE
  5
C1
330
1F
100
AcDbEntity
  8
0
  6
Continuous
 62
     7
370
    15
100
AcDbLine
 10
389.0153260804
 20
530.9540366039
 30
0.0
 11
390.6819911576
 21
530.7493939901
 31
0.0
  0
LINE
  5
C2
330
1F
100
AcDbEntity
  8
0
  6
Continuous
 62
     7
370
    15
100
AcDbLine
 10
394.015326279
 20
530.3401186968
 30
0.0
 11
395.6819913562
 21
530.1354760831
 31
0.0
  0
LINE
  5
C3
330
1F
100
AcDbEntity
  8
0
  6
Continuous
 62
     7
370
    15
100
AcDbLine
 10
399.0153264777
 20
529.7261908556
 30
0.0
 11
400.6819915549
 21
529.5215482419
 31
0.0
  0
LINE
  5
C4
330
1F
100
AcDbEntity
  8
0
  6
Continuous
 62
     7
370
    15
100
AcDbLine
 10
404.0153266764
 20
529.1122729485
 30
0.0
 11
405.6819917536
 21
528.9076303348
 31
0.0
  0
LINE
  5
C5
330
1F
100
AcDbEntity
  8
0
  6
Continuous
 62
     7
370
    15
100
AcDbLine
 10
409.0153268751
 20
528.4983451073
 30
0.0
 11
410.6819919523
 21
528.2937024936
 31
0.0
  0
LINE
  5
C6
330
1F
100
AcDbEntity
  8
0
  6
Continuous
 62
     7
370
    15
100
AcDbLine
 10
434.6138131396
 20
421.9908935234
 30
0.0
 11
451.2835136827
 21
421.9908935234
 31
0.0
  0
LINE
  5
C7
330
1F
100
AcDbEntity
  8
0
  6
Continuous
 62
     7
370
    15
100
AcDbLine
 10
434.6138131396
 20
421.9908935234
 30
0.0
 11
434.6138131396
 21
422.5575598483
 31
0.0
  0
LINE
  5
C8
330
1F
100
AcDbEntity
  8
0
  6
Continuous
 62
     7
370
    15
100
AcDbLine
 10
434.6138131396
 20
422.5575598483
 30
0.0
 11
451.2835136827
 21
422.5575598483
 31
0.0
  0
LINE
  5
C9
330
1F
100
AcDbEntity
  8
0
  6
Continuous
 62
     7
370
    15
100
AcDbLine
 10
451.2835136827
 20
422.5575598483
 30
0.0
 11
451.2835136827
 21
421.9908935234
 31
0.0
  0
LINE
  5
CA
330
1F
100
AcDbEntity
  8
0
  6
Continuous
 62
     7
370
    15
100
AcDbLine
 10
451.2835136827
 20
419.4007413988
 30
0.0
 11
451.2835136827
 21
419.6242265309
 31
0.0
  0
LINE
  5
CB
330
1F
100
AcDbEntity
  8
0
  6
Continuous
 62
     7
370
    15
100
AcDbLine
 10
457.7086063004
 20
419.4007413988
 30
0.0
 11
451.2835136827
 21
419.4007413988
 31
0.0
  0
LINE
  5
CC
330
1F
100
AcDbEntity
  8
0
  6
Continuous
 62
     7
370
    15
100
AcDbLine
 10
451.8620562331
 20
409.2742270385
 30
0.0
 11
457.7086063004
 21
419.4007413988
 31
0.0
  0
LINE
  5
CD
330
1F
100
AcDbEntity
  8
0
  6
Continuous
 62
     7
370
    15
100
AcDbLine
 10
451.3668409761
 20
409.2742270385
 30
0.0
 11
451.8620562331
 21
409.2742270385
 31
0.0
  0
LINE
  5
CE
330
1F
100
AcDbEntity
  8
0
  6
Continuous
 62
     7
370
    15
100
AcDbLine
 10
451.3668409761
 20
409.2408937618
 30
0.0
 11
451.3668409761
 21
409.2742270385
 31
0.0
  0
LINE
  5
CF
330
1F
100
AcDbEntity
  8
0
  6
Continuous
 62
     7
370
    15
100
AcDbLine
 10
434.5304759121
 20
409.2742270385
 30
0.0
 11
434.5304759121
 21
409.2408937618
 31
0.0
  0
LINE
  5
D0
330
1F
100
AcDbEntity
  8
0
  6
Continuous
 62
     7
370
    15
100
AcDbLine
 10
434.0352606551
 20
409.2742270385
 30
0.0
 11
434.5304759121
 21
409.2742270385
 31
0.0
  0
LINE
  5
D1
330
1F
100
AcDbEntity
  8
0
  6
Continuous
 62
     7
370
    15
100
AcDbLine
 10
434.6138131396
 20
419.6242265309
 30
0.0
 11
434.6138131396
 21
419.4007413988
 31
0.0
  0
LINE
  5
D2
330
1F
100
AcDbEntity
  8
0
  6
Continuous
 62
     7
370
    15
100
AcDbLine
 10
428.188720522
 20
419.4007413988
 30
0.0
 11
434.0352606551
 21
409.2742270385
 31
0.0
  0
LINE
  5
D3
330
1F
100
AcDbEntity
  8
0
  6
Continuous
 62
     7
370
    15
100
AcDbLine
 10
434.6138131396
 20
419.4007413988
 30
0.0
 11
428.188720522
 21
419.4007413988
 31
0.0
  0
LINE
  5
D4
330
1F
100
AcDbEntity
  8
0
  6
Continuous
 62
     7
370
    15
100
AcDbLine
 10
434.5304759121
 20
408.5575603475
 30
0.0
 11
434.5304759121
 21
409.2408937618
 31
0.0
  0
LINE
  5
D5
330
1F
100
AcDbEntity
  8
0
  6
Continuous
 62
     7
370
    15
100
AcDbLine
 10
451.3668409761
 20
409.2408937618
 30
0.0
 11
451.3668409761
 21
408.5575603475
 31
0.0
  0
LINE
  5
D6
330
1F
100
AcDbEntity
  8
0
  6
Continuous
 62
     7
370
    15
100
AcDbLine
 10
451.3668409761
 20
408.5575603475
 30
0.0
 11
434.5304759121
 21
408.5575603475
 31
0.0
  0
LINE
  5
D7
330
1F
100
AcDbEntity
  8
0
  6
Continuous
 62
     7
370
    15
100
AcDbLine
 10
427.8326821105
 20
419.267408292
 30
0.0
 11
423.5486578719
 21
419.267408292
 31
0.0
  0
LINE
  5
D8
330
1F
100
AcDbEntity
  8
0
  6
Continuous
 62
     7
370
    15
100
AcDbLine
 10
427.8326821105
 20
419.0007408366
 30
0.0
 11
423.5486578719
 21
419.0007408366
 31
0.0
  0
LINE
  5
D9
330
1F
100
AcDbEntity
  8
0
  6
Continuous
 62
     7
370
    15
100
AcDbLine
 10
451.7610164261
 20
409.0325603167
 30
0.0
 11
451.9919645564
 21
408.8992268995
 31
0.0
  0
LINE
  5
DA
330
1F
100
AcDbEntity
  8
0
  6
Continuous
 62
     7
370
    15
100
AcDbLine
 10
457.6054306603
 20
419.1553677028
 30
0.0
 11
451.7610164261
 21
409.0325603167
 31
0.0
  0
LINE
  5
DB
330
1F
100
AcDbEntity
  8
0
  6
Continuous
 62
     7
370
    15
100
AcDbLine
 10
457.8363688565
 20
419.0220333542
 30
0.0
 11
451.9919645564
 21
408.8992268995
 31
0.0
  0
LINE
  5
DC
330
1F
100
AcDbEntity
  8
0
  6
Continuous
 62
     7
370
    15
100
AcDbLine
 10
456.5711708641
 20
416.2306565697
 30
0.0
 11
458.0961755689
 21
418.8720345403
 31
0.0
  0
LINE
  5
DD
330
1F
100
AcDbEntity
  8
0
  6
Continuous
 62
     7
370
    15
100
AcDbLine
 10
456.340232668
 20
416.3639902974
 30
0.0
 11
456.5711708641
 21
416.2306565697
 31
0.0
  0
LINE
  5
DE
330
1F
100
AcDbEntity
  8
0
  6
Continuous
 62
     7
370
    15
100
AcDbLine
 10
456.340232668
 20
416.3639902974
 30
0.0
 11
457.8652373728
 21
419.0053676471
 31
0.0
  0
ARC
  5
DF
330
1F
100
AcDbEntity
  8
0
  6
Continuous
 62
     7
370
    15
100
AcDbCircle
 10
457.8508004662
 20
419.0137005922
 30
0.0
 40
0.0166666666666905
100
AcDbArc
 50
330.0
 51
150.0000000001
  0
ARC
  5
E0
330
1F
100
AcDbEntity
  8
0
  6
Continuous
 62
     7
370
    15
100
AcDbCircle
 10
457.8508004662
 20
419.0137005922
 30
0.0
 40
0.2833333333333523
100
AcDbArc
 50
330.0
 51
150.0
  0
LINE
  5
E1
330
1F
100
AcDbEntity
  8
0
  6
Continuous
 62
     7
370
    15
100
AcDbLine
 10
434.1363004621
 20
409.0325603167
 30
0.0
 11
428.4244668262
 21
418.9257408088
 31
0.0
  0
LINE
  5
E2
330
1F
100
AcDbEntity
  8
0
  6
Continuous
 62
     7
370
    15
100
AcDbLine
 10
433.9053622659
 20
408.8992268995
 30
0.0
 11
428.19352863
 21
418.7924077019
 31
0.0
  0
LINE
  5
E3
330
1F
100
AcDbEntity
  8
0
  6
Continuous
 62
     7
370
    15
100
AcDbLine
 10
434.1363004621
 20
409.0325603167
 30
0.0
 11
433.9053622659
 21
408.8992268995
 31
0.0
  0
ARC
  5
E4
330
1F
100
AcDbEntity
  8
0
  6
Continuous
 62
     7
370
    15
100
AcDbCircle
 10
427.8326843127
 20
418.5840744566
 30
0.0
 40
0.6833333333333488
100
AcDbArc
 50
30.0
 51
90.0
  0
ARC
  5
E5
330
1F
100
AcDbEntity
  8
0
  6
Continuous
 62
     7
370
    15
100
AcDbCircle
 10
427.8326843127
 20
418.5840744566
 30
0.0
 40
0.4166666666666586
100
AcDbArc
 50
30.0
 51
90.0
  0
LINE
  5
E6
330
1F
100
AcDbEntity
  8
0
  6
Continuous
 62
     7
370
    15
100
AcDbLine
 10
451.3668409761
 20
408.8242268716
 30
0.0
 11
451.4001798408
 21
408.8242268716
 31
0.0
  0
LINE
  5
E7
330
1F
100
AcDbEntity
  8
0
  6
Continuous
 62
     7
370
    15
100
AcDbLine
 10
451.3668409761
 20
408.5575603475
 30
0.0
 11
451.4001798408
 21
408.5575603475
 31
0.0
  0
LINE
  5
E8
330
1F
100
AcDbEntity
  8
0
  6
Continuous
 62
     7
370
    15
100
AcDbLine
 10
434.5304759121
 20
408.8242268716
 30
0.0
 11
434.4971469816
 21
408.8242268716
 31
0.0
  0
LINE
  5
E9
330
1F
100
AcDbEntity
  8
0
  6
Continuous
 62
     7
370
    15
100
AcDbLine
 10
434.5304759121
 20
408.5575603475
 30
0.0
 11
434.4971469816
 21
408.5575603475
 31
0.0
  0
ARC
  5
EA
330
1F
100
AcDbEntity
  8
0
  6
Continuous
 62
     7
370
    15
100
AcDbCircle
 10
434.4971428703
 20
409.2408936298
 30
0.0
 40
0.683333333333394
100
AcDbArc
 50
210.0
 51
270.0
  0
ARC
  5
EB
330
1F
100
AcDbEntity
  8
0
  6
Continuous
 62
     7
370
    15
100
AcDbCircle
 10
434.4971428703
 20
409.2408936298
 30
0.0
 40
0.4166666666667362
100
AcDbArc
 50
210.0
 51
270.0
  0
ARC
  5
EC
330
1F
100
AcDbEntity
  8
0
  6
Continuous
 62
     7
370
    15
100
AcDbCircle
 10
451.4001773589
 20
409.2408936298
 30
0.0
 40
0.416666666666687
100
AcDbArc
 50
270.0
 51
330.0
  0
ARC
  5
ED
330
1F
100
AcDbEntity
  8
0
  6
Continuous
 62
     7
370
    15
100
AcDbCircle
 10
451.4001773589
 20
409.2408936298
 30
0.0
 40
0.683333333333394
100
AcDbArc
 50
270.0
 51
330.0
  0
LINE
  5
EE
330
1F
100
AcDbEntity
  8
0
  6
Continuous
 62
     7
370
    15
100
AcDbLine
 10
442.1203426298
 20
445.9038312142
 30
0.0
 11
442.7870007134
 21
445.9038312142
 31
0.0
  0
SPLINE
  5
EF
330
1F
100
AcDbEntity
  8
0
  6
Continuous
 62
     7
370
    15
100
AcDbSpline
210
0.0
220
0.0
230
1.0
 70
     8
 71
     3
 72
    11
 73
     7
 74
     0
 42
0.00000001
 43
0.00000001
 40
0.0
 40
0.0
 40
0.0
 40
0.0
 40
0.2500061434602748
 40
0.5000004055227033
 40
0.7499991849232714
 40
0.9999999999999999
 40
0.9999999999999999
 40
0.9999999999999999
 40
0.9999999999999999
 10
423.7226935005531
 20
483.3038285280347
 30
0.0
 10
423.7572214955246
 20
483.3100925601063
 30
0.0
 10
423.8262758445443
 20
483.322620326555
 30
0.0
 10
423.9298508933934
 20
483.4189731606566
 30
0.0
 10
424.0334202498054
 20
483.5567050422637
 30
0.0
 10
424.1024769138083
 20
483.6658980641247
 30
0.0
 10
424.1370053863869
 20
483.720494797337
 30
0.0
  0
SPLINE
  5
F0
330
1F
100
AcDbEntity
  8
0
  6
Continuous
 62
     7
370
    15
100
AcDbSpline
210
0.0
220
0.0
230
1.0
 70
     8
 71
     3
 72
    11
 73
     7
 74
     0
 42
0.00000001
 43
0.00000001
 40
0.0
 40
0.0
 40
0.0
 40
0.0
 40
0.2499985228027996
 40
0.5000000325021807
 40
0.7499959292596232
 40
1.0
 40
1.0
 40
1.0
 40
1.0
 10
423.7226935005531
 20
483.0371623143633
 30
0.0
 10
423.757222160573
 20
483.0474333258413
 30
0.0
 10
423.8262798931493
 20
483.0679754715118
 30
0.0
 10
423.929847673646
 20
483.2260010553591
 30
0.0
 10
424.033422188532
 20
483.4518718091727
 30
0.0
 10
424.1024772774651
 20
483.6309528254121
 30
0.0
 10
424.1370053863869
 20
483.720494797337
 30
0.0
  0
LINE
  5
F1
330
1F
100
AcDbEntity
  8
0
  6
Continuous
 62
     7
370
    15
100
AcDbLine
 10
423.7226935006
 20
483.303828528
 30
0.0
 11
423.7226935006
 21
483.0371623144
 31
0.0
  0
SPLINE
  5
F2
330
1F
100
AcDbEntity
  8
0
  6
Continuous
 62
     7
370
    15
100
AcDbSpline
210
0.0
220
0.0
230
1.0
 70
     8
 71
     3
 72
    12
 73
     8
 74
     0
 42
0.00000001
 43
0.00000001
 40
0.0
 40
0.0
 40
0.0
 40
0.0
 40
0.3486226047858509
 40
0.5715611318111844
 40
0.7575629324098988
 40
0.944515696819275
 40
1.0
 40
1.0
 40
1.0
 40
1.0
 10
424.1370053863869
 20
483.720494797337
 30
0.0
 10
424.0719764151739
 20
483.6551841342351
 30
0.0
 10
423.9653624668046
 20
483.548108356562
 30
0.0
 10
423.8367621918582
 20
483.4225436967031
 30
0.0
 10
423.7549743005841
 20
483.3496883498389
 30
0.0
 10
423.7228441512677
 20
483.3168012799201
 30
0.0
 10
423.7208056498336
 20
483.308164498017
 30
0.0
 10
423.7203391170845
 20
483.3061878785571
 30
0.0
  0
LINE
  5
F3
330
1F
100
AcDbEntity
  8
0
  6
Continuous
 62
     7
370
    15
100
AcDbLine
 10
423.5486578719
 20
483.3061878786
 30
0.0
 11
423.7203391171
 21
483.3061878786
 31
0.0
  0
SPLINE
  5
F4
330
1F
100
AcDbEntity
  8
0
  6
Continuous
 62
     7
370
    15
100
AcDbSpline
210
0.0
220
0.0
230
1.0
 70
     8
 71
     3
 72
    11
 73
     7
 74
     0
 42
0.00000001
 43
0.00000001
 40
0.0
 40
0.0
 40
0.0
 40
0.0
 40
0.3029264992526669
 40
0.6481077713816513
 40
0.9521519017755187
 40
1.0
 40
1.0
 40
1.0
 40
1.0
 10
424.1370053863869
 20
483.720494797337
 30
0.0
 10
424.0586888952184
 20
483.6730982197014
 30
0.0
 10
423.8911316604472
 20
483.571693785364
 30
0.0
 10
423.6750170222964
 20
483.4377013701031
 30
0.0
 10
423.5355581353377
 20
483.3650237134381
 30
0.0
 10
423.5101771513353
 20
483.3476464145857
 30
0.0
 10
423.506726004317
 20
483.345283558476
 30
0.0
  0
LINE
  5
F5
330
1F
100
AcDbEntity
  8
0
  6
Continuous
 62
     7
370
    15
100
AcDbLine
 10
441.4370051798
 20
483.0371623144
 30
0.0
 11
423.7226935006
 21
483.0371623144
 31
0.0
  0
LINE
  5
F6
330
1F
100
AcDbEntity
  8
0
  6
Continuous
 62
     7
370
    15
100
AcDbLine
 10
441.4370051798
 20
483.7204947973
 30
0.0
 11
441.4370051798
 21
483.0371623144
 31
0.0
  0
LINE
  5
F7
330
1F
100
AcDbEntity
  8
0
  6
Continuous
 62
     7
370
    15
100
AcDbLine
 10
423.4536679364
 20
545.9038351879
 30
0.0
 11
423.4536679364
 21
545.487298062
 31
0.0
  0
SPLINE
  5
F8
330
1F
100
AcDbEntity
  8
0
  6
Continuous
 62
     7
370
    15
100
AcDbSpline
210
0.0
220
0.0
230
1.0
 70
     8
 71
     3
 72
    11
 73
     7
 74
     0
 42
0.00000001
 43
0.00000001
 40
0.0
 40
0.0
 40
0.0
 40
0.0
 40
0.2499933179560462
 40
0.4999936700920879
 40
0.7499940222281296
 40
0.9999999999999999
 40
0.9999999999999999
 40
0.9999999999999999
 40
0.9999999999999999
 10
423.4536679363595
 20
545.9038351878602
 30
0.0
 10
423.4639397300552
 20
545.9385542821218
 30
0.0
 10
423.4844836064692
 20
546.0079934475526
 30
0.0
 10
423.6425013746772
 20
546.1121636882754
 30
0.0
 10
423.8683764675534
 20
546.2163336904597
 30
0.0
 10
424.0474617418052
 20
546.2857786078171
 30
0.0
 10
424.1370053863869
 20
546.3205014571625
 30
0.0
  0
ARC
  5
F9
330
1F
100
AcDbEntity
  8
0
  6
Continuous
 62
     7
370
    15
100
AcDbCircle
 10
433.5038212665
 20
537.9871636297
 30
0.0
 40
8.333333333333346
100
AcDbArc
 50
0.3437767398
 51
90.0
  0
LINE
  5
FA
330
1F
100
AcDbEntity
  8
0
  6
Continuous
 62
     7
370
    15
100
AcDbLine
 10
441.8370020167
 20
538.0371644999
 30
0.0
 11
441.4203357474
 21
538.0371644999
 31
0.0
  0
LINE
  5
FB
330
1F
100
AcDbEntity
  8
0
  6
Continuous
 62
     7
370
    15
100
AcDbLine
 10
441.4203357474
 20
538.0371644999
 30
0.0
 11
441.4203357474
 21
537.7704933191
 31
0.0
  0
LINE
  5
FC
330
1F
100
AcDbEntity
  8
0
  6
Continuous
 62
     7
370
    15
100
AcDbLine
 10
441.4203357474
 20
537.7704933191
 30
0.0
 11
441.4370051798
 21
537.7704933191
 31
0.0
  0
LINE
  5
FD
330
1F
100
AcDbEntity
  8
0
  6
Continuous
 62
     7
370
    15
100
AcDbLine
 10
424.1370053864
 20
546.3205014572
 30
0.0
 11
433.5038256423
 21
546.3205014572
 31
0.0
  0
LINE
  5
FE
330
1F
100
AcDbEntity
  8
0
  6
Continuous
 62
     7
370
    15
100
AcDbLine
 10
442.1203426298
 20
537.7704933191
 30
0.0
 11
442.1203426298
 21
483.7204947973
 31
0.0
  0
LINE
  5
FF
330
1F
100
AcDbEntity
  8
0
  6
Continuous
 62
     7
370
    15
100
AcDbLine
 10
442.1203426298
 20
483.7204947973
 30
0.0
 11
441.4370051798
 21
483.7204947973
 31
0.0
  0
LINE
  5
100
330
1F
100
AcDbEntity
  8
0
  6
Continuous
 62
     7
370
    15
100
AcDbLine
 10
441.4370051798
 20
537.7704933191
 30
0.0
 11
442.1203426298
 21
537.7704933191
 31
0.0
  0
SPLINE
  5
101
330
1F
100
AcDbEntity
  8
0
  6
Continuous
 62
     7
370
    15
100
AcDbSpline
210
0.0
220
0.0
230
1.0
 70
     8
 71
     3
 72
    12
 73
     8
 74
     0
 42
0.00000001
 43
0.00000001
 40
0.0
 40
0.0
 40
0.0
 40
0.0
 40
0.2303360728618685
 40
0.4607658184640033
 40
0.6911893282126561
 40
0.9216196197107785
 40
1.0
 40
1.0
 40
1.0
 40
1.0
 10
424.1370053863869
 20
546.6371610666394
 30
0.0
 10
424.0545860556194
 20
546.6284569216133
 30
0.0
 10
423.8897138759102
 20
546.6110450917723
 30
0.0
 10
423.6742231147674
 20
546.475951423516
 30
0.0
 10
423.5195809144345
 20
546.2796873015438
 30
0.0
 10
423.458878074409
 20
546.0917335426443
 30
0.0
 10
423.4547226420389
 20
545.9817491075252
 30
0.0
 10
423.4536679363594
 20
545.9538335507194
 30
0.0
  0
LINE
  5
102
330
1F
100
AcDbEntity
  8
0
  6
Continuous
 62
     7
370
    15
100
AcDbLine
 10
424.1370053864
 20
546.37049982
 30
0.0
 11
424.1370053864
 21
546.6371610666
 31
0.0
  0
SPLINE
  5
103
330
1F
100
AcDbEntity
  8
0
  6
Continuous
 62
     7
370
    15
100
AcDbSpline
210
0.0
220
0.0
230
1.0
 70
     8
 71
     3
 72
    10
 73
     6
 74
     0
 42
0.00000001
 43
0.00000001
 40
0.0
 40
0.0
 40
0.0
 40
0.0
 40
0.40564928216479
 40
0.8115803798017713
 40
1.0
 40
1.0
 40
1.0
 40
1.0
 10
424.1370053863869
 20
546.3704998200218
 30
0.0
 10
424.0820305673492
 20
546.3636235794096
 30
0.0
 10
423.9720427367878
 20
546.3498663210758
 30
0.0
 10
423.8493487452194
 20
546.2722855073036
 30
0.0
 10
423.8091562417943
 20
546.2015828840863
 30
0.0
 10
423.7964145120329
 20
546.1791689102928
 30
0.0
  0
LINE
  5
104
330
1F
100
AcDbEntity
  8
0
  6
Continuous
 62
     7
370
    15
100
AcDbLine
 10
442.1203426298
 20
538.0371644999
 30
0.0
 11
442.1203426298
 21
538.0304987138
 31
0.0
  0
LINE
  5
105
330
1F
100
AcDbEntity
  8
0
  6
Continuous
 62
     7
370
    15
100
AcDbLine
 10
441.8536714491
 20
538.0304987138
 30
0.0
 11
442.1203426298
 21
538.0304987138
 31
0.0
  0
LINE
  5
106
330
1F
100
AcDbEntity
  8
0
  6
Continuous
 62
     7
370
    15
100
AcDbLine
 10
441.8536714491
 20
538.0371644999
 30
0.0
 11
441.8536714491
 21
538.0304987138
 31
0.0
  0
ARC
  5
107
330
1F
100
AcDbEntity
  8
0
  6
Continuous
 62
     7
370
    15
100
AcDbCircle
 10
433.5203379318
 20
538.0371636297
 30
0.0
 40
8.600000000000023
100
AcDbArc
 50
0.0
 51
90.0
  0
ARC
  5
108
330
1F
100
AcDbEntity
  8
0
  6
Continuous
 62
     7
370
    15
100
AcDbCircle
 10
433.5203379318
 20
538.0371636297
 30
0.0
 40
8.333333333333371
100
AcDbArc
 50
0.0
 51
90.0
  0
LINE
  5
109
330
1F
100
AcDbEntity
  8
0
  6
Continuous
 62
     7
370
    15
100
AcDbLine
 10
433.5203361289
 20
546.6371610666
 30
0.0
 11
424.1370053864
 21
546.6371610666
 31
0.0
  0
LINE
  5
10A
330
1F
100
AcDbEntity
  8
0
  6
Continuous
 62
     7
370
    15
100
AcDbLine
 10
433.5203361289
 20
546.37049982
 30
0.0
 11
424.1370053864
 21
546.37049982
 31
0.0
  0
LINE
  5
10B
330
1F
100
AcDbEntity
  8
0
  6
Continuous
 62
     7
370
    15
100
AcDbLine
 10
442.1203426298
 20
538.0304987138
 30
0.0
 11
442.1203426298
 21
537.7704933191
 31
0.0
  0
LINE
  5
10C
330
1F
100
AcDbEntity
  8
0
  6
Continuous
 62
     7
370
    15
100
AcDbLine
 10
441.8536714491
 20
538.0304987138
 30
0.0
 11
441.8536714491
 21
537.7704933191
 31
0.0
  0
SPLINE
  5
10D
330
1F
100
AcDbEntity
  8
0
  6
Continuous
 62
     7
370
    15
100
AcDbSpline
210
0.0
220
0.0
230
1.0
 70
     8
 71
     3
 72
    11
 73
     7
 74
     0
 42
0.00000001
 43
0.00000001
 40
0.0
 40
0.0
 40
0.0
 40
0.0
 40
0.2499965586168687
 40
0.500000036641174
 40
0.7499971799903267
 40
1.0
 40
1.0
 40
1.0
 40
1.0
 10
441.4370051797575
 20
483.0371623143633
 30
0.0
 10
441.5265456587841
 20
483.0474335611929
 30
0.0
 10
441.7056290951397
 20
483.0679763391395
 30
0.0
 10
441.9314966423993
 20
483.2260008982896
 30
0.0
 10
442.0895176624723
 20
483.4518703533831
 30
0.0
 10
442.1100675629108
 20
483.6309526382928
 30
0.0
 10
442.1203426297849
 20
483.720494797337
 30
0.0
  0
SPLINE
  5
10E
330
1F
100
AcDbEntity
  8
0
  6
Continuous
 62
     7
370
    15
100
AcDbSpline
210
0.0
220
0.0
230
1.0
 70
     8
 71
     3
 72
    11
 73
     7
 74
     0
 42
0.00000001
 43
0.00000001
 40
0.0
 40
0.0
 40
0.0
 40
0.0
 40
0.2500035803601885
 40
0.5000005414162285
 40
0.7500035325072506
 40
1.0
 40
1.0
 40
1.0
 40
1.0
 10
441.4370051797575
 20
483.3038285280347
 30
0.0
 10
441.4916042558641
 20
483.3100926979232
 30
0.0
 10
441.6008009624664
 20
483.3226208718445
 30
0.0
 10
441.7385279955247
 20
483.418974001393
 30
0.0
 10
441.8348772220734
 20
483.5567018905703
 30
0.0
 10
441.8474067612229
 20
483.6658976366481
 30
0.0
 10
441.8536714490598
 20
483.720494797337
 30
0.0
  0
LINE
  5
10F
330
1F
100
AcDbEntity
  8
0
  6
Continuous
 62
     7
370
    15
100
AcDbLine
 10
423.7226935006
 20
483.0371623144
 30
0.0
 11
423.7203391171
 21
483.0371623144
 31
0.0
  0
ARC
  5
110
330
1F
100
AcDbEntity
  8
0
  6
Continuous
 62
     7
370
    15
100
AcDbCircle
 10
433.5038195134
 20
537.9874566644
 30
0.0
 40
8.333333333333478
100
AcDbArc
 50
0.3417619453
 51
89.5195047779
  0
LWPOLYLINE
  5
111
330
1F
100
AcDbEntity
  8
0
  6
Continuous
 62
     7
370
    15
100
AcDbPolyline
 90
       33
 70
   128
 43
0.0
 10
472.1745542463
 20
398.5658453062
 10
472.1851340707
 20
398.576433823
 10
472.2696832594
 20
398.6609768028
 10
472.437897501
 20
398.8291960115
 10
472.6880681293
 20
399.0793641562
 10
473.0176222102
 20
399.4089151328
 10
473.4231722133
 20
399.8144669985
 10
473.9005656815
 20
400.2918573623
 10
474.4448951658
 20
400.8361893301
 10
475.0505776978
 20
401.4418758979
 10
475.7114044603
 20
402.1027023499
 10
476.420590458
 20
402.8118877267
 10
477.1708639241
 20
403.5621548288
 10
477.9545060571
 20
404.3458048781
 10
478.7635000325
 20
405.1547966027
 10
479.5895310021
 20
405.9808285958
 10
480.4241251723
 20
406.8154246918
 10
481.2587292767
 20
407.6500208023
 10
482.0847602463
 20
408.4760527032
 10
482.8937442875
 20
409.2850443502
 10
483.6773963547
 20
410.0686945548
 10
484.4276698208
 20
410.8189615016
 10
485.1368558185
 20
411.5281468784
 10
485.797682581
 20
412.1889736409
 10
486.403365113
 20
412.7946598982
 10
486.9476945973
 20
413.338991866
 10
487.4250880655
 20
413.8163828507
 10
487.8306380686
 20
414.2219340955
 10
488.1601921495
 20
414.5514850721
 10
488.4103627777
 20
414.8016532168
 10
488.5785770194
 20
414.9698724255
 10
488.6631162739
 20
415.0544154053
 10
488.6737060325
 20
415.0650039221
  0
LWPOLYLINE
  5
112
330
1F
100
AcDbEntity
  8
0
  6
Continuous
 62
     7
370
    15
100
AcDbPolyline
 90
       22
 70
   128
 43
0.0
 10
479.2456221358
 20
400.922868143
 10
479.2689474202
 20
400.94619529
 10
479.372003851
 20
401.0492510999
 10
479.5549603081
 20
401.2322146972
 10
479.8135451254
 20
401.4907970309
 10
480.1416885631
 20
401.8189379851
 10
480.5316916879
 20
402.2089454562
 10
480.9744250552
 20
402.6516782026
 10
481.4595075226
 20
403.1367591178
 10
481.9755645371
 20
403.6528183053
 10
482.5105062898
 20
404.1877595924
 10
483.0517959373
 20
404.7290445832
 10
483.58673769
 20
405.2639858703
 10
484.1027947045
 20
405.7800449996
 10
484.5878771719
 20
406.2651259342
 10
485.0306105392
 20
406.707858797
 10
485.420613664
 20
407.0978662681
 10
485.7487571017
 20
407.4260069894
 10
486.007341919
 20
407.6845894784
 10
486.1902983761
 20
407.8675529204
 10
486.2933548069
 20
407.9706088856
 10
486.3166900254
 20
407.9939360326
  0
LWPOLYLINE
  5
113
330
1F
100
AcDbEntity
  8
0
  6
Continuous
 62
     7
370
    15
100
AcDbPolyline
 90
       23
 70
   128
 43
0.0
 10
479.7170253373
 20
400.4514636998
 10
479.7273965454
 20
400.4618373916
 10
479.8100185172
 20
400.5444643304
 10
479.9733352439
 20
400.7077810571
 10
480.2135220941
 20
400.9479601463
 10
480.5249265608
 20
401.2593714426
 10
480.9002768771
 20
401.6347158606
 10
481.3307515558
 20
402.0651961272
 10
481.8062774118
 20
402.5407213623
 10
482.3157083766
 20
403.0501464288
 10
482.8470937189
 20
403.581530374
 10
483.3879760679
 20
404.1224181558
 10
483.9256894366
 20
404.6601317573
 10
484.4476274427
 20
405.1820676679
 10
484.9415512658
 20
405.6759921701
 10
485.3958876706
 20
406.130328051
 10
485.7999872939
 20
406.5344260834
 10
486.1443729973
 20
406.8788145419
 10
486.4209782855
 20
407.1554212271
 10
486.6233261204
 20
407.3577627756
 10
486.7466580646
 20
407.4810964272
 10
486.7880932268
 20
407.5225314342
 10
486.7880932268
 20
407.5225314342
  0
LWPOLYLINE
  5
114
330
1F
100
AcDbEntity
  8
0
  6
Continuous
 62
     7
370
    15
100
AcDbPolyline
 90
       23
 70
   128
 43
0.0
 10
479.2456221358
 20
400.922868143
 10
479.255993344
 20
400.9332421452
 10
479.3386153158
 20
401.0158687736
 10
479.5019320425
 20
401.1791858107
 10
479.7421188927
 20
401.4193645895
 10
480.0535233593
 20
401.7307758858
 10
480.4288736757
 20
402.1061206142
 10
480.8593483544
 20
402.5366005704
 10
481.3348742104
 20
403.012126116
 10
481.8443051752
 20
403.5215510272
 10
482.3756805834
 20
404.0529349725
 10
482.9165728665
 20
404.5938227542
 10
483.4542862352
 20
405.1315362781
 10
483.9762242413
 20
405.6534722081
 10
484.4701480643
 20
406.1473966909
 10
484.9244844691
 20
406.6017325718
 10
485.3285840925
 20
407.0058305654
 10
485.6729697959
 20
407.3502190627
 10
485.9495750841
 20
407.6268257479
 10
486.1519129849
 20
407.829167374
 10
486.2752548631
 20
407.9525010256
 10
486.3166900254
 20
407.9939360326
 10
486.3166900254
 20
407.9939360326
  0
LWPOLYLINE
  5
115
330
1F
100
AcDbEntity
  8
0
  6
Continuous
 62
     7
370
    15
100
AcDbPolyline
 90
       23
 70
   128
 43
0.0
 10
479.7509205119
 20
400.4423671618
 10
479.7612619178
 20
400.4527042215
 10
479.8435958004
 20
400.5350412086
 10
480.0063363489
 20
400.6977854823
 10
480.2456788
 20
400.9371217246
 10
480.5560004489
 20
401.24744089
 10
480.9300195949
 20
401.6214687283
 10
481.3589942233
 20
402.0504390106
 10
481.8328511493
 20
402.5242965574
 10
482.3404939747
 20
403.0319344158
 10
482.8700117048
 20
403.5614544742
 10
483.4089966393
 20
404.1004449966
 10
483.9448225276
 20
404.6362725924
 10
484.4649326579
 20
405.1563777556
 10
484.9571279463
 20
405.6485697067
 10
485.4098649598
 20
406.1013119395
 10
485.8125440057
 20
406.5039925571
 10
486.1557276821
 20
406.8471730127
 10
486.4313594278
 20
407.1228094926
 10
486.632992007
 20
407.3244412956
 10
486.7558967845
 20
407.4473423479
 10
486.7971829351
 20
407.4886320685
 10
486.7971829351
 20
407.4886320685
  0
LWPOLYLINE
  5
116
330
1F
100
AcDbEntity
  8
0
  6
Continuous
 62
     7
370
    15
100
AcDbPolyline
 90
       18
 70
   128
 43
0.0
 10
506.4338735517
 20
376.2566258416
 10
506.4338735517
 20
376.2566258416
 10
506.4775836246
 20
376.3003309473
 10
506.6070051766
 20
376.429764917
 10
506.8171910223
 20
376.6399532462
 10
507.1000746664
 20
376.9228195056
 10
507.4447484589
 20
377.2674932982
 10
507.8379801687
 20
377.660729975
 10
508.2646699524
 20
378.0874147917
 10
508.7084066646
 20
378.5311539874
 10
509.1521433767
 20
378.9748906995
 10
509.5788331604
 20
379.4015779997
 10
509.9720648702
 20
379.794812193
 10
510.3167386628
 20
380.1394859855
 10
510.5996024386
 20
380.422352245
 10
510.8097882843
 20
380.6325430577
 10
510.9392297046
 20
380.7619770274
 10
510.9829199092
 20
380.8056796496
  0
LINE
  5
117
330
1F
100
AcDbEntity
  8
0
  6
Continuous
 62
     7
370
    15
100
AcDbLine
 10
442.6536750571
 20
398.9718976026
 30
0.0
 11
442.6536750571
 21
408.5575603475
 31
0.0
  0
LINE
  5
118
330
1F
100
AcDbEntity
  8
0
  6
Continuous
 62
     7
370
    15
100
AcDbLine
 10
443.1203396893
 20
408.5575603475
 30
0.0
 11
443.1203396893
 21
398.8904987678
 31
0.0
  0
LINE
  5
119
330
1F
100
AcDbEntity
  8
0
  6
Continuous
 62
     7
370
    15
100
AcDbLine
 10
442.7870007134
 20
434.5371633674
 30
0.0
 11
442.7870007134
 21
456.2038317228
 31
0.0
  0
LINE
  5
11A
330
1F
100
AcDbEntity
  8
0
  6
Continuous
 62
     7
370
    15
100
AcDbLine
 10
446.1203408019
 20
453.2704238996
 30
0.0
 11
446.1203408019
 21
454.8704956874
 31
0.0
  0
LINE
  5
11B
330
1F
100
AcDbEntity
  8
0
  6
Continuous
 62
     7
370
    15
100
AcDbLine
 10
446.1203408019
 20
435.8704969193
 30
0.0
 11
446.1203408019
 21
437.4705711906
 31
0.0
  0
LINE
  5
11C
330
1F
100
AcDbEntity
  8
0
  6
Continuous
 62
     7
370
    15
100
AcDbLine
 10
444.5494007842
 20
451.5205855077
 30
0.0
 11
443.8587716993
 21
451.9967670148
 31
0.0
  0
SPLINE
  5
11D
330
1F
100
AcDbEntity
  8
0
  6
Continuous
 62
     7
370
    15
100
AcDbSpline
210
0.0
220
0.0
230
1.0
 70
     8
 71
     3
 72
     9
 73
     5
 74
     0
 42
0.00000001
 43
0.00000001
 40
0.0
 40
0.0
 40
0.0
 40
0.0
 40
0.4986239091138784
 40
1.0
 40
1.0
 40
1.0
 40
1.0
 10
444.874613660211
 20
451.3440713192105
 30
0.0
 10
444.817151843883
 20
451.3658544419512
 30
0.0
 10
444.7019110476082
 20
451.4095409205627
 30
0.0
 10
444.6003307278435
 20
451.4835027931211
 30
0.0
 10
444.549400784209
 20
451.5205855076591
 30
0.0
  0
SPLINE
  5
11E
330
1F
100
AcDbEntity
  8
0
  6
Continuous
 62
     7
370
    15
100
AcDbSpline
210
0.0
220
0.0
230
1.0
 70
     8
 71
     3
 72
    11
 73
     7
 74
     0
 42
0.00000001
 43
0.00000001
 40
0.0
 40
0.0
 40
0.0
 40
0.0
 40
0.1671945896988422
 40
0.3343854420278578
 40
0.6674548213212591
 40
0.9999999999999999
 40
0.9999999999999999
 40
0.9999999999999999
 40
0.9999999999999999
 10
445.2761999543852
 20
451.4712924664299
 30
0.0
 10
445.2637977935814
 20
451.4527548383221
 30
0.0
 10
445.2389937492045
 20
451.4156799964858
 30
0.0
 10
445.1630974384076
 20
451.3625896305322
 30
0.0
 10
445.0450875902711
 20
451.3171809940927
 30
0.0
 10
444.9314084611334
 20
451.3351125848089
 30
0.0
 10
444.874613660211
 20
451.3440713192105
 30
0.0
  0
SPLINE
  5
11F
330
1F
100
AcDbEntity
  8
0
  6
Continuous
 62
     7
370
    15
100
AcDbSpline
210
0.0
220
0.0
230
1.0
 70
     8
 71
     3
 72
     9
 73
     5
 74
     0
 42
0.00000001
 43
0.00000001
 40
0.0
 40
0.0
 40
0.0
 40
0.0
 40
0.9825491405103798
 40
1.0
 40
1.0
 40
1.0
 40
1.0
 10
444.4391023890521
 20
451.8329337144971
 30
0.0
 10
444.4420354000715
 20
451.8802991926334
 30
0.0
 10
444.4450205037153
 20
451.9285059195882
 30
0.0
 10
444.4728692077617
 20
451.961911389856
 30
0.0
 10
444.473355191583
 20
451.9624943440239
 30
0.0
  0
SPLINE
  5
120
330
1F
100
AcDbEntity
  8
0
  6
Continuous
 62
     7
370
    15
100
AcDbSpline
210
0.0
220
0.0
230
1.0
 70
     8
 71
     3
 72
    12
 73
     8
 74
     0
 42
0.00000001
 43
0.00000001
 40
0.0
 40
0.0
 40
0.0
 40
0.0
 40
0.1252220262480922
 40
0.2503854848053702
 40
0.5001403999992433
 40
0.7499131051385136
 40
1.0
 40
1.0
 40
1.0
 40
1.0
 10
444.0379531956062
 20
455.6951656843304
 30
0.0
 10
444.0236830952815
 20
455.7013211377453
 30
0.0
 10
443.9951495689118
 20
455.7136291656029
 30
0.0
 10
443.9442970182436
 20
455.7358433031932
 30
0.0
 10
443.8933352934628
 20
455.7585117182797
 30
0.0
 10
443.8565472515529
 20
455.7753633635371
 30
0.0
 10
443.8526003982468
 20
455.7773599477079
 30
0.0
 10
443.8506257311847
 20
455.7783588672757
 30
0.0
  0
SPLINE
  5
121
330
1F
100
AcDbEntity
  8
0
  6
Continuous
 62
     7
370
    15
100
AcDbSpline
210
0.0
220
0.0
230
1.0
 70
     8
 71
     3
 72
     9
 73
     5
 74
     0
 42
0.00000001
 43
0.00000001
 40
0.0
 40
0.0
 40
0.0
 40
0.0
 40
0.5016038535238027
 40
1.0
 40
1.0
 40
1.0
 40
1.0
 10
444.5891471481667
 20
455.4686879023989
 30
0.0
 10
444.4927233521199
 20
455.5073787676027
 30
0.0
 10
444.3004923806682
 20
455.5845130737529
 30
0.0
 10
444.1252789128017
 20
455.6583604410447
 30
0.0
 10
444.0379531956062
 20
455.6951656843304
 30
0.0
  0
SPLINE
  5
122
330
1F
100
AcDbEntity
  8
0
  6
Continuous
 62
     7
370
    15
100
AcDbSpline
210
0.0
220
0.0
230
1.0
 70
     8
 71
     3
 72
    13
 73
     9
 74
     0
 42
0.00000001
 43
0.00000001
 40
0.0
 40
0.0
 40
0.0
 40
0.0
 40
0.125136888777128
 40
0.2500475771641024
 40
0.369837657224355
 40
0.4999422653927514
 40
0.7494349092376614
 40
1.0
 40
1.0
 40
1.0
 40
1.0
 10
445.304889656737
 20
455.1966771389127
 30
0.0
 10
445.3029887607108
 20
455.1972344564175
 30
0.0
 10
445.2991904047628
 20
455.198348084007
 30
0.0
 10
445.2547380084987
 20
455.2134120493965
 30
0.0
 10
445.1764262408978
 20
455.2413448788993
 30
0.0
 10
445.038789087109
 20
455.2921674459634
 30
0.0
 10
444.8348218017458
 20
455.3706462769204
 30
0.0
 10
444.6711557013195
 20
455.4359606684856
 30
0.0
 10
444.5891471481667
 20
455.4686879023989
 30
0.0
  0
LINE
  5
123
330
1F
100
AcDbEntity
  8
0
  6
Continuous
 62
     7
370
    15
100
AcDbLine
 10
443.8884349442
 20
442.8261751836
 30
0.0
 11
443.8880375799
 21
443.5080995068
 31
0.0
  0
SPLINE
  5
124
330
1F
100
AcDbEntity
  8
0
  6
Continuous
 62
     7
370
    15
100
AcDbSpline
210
0.0
220
0.0
230
1.0
 70
     8
 71
     3
 72
    11
 73
     7
 74
     0
 42
0.00000001
 43
0.00000001
 40
0.0
 40
0.0
 40
0.0
 40
0.0
 40
0.3327196559014734
 40
0.4999151689286782
 40
0.6672827113484621
 40
1.0
 40
1.0
 40
1.0
 40
1.0
 10
445.0630934810982
 20
443.1354537511945
 30
0.0
 10
445.0601570932116
 20
443.1653768489051
 30
0.0
 10
445.0557451361169
 20
443.2103366526964
 30
0.0
 10
445.0257512788322
 20
443.2595803564194
 30
0.0
 10
444.9879200645912
 20
443.3020038149087
 30
0.0
 10
444.9488844992714
 20
443.3185635566742
 30
0.0
 10
444.9229132906939
 20
443.3295811121742
 30
0.0
  0
SPLINE
  5
125
330
1F
100
AcDbEntity
  8
0
  6
Continuous
 62
     7
370
    15
100
AcDbSpline
210
0.0
220
0.0
230
1.0
 70
     8
 71
     3
 72
    11
 73
     7
 74
     0
 42
0.00000001
 43
0.00000001
 40
0.0
 40
0.0
 40
0.0
 40
0.0
 40
0.2502201928416563
 40
0.5001588148954553
 40
0.7500274718589791
 40
0.9999999999999999
 40
0.9999999999999999
 40
0.9999999999999999
 40
0.9999999999999999
 10
444.9297678248431
 20
442.9150159066002
 30
0.0
 10
444.9483214600421
 20
442.9274428653116
 30
0.0
 10
444.985407852182
 20
442.952282798777
 30
0.0
 10
445.0285218234507
 20
443.0058667894149
 30
0.0
 10
445.0578967224488
 20
443.0685596735613
 30
0.0
 10
445.0613609882473
 20
443.1131526363866
 30
0.0
 10
445.0630934810982
 20
443.1354537511945
 30
0.0
  0
LINE
  5
126
330
1F
100
AcDbEntity
  8
0
  6
Continuous
 62
     7
370
    15
100
AcDbLine
 10
444.92470143
 20
442.6275973424
 30
0.0
 11
444.9297678248
 21
442.9150159066
 31
0.0
  0
SPLINE
  5
127
330
1F
100
AcDbEntity
  8
0
  6
Continuous
 62
     7
370
    15
100
AcDbSpline
210
0.0
220
0.0
230
1.0
 70
     8
 71
     3
 72
     9
 73
     5
 74
     0
 42
0.00000001
 43
0.00000001
 40
0.0
 40
0.0
 40
0.0
 40
0.0
 40
0.8192458607297992
 40
1.0
 40
1.0
 40
1.0
 40
1.0
 10
444.8258868631071
 20
443.6079422538559
 30
0.0
 10
444.8909165927943
 20
443.6117815404397
 30
0.0
 10
444.9702941433008
 20
443.6164679072166
 30
0.0
 10
445.0330450674612
 20
443.5748346537097
 30
0.0
 10
445.0443875567462
 20
443.5673092708071
 30
0.0
  0
SPLINE
  5
128
330
1F
100
AcDbEntity
  8
0
  6
Continuous
 62
     7
370
    15
100
AcDbSpline
210
0.0
220
0.0
230
1.0
 70
     8
 71
     3
 72
    13
 73
     9
 74
     0
 42
0.00000001
 43
0.00000001
 40
0.0
 40
0.0
 40
0.0
 40
0.0
 40
0.2493009013302895
 40
0.373696119029407
 40
0.4997776714000164
 40
0.625015594441708
 40
0.7502474504323406
 40
1.0
 40
1.0
 40
1.0
 40
1.0
 10
444.3713716443723
 20
443.1077897454381
 30
0.0
 10
444.3770162466183
 20
443.170633196677
 30
0.0
 10
444.3854773710727
 20
443.264834034737
 30
0.0
 10
444.4434637735545
 20
443.3794709149454
 30
0.0
 10
444.5011123172679
 20
443.4553719952349
 30
0.0
 10
444.5712993743451
 20
443.5186868848678
 30
0.0
 10
444.6777508084828
 20
443.5829882230148
 30
0.0
 10
444.7666661670658
 20
443.5979663227485
 30
0.0
 10
444.8258868631071
 20
443.6079422538559
 30
0.0
  0
LINE
  5
129
330
1F
100
AcDbEntity
  8
0
  6
Continuous
 62
     7
370
    15
100
AcDbLine
 10
444.3838886198
 20
443.0150747205
 30
0.0
 11
444.3713716444
 21
443.1077897454
 31
0.0
  0
LINE
  5
12A
330
1F
100
AcDbEntity
  8
0
  6
Continuous
 62
     7
370
    15
100
AcDbLine
 10
444.1322974142
 20
443.0530403957
 30
0.0
 11
444.3838886198
 21
443.0150747205
 31
0.0
  0
LINE
  5
12B
330
1F
100
AcDbEntity
  8
0
  6
Continuous
 62
     7
370
    15
100
AcDbLine
 10
443.8880375799
 20
443.5080995068
 30
0.0
 11
444.1303900655
 21
443.5287500327
 31
0.0
  0
LINE
  5
12C
330
1F
100
AcDbEntity
  8
0
  6
Continuous
 62
     7
370
    15
100
AcDbLine
 10
444.7368275897
 20
436.5588312253
 30
0.0
 11
444.9805907186
 21
436.6468697692
 31
0.0
  0
LINE
  5
12D
330
1F
100
AcDbEntity
  8
0
  6
Continuous
 62
     7
370
    15
100
AcDbLine
 10
444.7388541476
 20
436.4961966778
 30
0.0
 11
444.7368275897
 21
436.5588312253
 31
0.0
  0
LINE
  5
12E
330
1F
100
AcDbEntity
  8
0
  6
Continuous
 62
     7
370
    15
100
AcDbLine
 10
443.8463639991
 20
436.1744408712
 30
0.0
 11
444.7388541476
 21
436.4961966778
 31
0.0
  0
LINE
  5
12F
330
1F
100
AcDbEntity
  8
0
  6
Continuous
 62
     7
370
    15
100
AcDbLine
 10
443.8488475259
 20
436.0456476515
 30
0.0
 11
443.8463639991
 21
436.1744408712
 31
0.0
  0
LINE
  5
130
330
1F
100
AcDbEntity
  8
0
  6
Continuous
 62
     7
370
    15
100
AcDbLine
 10
444.9826470789
 20
436.5841855511
 30
0.0
 11
445.2673486646
 21
436.6868098483
 31
0.0
  0
LINE
  5
131
330
1F
100
AcDbEntity
  8
0
  6
Continuous
 62
     7
370
    15
100
AcDbLine
 10
443.8896767076
 20
442.8254177079
 30
0.0
 11
443.8884349442
 21
442.8261751836
 31
0.0
  0
LINE
  5
132
330
1F
100
AcDbEntity
  8
0
  6
Continuous
 62
     7
370
    15
100
AcDbLine
 10
443.8892694092
 20
443.5075456803
 30
0.0
 11
443.8880375799
 21
443.5080995068
 31
0.0
  0
LINE
  5
133
330
1F
100
AcDbEntity
  8
0
  6
Continuous
 62
     7
370
    15
100
AcDbLine
 10
443.8896767076
 20
442.8254177079
 30
0.0
 11
443.8892694092
 21
443.5075456803
 31
0.0
  0
LINE
  5
134
330
1F
100
AcDbEntity
  8
0
  6
Continuous
 62
     7
370
    15
100
AcDbLine
 10
444.131631829
 20
443.5281962062
 30
0.0
 11
444.1303900655
 21
443.5287500327
 31
0.0
  0
LINE
  5
135
330
1F
100
AcDbEntity
  8
0
  6
Continuous
 62
     7
370
    15
100
AcDbLine
 10
443.8892694092
 20
443.5075456803
 30
0.0
 11
444.131631829
 21
443.5281962062
 31
0.0
  0
LINE
  5
136
330
1F
100
AcDbEntity
  8
0
  6
Continuous
 62
     7
370
    15
100
AcDbLine
 10
444.131631829
 20
443.5281962062
 30
0.0
 11
444.1335292435
 21
443.0523450082
 31
0.0
  0
LINE
  5
137
330
1F
100
AcDbEntity
  8
0
  6
Continuous
 62
     7
370
    15
100
AcDbLine
 10
444.1335292435
 20
443.0523450082
 30
0.0
 11
444.3851204491
 21
443.0143594648
 31
0.0
  0
LINE
  5
138
330
1F
100
AcDbEntity
  8
0
  6
Continuous
 62
     7
370
    15
100
AcDbLine
 10
444.3851204491
 20
443.0143594648
 30
0.0
 11
444.3726034737
 21
443.107104292
 31
0.0
  0
SPLINE
  5
139
330
1F
100
AcDbEntity
  8
0
  6
Continuous
 62
     7
370
    15
100
AcDbSpline
210
0.0
220
0.0
230
1.0
 70
     8
 71
     3
 72
    13
 73
     9
 74
     0
 42
0.00000001
 43
0.00000001
 40
0.0
 40
0.0
 40
0.0
 40
0.0
 40
0.2493421422727355
 40
0.3739077343926591
 40
0.4998321842378193
 40
0.6250591029591108
 40
0.7502885329532046
 40
1.0
 40
1.0
 40
1.0
 40
1.0
 10
444.3726034736977
 20
443.1071042920232
 30
0.0
 10
444.3782466384127
 20
443.1699684091242
 30
0.0
 10
444.3867089982616
 20
443.2642379914163
 30
0.0
 10
444.4447507821058
 20
443.3788831677363
 30
0.0
 10
444.5023768235691
 20
443.4548152485095
 30
0.0
 10
444.5725301661032
 20
443.5181241320261
 30
0.0
 10
444.6789901117078
 20
443.5824298012731
 30
0.0
 10
444.7679027071406
 20
443.5974169123402
 30
0.0
 10
444.8271186924324
 20
443.6073983614723
 30
0.0
  0
SPLINE
  5
13A
330
1F
100
AcDbEntity
  8
0
  6
Continuous
 62
     7
370
    15
100
AcDbSpline
210
0.0
220
0.0
230
1.0
 70
     8
 71
     3
 72
    12
 73
     8
 74
     0
 42
0.00000001
 43
0.00000001
 40
0.0
 40
0.0
 40
0.0
 40
0.0
 40
0.2497811283748038
 40
0.4994016460545639
 40
0.6248427192213837
 40
0.7502861070578465
 40
1.0
 40
1.0
 40
1.0
 40
1.0
 10
444.8271186924324
 20
443.6073983614723
 30
0.0
 10
444.8899683829168
 20
443.6065444743858
 30
0.0
 10
445.0156273511748
 20
443.6048372492668
 30
0.0
 10
445.1497473337938
 20
443.5175831201529
 30
0.0
 10
445.2307520703456
 20
443.4240534216267
 30
0.0
 10
445.293929653276
 20
443.313483926332
 30
0.0
 10
445.3027165214201
 20
443.2150606886167
 30
0.0
 10
445.3085652764982
 20
443.149547766157
 30
0.0
  0
SPLINE
  5
13B
330
1F
100
AcDbEntity
  8
0
  6
Continuous
 62
     7
370
    15
100
AcDbSpline
210
0.0
220
0.0
230
1.0
 70
     8
 71
     3
 72
    11
 73
     7
 74
     0
 42
0.00000001
 43
0.00000001
 40
0.0
 40
0.0
 40
0.0
 40
0.0
 40
0.2502410279833798
 40
0.5000851812697598
 40
0.7498385148665712
 40
1.0
 40
1.0
 40
1.0
 40
1.0
 10
445.3085652764982
 20
443.149547766157
 30
0.0
 10
445.3040138554236
 20
443.0917985674552
 30
0.0
 10
445.2949182316905
 20
442.976391758533
 30
0.0
 10
445.2111733850562
 20
442.8169960932433
 30
0.0
 10
445.0843863511303
 20
442.6901767693484
 30
0.0
 10
444.9787796971935
 20
442.6479007569055
 30
0.0
 10
444.9259332593626
 20
442.6267454927246
 30
0.0
  0
LINE
  5
13C
330
1F
100
AcDbEntity
  8
0
  6
Continuous
 62
     7
370
    15
100
AcDbLine
 10
444.9259332594
 20
442.6267454927
 30
0.0
 11
444.9309996542
 21
442.9142559474
 31
0.0
  0
SPLINE
  5
13D
330
1F
100
AcDbEntity
  8
0
  6
Continuous
 62
     7
370
    15
100
AcDbSpline
210
0.0
220
0.0
230
1.0
 70
     8
 71
     3
 72
    11
 73
     7
 74
     0
 42
0.00000001
 43
0.00000001
 40
0.0
 40
0.0
 40
0.0
 40
0.0
 40
0.2501916117376073
 40
0.5001430959000257
 40
0.7500200708507669
 40
1.0
 40
1.0
 40
1.0
 40
1.0
 10
444.9309996541685
 20
442.9142559473793
 30
0.0
 10
444.9495528598527
 20
442.9266866703833
 30
0.0
 10
444.9866414643241
 20
442.951536185698
 30
0.0
 10
445.0297653343926
 20
443.0051302633677
 30
0.0
 10
445.0591404494889
 20
443.067842054562
 30
0.0
 10
445.0625967861478
 20
443.1124465535762
 30
0.0
 10
445.0643253104236
 20
443.1347533966184
 30
0.0
  0
SPLINE
  5
13E
330
1F
100
AcDbEntity
  8
0
  6
Continuous
 62
     7
370
    15
100
AcDbSpline
210
0.0
220
0.0
230
1.0
 70
     8
 71
     3
 72
    12
 73
     8
 74
     0
 42
0.00000001
 43
0.00000001
 40
0.0
 40
0.0
 40
0.0
 40
0.0
 40
0.2495299854286187
 40
0.374934913952542
 40
0.5004142621365889
 40
0.749917313298053
 40
1.0
 40
1.0
 40
1.0
 40
1.0
 10
445.0643253104236
 20
443.1347558801452
 30
0.0
 10
445.0613870079869
 20
443.1646541636296
 30
0.0
 10
445.0569720188649
 20
443.2095782649405
 30
0.0
 10
445.0270224056497
 20
443.259075687452
 30
0.0
 10
444.9889527782665
 20
443.3004856499243
 30
0.0
 10
444.9257829551294
 20
443.3360972403915
 30
0.0
 10
444.8684927961883
 20
443.3360281592081
 30
0.0
 10
444.8398144817696
 20
443.3359935785413
 30
0.0
  0
SPLINE
  5
13F
330
1F
100
AcDbEntity
  8
0
  6
Continuous
 62
     7
370
    15
100
AcDbSpline
210
0.0
220
0.0
230
1.0
 70
     8
 71
     3
 72
    14
 73
    10
 74
     0
 42
0.00000001
 43
0.00000001
 40
0.0
 40
0.0
 40
0.0
 40
0.0
 40
0.2497933861638477
 40
0.4989752204064798
 40
0.624194260885724
 40
0.749393592085353
 40
0.8745750650894095
 40
0.93727923554065
 40
1.0
 40
1.0
 40
1.0
 40
1.0
 10
444.8398144817696
 20
443.3359935785413
 30
0.0
 10
444.8124808730284
 20
443.3315423499234
 30
0.0
 10
444.7578805745354
 20
443.3226507903238
 30
0.0
 10
444.6968413422945
 20
443.2806589256468
 30
0.0
 10
444.6589213261585
 20
443.2363021823494
 30
0.0
 10
444.6365182217367
 20
443.1979455781404
 30
0.0
 10
444.625771886593
 20
443.1626966205104
 30
0.0
 10
444.6211430944496
 20
443.1340106996055
 30
0.0
 10
444.6207403344108
 20
443.1196466953317
 30
0.0
 10
444.6205389277484
 20
443.1124637429992
 30
0.0
  0
SPLINE
  5
140
330
1F
100
AcDbEntity
  8
0
  6
Continuous
 62
     7
370
    15
100
AcDbSpline
210
0.0
220
0.0
230
1.0
 70
     8
 71
     3
 72
    10
 73
     6
 74
     0
 42
0.00000001
 43
0.00000001
 40
0.0
 40
0.0
 40
0.0
 40
0.0
 40
0.2501266884449588
 40
0.5004165020939385
 40
1.0
 40
1.0
 40
1.0
 40
1.0
 10
444.6205389277484
 20
443.1124612594724
 30
0.0
 10
444.6218808408985
 20
443.0956354061398
 30
0.0
 10
444.6245655423547
 20
443.0619727261525
 30
0.0
 10
444.6504908260937
 20
443.0011584174462
 30
0.0
 10
444.6837110214762
 20
442.9670576520899
 30
0.0
 10
444.7058431085295
 20
442.9443389083028
 30
0.0
  0
LINE
  5
141
330
1F
100
AcDbEntity
  8
0
  6
Continuous
 62
     7
370
    15
100
AcDbLine
 10
444.7058431085
 20
442.9443364248
 30
0.0
 11
444.654672521
 21
442.7167311216
 31
0.0
  0
LINE
  5
142
330
1F
100
AcDbEntity
  8
0
  6
Continuous
 62
     7
370
    15
100
AcDbLine
 10
444.654672521
 20
442.7167311216
 30
0.0
 11
443.8896767076
 21
442.8254177079
 31
0.0
  0
SPLINE
  5
143
330
1F
100
AcDbEntity
  8
0
  6
Continuous
 62
     7
370
    15
100
AcDbSpline
210
0.0
220
0.0
230
1.0
 70
     8
 71
     3
 72
     9
 73
     5
 74
     0
 42
0.00000001
 43
0.00000001
 40
0.0
 40
0.0
 40
0.0
 40
0.0
 40
0.5013021889922098
 40
1.0
 40
1.0
 40
1.0
 40
1.0
 10
444.8271186924324
 20
443.6073983614723
 30
0.0
 10
444.8269136562868
 20
443.6074882695821
 30
0.0
 10
444.8265046492046
 20
443.6076676187088
 30
0.0
 10
444.8260924339514
 20
443.6078508678902
 30
0.0
 10
444.8258868631071
 20
443.6079422538559
 30
0.0
  0
LINE
  5
144
330
1F
100
AcDbEntity
  8
0
  6
Continuous
 62
     7
370
    15
100
AcDbLine
 10
444.3726034737
 20
443.107104292
 30
0.0
 11
444.3713716444
 21
443.1077897454
 31
0.0
  0
LINE
  5
145
330
1F
100
AcDbEntity
  8
0
  6
Continuous
 62
     7
370
    15
100
AcDbLine
 10
444.3851204491
 20
443.0143594648
 30
0.0
 11
444.3838886198
 21
443.0150747205
 31
0.0
  0
SPLINE
  5
146
330
1F
100
AcDbEntity
  8
0
  6
Continuous
 62
     7
370
    15
100
AcDbSpline
210
0.0
220
0.0
230
1.0
 70
     8
 71
     3
 72
     9
 73
     5
 74
     0
 42
0.00000001
 43
0.00000001
 40
0.0
 40
0.0
 40
0.0
 40
0.0
 40
0.4987270938016082
 40
1.0
 40
1.0
 40
1.0
 40
1.0
 10
445.0643253104236
 20
443.1347558801452
 30
0.0
 10
445.0641197455294
 20
443.1348729591195
 30
0.0
 10
445.0637075664102
 20
443.1351077147119
 30
0.0
 10
445.0632985233179
 20
443.1353382101009
 30
0.0
 10
445.0630934810982
 20
443.1354537511945
 30
0.0
  0
LINE
  5
147
330
1F
100
AcDbEntity
  8
0
  6
Continuous
 62
     7
370
    15
100
AcDbLine
 10
444.9309996542
 20
442.9142559474
 30
0.0
 11
444.9297678248
 21
442.9150159066
 31
0.0
  0
SPLINE
  5
148
330
1F
100
AcDbEntity
  8
0
  6
Continuous
 62
     7
370
    15
100
AcDbSpline
210
0.0
220
0.0
230
1.0
 70
     8
 71
     3
 72
     9
 73
     5
 74
     0
 42
0.00000001
 43
0.00000001
 40
0.0
 40
0.0
 40
0.0
 40
0.0
 40
0.5000950841265523
 40
0.9999999999999999
 40
0.9999999999999999
 40
0.9999999999999999
 40
0.9999999999999999
 10
444.9259332593626
 20
442.6267454927246
 30
0.0
 10
444.9257279740036
 20
442.6268880751328
 30
0.0
 10
444.9253174813485
 20
442.6271731857303
 30
0.0
 10
444.9249067544386
 20
442.6274559747956
 30
0.0
 10
444.9247014300372
 20
442.6275973424395
 30
0.0
  0
LINE
  5
149
330
1F
100
AcDbEntity
  8
0
  6
Continuous
 62
     7
370
    15
100
AcDbLine
 10
446.1203408019
 20
452.6589646841
 30
0.0
 11
446.1203408019
 21
438.0820304061
 31
0.0
  0
LINE
  5
14A
330
1F
100
AcDbEntity
  8
0
  6
Continuous
 62
     7
370
    15
100
AcDbLine
 10
443.8600134627
 20
451.9987389351
 30
0.0
 11
443.8587716993
 21
451.9967670148
 31
0.0
  0
LINE
  5
14B
330
1F
100
AcDbEntity
  8
0
  6
Continuous
 62
     7
370
    15
100
AcDbLine
 10
444.5506326135
 20
451.522468021
 30
0.0
 11
443.8600134627
 21
451.9987389351
 31
0.0
  0
LINE
  5
14C
330
1F
100
AcDbEntity
  8
0
  6
Continuous
 62
     7
370
    15
100
AcDbLine
 10
443.8600134627
 20
451.9987389351
 30
0.0
 11
443.9714145438
 21
452.1536216045
 31
0.0
  0
LINE
  5
14D
330
1F
100
AcDbEntity
  8
0
  6
Continuous
 62
     7
370
    15
100
AcDbLine
 10
443.9714145438
 20
452.1536216045
 30
0.0
 11
444.4403342184
 21
451.8349006678
 31
0.0
  0
SPLINE
  5
14E
330
1F
100
AcDbEntity
  8
0
  6
Continuous
 62
     7
370
    15
100
AcDbSpline
210
0.0
220
0.0
230
1.0
 70
     8
 71
     3
 72
    13
 73
     9
 74
     0
 42
0.00000001
 43
0.00000001
 40
0.0
 40
0.0
 40
0.0
 40
0.0
 40
0.2492567817220318
 40
0.371696136743708
 40
0.4998409914214832
 40
0.6263360956864804
 40
0.7503949618673257
 40
1.0
 40
1.0
 40
1.0
 40
1.0
 10
444.4403342183775
 20
451.8349006677747
 30
0.0
 10
444.4462468982912
 20
451.8803404737237
 30
0.0
 10
444.4550639915174
 20
451.948101118826
 30
0.0
 10
444.5119987316855
 20
452.0138869866
 30
0.0
 10
444.5674376177655
 20
452.0518217499983
 30
0.0
 10
444.634136703663
 20
452.0774820266692
 30
0.0
 10
444.734988491885
 20
452.093232299168
 30
0.0
 10
444.8197451627191
 20
452.0772827918289
 30
0.0
 10
444.8763620631244
 20
452.0666286255002
 30
0.0
  0
SPLINE
  5
14F
330
1F
100
AcDbEntity
  8
0
  6
Continuous
 62
     7
370
    15
100
AcDbSpline
210
0.0
220
0.0
230
1.0
 70
     8
 71
     3
 72
    12
 73
     8
 74
     0
 42
0.00000001
 43
0.00000001
 40
0.0
 40
0.0
 40
0.0
 40
0.0
 40
0.2496793874753065
 40
0.3724395337198781
 40
0.5005058439224589
 40
0.7502285672388946
 40
1.0
 40
1.0
 40
1.0
 40
1.0
 10
444.8763620631244
 20
452.0666286255002
 30
0.0
 10
444.9331025303553
 20
452.0476926193644
 30
0.0
 10
445.0177406471505
 20
452.0194463257193
 30
0.0
 10
445.1182918656027
 20
451.949271807916
 30
0.0
 10
445.2050185306148
 20
451.8686328648939
 30
0.0
 10
445.2923825251562
 20
451.7494396797737
 30
0.0
 10
445.3034421988174
 20
451.6526169673434
 30
0.0
 10
445.3089725749041
 20
451.6042008901715
 30
0.0
  0
SPLINE
  5
150
330
1F
100
AcDbEntity
  8
0
  6
Continuous
 62
     7
370
    15
100
AcDbSpline
210
0.0
220
0.0
230
1.0
 70
     8
 71
     3
 72
    12
 73
     8
 74
     0
 42
0.00000001
 43
0.00000001
 40
0.0
 40
0.0
 40
0.0
 40
0.0
 40
0.2497822121063319
 40
0.3752315841457075
 40
0.5006688820694448
 40
0.7505411348512803
 40
1.0
 40
1.0
 40
1.0
 40
1.0
 10
445.3089725749041
 20
451.6041959231178
 30
0.0
 10
445.303399096074
 20
451.5581866419453
 30
0.0
 10
445.2950264210424
 20
451.4890698889379
 30
0.0
 10
445.2392589776808
 20
451.4180511468857
 30
0.0
 10
445.1649032902299
 20
451.3641985159977
 30
0.0
 10
445.0461598015009
 20
451.319120433268
 30
0.0
 10
444.9325922093782
 20
451.3369911181658
 30
0.0
 10
444.8758554236438
 20
451.3459190631986
 30
0.0
  0
SPLINE
  5
151
330
1F
100
AcDbEntity
  8
0
  6
Continuous
 62
     7
370
    15
100
AcDbSpline
210
0.0
220
0.0
230
1.0
 70
     8
 71
     3
 72
     9
 73
     5
 74
     0
 42
0.00000001
 43
0.00000001
 40
0.0
 40
0.0
 40
0.0
 40
0.0
 40
0.4986038905021588
 40
1.0
 40
1.0
 40
1.0
 40
1.0
 10
444.8758554236438
 20
451.3459190631986
 30
0.0
 10
444.8183934398907
 20
451.3677075359774
 30
0.0
 10
444.7031476809875
 20
451.4114064986088
 30
0.0
 10
444.6015655159023
 20
451.4853786647226
 30
0.0
 10
444.5506326135343
 20
451.5224680210233
 30
0.0
  0
SPLINE
  5
152
330
1F
100
AcDbEntity
  8
0
  6
Continuous
 62
     7
370
    15
100
AcDbSpline
210
0.0
220
0.0
230
1.0
 70
     8
 71
     3
 72
    12
 73
     8
 74
     0
 42
0.00000001
 43
0.00000001
 40
0.0
 40
0.0
 40
0.0
 40
0.0
 40
0.2495411667459063
 40
0.4992479675812716
 40
0.7489443047371077
 40
0.874391526807005
 40
0.9999999999999999
 40
0.9999999999999999
 40
0.9999999999999999
 40
0.9999999999999999
 10
445.0631729539579
 20
451.663398236541
 30
0.0
 10
445.060563820883
 20
451.6841824708295
 30
0.0
 10
445.0553438229092
 20
451.7257647350372
 30
0.0
 10
445.0095119663881
 20
451.7864364632161
 30
0.0
 10
444.9576895156805
 20
451.8264649606288
 30
0.0
 10
444.9107301882188
 20
451.848469799355
 30
0.0
 10
444.8866245501434
 20
451.8555750491533
 30
0.0
 10
444.8745639896736
 20
451.8591299558759
 30
0.0
  0
SPLINE
  5
153
330
1F
100
AcDbEntity
  8
0
  6
Continuous
 62
     7
370
    15
100
AcDbSpline
210
0.0
220
0.0
230
1.0
 70
     8
 71
     3
 72
    14
 73
    10
 74
     0
 42
0.00000001
 43
0.00000001
 40
0.0
 40
0.0
 40
0.0
 40
0.0
 40
0.2492340018381742
 40
0.3753882321802053
 40
0.4994111419562531
 40
0.6261541106222488
 40
0.7496669390730587
 40
0.874733489976735
 40
0.9999999999999999
 40
0.9999999999999999
 40
0.9999999999999999
 40
0.9999999999999999
 10
444.8745639896736
 20
451.8591299558759
 30
0.0
 10
444.8504569663546
 20
451.8636554210964
 30
0.0
 10
444.8141477436957
 20
451.8704715311633
 30
0.0
 10
444.7709416418628
 20
451.8636000874854
 30
0.0
 10
444.7423074737329
 20
451.8526441603393
 30
0.0
 10
444.7187581664222
 20
451.8360927135514
 30
0.0
 10
444.7012065508567
 20
451.8144058667543
 30
0.0
 10
444.6910715284008
 20
451.7881771785515
 30
0.0
 10
444.6896344850326
 20
451.76856148232
 30
0.0
 10
444.6889153894132
 20
451.7587457999667
 30
0.0
  0
SPLINE
  5
154
330
1F
100
AcDbEntity
  8
0
  6
Continuous
 62
     7
370
    15
100
AcDbSpline
210
0.0
220
0.0
230
1.0
 70
     8
 71
     3
 72
    13
 73
     9
 74
     0
 42
0.00000001
 43
0.00000001
 40
0.0
 40
0.0
 40
0.0
 40
0.0
 40
0.2493454413138617
 40
0.3715495185336597
 40
0.4999449621638554
 40
0.7493044799845838
 40
0.8745614390213613
 40
1.0
 40
1.0
 40
1.0
 40
1.0
 10
444.6889153894132
 20
451.7587457999667
 30
0.0
 10
444.6911947731695
 20
451.7383367282685
 30
0.0
 10
444.6945912817749
 20
451.7079251806453
 30
0.0
 10
444.7192148260991
 20
451.6673852826079
 30
0.0
 10
444.7507278381755
 20
451.6300206996818
 30
0.0
 10
444.7921962204582
 20
451.598080757692
 30
0.0
 10
444.8380154691706
 20
451.5766334249288
 30
0.0
 10
444.8616138364408
 20
451.5697310982628
 30
0.0
 10
444.8734215673155
 20
451.5662774349332
 30
0.0
  0
SPLINE
  5
155
330
1F
100
AcDbEntity
  8
0
  6
Continuous
 62
     7
370
    15
100
AcDbSpline
210
0.0
220
0.0
230
1.0
 70
     8
 71
     3
 72
    11
 73
     7
 74
     0
 42
0.00000001
 43
0.00000001
 40
0.0
 40
0.0
 40
0.0
 40
0.0
 40
0.2504040295450604
 40
0.5003881253252159
 40
0.7504447161801322
 40
1.0
 40
1.0
 40
1.0
 40
1.0
 10
444.8734215673155
 20
451.5662774349332
 30
0.0
 10
444.8973631365243
 20
451.5617829940588
 30
0.0
 10
444.9452061243368
 20
451.5528016495989
 30
0.0
 10
445.0063014149727
 20
451.5709694730763
 30
0.0
 10
445.0540682056297
 20
451.6059709903233
 30
0.0
 10
445.06014006867
 20
451.6442686303291
 30
0.0
 10
445.0631729539579
 20
451.663398236541
 30
0.0
  0
SPLINE
  5
156
330
1F
100
AcDbEntity
  8
0
  6
Continuous
 62
     7
370
    15
100
AcDbSpline
210
0.0
220
0.0
230
1.0
 70
     8
 71
     3
 72
     9
 73
     5
 74
     0
 42
0.00000001
 43
0.00000001
 40
0.0
 40
0.0
 40
0.0
 40
0.0
 40
0.5005544621001851
 40
1.0
 40
1.0
 40
1.0
 40
1.0
 10
444.8758554236438
 20
451.3459190631986
 30
0.0
 10
444.8756460927133
 20
451.345611276997
 30
0.0
 10
444.8752278946023
 20
451.3449963864609
 30
0.0
 10
444.8748182535878
 20
451.3443794469142
 30
0.0
 10
444.874613660211
 20
451.3440713192105
 30
0.0
  0
SPLINE
  5
157
330
1F
100
AcDbEntity
  8
0
  6
Continuous
 62
     7
370
    15
100
AcDbSpline
210
0.0
220
0.0
230
1.0
 70
     8
 71
     3
 72
    14
 73
    10
 74
     0
 42
0.00000001
 43
0.00000001
 40
0.0
 40
0.0
 40
0.0
 40
0.0
 40
0.2492635278231416
 40
0.3754370412860685
 40
0.4994284527801723
 40
0.6262269457052713
 40
0.749692453926663
 40
0.8747362899856677
 40
0.9999999999999999
 40
0.9999999999999999
 40
0.9999999999999999
 40
0.9999999999999999
 10
444.8733222262408
 20
451.8571232661685
 30
0.0
 10
444.8492149540323
 20
451.8616473760985
 30
0.0
 10
444.8129049369574
 20
451.8684615236049
 30
0.0
 10
444.7697042691029
 20
451.8616000261306
 30
0.0
 10
444.7410704699431
 20
451.8506466068854
 30
0.0
 10
444.7175206070892
 20
451.834116428039
 30
0.0
 10
444.6999758806068
 20
451.8124189694037
 30
0.0
 10
444.6898386637349
 20
451.7862035170941
 30
0.0
 10
444.6884023485306
 20
451.766596122671
 30
0.0
 10
444.6876835600879
 20
451.7567838137428
 30
0.0
  0
SPLINE
  5
158
330
1F
100
AcDbEntity
  8
0
  6
Continuous
 62
     7
370
    15
100
AcDbSpline
210
0.0
220
0.0
230
1.0
 70
     8
 71
     3
 72
    12
 73
     8
 74
     0
 42
0.00000001
 43
0.00000001
 40
0.0
 40
0.0
 40
0.0
 40
0.0
 40
0.2494906334222507
 40
0.4991748585033758
 40
0.7488801906397908
 40
0.8743756968598125
 40
0.9999999999999999
 40
0.9999999999999999
 40
0.9999999999999999
 40
0.9999999999999999
 10
445.0619411246325
 20
451.6614362503171
 30
0.0
 10
445.0593263286595
 20
451.6822140196551
 30
0.0
 10
445.054094707769
 20
451.7237856807914
 30
0.0
 10
445.0082807302726
 20
451.7844421588334
 30
0.0
 10
444.9564523208265
 20
451.8244633916829
 30
0.0
 10
444.9094914258678
 20
451.8464608629023
 30
0.0
 10
444.8853827478191
 20
451.8535679167
 30
0.0
 10
444.8733222262408
 20
451.8571232661685
 30
0.0
  0
LINE
  5
159
330
1F
100
AcDbEntity
  8
0
  6
Continuous
 62
     7
370
    15
100
AcDbLine
 10
445.0464041806
 20
451.6077970371
 30
0.0
 11
445.0619411246
 21
451.6614362503
 31
0.0
  0
SPLINE
  5
15A
330
1F
100
AcDbEntity
  8
0
  6
Continuous
 62
     7
370
    15
100
AcDbSpline
210
0.0
220
0.0
230
1.0
 70
     8
 71
     3
 72
     9
 73
     5
 74
     0
 42
0.00000001
 43
0.00000001
 40
0.0
 40
0.0
 40
0.0
 40
0.0
 40
0.5006324227982005
 40
1.0
 40
1.0
 40
1.0
 40
1.0
 10
445.0619411246325
 20
451.6614362503171
 30
0.0
 10
445.0621462993517
 20
451.6617617978847
 30
0.0
 10
445.0625561304171
 20
451.6624120705251
 30
0.0
 10
445.0629675195589
 20
451.663069791841
 30
0.0
 10
445.0631729539579
 20
451.663398236541
 30
0.0
  0
SPLINE
  5
15B
330
1F
100
AcDbEntity
  8
0
  6
Continuous
 62
     7
370
    15
100
AcDbSpline
210
0.0
220
0.0
230
1.0
 70
     8
 71
     3
 72
     9
 73
     5
 74
     0
 42
0.00000001
 43
0.00000001
 40
0.0
 40
0.0
 40
0.0
 40
0.0
 40
0.5004973361936492
 40
1.0
 40
1.0
 40
1.0
 40
1.0
 10
444.8733222262408
 20
451.8571232661685
 30
0.0
 10
444.8735265985036
 20
451.8574575477885
 30
0.0
 10
444.8739349368664
 20
451.8581254466881
 30
0.0
 10
444.8743544444955
 20
451.8587953415886
 30
0.0
 10
444.8745639896736
 20
451.8591299558759
 30
0.0
  0
SPLINE
  5
15C
330
1F
100
AcDbEntity
  8
0
  6
Continuous
 62
     7
370
    15
100
AcDbSpline
210
0.0
220
0.0
230
1.0
 70
     8
 71
     3
 72
    12
 73
     8
 74
     0
 42
0.00000001
 43
0.00000001
 40
0.0
 40
0.0
 40
0.0
 40
0.0
 40
0.0304694523927129
 40
0.0888124130900659
 40
0.3925512578502001
 40
0.6962726762773317
 40
1.0
 40
1.0
 40
1.0
 40
1.0
 10
446.2725710646655
 20
437.7984513744792
 30
0.0
 10
446.2726551512482
 20
437.7949174850483
 30
0.0
 10
446.2729002469662
 20
437.7846168979586
 30
0.0
 10
446.2715985373924
 20
437.7386028694311
 30
0.0
 10
446.2553082746005
 20
437.6586166577716
 30
0.0
 10
446.2040940939158
 20
437.5555395083387
 30
0.0
 10
446.1511594968245
 20
437.5050615518182
 30
0.0
 10
446.1246919409778
 20
437.4798223281979
 30
0.0
  0
SPLINE
  5
15D
330
1F
100
AcDbEntity
  8
0
  6
Continuous
 62
     7
370
    15
100
AcDbSpline
210
0.0
220
0.0
230
1.0
 70
     8
 71
     3
 72
    10
 73
     6
 74
     0
 42
0.00000001
 43
0.00000001
 40
0.0
 40
0.0
 40
0.0
 40
0.0
 40
0.212004304115184
 40
0.4882045998128993
 40
0.9999999999999999
 40
0.9999999999999999
 40
0.9999999999999999
 40
0.9999999999999999
 10
446.1246919409778
 20
437.4798223281979
 30
0.0
 10
446.123966073538
 20
437.4791526316218
 30
0.0
 10
446.1222945422718
 20
437.4776104509087
 30
0.0
 10
446.1206192681991
 20
437.4742888044555
 30
0.0
 10
446.1204504485798
 20
437.4720350086667
 30
0.0
 10
446.1203408019092
 20
437.4705711906234
 30
0.0
  0
SPLINE
  5
15E
330
1F
100
AcDbEntity
  8
0
  6
Continuous
 62
     7
370
    15
100
AcDbSpline
210
0.0
220
0.0
230
1.0
 70
     8
 71
     3
 72
    12
 73
     8
 74
     0
 42
0.00000001
 43
0.00000001
 40
0.0
 40
0.0
 40
0.0
 40
0.0
 40
0.0304696481620016
 40
0.0888065586183976
 40
0.3925473549310844
 40
0.6962707247988028
 40
1.0
 40
1.0
 40
1.0
 40
1.0
 10
446.2725710646655
 20
452.9425437157432
 30
0.0
 10
446.2726551553273
 20
452.9460776123906
 30
0.0
 10
446.2729002452033
 20
452.9563774753264
 30
0.0
 10
446.2715983225184
 20
453.0023899956453
 30
0.0
 10
446.2553082979407
 20
453.0823761567387
 30
0.0
 10
446.2040940880808
 20
453.1854530464031
 30
0.0
 10
446.1511594948794
 20
453.2359310375593
 30
0.0
 10
446.1246919409778
 20
453.2611702784976
 30
0.0
  0
SPLINE
  5
15F
330
1F
100
AcDbEntity
  8
0
  6
Continuous
 62
     7
370
    15
100
AcDbSpline
210
0.0
220
0.0
230
1.0
 70
     8
 71
     3
 72
    11
 73
     7
 74
     0
 42
0.00000001
 43
0.00000001
 40
0.0
 40
0.0
 40
0.0
 40
0.0
 40
0.3707365379801983
 40
0.7442377951607063
 40
0.9440428693881061
 40
0.9999999999999999
 40
0.9999999999999999
 40
0.9999999999999999
 40
0.9999999999999999
 10
446.1203408019092
 20
453.2704238995989
 30
0.0
 10
446.1203965568047
 20
453.2693719625184
 30
0.0
 10
446.1205084823808
 20
453.2672602436742
 30
0.0
 10
446.1217758954736
 20
453.2642095894474
 30
0.0
 10
446.1235472074472
 20
453.2621133208122
 30
0.0
 10
446.1244864484195
 20
453.2613395652115
 30
0.0
 10
446.1246919409778
 20
453.2611702784976
 30
0.0
  0
LINE
  5
160
330
1F
100
AcDbEntity
  8
0
  6
Continuous
 62
     7
370
    15
100
AcDbLine
 10
446.272322712
 20
454.8020993576
 30
0.0
 11
446.2751539326
 21
454.8007880554
 31
0.0
  0
SPLINE
  5
161
330
1F
100
AcDbEntity
  8
0
  6
Continuous
 62
     7
370
    15
100
AcDbSpline
210
0.0
220
0.0
230
1.0
 70
     8
 71
     3
 72
    12
 73
     8
 74
     0
 42
0.00000001
 43
0.00000001
 40
0.0
 40
0.0
 40
0.0
 40
0.0
 40
0.2239053215960365
 40
0.4477657141564026
 40
0.6717178848480646
 40
0.8955511907493175
 40
0.9999999999999999
 40
0.9999999999999999
 40
0.9999999999999999
 40
0.9999999999999999
 10
446.3432621733691
 20
454.7697688048164
 30
0.0
 10
446.3347952873805
 20
454.7735933076503
 30
0.0
 10
446.3178632143762
 20
454.7812415458901
 30
0.0
 10
446.2960332855058
 20
454.7911976303761
 30
0.0
 10
446.2801629060319
 20
454.7984720582656
 30
0.0
 10
446.2730926590563
 20
454.8017351327414
 30
0.0
 10
446.2725085550765
 20
454.8020114441508
 30
0.0
 10
446.2723227119789
 20
454.8020993575533
 30
0.0
  0
LINE
  5
162
330
1F
100
AcDbEntity
  8
0
  6
Continuous
 62
     7
370
    15
100
AcDbLine
 10
446.3432621734
 20
454.7697688048
 30
0.0
 11
452.1411748505
 21
452.1426891193
 31
0.0
  0
LINE
  5
163
330
1F
100
AcDbEntity
  8
0
  6
Continuous
 62
     7
370
    15
100
AcDbLine
 10
452.1411748505
 20
452.1426891193
 30
0.0
 11
452.5904547946
 21
451.9399439201
 31
0.0
  0
LINE
  5
164
330
1F
100
AcDbEntity
  8
0
  6
Continuous
 62
     7
370
    15
100
AcDbLine
 10
443.8476057625
 20
436.1717089916
 30
0.0
 11
444.740085977
 21
436.4934623147
 31
0.0
  0
LINE
  5
165
330
1F
100
AcDbEntity
  8
0
  6
Continuous
 62
     7
370
    15
100
AcDbLine
 10
443.8463639991
 20
436.1744408712
 30
0.0
 11
443.8476057625
 21
436.1717089916
 31
0.0
  0
LINE
  5
166
330
1F
100
AcDbEntity
  8
0
  6
Continuous
 62
     7
370
    15
100
AcDbLine
 10
444.7388541476
 20
436.4961966778
 30
0.0
 11
444.740085977
 21
436.4934623147
 31
0.0
  0
LINE
  5
167
330
1F
100
AcDbEntity
  8
0
  6
Continuous
 62
     7
370
    15
100
AcDbLine
 10
444.9864617761
 20
436.4550769235
 30
0.0
 11
444.9817828115
 21
436.1823409701
 31
0.0
  0
LINE
  5
168
330
1F
100
AcDbEntity
  8
0
  6
Continuous
 62
     7
370
    15
100
AcDbLine
 10
444.9817828115
 20
436.1823409701
 30
0.0
 11
444.7380097485
 21
436.0943148439
 31
0.0
  0
LINE
  5
169
330
1F
100
AcDbEntity
  8
0
  6
Continuous
 62
     7
370
    15
100
AcDbLine
 10
444.7380097485
 20
436.0943148439
 30
0.0
 11
443.8500793553
 21
436.0428760355
 31
0.0
  0
LINE
  5
16A
330
1F
100
AcDbEntity
  8
0
  6
Continuous
 62
     7
370
    15
100
AcDbLine
 10
443.8500793553
 20
436.0428760355
 30
0.0
 11
443.8476057625
 21
436.1717089916
 31
0.0
  0
LINE
  5
16B
330
1F
100
AcDbEntity
  8
0
  6
Continuous
 62
     7
370
    15
100
AcDbLine
 10
444.740085977
 20
436.4934623147
 30
0.0
 11
444.738059419
 21
436.556119214
 31
0.0
  0
LINE
  5
16C
330
1F
100
AcDbEntity
  8
0
  6
Continuous
 62
     7
370
    15
100
AcDbLine
 10
444.738059419
 20
436.556119214
 30
0.0
 11
444.9818324821
 21
436.6441577579
 31
0.0
  0
LINE
  5
16D
330
1F
100
AcDbEntity
  8
0
  6
Continuous
 62
     7
370
    15
100
AcDbLine
 10
444.9818324821
 20
436.6441577579
 30
0.0
 11
444.9838789082
 21
436.5814536716
 31
0.0
  0
LINE
  5
16E
330
1F
100
AcDbEntity
  8
0
  6
Continuous
 62
     7
370
    15
100
AcDbLine
 10
444.9838789082
 20
436.5814536716
 30
0.0
 11
445.268580494
 21
436.6840779687
 31
0.0
  0
LINE
  5
16F
330
1F
100
AcDbEntity
  8
0
  6
Continuous
 62
     7
370
    15
100
AcDbLine
 10
445.268580494
 20
436.6840779687
 30
0.0
 11
445.2711931642
 21
436.5576391324
 31
0.0
  0
LINE
  5
170
330
1F
100
AcDbEntity
  8
0
  6
Continuous
 62
     7
370
    15
100
AcDbLine
 10
445.2711931642
 20
436.5576391324
 30
0.0
 11
444.9864617761
 21
436.455079407
 31
0.0
  0
LINE
  5
171
330
1F
100
AcDbEntity
  8
0
  6
Continuous
 62
     7
370
    15
100
AcDbLine
 10
444.7421522713
 20
436.2203935688
 30
0.0
 11
444.7426489767
 21
436.3671451713
 31
0.0
  0
LINE
  5
172
330
1F
100
AcDbEntity
  8
0
  6
Continuous
 62
     7
370
    15
100
AcDbLine
 10
444.7426489767
 20
436.3671451713
 30
0.0
 11
444.2779115614
 21
436.1997554605
 31
0.0
  0
LINE
  5
173
330
1F
100
AcDbEntity
  8
0
  6
Continuous
 62
     7
370
    15
100
AcDbLine
 10
444.2779115614
 20
436.1997554605
 30
0.0
 11
444.7421522713
 21
436.2203935688
 31
0.0
  0
LINE
  5
174
330
1F
100
AcDbEntity
  8
0
  6
Continuous
 62
     7
370
    15
100
AcDbLine
 10
443.8488475259
 20
436.0456476515
 30
0.0
 11
443.8500793553
 21
436.0428760355
 31
0.0
  0
LINE
  5
175
330
1F
100
AcDbEntity
  8
0
  6
Continuous
 62
     7
370
    15
100
AcDbLine
 10
444.7368275897
 20
436.5588312253
 30
0.0
 11
444.738059419
 21
436.556119214
 31
0.0
  0
LINE
  5
176
330
1F
100
AcDbEntity
  8
0
  6
Continuous
 62
     7
370
    15
100
AcDbLine
 10
444.9805907186
 20
436.6468697692
 30
0.0
 11
444.9818324821
 21
436.6441577579
 31
0.0
  0
LINE
  5
177
330
1F
100
AcDbEntity
  8
0
  6
Continuous
 62
     7
370
    15
100
AcDbLine
 10
445.2673486646
 20
436.6868098483
 30
0.0
 11
445.268580494
 21
436.6840779687
 31
0.0
  0
LINE
  5
178
330
1F
100
AcDbEntity
  8
0
  6
Continuous
 62
     7
370
    15
100
AcDbLine
 10
444.276679732
 20
436.2025270765
 30
0.0
 11
444.7409105079
 21
436.2232098882
 31
0.0
  0
LINE
  5
179
330
1F
100
AcDbEntity
  8
0
  6
Continuous
 62
     7
370
    15
100
AcDbLine
 10
444.7409105079
 20
436.2232098882
 30
0.0
 11
444.7421522713
 21
436.2203935688
 31
0.0
  0
LINE
  5
17A
330
1F
100
AcDbEntity
  8
0
  6
Continuous
 62
     7
370
    15
100
AcDbLine
 10
444.7409105079
 20
436.2232098882
 30
0.0
 11
444.7414072132
 21
436.3699167873
 31
0.0
  0
LINE
  5
17B
330
1F
100
AcDbEntity
  8
0
  6
Continuous
 62
     7
370
    15
100
AcDbLine
 10
452.7870011107
 20
450.5597188974
 30
0.0
 11
452.7870011107
 21
440.1812761928
 31
0.0
  0
LINE
  5
17C
330
1F
100
AcDbEntity
  8
0
  6
Continuous
 62
     7
370
    15
100
AcDbLine
 10
452.7870011107
 20
440.1812761928
 30
0.0
 11
452.7870011107
 21
439.0860259439
 31
0.0
  0
LINE
  5
17D
330
1F
100
AcDbEntity
  8
0
  6
Continuous
 62
     7
370
    15
100
AcDbLine
 10
452.7870011107
 20
451.6350462938
 30
0.0
 11
452.7870011107
 21
450.5597188974
 31
0.0
  0
SPLINE
  5
17E
330
1F
100
AcDbEntity
  8
0
  6
Continuous
 62
     7
370
    15
100
AcDbSpline
210
0.0
220
0.0
230
1.0
 70
     8
 71
     3
 72
    11
 73
     7
 74
     0
 42
0.00000001
 43
0.00000001
 40
0.0
 40
0.0
 40
0.0
 40
0.0
 40
0.2933310612744693
 40
0.5866064297340927
 40
0.8805033334926564
 40
1.0
 40
1.0
 40
1.0
 40
1.0
 10
452.5904547946002
 20
451.9399439200839
 30
0.0
 10
452.6231425402161
 20
451.9211448162704
 30
0.0
 10
452.6885118252434
 20
451.8835501779041
 30
0.0
 10
452.7555408553074
 20
451.7900662327606
 30
0.0
 10
452.7842075771272
 20
451.7029154051124
 30
0.0
 10
452.7863746816397
 20
451.6502654365403
 30
0.0
 10
452.787001110747
 20
451.6350462938428
 30
0.0
  0
SPLINE
  5
17F
330
1F
100
AcDbEntity
  8
0
  6
Continuous
 62
     7
370
    15
100
AcDbSpline
210
0.0
220
0.0
230
1.0
 70
    24
 71
     3
 72
    15
 73
    11
 74
     0
 42
0.00000001
 43
0.00000001
 40
0.0
 40
0.0
 40
0.0
 40
0.0
 40
0.0012999188370483
 40
0.0031042910558366
 40
0.0058975571195098
 40
0.0102715564740129
 40
0.0184821340024829
 40
0.0492181228556475
 40
0.1106021449813489
 40
1.0
 40
1.0
 40
1.0
 40
1.0
 10
442.1203426297849
 20
445.7871625726501
 30
0.0
 10
442.1203699417405
 20
445.7871625726501
 30
0.0
 10
442.1204351644737
 20
445.7871625726501
 30
0.0
 10
442.1210705371732
 20
445.7871625726501
 30
0.0
 10
442.1224714272022
 20
445.7871625726501
 30
0.0
 10
442.12537143764
 20
445.7871625726501
 30
0.0
 10
442.1342812753434
 20
445.7871625726502
 30
0.0
 10
442.1562109985765
 20
445.7871625726501
 30
0.0
 10
442.3733163298191
 20
445.7871625726502
 30
0.0
 10
442.5870582854963
 20
445.7871625726502
 30
0.0
 10
442.7870007133827
 20
445.7871625726501
 30
0.0
  0
LINE
  5
180
330
1F
100
AcDbEntity
  8
0
  6
Continuous
 62
     7
370
    15
100
AcDbLine
 10
442.7870007134
 20
444.9421947107
 30
0.0
 11
442.1203426298
 21
444.953830034
 31
0.0
  0
LINE
  5
181
330
1F
100
AcDbEntity
  8
0
  6
Continuous
 62
     7
370
    15
100
AcDbLine
 10
442.7870007134
 20
443.9501499042
 30
0.0
 11
442.1203426298
 21
443.9513817335
 31
0.0
  0
SPLINE
  5
182
330
1F
100
AcDbEntity
  8
0
  6
Continuous
 62
     7
370
    15
100
AcDbSpline
210
0.0
220
0.0
230
1.0
 70
     8
 71
     3
 72
    13
 73
     9
 74
     0
 42
0.00000001
 43
0.00000001
 40
0.0
 40
0.0
 40
0.0
 40
0.0
 40
0.1251683320259856
 40
0.2500869543338711
 40
0.3698835442122066
 40
0.4999885286016076
 40
0.7494562429718169
 40
1.0
 40
1.0
 40
1.0
 40
1.0
 10
445.3061214860624
 20
455.1997716133873
 30
0.0
 10
445.3042202670375
 20
455.2003284983348
 30
0.0
 10
445.3004216219028
 20
455.2014411572495
 30
0.0
 10
445.2559832861674
 20
455.21650833268
 30
0.0
 10
445.1776692772991
 20
455.2444316818798
 30
0.0
 10
445.0400412160542
 20
455.2952542175989
 30
0.0
 10
444.8360621157819
 20
455.3737369631562
 30
0.0
 10
444.672390765798
 20
455.4390504086379
 30
0.0
 10
444.590378977492
 20
455.4717774098198
 30
0.0
  0
SPLINE
  5
183
330
1F
100
AcDbEntity
  8
0
  6
Continuous
 62
     7
370
    15
100
AcDbSpline
210
0.0
220
0.0
230
1.0
 70
     8
 71
     3
 72
     9
 73
     5
 74
     0
 42
0.00000001
 43
0.00000001
 40
0.0
 40
0.0
 40
0.0
 40
0.0
 40
0.5016033138039737
 40
1.0
 40
1.0
 40
1.0
 40
1.0
 10
444.590378977492
 20
455.4717774098198
 30
0.0
 10
444.4939542987856
 20
455.5104682949319
 30
0.0
 10
444.3017213608188
 20
455.5876027237672
 30
0.0
 10
444.1265164873709
 20
455.6614499692953
 30
0.0
 10
444.0391949590391
 20
455.6982551917513
 30
0.0
  0
SPLINE
  5
184
330
1F
100
AcDbEntity
  8
0
  6
Continuous
 62
     7
370
    15
100
AcDbSpline
210
0.0
220
0.0
230
1.0
 70
     8
 71
     3
 72
    12
 73
     8
 74
     0
 42
0.00000001
 43
0.00000001
 40
0.0
 40
0.0
 40
0.0
 40
0.0
 40
0.2499964002920614
 40
0.4997518100412515
 40
0.7495683344287958
 40
0.8747644589329551
 40
1.0
 40
1.0
 40
1.0
 40
1.0
 10
444.0391949590391
 20
455.6982551917513
 30
0.0
 10
444.0111805663037
 20
455.7103723888278
 30
0.0
 10
443.9551787860369
 20
455.7345951022931
 30
0.0
 10
443.8945271940994
 20
455.761651302745
 30
0.0
 10
443.8645145174893
 20
455.7753579474906
 30
0.0
 10
443.8537581467787
 20
455.7804758721218
 30
0.0
 10
443.8524911557387
 20
455.781127484354
 30
0.0
 10
443.85185756051
 20
455.7814533417503
 30
0.0
  0
SPLINE
  5
185
330
1F
100
AcDbEntity
  8
0
  6
Continuous
 62
     7
370
    15
100
AcDbSpline
210
0.0
220
0.0
230
1.0
 70
     8
 71
     3
 72
    11
 73
     7
 74
     0
 42
0.00000001
 43
0.00000001
 40
0.0
 40
0.0
 40
0.0
 40
0.0
 40
0.2526474592399122
 40
0.4983529950273153
 40
0.7492460110976784
 40
1.0
 40
1.0
 40
1.0
 40
1.0
 10
445.06128547354
 20
455.2977070118069
 30
0.0
 10
445.0600804493408
 20
455.2981784355192
 30
0.0
 10
445.0577035110546
 20
455.2991083297663
 30
0.0
 10
445.0363423492216
 20
455.3073132284017
 30
0.0
 10
445.0050177749024
 20
455.319419630826
 30
0.0
 10
444.9782997896593
 20
455.3298337641054
 30
0.0
 10
444.9649444993681
 20
455.3350393876513
 30
0.0
  0
SPLINE
  5
186
330
1F
100
AcDbEntity
  8
0
  6
Continuous
 62
     7
370
    15
100
AcDbSpline
210
0.0
220
0.0
230
1.0
 70
     8
 71
     3
 72
     9
 73
     5
 74
     0
 42
0.00000001
 43
0.00000001
 40
0.0
 40
0.0
 40
0.0
 40
0.0
 40
0.4986271131848417
 40
1.0
 40
1.0
 40
1.0
 40
1.0
 10
444.9649444993681
 20
455.3350393876513
 30
0.0
 10
444.902898100912
 20
455.3594175425332
 30
0.0
 10
444.7784636351249
 20
455.4083080946859
 30
0.0
 10
444.6464130396895
 20
455.4611160379427
 30
0.0
 10
444.5802064514504
 20
455.4875925089001
 30
0.0
  0
SPLINE
  5
187
330
1F
100
AcDbEntity
  8
0
  6
Continuous
 62
     7
370
    15
100
AcDbSpline
210
0.0
220
0.0
230
1.0
 70
     8
 71
     3
 72
    13
 73
     9
 74
     0
 42
0.00000001
 43
0.00000001
 40
0.0
 40
0.0
 40
0.0
 40
0.0
 40
0.5002178069496293
 40
0.6253725983988103
 40
0.7503512182224675
 40
0.8754802969182651
 40
0.9379597916076478
 40
1.0
 40
1.0
 40
1.0
 40
1.0
 10
444.5802064514504
 20
455.4875925089001
 30
0.0
 10
444.4820195305124
 20
455.5269447237394
 30
0.0
 10
444.3592661838248
 20
455.5761428860296
 30
0.0
 10
444.2203730326124
 20
455.6326586208692
 30
0.0
 10
444.1590839709077
 20
455.6578471611796
 30
0.0
 10
444.1202681833273
 20
455.6738874362298
 30
0.0
 10
444.1040968137938
 20
455.680586086319
 30
0.0
 10
444.102881870171
 20
455.6810643494301
 30
0.0
 10
444.1022765414264
 20
455.6813026373665
 30
0.0
  0
SPLINE
  5
188
330
1F
100
AcDbEntity
  8
0
  6
Continuous
 62
     7
370
    15
100
AcDbSpline
210
0.0
220
0.0
230
1.0
 70
     8
 71
     3
 72
    13
 73
     9
 74
     0
 42
0.00000001
 43
0.00000001
 40
0.0
 40
0.0
 40
0.0
 40
0.0
 40
0.1244913654786799
 40
0.1870679007082467
 40
0.2496417073254785
 40
0.3744674533604308
 40
0.4996617048562316
 40
1.0
 40
1.0
 40
1.0
 40
1.0
 10
444.1022765414264
 20
455.6813026373665
 30
0.0
 10
444.1050535538077
 20
455.680091263509
 30
0.0
 10
444.1092264526622
 20
455.6782709833345
 30
0.0
 10
444.1352213475947
 20
455.6673352185124
 30
0.0
 10
444.1683653503695
 20
455.6534893989447
 30
0.0
 10
444.2246962427121
 20
455.6303314096231
 30
0.0
 10
444.3688269353843
 20
455.5715946991724
 30
0.0
 10
444.4963751341367
 20
455.520526993601
 30
0.0
 10
444.5983958022143
 20
455.4796799923062
 30
0.0
  0
SPLINE
  5
189
330
1F
100
AcDbEntity
  8
0
  6
Continuous
 62
     7
370
    15
100
AcDbSpline
210
0.0
220
0.0
230
1.0
 70
     8
 71
     3
 72
    12
 73
     8
 74
     0
 42
0.00000001
 43
0.00000001
 40
0.0
 40
0.0
 40
0.0
 40
0.0
 40
0.5003331437443181
 40
0.6307993691558845
 40
0.7506472023525326
 40
0.8753548484868893
 40
1.0
 40
1.0
 40
1.0
 40
1.0
 10
444.5983958022143
 20
455.4796799923062
 30
0.0
 10
444.6946063903407
 20
455.4412485112333
 30
0.0
 10
444.8159047273688
 20
455.3927956867109
 30
0.0
 10
444.9511050673122
 20
455.3399177803093
 30
0.0
 10
445.0091511205446
 20
455.3174841906003
 30
0.0
 10
445.0537903416306
 20
455.3004507410195
 30
0.0
 10
445.0587875137128
 20
455.2986214353865
 30
0.0
 10
445.06128547354
 20
455.2977070118069
 30
0.0
  0
SPLINE
  5
18A
330
1F
100
AcDbEntity
  8
0
  6
Continuous
 62
     7
370
    15
100
AcDbSpline
210
0.0
220
0.0
230
1.0
 70
     8
 71
     3
 72
     9
 73
     5
 74
     0
 42
0.00000001
 43
0.00000001
 40
0.0
 40
0.0
 40
0.0
 40
0.0
 40
0.5004977030625298
 40
1.0
 40
1.0
 40
1.0
 40
1.0
 10
444.0391949590391
 20
455.6982551917513
 30
0.0
 10
444.0389856165005
 20
455.6977405306347
 30
0.0
 10
444.0385673477707
 20
455.6967122319764
 30
0.0
 10
444.038157777098
 20
455.6956808580005
 30
0.0
 10
444.0379531956062
 20
455.6951656843304
 30
0.0
  0
SPLINE
  5
18B
330
1F
100
AcDbEntity
  8
0
  6
Continuous
 62
     7
370
    15
100
AcDbSpline
210
0.0
220
0.0
230
1.0
 70
    24
 71
     3
 72
     9
 73
     5
 74
     0
 42
0.00000001
 43
0.00000001
 40
0.0
 40
0.0
 40
0.0
 40
0.0
 40
0.5000756315249494
 40
1.0
 40
1.0
 40
1.0
 40
1.0
 10
444.590378977492
 20
455.4717774098198
 30
0.0
 10
444.5901736881367
 20
455.4712625308721
 30
0.0
 10
444.5897631715221
 20
455.4702329287175
 30
0.0
 10
444.589352468577
 20
455.4692028592347
 30
0.0
 10
444.5891471481667
 20
455.4686879023989
 30
0.0
  0
SPLINE
  5
18C
330
1F
100
AcDbEntity
  8
0
  6
Continuous
 62
     7
370
    15
100
AcDbSpline
210
0.0
220
0.0
230
1.0
 70
     8
 71
     3
 72
     9
 73
     5
 74
     0
 42
0.00000001
 43
0.00000001
 40
0.0
 40
0.0
 40
0.0
 40
0.0
 40
0.5006927870179356
 40
1.0
 40
1.0
 40
1.0
 40
1.0
 10
445.3061214860624
 20
455.1997716133873
 30
0.0
 10
445.3059163238021
 20
455.1992549830229
 30
0.0
 10
445.3055065670299
 20
455.1982231519725
 30
0.0
 10
445.3050951034635
 20
455.1971920003537
 30
0.0
 10
445.304889656737
 20
455.1966771389127
 30
0.0
  0
SPLINE
  5
18D
330
1F
100
AcDbEntity
  8
0
  6
Continuous
 62
     7
370
    15
100
AcDbSpline
210
0.0
220
0.0
230
1.0
 70
     8
 71
     3
 72
     9
 73
     5
 74
     0
 42
0.00000001
 43
0.00000001
 40
0.0
 40
0.0
 40
0.0
 40
0.0
 40
0.4993116733166463
 40
1.0
 40
1.0
 40
1.0
 40
1.0
 10
443.85185756051
 20
455.7814533417503
 30
0.0
 10
443.8516521146942
 20
455.7809384826044
 30
0.0
 10
443.8512406566273
 20
455.7799073447932
 30
0.0
 10
443.8508308943657
 20
455.7788754999458
 30
0.0
 10
443.8506257311847
 20
455.7783588672757
 30
0.0
  0
LINE
  5
18E
330
1F
100
AcDbEntity
  8
0
  6
Continuous
 62
     7
370
    15
100
AcDbLine
 10
443.2870042102
 20
427.7538294499
 30
0.0
 11
443.2870042102
 21
426.2908930486
 31
0.0
  0
LINE
  5
18F
330
1F
100
AcDbEntity
  8
0
  6
Continuous
 62
     7
370
    15
100
AcDbLine
 10
423.5486578719
 20
432.0575604742
 30
0.0
 11
423.9265413857
 21
431.6796819275
 31
0.0
  0
LINE
  5
190
330
1F
100
AcDbEntity
  8
0
  6
Continuous
 62
     7
370
    15
100
AcDbLine
 10
424.9486617025
 20
430.2250628576
 30
0.0
 11
424.9486617025
 21
429.0233909989
 31
0.0
  0
LINE
  5
191
330
1F
100
AcDbEntity
  8
0
  6
Continuous
 62
     7
370
    15
100
AcDbLine
 10
424.9486617025
 20
429.0233909989
 30
0.0
 11
424.9486617025
 21
428.8670355981
 31
0.0
  0
LINE
  5
192
330
1F
100
AcDbEntity
  8
0
  6
Continuous
 62
     7
370
    15
100
AcDbLine
 10
424.9486617025
 20
430.3814182585
 30
0.0
 11
424.9486617025
 21
430.2250628576
 31
0.0
  0
ARC
  5
193
330
1F
100
AcDbEntity
  8
0
  6
Continuous
 62
     7
370
    15
100
AcDbCircle
 10
424.2819934479
 20
428.8670360047
 30
0.0
 40
0.6666666666666856
100
AcDbArc
 50
331.0449756281
 51
0.0
  0
ARC
  5
194
330
1F
100
AcDbEntity
  8
0
  6
Continuous
 62
     7
370
    15
100
AcDbCircle
 10
424.2819934479
 20
430.3814179215
 30
0.0
 40
0.6666666666666856
100
AcDbArc
 50
0.0
 51
28.9550243719
  0
LINE
  5
195
330
1F
100
AcDbEntity
  8
0
  6
Continuous
 62
     7
370
    15
100
AcDbLine
 10
424.1206737137
 20
398.0122274314
 30
0.0
 11
424.1206737137
 21
398.5538300032
 31
0.0
  0
LINE
  5
196
330
1F
100
AcDbEntity
  8
0
  6
Continuous
 62
     7
370
    15
100
AcDbLine
 10
424.1206737137
 20
397.8704968994
 30
0.0
 11
423.5486578719
 21
397.8704968994
 31
0.0
  0
LINE
  5
197
330
1F
100
AcDbEntity
  8
0
  6
Continuous
 62
     7
370
    15
100
AcDbLine
 10
424.1206737137
 20
402.2038303221
 30
0.0
 11
423.5486578719
 21
402.2038303221
 31
0.0
  0
LINE
  5
198
330
1F
100
AcDbEntity
  8
0
  6
Continuous
 62
     7
370
    15
100
AcDbLine
 10
424.1206737137
 20
398.5538300032
 30
0.0
 11
424.1206737137
 21
402.2038303221
 31
0.0
  0
LINE
  5
199
330
1F
100
AcDbEntity
  8
0
  6
Continuous
 62
     7
370
    15
100
AcDbLine
 10
427.9000750955
 20
388.1786736255
 30
0.0
 11
427.914261001
 21
388.1788723076
 31
0.0
  0
LINE
  5
19A
330
1F
100
AcDbEntity
  8
0
  6
Continuous
 62
     7
370
    15
100
AcDbLine
 10
424.9300153828
 20
397.5859946167
 30
0.0
 11
427.9000750955
 21
388.1786736255
 31
0.0
  0
ARC
  5
19B
330
1F
100
AcDbEntity
  8
0
  6
Continuous
 62
     7
370
    15
100
AcDbCircle
 10
424.13298112
 20
397.3343570854
 30
0.0
 40
0.8358125197784453
100
AcDbArc
 50
17.5218437462
 51
88.4306866356
  0
LINE
  5
19C
330
1F
100
AcDbEntity
  8
0
  6
Continuous
 62
     7
370
    15
100
AcDbLine
 10
424.1471083737
 20
402.2041994363
 30
0.0
 11
424.1558702565
 21
398.1698562607
 31
0.0
  0
LINE
  5
19D
330
1F
100
AcDbEntity
  8
0
  6
Continuous
 62
     7
370
    15
100
AcDbLine
 10
446.6977806664
 20
398.2653900887
 30
0.0
 11
424.1471083737
 21
402.2041994363
 31
0.0
  0
LINE
  5
19E
330
1F
100
AcDbEntity
  8
0
  6
Continuous
 62
     7
370
    15
100
AcDbLine
 10
443.7773815569
 20
388.4249798859
 30
0.0
 11
446.6977806664
 21
398.2653900887
 31
0.0
  0
LINE
  5
19F
330
1F
100
AcDbEntity
  8
0
  6
Continuous
 62
     7
370
    15
100
AcDbLine
 10
443.7664242363
 20
388.424827149
 30
0.0
 11
443.7773815569
 21
388.4249798859
 31
0.0
  0
LINE
  5
1A0
330
1F
100
AcDbEntity
  8
0
  6
Continuous
 62
     7
370
    15
100
AcDbLine
 10
427.9280296739
 20
388.1369938359
 30
0.0
 11
427.914261001
 21
388.1788723076
 31
0.0
  0
LINE
  5
1A1
330
1F
100
AcDbEntity
  8
0
  6
Continuous
 62
     7
370
    15
100
AcDbLine
 10
443.7464666144
 20
388.35787499
 30
0.0
 11
443.7664242363
 21
388.424827149
 31
0.0
  0
LINE
  5
1A2
330
1F
100
AcDbEntity
  8
0
  6
Continuous
 62
     7
370
    15
100
AcDbLine
 10
443.3440955258
 20
387.6688564723
 30
0.0
 11
428.3494742489
 21
387.4594790146
 31
0.0
  0
SPLINE
  5
1A3
330
1F
100
AcDbEntity
  8
0
  6
Continuous
 62
     7
370
    15
100
AcDbSpline
210
0.0
220
0.0
230
1.0
 70
     8
 71
     3
 72
    12
 73
     8
 74
     0
 42
0.00000001
 43
0.00000001
 40
0.0
 40
0.0
 40
0.0
 40
0.0
 40
0.2159936035256265
 40
0.4359926510205422
 40
0.68153002666313
 40
0.9520750089562763
 40
1.0
 40
1.0
 40
1.0
 40
1.0
 10
427.970001277958
 20
387.9758750304659
 30
0.0
 10
427.9844514851865
 20
387.9095563733583
 30
0.0
 10
428.013619868206
 20
387.7756892279776
 30
0.0
 10
428.0937097959106
 20
387.6140880363741
 30
0.0
 10
428.196682380447
 20
387.497013320178
 30
0.0
 10
428.2875587659096
 20
387.4605467498331
 30
0.0
 10
428.3413756142305
 20
387.4596186758977
 30
0.0
 10
428.3494742489204
 20
387.4594790145835
 30
0.0
  0
LINE
  5
1A4
330
1F
100
AcDbEntity
  8
0
  6
Continuous
 62
     7
370
    15
100
AcDbLine
 10
443.7090050952
 20
388.1956472899
 30
0.0
 11
443.7464666144
 21
388.35787499
 31
0.0
  0
SPLINE
  5
1A5
330
1F
100
AcDbEntity
  8
0
  6
Continuous
 62
     7
370
    15
100
AcDbSpline
210
0.0
220
0.0
230
1.0
 70
     8
 71
     3
 72
    11
 73
     7
 74
     0
 42
0.00000001
 43
0.00000001
 40
0.0
 40
0.0
 40
0.0
 40
0.0
 40
0.2798651754003567
 40
0.5726139628973521
 40
0.8467870307222897
 40
1.0
 40
1.0
 40
1.0
 40
1.0
 10
443.3440955257759
 20
387.6688564722816
 30
0.0
 10
443.3873096323147
 20
387.6777465875988
 30
0.0
 10
443.4757272096815
 20
387.6959360752872
 30
0.0
 10
443.5856181235171
 20
387.8376471428845
 30
0.0
 10
443.6633556415173
 20
388.0188453125247
 30
0.0
 10
443.6969587632764
 20
388.1489914126988
 30
0.0
 10
443.7090050951983
 20
388.1956472898602
 30
0.0
  0
LINE
  5
1A6
330
1F
100
AcDbEntity
  8
0
  6
Continuous
 62
     7
370
    15
100
AcDbLine
 10
427.9280296739
 20
388.1369938359
 30
0.0
 11
427.970001278
 21
387.9758750305
 31
0.0
  0
ARC
  5
1A7
330
1F
100
AcDbEntity
  8
0
  6
Continuous
 62
     7
370
    15
100
AcDbCircle
 10
424.1206759422
 20
397.4538302964
 30
0.0
 40
0.6833333333333627
100
AcDbArc
 50
18.2
 51
90.0
  0
LINE
  5
1A8
330
1F
100
AcDbEntity
  8
0
  6
Continuous
 62
     7
370
    15
100
AcDbLine
 10
424.5164982256
 20
397.5839699214
 30
0.0
 11
424.7698279
 21
397.667259341
 31
0.0
  0
ARC
  5
1A9
330
1F
100
AcDbEntity
  8
0
  6
Continuous
 62
     7
370
    15
100
AcDbCircle
 10
424.1206759422
 20
397.4538302964
 30
0.0
 40
0.4166666666666856
100
AcDbArc
 50
18.2
 51
90.0
  0
LINE
  5
1AA
330
1F
100
AcDbEntity
  8
0
  6
Continuous
 62
     7
370
    15
100
AcDbLine
 10
424.1206737137
 20
397.8704968994
 30
0.0
 11
424.1206737137
 21
398.0122274314
 31
0.0
  0
LINE
  5
1AB
330
1F
100
AcDbEntity
  8
0
  6
Continuous
 62
     7
370
    15
100
AcDbLine
 10
427.9441129939
 20
388.012605151
 30
0.0
 11
427.6907833195
 21
387.9293163523
 31
0.0
  0
SPLINE
  5
1AC
330
1F
100
AcDbEntity
  8
0
  6
Continuous
 62
     7
370
    15
100
AcDbSpline
210
0.0
220
0.0
230
1.0
 70
     8
 71
     3
 72
    11
 73
     7
 74
     0
 42
0.00000001
 43
0.00000001
 40
0.0
 40
0.0
 40
0.0
 40
0.0
 40
0.2499964201154268
 40
0.4999994247340417
 40
0.7500015225240113
 40
1.0
 40
1.0
 40
1.0
 40
1.0
 10
428.3494742489204
 20
387.4594790145835
 30
0.0
 10
428.277172642598
 20
387.4651036772574
 30
0.0
 10
428.1325675256451
 20
387.4763531507498
 30
0.0
 10
427.9371981726652
 20
387.5781312983825
 30
0.0
 10
427.7773578422241
 20
387.7297198413137
 30
0.0
 10
427.7196413544455
 20
387.8627845031386
 30
0.0
 10
427.6907833195076
 20
387.9293163523158
 30
0.0
  0
LINE
  5
1AD
330
1F
100
AcDbEntity
  8
0
  6
Continuous
 62
     7
370
    15
100
AcDbLine
 10
427.9441129939
 20
388.012605151
 30
0.0
 11
424.7698279
 21
397.667259341
 31
0.0
  0
LINE
  5
1AE
330
1F
100
AcDbEntity
  8
0
  6
Continuous
 62
     7
370
    15
100
AcDbLine
 10
427.6907833195
 20
387.9293163523
 30
0.0
 11
424.5164982256
 21
397.5839699214
 31
0.0
  0
SPLINE
  5
1AF
330
1F
100
AcDbEntity
  8
0
  6
Continuous
 62
     7
370
    15
100
AcDbSpline
210
0.0
220
0.0
230
1.0
 70
     8
 71
     3
 72
    11
 73
     7
 74
     0
 42
0.00000001
 43
0.00000001
 40
0.0
 40
0.0
 40
0.0
 40
0.0
 40
0.2499963919173037
 40
0.5000005184299391
 40
0.7499976442256018
 40
1.0
 40
1.0
 40
1.0
 40
1.0
 10
443.9894052124367
 20
388.1569030289928
 30
0.0
 10
443.9624187834039
 20
388.0895910438032
 30
0.0
 10
443.9084450904098
 20
387.95496499087
 30
0.0
 10
443.7528953501788
 20
387.7989780321032
 30
0.0
 10
443.5604505484184
 20
387.691778347267
 30
0.0
 10
443.4162143695587
 20
387.676497150557
 30
0.0
 10
443.3440955257759
 20
387.6688564722816
 30
0.0
  0
LINE
  5
1B0
330
1F
100
AcDbEntity
  8
0
  6
Continuous
 62
     7
370
    15
100
AcDbLine
 10
443.7338602321
 20
388.2330864574
 30
0.0
 11
443.9894052124
 21
388.156903029
 31
0.0
  0
LINE
  5
1B1
330
1F
100
AcDbEntity
  8
0
  6
Continuous
 62
     7
370
    15
100
AcDbLine
 10
446.9790549851
 20
398.1854689524
 30
0.0
 11
446.7235000706
 21
398.2616530016
 31
0.0
  0
LINE
  5
1B2
330
1F
100
AcDbEntity
  8
0
  6
Continuous
 62
     7
370
    15
100
AcDbLine
 10
443.9894052124
 20
388.156903029
 30
0.0
 11
446.9790549851
 21
398.1854689524
 31
0.0
  0
LINE
  5
1B3
330
1F
100
AcDbEntity
  8
0
  6
Continuous
 62
     7
370
    15
100
AcDbLine
 10
443.7338602321
 20
388.2330864574
 30
0.0
 11
446.7235000706
 21
398.2616530016
 31
0.0
  0
ARC
  5
1B4
330
1F
100
AcDbEntity
  8
0
  6
Continuous
 62
     7
370
    15
100
AcDbCircle
 10
424.1225375663
 20
397.3205099599
 30
0.0
 40
0.8499999999999731
100
AcDbArc
 50
18.2
 51
87.7525303819
  0
LINE
  5
1B5
330
1F
100
AcDbEntity
  8
0
  6
Continuous
 62
     7
370
    15
100
AcDbLine
 10
424.1558702565
 20
398.1698562607
 30
0.0
 11
424.146025556
 21
402.2001106198
 31
0.0
  0
LINE
  5
1B6
330
1F
100
AcDbEntity
  8
0
  6
Continuous
 62
     7
370
    15
100
AcDbLine
 10
424.146025556
 20
402.2001106198
 30
0.0
 11
424.1471183078
 21
402.1999187673
 31
0.0
  0
LINE
  5
1B7
330
1F
100
AcDbEntity
  8
0
  6
Continuous
 62
     7
370
    15
100
AcDbLine
 10
442.0513403193
 20
399.0769588605
 30
0.0
 11
446.7060259756
 21
398.2650616422
 31
0.0
  0
LINE
  5
1B8
330
1F
100
AcDbEntity
  8
0
  6
Continuous
 62
     7
370
    15
100
AcDbLine
 10
446.7060259756
 20
398.2650616422
 30
0.0
 11
443.773884751
 21
388.4003283983
 31
0.0
  0
LINE
  5
1B9
330
1F
100
AcDbEntity
  8
0
  6
Continuous
 62
     7
370
    15
100
AcDbLine
 10
443.773884751
 20
388.4003283983
 30
0.0
 11
443.7590531286
 21
388.4001210238
 31
0.0
  0
LINE
  5
1BA
330
1F
100
AcDbEntity
  8
0
  6
Continuous
 62
     7
370
    15
100
AcDbLine
 10
427.2819947974
 20
423.790894191
 30
0.0
 11
427.2819947974
 21
422.2908936347
 31
0.0
  0
LINE
  5
1BB
330
1F
100
AcDbEntity
  8
0
  6
Continuous
 62
     7
370
    15
100
AcDbLine
 10
444.2819944795
 20
426.2908930486
 30
0.0
 11
441.6153224087
 21
426.2908930486
 31
0.0
  0
ARC
  5
1BC
330
1F
100
AcDbEntity
  8
0
  6
Continuous
 62
     7
370
    15
100
AcDbCircle
 10
424.1153267812
 20
430.9538308821
 30
0.0
 40
0.7500000000000112
100
AcDbArc
 50
0.0
 51
139.0739366904
  0
LINE
  5
1BD
330
1F
100
AcDbEntity
  8
0
  6
Continuous
 62
     7
370
    15
100
AcDbLine
 10
414.0153270738
 20
535.703831405
 30
0.0
 11
415.681992151
 21
535.703831405
 31
0.0
  0
LINE
  5
1BE
330
1F
100
AcDbEntity
  8
0
  6
Continuous
 62
     7
370
    15
100
AcDbLine
 10
415.0145244376
 20
536.134802789
 30
0.0
 11
415.0145244376
 21
535.703831405
 31
0.0
  0
LINE
  5
1BF
330
1F
100
AcDbEntity
  8
0
  6
Continuous
 62
     7
370
    15
100
AcDbLine
 10
415.681992151
 20
536.134802789
 30
0.0
 11
415.0145244376
 21
536.134802789
 31
0.0
  0
LINE
  5
1C0
330
1F
100
AcDbEntity
  8
0
  6
Continuous
 62
     7
370
    15
100
AcDbLine
 10
415.0145244376
 20
536.6371606693
 30
0.0
 11
415.0145244376
 21
536.1371671066
 31
0.0
  0
LINE
  5
1C1
330
1F
100
AcDbEntity
  8
0
  6
Continuous
 62
     7
370
    15
100
AcDbLine
 10
415.681992151
 20
536.6371606693
 30
0.0
 11
415.0145244376
 21
536.6371606693
 31
0.0
  0
LINE
  5
1C2
330
1F
100
AcDbEntity
  8
0
  6
Continuous
 62
     7
370
    15
100
AcDbLine
 10
415.681992151
 20
536.1371671066
 30
0.0
 11
415.0145244376
 21
536.1371671066
 31
0.0
  0
LINE
  5
1C3
330
1F
100
AcDbEntity
  8
0
  6
Continuous
 62
     7
370
    15
100
AcDbLine
 10
423.7203391171
 20
389.0538299983
 30
0.0
 11
423.5486578719
 21
389.0538299983
 31
0.0
  0
LINE
  5
1C4
330
1F
100
AcDbEntity
  8
0
  6
Continuous
 62
     7
370
    15
100
AcDbLine
 10
423.5486578719
 20
482.3538298314
 30
0.0
 11
423.7203391171
 21
482.3538298314
 31
0.0
  0
LINE
  5
1C5
330
1F
100
AcDbEntity
  8
0
  6
Continuous
 62
     7
370
    15
100
AcDbLine
 10
427.8395167764
 20
388.3704975153
 30
0.0
 11
427.826443491
 21
388.3704975153
 31
0.0
  0
LINE
  5
1C6
330
1F
100
AcDbEntity
  8
0
  6
Continuous
 62
     7
370
    15
100
AcDbLine
 10
427.5457354164
 20
388.3704975153
 30
0.0
 11
423.7203391171
 21
388.3704975153
 31
0.0
  0
LINE
  5
1C7
330
1F
100
AcDbEntity
  8
0
  6
Continuous
 62
     7
370
    15
100
AcDbLine
 10
423.7203391171
 20
389.0538299983
 30
0.0
 11
424.1370053864
 21
389.0538299983
 31
0.0
  0
LINE
  5
1C8
330
1F
100
AcDbEntity
  8
0
  6
Continuous
 62
     7
370
    15
100
AcDbLine
 10
423.7203391171
 20
388.3704975153
 30
0.0
 11
423.7203391171
 21
389.0538299983
 31
0.0
  0
LINE
  5
1C9
330
1F
100
AcDbEntity
  8
0
  6
Continuous
 62
     7
370
    15
100
AcDbLine
 10
423.7203391171
 20
482.3538298314
 30
0.0
 11
423.7203391171
 21
483.0371623144
 31
0.0
  0
LINE
  5
1CA
330
1F
100
AcDbEntity
  8
0
  6
Continuous
 62
     7
370
    15
100
AcDbLine
 10
441.4370051798
 20
483.0371623144
 30
0.0
 11
441.4370051798
 21
482.3538298314
 31
0.0
  0
LINE
  5
1CB
330
1F
100
AcDbEntity
  8
0
  6
Continuous
 62
     7
370
    15
100
AcDbLine
 10
423.7203391171
 20
482.3538298314
 30
0.0
 11
424.1370053864
 21
482.3538298314
 31
0.0
  0
LINE
  5
1CC
330
1F
100
AcDbEntity
  8
0
  6
Continuous
 62
     7
370
    15
100
AcDbLine
 10
442.1203426298
 20
482.3538298314
 30
0.0
 11
441.4370051798
 21
482.3538298314
 31
0.0
  0
LINE
  5
1CD
330
1F
100
AcDbEntity
  8
0
  6
Continuous
 62
     7
370
    15
100
AcDbLine
 10
442.1203426298
 20
482.3538298314
 30
0.0
 11
442.1203426298
 21
426.2908930486
 31
0.0
  0
LINE
  5
1CE
330
1F
100
AcDbEntity
  8
0
  6
Continuous
 62
     7
370
    15
100
AcDbLine
 10
442.1203426298
 20
408.5575603475
 30
0.0
 11
442.1203426298
 21
399.0649243102
 31
0.0
  0
SPLINE
  5
1CF
330
1F
100
AcDbEntity
  8
0
  6
Continuous
 62
     7
370
    15
100
AcDbSpline
210
0.0
220
0.0
230
1.0
 70
     8
 71
     3
 72
    11
 73
     7
 74
     0
 42
0.00000001
 43
0.00000001
 40
0.0
 40
0.0
 40
0.0
 40
0.0
 40
0.254715567738895
 40
0.5096080932369993
 40
0.7645071050029146
 40
1.0
 40
1.0
 40
1.0
 40
1.0
 10
441.8536714490598
 20
482.3538298313896
 30
0.0
 10
441.847162555054
 20
482.4094656935337
 30
0.0
 10
441.8341402451384
 20
482.5207760695525
 30
0.0
 10
441.7341688166945
 20
482.6602342215416
 30
0.0
 10
441.5954321726471
 20
482.7533384279501
 30
0.0
 10
441.4884023589115
 20
482.7649297766478
 30
0.0
 10
441.4370051797575
 20
482.770496100692
 30
0.0
  0
SPLINE
  5
1D0
330
1F
100
AcDbEntity
  8
0
  6
Continuous
 62
     7
370
    15
100
AcDbSpline
210
0.0
220
0.0
230
1.0
 70
     8
 71
     3
 72
    12
 73
     8
 74
     0
 42
0.00000001
 43
0.00000001
 40
0.0
 40
0.0
 40
0.0
 40
0.0
 40
0.2303413219365205
 40
0.4607639812392878
 40
0.6911898096243595
 40
0.9216199266243341
 40
1.0
 40
1.0
 40
1.0
 40
1.0
 10
442.1203426297849
 20
482.3538298313896
 30
0.0
 10
442.1116351841587
 20
482.4362513318061
 30
0.0
 10
442.0942172181619
 20
482.6011234370469
 30
0.0
 10
441.9591193540414
 20
482.8166075452141
 30
0.0
 10
441.7628605662603
 20
482.9712538589679
 30
0.0
 10
441.5749054301969
 20
483.0319613737502
 30
0.0
 10
441.4649207364227
 20
483.0361094725306
 30
0.0
 10
441.4370051797575
 20
483.0371623143633
 30
0.0
  0
LINE
  5
1D1
330
1F
100
AcDbEntity
  8
0
  6
Continuous
 62
     7
370
    15
100
AcDbLine
 10
256.6319944239
 20
387.970496953
 30
0.0
 11
264.281992294
 21
387.970496953
 31
0.0
  0
LINE
  5
1D2
330
1F
100
AcDbEntity
  8
0
  6
Continuous
 62
     7
370
    15
100
AcDbLine
 10
265.9486623383
 20
387.970496953
 30
0.0
 11
265.9486623383
 21
388.070497404
 31
0.0
  0
LINE
  5
1D3
330
1F
100
AcDbEntity
  8
0
  6
Continuous
 62
     7
370
    15
100
AcDbLine
 10
264.281992294
 20
387.970496953
 30
0.0
 11
265.9486623383
 21
387.970496953
 31
0.0
  0
ARC
  5
1D4
330
1F
100
AcDbEntity
  8
0
  6
Continuous
 62
     7
370
    15
100
AcDbCircle
 10
256.6319934479
 20
388.6538302964
 30
0.0
 40
0.683333333333394
100
AcDbArc
 50
238.6118501718
 51
270.0
  0
LINE
  5
1D5
330
1F
100
AcDbEntity
  8
0
  6
Continuous
 62
     7
370
    15
100
AcDbLine
 10
261.9319947338
 20
546.6371610666
 30
0.0
 11
256.6319944239
 21
546.6371610666
 31
0.0
  0
ARC
  5
1D6
330
1F
100
AcDbEntity
  8
0
  6
Continuous
 62
     7
370
    15
100
AcDbCircle
 10
256.6319934479
 20
545.9538302964
 30
0.0
 40
0.683333333333394
100
AcDbArc
 50
90.0
 51
130.8786351463
  0
LINE
  5
1D7
330
1F
100
AcDbEntity
  8
0
  6
Continuous
 62
     7
370
    15
100
AcDbLine
 10
255.9960376994
 20
546.203825365
 30
0.0
 11
255.9672387219
 21
546.1120838826
 31
0.0
  0
ARC
  5
1D8
330
1F
100
AcDbEntity
  8
0
  6
Continuous
 62
     7
370
    15
100
AcDbCircle
 10
256.6319934479
 20
545.9538302964
 30
0.0
 40
0.4166666666666856
100
AcDbArc
 50
143.1301023538
 51
180.0
  0
ARC
  5
1D9
330
1F
100
AcDbEntity
  8
0
  6
Continuous
 62
     7
370
    15
100
AcDbCircle
 10
261.9319934479
 20
545.9538302964
 30
0.0
 40
0.683333333333394
100
AcDbArc
 50
49.1213648537
 51
90.0
  0
LINE
  5
1DA
330
1F
100
AcDbEntity
  8
0
  6
Continuous
 62
     7
370
    15
100
AcDbLine
 10
256.2153231875
 20
545.8848709767
 30
0.0
 11
256.2153231875
 21
545.9538335507
 31
0.0
  0
LINE
  5
1DB
330
1F
100
AcDbEntity
  8
0
  6
Continuous
 62
     7
370
    15
100
AcDbLine
 10
280.2819949166
 20
538.8704970385
 30
0.0
 11
280.2819949166
 21
526.3038312301
 31
0.0
  0
LINE
  5
1DC
330
1F
100
AcDbEntity
  8
0
  6
Continuous
 62
     7
370
    15
100
AcDbLine
 10
255.9486619409
 20
546.203825365
 30
0.0
 11
255.9486619409
 21
545.9538335507
 31
0.0
  0
LINE
  5
1DD
330
1F
100
AcDbEntity
  8
0
  6
Continuous
 62
     7
370
    15
100
AcDbLine
 10
266.448660868
 20
388.4871636733
 30
0.0
 11
266.6153253889
 21
388.4871636733
 31
0.0
  0
LINE
  5
1DE
330
1F
100
AcDbEntity
  8
0
  6
Continuous
 62
     7
370
    15
100
AcDbLine
 10
266.448660868
 20
388.070497404
 30
0.0
 11
266.448660868
 21
388.4871636733
 31
0.0
  0
LINE
  5
1DF
330
1F
100
AcDbEntity
  8
0
  6
Continuous
 62
     7
370
    15
100
AcDbLine
 10
256.3653282102
 20
388.070497404
 30
0.0
 11
266.448660868
 21
388.070497404
 31
0.0
  0
LINE
  5
1E0
330
1F
100
AcDbEntity
  8
0
  6
Continuous
 62
     7
370
    15
100
AcDbLine
 10
256.3819926755
 20
545.7871590957
 30
0.0
 11
256.3653282102
 21
545.7871590957
 31
0.0
  0
LINE
  5
1E1
330
1F
100
AcDbEntity
  8
0
  6
Continuous
 62
     7
370
    15
100
AcDbLine
 10
415.681992151
 20
544.9704959894
 30
0.0
 11
414.0153270738
 21
544.9704959894
 31
0.0
  0
LINE
  5
1E2
330
1F
100
AcDbEntity
  8
0
  6
Continuous
 62
     7
370
    15
100
AcDbLine
 10
414.0153270738
 20
544.9704959894
 30
0.0
 11
414.0153270738
 21
526.3038312301
 31
0.0
  0
LINE
  5
1E3
330
1F
100
AcDbEntity
  8
0
  6
Continuous
 62
     7
370
    15
100
AcDbLine
 10
414.0153270738
 20
526.3038312301
 30
0.0
 11
415.681992151
 21
526.3038312301
 31
0.0
  0
LINE
  5
1E4
330
1F
100
AcDbEntity
  8
0
  6
Continuous
 62
     7
370
    15
100
AcDbLine
 10
415.681992151
 20
526.3038312301
 30
0.0
 11
415.681992151
 21
544.9704959894
 31
0.0
  0
LINE
  5
1E5
330
1F
100
AcDbEntity
  8
0
  6
Continuous
 62
     7
370
    15
100
AcDbLine
 10
405.6819917536
 20
544.9704959894
 30
0.0
 11
404.0153266764
 21
544.9704959894
 31
0.0
  0
LINE
  5
1E6
330
1F
100
AcDbEntity
  8
0
  6
Continuous
 62
     7
370
    15
100
AcDbLine
 10
404.0153266764
 20
544.9704959894
 30
0.0
 11
404.0153266764
 21
526.3038312301
 31
0.0
  0
LINE
  5
1E7
330
1F
100
AcDbEntity
  8
0
  6
Continuous
 62
     7
370
    15
100
AcDbLine
 10
404.0153266764
 20
526.3038312301
 30
0.0
 11
405.6819917536
 21
526.3038312301
 31
0.0
  0
LINE
  5
1E8
330
1F
100
AcDbEntity
  8
0
  6
Continuous
 62
     7
370
    15
100
AcDbLine
 10
405.6819917536
 20
526.3038312301
 30
0.0
 11
405.6819917536
 21
544.9704959894
 31
0.0
  0
LINE
  5
1E9
330
1F
100
AcDbEntity
  8
0
  6
Continuous
 62
     7
370
    15
100
AcDbLine
 10
395.6819913562
 20
544.9704959894
 30
0.0
 11
394.015326279
 21
544.9704959894
 31
0.0
  0
LINE
  5
1EA
330
1F
100
AcDbEntity
  8
0
  6
Continuous
 62
     7
370
    15
100
AcDbLine
 10
394.015326279
 20
544.9704959894
 30
0.0
 11
394.015326279
 21
526.3038312301
 31
0.0
  0
LINE
  5
1EB
330
1F
100
AcDbEntity
  8
0
  6
Continuous
 62
     7
370
    15
100
AcDbLine
 10
394.015326279
 20
526.3038312301
 30
0.0
 11
395.6819913562
 21
526.3038312301
 31
0.0
  0
LINE
  5
1EC
330
1F
100
AcDbEntity
  8
0
  6
Continuous
 62
     7
370
    15
100
AcDbLine
 10
395.6819913562
 20
526.3038312301
 30
0.0
 11
395.6819913562
 21
544.9704959894
 31
0.0
  0
LINE
  5
1ED
330
1F
100
AcDbEntity
  8
0
  6
Continuous
 62
     7
370
    15
100
AcDbLine
 10
385.6819959259
 20
544.9704959894
 30
0.0
 11
384.0153258817
 21
544.9704959894
 31
0.0
  0
LINE
  5
1EE
330
1F
100
AcDbEntity
  8
0
  6
Continuous
 62
     7
370
    15
100
AcDbLine
 10
384.0153258817
 20
544.9704959894
 30
0.0
 11
384.0153258817
 21
526.3038312301
 31
0.0
  0
LINE
  5
1EF
330
1F
100
AcDbEntity
  8
0
  6
Continuous
 62
     7
370
    15
100
AcDbLine
 10
384.0153258817
 20
526.3038312301
 30
0.0
 11
385.6819959259
 21
526.3038312301
 31
0.0
  0
LINE
  5
1F0
330
1F
100
AcDbEntity
  8
0
  6
Continuous
 62
     7
370
    15
100
AcDbLine
 10
385.6819959259
 20
526.3038312301
 30
0.0
 11
385.6819959259
 21
544.9704959894
 31
0.0
  0
LINE
  5
1F1
330
1F
100
AcDbEntity
  8
0
  6
Continuous
 62
     7
370
    15
100
AcDbLine
 10
375.681993045
 20
544.9704959894
 30
0.0
 11
374.0153279678
 21
544.9704959894
 31
0.0
  0
LINE
  5
1F2
330
1F
100
AcDbEntity
  8
0
  6
Continuous
 62
     7
370
    15
100
AcDbLine
 10
374.0153279678
 20
544.9704959894
 30
0.0
 11
374.0153279678
 21
526.3038312301
 31
0.0
  0
LINE
  5
1F3
330
1F
100
AcDbEntity
  8
0
  6
Continuous
 62
     7
370
    15
100
AcDbLine
 10
374.0153279678
 20
526.3038312301
 30
0.0
 11
375.681993045
 21
526.3038312301
 31
0.0
  0
LINE
  5
1F4
330
1F
100
AcDbEntity
  8
0
  6
Continuous
 62
     7
370
    15
100
AcDbLine
 10
375.681993045
 20
526.3038312301
 30
0.0
 11
375.681993045
 21
544.9704959894
 31
0.0
  0
LINE
  5
1F5
330
1F
100
AcDbEntity
  8
0
  6
Continuous
 62
     7
370
    15
100
AcDbLine
 10
365.6819926477
 20
544.9704959894
 30
0.0
 11
364.0153275705
 21
544.9704959894
 31
0.0
  0
LINE
  5
1F6
330
1F
100
AcDbEntity
  8
0
  6
Continuous
 62
     7
370
    15
100
AcDbLine
 10
364.0153275705
 20
544.9704959894
 30
0.0
 11
364.0153275705
 21
526.3038312301
 31
0.0
  0
LINE
  5
1F7
330
1F
100
AcDbEntity
  8
0
  6
Continuous
 62
     7
370
    15
100
AcDbLine
 10
364.0153275705
 20
526.3038312301
 30
0.0
 11
365.6819926477
 21
526.3038312301
 31
0.0
  0
LINE
  5
1F8
330
1F
100
AcDbEntity
  8
0
  6
Continuous
 62
     7
370
    15
100
AcDbLine
 10
365.6819926477
 20
526.3038312301
 30
0.0
 11
365.6819926477
 21
544.9704959894
 31
0.0
  0
LINE
  5
1F9
330
1F
100
AcDbEntity
  8
0
  6
Continuous
 62
     7
370
    15
100
AcDbLine
 10
355.6819934921
 20
544.9704959894
 30
0.0
 11
354.0153271731
 21
544.9704959894
 31
0.0
  0
LINE
  5
1FA
330
1F
100
AcDbEntity
  8
0
  6
Continuous
 62
     7
370
    15
100
AcDbLine
 10
354.0153271731
 20
544.9704959894
 30
0.0
 11
354.0153271731
 21
526.3038312301
 31
0.0
  0
LINE
  5
1FB
330
1F
100
AcDbEntity
  8
0
  6
Continuous
 62
     7
370
    15
100
AcDbLine
 10
354.0153271731
 20
526.3038312301
 30
0.0
 11
355.6819934921
 21
526.3038312301
 31
0.0
  0
LINE
  5
1FC
330
1F
100
AcDbEntity
  8
0
  6
Continuous
 62
     7
370
    15
100
AcDbLine
 10
355.6819934921
 20
526.3038312301
 30
0.0
 11
355.6819934921
 21
544.9704959894
 31
0.0
  0
LINE
  5
1FD
330
1F
100
AcDbEntity
  8
0
  6
Continuous
 62
     7
370
    15
100
AcDbLine
 10
345.6819937156
 20
544.9704959894
 30
0.0
 11
344.0153267757
 21
544.9704959894
 31
0.0
  0
LINE
  5
1FE
330
1F
100
AcDbEntity
  8
0
  6
Continuous
 62
     7
370
    15
100
AcDbLine
 10
344.0153267757
 20
544.9704959894
 30
0.0
 11
344.0153267757
 21
526.3038312301
 31
0.0
  0
LINE
  5
1FF
330
1F
100
AcDbEntity
  8
0
  6
Continuous
 62
     7
370
    15
100
AcDbLine
 10
344.0153267757
 20
526.3038312301
 30
0.0
 11
345.6819937156
 21
526.3038312301
 31
0.0
  0
LINE
  5
200
330
1F
100
AcDbEntity
  8
0
  6
Continuous
 62
     7
370
    15
100
AcDbLine
 10
345.6819937156
 20
526.3038312301
 30
0.0
 11
345.6819937156
 21
544.9704959894
 31
0.0
  0
ARC
  5
201
330
1F
100
AcDbEntity
  8
0
  6
Continuous
 62
     7
370
    15
100
AcDbCircle
 10
334.8486601146
 20
542.9704969631
 30
0.0
 40
1.882694264236248
100
AcDbArc
 50
296.2716831085
 51
243.7283168915
  0
LINE
  5
202
330
1F
100
AcDbEntity
  8
0
  6
Continuous
 62
     7
370
    15
100
AcDbLine
 10
334.0153269993
 20
541.28227978
 30
0.0
 11
334.0153269993
 21
526.3038312301
 31
0.0
  0
LINE
  5
203
330
1F
100
AcDbEntity
  8
0
  6
Continuous
 62
     7
370
    15
100
AcDbLine
 10
334.0153269993
 20
526.3038312301
 30
0.0
 11
335.6819933182
 21
526.3038312301
 31
0.0
  0
LINE
  5
204
330
1F
100
AcDbEntity
  8
0
  6
Continuous
 62
     7
370
    15
100
AcDbLine
 10
335.6819933182
 20
526.3038312301
 30
0.0
 11
335.6819933182
 21
541.28227978
 31
0.0
  0
LINE
  5
205
330
1F
100
AcDbEntity
  8
0
  6
Continuous
 62
     7
370
    15
100
AcDbLine
 10
325.6819935418
 20
544.9704959894
 30
0.0
 11
324.0153272228
 21
544.9704959894
 31
0.0
  0
LINE
  5
206
330
1F
100
AcDbEntity
  8
0
  6
Continuous
 62
     7
370
    15
100
AcDbLine
 10
324.0153272228
 20
544.9704959894
 30
0.0
 11
324.0153272228
 21
526.3038312301
 31
0.0
  0
LINE
  5
207
330
1F
100
AcDbEntity
  8
0
  6
Continuous
 62
     7
370
    15
100
AcDbLine
 10
324.0153272228
 20
526.3038312301
 30
0.0
 11
325.6819935418
 21
526.3038312301
 31
0.0
  0
LINE
  5
208
330
1F
100
AcDbEntity
  8
0
  6
Continuous
 62
     7
370
    15
100
AcDbLine
 10
325.6819935418
 20
526.3038312301
 30
0.0
 11
325.6819935418
 21
544.9704959894
 31
0.0
  0
LINE
  5
209
330
1F
100
AcDbEntity
  8
0
  6
Continuous
 62
     7
370
    15
100
AcDbLine
 10
315.6819931444
 20
544.9704959894
 30
0.0
 11
314.0153255837
 21
544.9704959894
 31
0.0
  0
LINE
  5
20A
330
1F
100
AcDbEntity
  8
0
  6
Continuous
 62
     7
370
    15
100
AcDbLine
 10
314.0153255837
 20
544.9704959894
 30
0.0
 11
314.0153255837
 21
526.3038312301
 31
0.0
  0
LINE
  5
20B
330
1F
100
AcDbEntity
  8
0
  6
Continuous
 62
     7
370
    15
100
AcDbLine
 10
314.0153255837
 20
526.3038312301
 30
0.0
 11
315.6819931444
 21
526.3038312301
 31
0.0
  0
LINE
  5
20C
330
1F
100
AcDbEntity
  8
0
  6
Continuous
 62
     7
370
    15
100
AcDbLine
 10
315.6819931444
 20
526.3038312301
 30
0.0
 11
315.6819931444
 21
544.9704959894
 31
0.0
  0
LINE
  5
20D
330
1F
100
AcDbEntity
  8
0
  6
Continuous
 62
     7
370
    15
100
AcDbLine
 10
305.681992747
 20
544.9704959894
 30
0.0
 11
304.0153276698
 21
544.9704959894
 31
0.0
  0
LINE
  5
20E
330
1F
100
AcDbEntity
  8
0
  6
Continuous
 62
     7
370
    15
100
AcDbLine
 10
304.0153276698
 20
544.9704959894
 30
0.0
 11
304.0153276698
 21
526.3038312301
 31
0.0
  0
LINE
  5
20F
330
1F
100
AcDbEntity
  8
0
  6
Continuous
 62
     7
370
    15
100
AcDbLine
 10
304.0153276698
 20
526.3038312301
 30
0.0
 11
305.681992747
 21
526.3038312301
 31
0.0
  0
LINE
  5
210
330
1F
100
AcDbEntity
  8
0
  6
Continuous
 62
     7
370
    15
100
AcDbLine
 10
305.681992747
 20
526.3038312301
 30
0.0
 11
305.681992747
 21
544.9704959894
 31
0.0
  0
LINE
  5
211
330
1F
100
AcDbEntity
  8
0
  6
Continuous
 62
     7
370
    15
100
AcDbLine
 10
295.6819923497
 20
544.9704959894
 30
0.0
 11
294.0153272724
 21
544.9704959894
 31
0.0
  0
LINE
  5
212
330
1F
100
AcDbEntity
  8
0
  6
Continuous
 62
     7
370
    15
100
AcDbLine
 10
294.0153272724
 20
544.9704959894
 30
0.0
 11
294.0153272724
 21
526.3038312301
 31
0.0
  0
LINE
  5
213
330
1F
100
AcDbEntity
  8
0
  6
Continuous
 62
     7
370
    15
100
AcDbLine
 10
294.0153272724
 20
526.3038312301
 30
0.0
 11
295.6819923497
 21
526.3038312301
 31
0.0
  0
LINE
  5
214
330
1F
100
AcDbEntity
  8
0
  6
Continuous
 62
     7
370
    15
100
AcDbLine
 10
295.6819923497
 20
526.3038312301
 30
0.0
 11
295.6819923497
 21
544.9704959894
 31
0.0
  0
LINE
  5
215
330
1F
100
AcDbEntity
  8
0
  6
Continuous
 62
     7
370
    15
100
AcDbLine
 10
285.6819919523
 20
544.9704959894
 30
0.0
 11
284.0153268751
 21
544.9704959894
 31
0.0
  0
LINE
  5
216
330
1F
100
AcDbEntity
  8
0
  6
Continuous
 62
     7
370
    15
100
AcDbLine
 10
284.0153268751
 20
544.9704959894
 30
0.0
 11
284.0153268751
 21
526.3038312301
 31
0.0
  0
LINE
  5
217
330
1F
100
AcDbEntity
  8
0
  6
Continuous
 62
     7
370
    15
100
AcDbLine
 10
284.0153268751
 20
526.3038312301
 30
0.0
 11
285.6819919523
 21
526.3038312301
 31
0.0
  0
LINE
  5
218
330
1F
100
AcDbEntity
  8
0
  6
Continuous
 62
     7
370
    15
100
AcDbLine
 10
285.6819919523
 20
526.3038312301
 30
0.0
 11
285.6819919523
 21
544.9704959894
 31
0.0
  0
LINE
  5
219
330
1F
100
AcDbEntity
  8
0
  6
Continuous
 62
     7
370
    15
100
AcDbLine
 10
275.6819915549
 20
544.9704959894
 30
0.0
 11
274.0153264777
 21
544.9704959894
 31
0.0
  0
LINE
  5
21A
330
1F
100
AcDbEntity
  8
0
  6
Continuous
 62
     7
370
    15
100
AcDbLine
 10
274.0153264777
 20
544.9704959894
 30
0.0
 11
274.0153264777
 21
526.3038312301
 31
0.0
  0
LINE
  5
21B
330
1F
100
AcDbEntity
  8
0
  6
Continuous
 62
     7
370
    15
100
AcDbLine
 10
274.0153264777
 20
526.3038312301
 30
0.0
 11
275.6819915549
 21
526.3038312301
 31
0.0
  0
LINE
  5
21C
330
1F
100
AcDbEntity
  8
0
  6
Continuous
 62
     7
370
    15
100
AcDbLine
 10
275.6819915549
 20
526.3038312301
 30
0.0
 11
275.6819915549
 21
544.9704959894
 31
0.0
  0
LINE
  5
21D
330
1F
100
AcDbEntity
  8
0
  6
Continuous
 62
     7
370
    15
100
AcDbLine
 10
264.0153260804
 20
544.9704959894
 30
0.0
 11
264.0153260804
 21
526.3038312301
 31
0.0
  0
LINE
  5
21E
330
1F
100
AcDbEntity
  8
0
  6
Continuous
 62
     7
370
    15
100
AcDbLine
 10
264.0153260804
 20
526.3038312301
 30
0.0
 11
265.6819911576
 21
526.3038312301
 31
0.0
  0
LINE
  5
21F
330
1F
100
AcDbEntity
  8
0
  6
Continuous
 62
     7
370
    15
100
AcDbLine
 10
265.6819911576
 20
526.3038312301
 30
0.0
 11
265.6819911576
 21
544.9704959894
 31
0.0
  0
LINE
  5
220
330
1F
100
AcDbEntity
  8
0
  6
Continuous
 62
     7
370
    15
100
AcDbLine
 10
265.6819911576
 20
544.9704959894
 30
0.0
 11
264.0153260804
 21
544.9704959894
 31
0.0
  0
ARC
  5
221
330
1F
100
AcDbEntity
  8
0
  6
Continuous
 62
     7
370
    15
100
AcDbCircle
 10
269.8486601146
 20
542.9704969631
 30
0.0
 40
1.882694264236223
100
AcDbArc
 50
296.2716831085
 51
243.7283168915
  0
LINE
  5
222
330
1F
100
AcDbEntity
  8
0
  6
Continuous
 62
     7
370
    15
100
AcDbLine
 10
269.015326279
 20
541.28227978
 30
0.0
 11
269.015326279
 21
526.3038312301
 31
0.0
  0
LINE
  5
223
330
1F
100
AcDbEntity
  8
0
  6
Continuous
 62
     7
370
    15
100
AcDbLine
 10
269.015326279
 20
526.3038312301
 30
0.0
 11
270.6819913562
 21
526.3038312301
 31
0.0
  0
LINE
  5
224
330
1F
100
AcDbEntity
  8
0
  6
Continuous
 62
     7
370
    15
100
AcDbLine
 10
270.6819913562
 20
526.3038312301
 30
0.0
 11
270.6819913562
 21
541.28227978
 31
0.0
  0
LINE
  5
225
330
1F
100
AcDbEntity
  8
0
  6
Continuous
 62
     7
370
    15
100
AcDbLine
 10
280.6819917536
 20
544.9704959894
 30
0.0
 11
279.0153266764
 21
544.9704959894
 31
0.0
  0
LINE
  5
226
330
1F
100
AcDbEntity
  8
0
  6
Continuous
 62
     7
370
    15
100
AcDbLine
 10
279.0153266764
 20
544.9704959894
 30
0.0
 11
279.0153266764
 21
526.3038312301
 31
0.0
  0
LINE
  5
227
330
1F
100
AcDbEntity
  8
0
  6
Continuous
 62
     7
370
    15
100
AcDbLine
 10
279.0153266764
 20
526.3038312301
 30
0.0
 11
280.6819917536
 21
526.3038312301
 31
0.0
  0
LINE
  5
228
330
1F
100
AcDbEntity
  8
0
  6
Continuous
 62
     7
370
    15
100
AcDbLine
 10
280.6819917536
 20
526.3038312301
 30
0.0
 11
280.6819917536
 21
544.9704959894
 31
0.0
  0
LINE
  5
229
330
1F
100
AcDbEntity
  8
0
  6
Continuous
 62
     7
370
    15
100
AcDbLine
 10
290.681992151
 20
544.9704959894
 30
0.0
 11
289.0153270738
 21
544.9704959894
 31
0.0
  0
LINE
  5
22A
330
1F
100
AcDbEntity
  8
0
  6
Continuous
 62
     7
370
    15
100
AcDbLine
 10
289.0153270738
 20
544.9704959894
 30
0.0
 11
289.0153270738
 21
526.3038312301
 31
0.0
  0
LINE
  5
22B
330
1F
100
AcDbEntity
  8
0
  6
Continuous
 62
     7
370
    15
100
AcDbLine
 10
289.0153270738
 20
526.3038312301
 30
0.0
 11
290.681992151
 21
526.3038312301
 31
0.0
  0
LINE
  5
22C
330
1F
100
AcDbEntity
  8
0
  6
Continuous
 62
     7
370
    15
100
AcDbLine
 10
290.681992151
 20
526.3038312301
 30
0.0
 11
290.681992151
 21
544.9704959894
 31
0.0
  0
LINE
  5
22D
330
1F
100
AcDbEntity
  8
0
  6
Continuous
 62
     7
370
    15
100
AcDbLine
 10
300.6819925483
 20
544.9704959894
 30
0.0
 11
299.0153274711
 21
544.9704959894
 31
0.0
  0
LINE
  5
22E
330
1F
100
AcDbEntity
  8
0
  6
Continuous
 62
     7
370
    15
100
AcDbLine
 10
299.0153274711
 20
544.9704959894
 30
0.0
 11
299.0153274711
 21
526.3038312301
 31
0.0
  0
LINE
  5
22F
330
1F
100
AcDbEntity
  8
0
  6
Continuous
 62
     7
370
    15
100
AcDbLine
 10
299.0153274711
 20
526.3038312301
 30
0.0
 11
300.6819925483
 21
526.3038312301
 31
0.0
  0
LINE
  5
230
330
1F
100
AcDbEntity
  8
0
  6
Continuous
 62
     7
370
    15
100
AcDbLine
 10
300.6819925483
 20
526.3038312301
 30
0.0
 11
300.6819925483
 21
544.9704959894
 31
0.0
  0
LINE
  5
231
330
1F
100
AcDbEntity
  8
0
  6
Continuous
 62
     7
370
    15
100
AcDbLine
 10
310.6819929457
 20
544.9704959894
 30
0.0
 11
309.0153278685
 21
544.9704959894
 31
0.0
  0
LINE
  5
232
330
1F
100
AcDbEntity
  8
0
  6
Continuous
 62
     7
370
    15
100
AcDbLine
 10
309.0153278685
 20
544.9704959894
 30
0.0
 11
309.0153278685
 21
526.3038312301
 31
0.0
  0
LINE
  5
233
330
1F
100
AcDbEntity
  8
0
  6
Continuous
 62
     7
370
    15
100
AcDbLine
 10
309.0153278685
 20
526.3038312301
 30
0.0
 11
310.6819929457
 21
526.3038312301
 31
0.0
  0
LINE
  5
234
330
1F
100
AcDbEntity
  8
0
  6
Continuous
 62
     7
370
    15
100
AcDbLine
 10
310.6819929457
 20
526.3038312301
 30
0.0
 11
310.6819929457
 21
544.9704959894
 31
0.0
  0
LINE
  5
235
330
1F
100
AcDbEntity
  8
0
  6
Continuous
 62
     7
370
    15
100
AcDbLine
 10
320.6819933431
 20
544.9704959894
 30
0.0
 11
319.0153270241
 21
544.9704959894
 31
0.0
  0
LINE
  5
236
330
1F
100
AcDbEntity
  8
0
  6
Continuous
 62
     7
370
    15
100
AcDbLine
 10
319.0153270241
 20
544.9704959894
 30
0.0
 11
319.0153270241
 21
526.3038312301
 31
0.0
  0
LINE
  5
237
330
1F
100
AcDbEntity
  8
0
  6
Continuous
 62
     7
370
    15
100
AcDbLine
 10
319.0153270241
 20
526.3038312301
 30
0.0
 11
320.6819933431
 21
526.3038312301
 31
0.0
  0
LINE
  5
238
330
1F
100
AcDbEntity
  8
0
  6
Continuous
 62
     7
370
    15
100
AcDbLine
 10
320.6819933431
 20
526.3038312301
 30
0.0
 11
320.6819933431
 21
544.9704959894
 31
0.0
  0
LINE
  5
239
330
1F
100
AcDbEntity
  8
0
  6
Continuous
 62
     7
370
    15
100
AcDbLine
 10
330.6819937404
 20
544.9704959894
 30
0.0
 11
329.0153261797
 21
544.9704959894
 31
0.0
  0
LINE
  5
23A
330
1F
100
AcDbEntity
  8
0
  6
Continuous
 62
     7
370
    15
100
AcDbLine
 10
329.0153261797
 20
544.9704959894
 30
0.0
 11
329.0153261797
 21
526.3038312301
 31
0.0
  0
LINE
  5
23B
330
1F
100
AcDbEntity
  8
0
  6
Continuous
 62
     7
370
    15
100
AcDbLine
 10
329.0153261797
 20
526.3038312301
 30
0.0
 11
330.6819937404
 21
526.3038312301
 31
0.0
  0
LINE
  5
23C
330
1F
100
AcDbEntity
  8
0
  6
Continuous
 62
     7
370
    15
100
AcDbLine
 10
330.6819937404
 20
526.3038312301
 30
0.0
 11
330.6819937404
 21
544.9704959894
 31
0.0
  0
LINE
  5
23D
330
1F
100
AcDbEntity
  8
0
  6
Continuous
 62
     7
370
    15
100
AcDbLine
 10
340.6819934393
 20
544.9704959894
 30
0.0
 11
339.0153267711
 21
544.9704959894
 31
0.0
  0
LINE
  5
23E
330
1F
100
AcDbEntity
  8
0
  6
Continuous
 62
     7
370
    15
100
AcDbLine
 10
339.0153267711
 20
544.9704959894
 30
0.0
 11
339.0153267711
 21
526.3038312301
 31
0.0
  0
LINE
  5
23F
330
1F
100
AcDbEntity
  8
0
  6
Continuous
 62
     7
370
    15
100
AcDbLine
 10
339.0153267711
 20
526.3038312301
 30
0.0
 11
340.6819934393
 21
526.3038312301
 31
0.0
  0
LINE
  5
240
330
1F
100
AcDbEntity
  8
0
  6
Continuous
 62
     7
370
    15
100
AcDbLine
 10
340.6819934393
 20
526.3038312301
 30
0.0
 11
340.6819934393
 21
544.9704959894
 31
0.0
  0
LINE
  5
241
330
1F
100
AcDbEntity
  8
0
  6
Continuous
 62
     7
370
    15
100
AcDbLine
 10
350.6819932934
 20
544.9704959894
 30
0.0
 11
349.0153269744
 21
544.9704959894
 31
0.0
  0
LINE
  5
242
330
1F
100
AcDbEntity
  8
0
  6
Continuous
 62
     7
370
    15
100
AcDbLine
 10
349.0153269744
 20
544.9704959894
 30
0.0
 11
349.0153269744
 21
526.3038312301
 31
0.0
  0
LINE
  5
243
330
1F
100
AcDbEntity
  8
0
  6
Continuous
 62
     7
370
    15
100
AcDbLine
 10
349.0153269744
 20
526.3038312301
 30
0.0
 11
350.6819932934
 21
526.3038312301
 31
0.0
  0
LINE
  5
244
330
1F
100
AcDbEntity
  8
0
  6
Continuous
 62
     7
370
    15
100
AcDbLine
 10
350.6819932934
 20
526.3038312301
 30
0.0
 11
350.6819932934
 21
544.9704959894
 31
0.0
  0
LINE
  5
245
330
1F
100
AcDbEntity
  8
0
  6
Continuous
 62
     7
370
    15
100
AcDbLine
 10
360.681992449
 20
544.9704959894
 30
0.0
 11
359.0153273718
 21
544.9704959894
 31
0.0
  0
LINE
  5
246
330
1F
100
AcDbEntity
  8
0
  6
Continuous
 62
     7
370
    15
100
AcDbLine
 10
359.0153273718
 20
544.9704959894
 30
0.0
 11
359.0153273718
 21
526.3038312301
 31
0.0
  0
LINE
  5
247
330
1F
100
AcDbEntity
  8
0
  6
Continuous
 62
     7
370
    15
100
AcDbLine
 10
359.0153273718
 20
526.3038312301
 30
0.0
 11
360.681992449
 21
526.3038312301
 31
0.0
  0
LINE
  5
248
330
1F
100
AcDbEntity
  8
0
  6
Continuous
 62
     7
370
    15
100
AcDbLine
 10
360.681992449
 20
526.3038312301
 30
0.0
 11
360.681992449
 21
544.9704959894
 31
0.0
  0
LINE
  5
249
330
1F
100
AcDbEntity
  8
0
  6
Continuous
 62
     7
370
    15
100
AcDbLine
 10
370.6819928464
 20
544.9704959894
 30
0.0
 11
369.0153277692
 21
544.9704959894
 31
0.0
  0
LINE
  5
24A
330
1F
100
AcDbEntity
  8
0
  6
Continuous
 62
     7
370
    15
100
AcDbLine
 10
369.0153277692
 20
544.9704959894
 30
0.0
 11
369.0153277692
 21
526.3038312301
 31
0.0
  0
LINE
  5
24B
330
1F
100
AcDbEntity
  8
0
  6
Continuous
 62
     7
370
    15
100
AcDbLine
 10
369.0153277692
 20
526.3038312301
 30
0.0
 11
370.6819928464
 21
526.3038312301
 31
0.0
  0
LINE
  5
24C
330
1F
100
AcDbEntity
  8
0
  6
Continuous
 62
     7
370
    15
100
AcDbLine
 10
370.6819928464
 20
526.3038312301
 30
0.0
 11
370.6819928464
 21
544.9704959894
 31
0.0
  0
LINE
  5
24D
330
1F
100
AcDbEntity
  8
0
  6
Continuous
 62
     7
370
    15
100
AcDbLine
 10
380.6819932437
 20
544.9704959894
 30
0.0
 11
379.015325683
 21
544.9704959894
 31
0.0
  0
LINE
  5
24E
330
1F
100
AcDbEntity
  8
0
  6
Continuous
 62
     7
370
    15
100
AcDbLine
 10
379.015325683
 20
544.9704959894
 30
0.0
 11
379.015325683
 21
526.3038312301
 31
0.0
  0
LINE
  5
24F
330
1F
100
AcDbEntity
  8
0
  6
Continuous
 62
     7
370
    15
100
AcDbLine
 10
379.015325683
 20
526.3038312301
 30
0.0
 11
380.6819932437
 21
526.3038312301
 31
0.0
  0
LINE
  5
250
330
1F
100
AcDbEntity
  8
0
  6
Continuous
 62
     7
370
    15
100
AcDbLine
 10
380.6819932437
 20
526.3038312301
 30
0.0
 11
380.6819932437
 21
544.9704959894
 31
0.0
  0
LINE
  5
251
330
1F
100
AcDbEntity
  8
0
  6
Continuous
 62
     7
370
    15
100
AcDbLine
 10
390.6819911576
 20
544.9704959894
 30
0.0
 11
389.0153260804
 21
544.9704959894
 31
0.0
  0
LINE
  5
252
330
1F
100
AcDbEntity
  8
0
  6
Continuous
 62
     7
370
    15
100
AcDbLine
 10
389.0153260804
 20
544.9704959894
 30
0.0
 11
389.0153260804
 21
526.3038312301
 31
0.0
  0
LINE
  5
253
330
1F
100
AcDbEntity
  8
0
  6
Continuous
 62
     7
370
    15
100
AcDbLine
 10
389.0153260804
 20
526.3038312301
 30
0.0
 11
390.6819911576
 21
526.3038312301
 31
0.0
  0
LINE
  5
254
330
1F
100
AcDbEntity
  8
0
  6
Continuous
 62
     7
370
    15
100
AcDbLine
 10
390.6819911576
 20
526.3038312301
 30
0.0
 11
390.6819911576
 21
544.9704959894
 31
0.0
  0
ARC
  5
255
330
1F
100
AcDbEntity
  8
0
  6
Continuous
 62
     7
370
    15
100
AcDbCircle
 10
399.8486601146
 20
542.9704969631
 30
0.0
 40
1.882694264236172
100
AcDbArc
 50
296.2716831084
 51
243.7283168915
  0
LINE
  5
256
330
1F
100
AcDbEntity
  8
0
  6
Continuous
 62
     7
370
    15
100
AcDbLine
 10
399.0153264777
 20
541.28227978
 30
0.0
 11
399.0153264777
 21
526.3038312301
 31
0.0
  0
LINE
  5
257
330
1F
100
AcDbEntity
  8
0
  6
Continuous
 62
     7
370
    15
100
AcDbLine
 10
399.0153264777
 20
526.3038312301
 30
0.0
 11
400.6819915549
 21
526.3038312301
 31
0.0
  0
LINE
  5
258
330
1F
100
AcDbEntity
  8
0
  6
Continuous
 62
     7
370
    15
100
AcDbLine
 10
400.6819915549
 20
526.3038312301
 30
0.0
 11
400.6819915549
 21
541.28227978
 31
0.0
  0
LINE
  5
259
330
1F
100
AcDbEntity
  8
0
  6
Continuous
 62
     7
370
    15
100
AcDbLine
 10
410.6819919523
 20
544.9704959894
 30
0.0
 11
409.0153268751
 21
544.9704959894
 31
0.0
  0
LINE
  5
25A
330
1F
100
AcDbEntity
  8
0
  6
Continuous
 62
     7
370
    15
100
AcDbLine
 10
409.0153268751
 20
544.9704959894
 30
0.0
 11
409.0153268751
 21
526.3038312301
 31
0.0
  0
LINE
  5
25B
330
1F
100
AcDbEntity
  8
0
  6
Continuous
 62
     7
370
    15
100
AcDbLine
 10
409.0153268751
 20
526.3038312301
 30
0.0
 11
410.6819919523
 21
526.3038312301
 31
0.0
  0
LINE
  5
25C
330
1F
100
AcDbEntity
  8
0
  6
Continuous
 62
     7
370
    15
100
AcDbLine
 10
410.6819919523
 20
526.3038312301
 30
0.0
 11
410.6819919523
 21
544.9704959894
 31
0.0
  0
SPLINE
  5
25D
330
1F
100
AcDbEntity
  8
0
  6
Continuous
 62
     7
370
    15
100
AcDbSpline
210
0.0
220
0.0
230
1.0
 70
     8
 71
     3
 72
    11
 73
     7
 74
     0
 42
0.00000001
 43
0.00000001
 40
0.0
 40
0.0
 40
0.0
 40
0.0
 40
0.3059225583369239
 40
0.6119845718739307
 40
0.918031494689894
 40
1.0
 40
1.0
 40
1.0
 40
1.0
 10
422.8653253889427
 20
545.7871590957124
 30
0.0
 10
422.9489663363374
 20
545.752334578411
 30
0.0
 10
423.1162863589625
 20
545.682669669006
 30
0.0
 10
423.3279684836424
 20
545.5781453369758
 30
0.0
 10
423.4601651587352
 20
545.4991281638055
 30
0.0
 10
423.4869428906525
 20
545.4549558999149
 30
0.0
 10
423.4925997035052
 20
545.4456244811494
 30
0.0
  0
LINE
  5
25E
330
1F
100
AcDbEntity
  8
0
  6
Continuous
 62
     7
370
    15
100
AcDbLine
 10
423.5486578719
 20
483.3061878786
 30
0.0
 11
423.5486578719
 21
388.4871636733
 31
0.0
  0
LINE
  5
25F
330
1F
100
AcDbEntity
  8
0
  6
Continuous
 62
     7
370
    15
100
AcDbLine
 10
423.5486578719
 20
388.4871636733
 30
0.0
 11
422.8653253889
 21
388.4871636733
 31
0.0
  0
LINE
  5
260
330
1F
100
AcDbEntity
  8
0
  6
Continuous
 62
     7
370
    15
100
AcDbLine
 10
266.6153253889
 20
387.8038299486
 30
0.0
 11
266.6153253889
 21
388.4871636733
 31
0.0
  0
LINE
  5
261
330
1F
100
AcDbEntity
  8
0
  6
Continuous
 62
     7
370
    15
100
AcDbLine
 10
422.8653253889
 20
387.8038299486
 30
0.0
 11
422.8653253889
 21
388.4871636733
 31
0.0
  0
LINE
  5
262
330
1F
100
AcDbEntity
  8
0
  6
Continuous
 62
     7
370
    15
100
AcDbLine
 10
266.6153253889
 20
387.8038299486
 30
0.0
 11
422.8653253889
 21
387.8038299486
 31
0.0
  0
LINE
  5
263
330
1F
100
AcDbEntity
  8
0
  6
Continuous
 62
     7
370
    15
100
AcDbLine
 10
255.6819907602
 20
388.070497404
 30
0.0
 11
255.6819907602
 21
546.2014709815
 31
0.0
  0
LINE
  5
264
330
1F
100
AcDbEntity
  8
0
  6
Continuous
 62
     7
370
    15
100
AcDbLine
 10
255.6819907602
 20
546.2014709815
 30
0.0
 11
255.6819907602
 21
546.203825365
 31
0.0
  0
SPLINE
  5
265
330
1F
100
AcDbEntity
  8
0
  6
Continuous
 62
     7
370
    15
100
AcDbSpline
210
0.0
220
0.0
230
1.0
 70
     8
 71
     3
 72
    12
 73
     8
 74
     0
 42
0.00000001
 43
0.00000001
 40
0.0
 40
0.0
 40
0.0
 40
0.0
 40
0.2303371527135108
 40
0.4607665250208555
 40
0.6911896614848201
 40
0.9216125771808338
 40
0.9999999999999999
 40
0.9999999999999999
 40
0.9999999999999999
 40
0.9999999999999999
 10
255.6819907602018
 20
546.2038253650147
 30
0.0
 10
255.6906989812097
 20
546.1718251902719
 30
0.0
 10
255.7081189097171
 20
546.1078120289442
 30
0.0
 10
255.8432101277594
 20
546.0117705982326
 30
0.0
 10
256.0394707852325
 20
545.9157740556174
 30
0.0
 10
256.2274308124444
 20
545.8407145784636
 30
0.0
 10
256.337411154127
 20
545.7980012975274
 30
0.0
 10
256.3653282102293
 20
545.7871590957124
 30
0.0
  0
LINE
  5
266
330
1F
100
AcDbEntity
  8
0
  6
Continuous
 62
     7
370
    15
100
AcDbLine
 10
256.3653282102
 20
388.070497404
 30
0.0
 11
255.6819907602
 21
388.070497404
 31
0.0
  0
LINE
  5
267
330
1F
100
AcDbEntity
  8
0
  6
Continuous
 62
     7
370
    15
100
AcDbLine
 10
256.3819926755
 20
546.4704965457
 30
0.0
 11
256.3819926755
 21
545.7871590957
 31
0.0
  0
LINE
  5
268
330
1F
100
AcDbEntity
  8
0
  6
Continuous
 62
     7
370
    15
100
AcDbLine
 10
422.8653253889
 20
546.4704965457
 30
0.0
 11
256.3819926755
 21
546.4704965457
 31
0.0
  0
LINE
  5
269
330
1F
100
AcDbEntity
  8
0
  6
Continuous
 62
     7
370
    15
100
AcDbLine
 10
422.8653253889
 20
545.7871590957
 30
0.0
 11
422.8653253889
 21
546.4704965457
 31
0.0
  0
LINE
  5
26A
330
1F
100
AcDbEntity
  8
0
  6
Continuous
 62
     7
370
    15
100
AcDbLine
 10
255.9486619409
 20
546.203825365
 30
0.0
 11
255.6819907602
 21
546.203825365
 31
0.0
  0
SPLINE
  5
26B
330
1F
100
AcDbEntity
  8
0
  6
Continuous
 62
     7
370
    15
100
AcDbSpline
210
0.0
220
0.0
230
1.0
 70
     8
 71
     3
 72
    11
 73
     7
 74
     0
 42
0.00000001
 43
0.00000001
 40
0.0
 40
0.0
 40
0.0
 40
0.0
 40
0.2547151790727483
 40
0.5096003751624161
 40
0.7644898806309236
 40
1.0
 40
1.0
 40
1.0
 40
1.0
 10
255.9486619409269
 20
546.2038253650147
 30
0.0
 10
255.955170358302
 20
546.1684426075813
 30
0.0
 10
255.9681915372837
 20
546.0976534754684
 30
0.0
 10
256.0681669260078
 20
545.9914713854248
 30
0.0
 10
256.2068952863935
 20
545.8879097543344
 30
0.0
 10
256.3139271137399
 20
545.819846078947
 30
0.0
 10
256.3653282102293
 20
545.7871590957124
 30
0.0
  0
LINE
  5
26C
330
1F
100
AcDbEntity
  8
0
  6
Continuous
 62
     7
370
    15
100
AcDbLine
 10
423.2814601835
 20
388.070497404
 30
0.0
 11
423.2814601835
 21
387.8038299486
 31
0.0
  0
LINE
  5
26D
330
1F
100
AcDbEntity
  8
0
  6
Continuous
 62
     7
370
    15
100
AcDbLine
 10
423.2796323077
 20
388.070497404
 30
0.0
 11
423.2796323077
 21
387.8038299486
 31
0.0
  0
LINE
  5
26E
330
1F
100
AcDbEntity
  8
0
  6
Continuous
 62
     7
370
    15
100
AcDbLine
 10
423.2796323077
 20
387.8038299486
 30
0.0
 11
423.2814601835
 21
387.8038299486
 31
0.0
  0
LINE
  5
26F
330
1F
100
AcDbEntity
  8
0
  6
Continuous
 62
     7
370
    15
100
AcDbLine
 10
423.2796323077
 20
388.070497404
 30
0.0
 11
423.2814601835
 21
388.070497404
 31
0.0
  0
LINE
  5
270
330
1F
100
AcDbEntity
  8
0
  6
Continuous
 62
     7
370
    15
100
AcDbLine
 10
422.8653253889
 20
387.8038299486
 30
0.0
 11
423.2796323077
 21
387.8038299486
 31
0.0
  0
LINE
  5
271
330
1F
100
AcDbEntity
  8
0
  6
Continuous
 62
     7
370
    15
100
AcDbLine
 10
423.2796323077
 20
388.070497404
 30
0.0
 11
422.8653253889
 21
388.070497404
 31
0.0
  0
LINE
  5
272
330
1F
100
AcDbEntity
  8
0
  6
Continuous
 62
     7
370
    15
100
AcDbLine
 10
423.5486578719
 20
388.072854271
 30
0.0
 11
423.2819966253
 21
388.072854271
 31
0.0
  0
LINE
  5
273
330
1F
100
AcDbEntity
  8
0
  6
Continuous
 62
     7
370
    15
100
AcDbLine
 10
423.5486578719
 20
388.4871636733
 30
0.0
 11
423.5486578719
 21
388.072854271
 31
0.0
  0
LINE
  5
274
330
1F
100
AcDbEntity
  8
0
  6
Continuous
 62
     7
370
    15
100
AcDbLine
 10
423.2819966253
 20
388.4871636733
 30
0.0
 11
423.2819966253
 21
388.072854271
 31
0.0
  0
LINE
  5
275
330
1F
100
AcDbEntity
  8
0
  6
Continuous
 62
     7
370
    15
100
AcDbLine
 10
423.2819966253
 20
545.7871590957
 30
0.0
 11
423.2819966253
 21
545.597775271
 31
0.0
  0
ARC
  5
276
330
1F
100
AcDbEntity
  8
0
  6
Continuous
 62
     7
370
    15
100
AcDbCircle
 10
422.8653267812
 20
545.7871636298
 30
0.0
 40
0.4166666666665719
100
AcDbArc
 50
0.0
 51
90.0
  0
ARC
  5
277
330
1F
100
AcDbEntity
  8
0
  6
Continuous
 62
     7
370
    15
100
AcDbCircle
 10
422.8653267812
 20
545.7871636298
 30
0.0
 40
0.6833333333332609
100
AcDbArc
 50
19.0379831789
 51
90.0
  0
LINE
  5
278
330
1F
100
AcDbEntity
  8
0
  6
Continuous
 62
     7
370
    15
100
AcDbLine
 10
255.9510163244
 20
546.4704965457
 30
0.0
 11
255.9510163244
 21
546.203825365
 31
0.0
  0
LINE
  5
279
330
1F
100
AcDbEntity
  8
0
  6
Continuous
 62
     7
370
    15
100
AcDbLine
 10
256.3819926755
 20
546.203825365
 30
0.0
 11
255.9510163244
 21
546.203825365
 31
0.0
  0
LINE
  5
27A
330
1F
100
AcDbEntity
  8
0
  6
Continuous
 62
     7
370
    15
100
AcDbLine
 10
256.3819926755
 20
546.4704965457
 30
0.0
 11
255.9510163244
 21
546.4704965457
 31
0.0
  0
LINE
  5
27B
330
1F
100
AcDbEntity
  8
0
  6
Continuous
 62
     7
370
    15
100
AcDbLine
 10
422.8653253889
 20
545.7871590957
 30
0.0
 11
423.2796323077
 21
545.7871590957
 31
0.0
  0
LWPOLYLINE
  5
27C
330
1F
100
AcDbEntity
  8
0
  6
Continuous
 62
     7
370
    15
100
AcDbPolyline
 90
        3
 70
   128
 43
0.0
 10
268.8319923258
 20
544.0371667251
 10
268.4671721634
 20
543.9728334452
 10
268.1566766676
 20
543.7961652781
  0
LWPOLYLINE
  5
27D
330
1F
100
AcDbEntity
  8
0
  6
Continuous
 62
     7
370
    15
100
AcDbPolyline
 90
        3
 70
   128
 43
0.0
 10
268.1566766676
 20
542.1448285287
 10
268.4671721634
 20
541.9681603616
 10
268.8319923258
 20
541.9038270816
  0
LINE
  5
27E
330
1F
100
AcDbEntity
  8
0
  6
Continuous
 62
     7
370
    15
100
AcDbLine
 10
268.8319923258
 20
541.9038270816
 30
0.0
 11
270.9319931047
 21
541.9038270816
 31
0.0
  0
LWPOLYLINE
  5
27F
330
1F
100
AcDbEntity
  8
0
  6
Continuous
 62
     7
370
    15
100
AcDbPolyline
 90
        3
 70
   128
 43
0.0
 10
270.9319931047
 20
541.9038270816
 10
271.2968132671
 20
541.9681603616
 10
271.5011379894
 20
542.0683557694
  0
LWPOLYLINE
  5
280
330
1F
100
AcDbEntity
  8
0
  6
Continuous
 62
     7
370
    15
100
AcDbPolyline
 90
        3
 70
   128
 43
0.0
 10
271.5011379894
 20
543.8726380373
 10
271.2968132671
 20
543.9728334452
 10
270.9319931047
 20
544.0371667251
  0
LINE
  5
281
330
1F
100
AcDbEntity
  8
0
  6
Continuous
 62
     7
370
    15
100
AcDbLine
 10
270.9319931047
 20
544.0371667251
 30
0.0
 11
268.8319923258
 21
544.0371667251
 31
0.0
  0
LWPOLYLINE
  5
282
330
1F
100
AcDbEntity
  8
0
  6
Continuous
 62
     7
370
    15
100
AcDbPolyline
 90
        3
 70
   128
 43
0.0
 10
333.8319936669
 20
544.0371667251
 10
333.4671722627
 20
543.9728334452
 10
333.1566742834
 20
543.7961652781
  0
LWPOLYLINE
  5
283
330
1F
100
AcDbEntity
  8
0
  6
Continuous
 62
     7
370
    15
100
AcDbPolyline
 90
        3
 70
   128
 43
0.0
 10
333.1566742834
 20
542.1448285287
 10
333.4671722627
 20
541.9681603616
 10
333.8319936669
 20
541.9038270816
  0
LINE
  5
284
330
1F
100
AcDbEntity
  8
0
  6
Continuous
 62
     7
370
    15
100
AcDbLine
 10
333.8319936669
 20
541.9038270816
 30
0.0
 11
335.9319935144
 21
541.9038270816
 31
0.0
  0
LWPOLYLINE
  5
285
330
1F
100
AcDbEntity
  8
0
  6
Continuous
 62
     7
370
    15
100
AcDbPolyline
 90
        3
 70
   128
 43
0.0
 10
335.9319935144
 20
541.9038270816
 10
336.2968149187
 20
541.9681603616
 10
336.5011390201
 20
542.0683557694
  0
LWPOLYLINE
  5
286
330
1F
100
AcDbEntity
  8
0
  6
Continuous
 62
     7
370
    15
100
AcDbPolyline
 90
        3
 70
   128
 43
0.0
 10
336.5011390201
 20
543.8726380373
 10
336.2968149187
 20
543.9728334452
 10
335.9319935144
 20
544.0371667251
  0
LINE
  5
287
330
1F
100
AcDbEntity
  8
0
  6
Continuous
 62
     7
370
    15
100
AcDbLine
 10
335.9319935144
 20
544.0371667251
 30
0.0
 11
333.8319936669
 21
544.0371667251
 31
0.0
  0
LWPOLYLINE
  5
288
330
1F
100
AcDbEntity
  8
0
  6
Continuous
 62
     7
370
    15
100
AcDbPolyline
 90
        3
 70
   128
 43
0.0
 10
398.8319925245
 20
544.0371667251
 10
398.467172362
 20
543.9728334452
 10
398.1566718992
 20
543.7961652781
  0
LWPOLYLINE
  5
289
330
1F
100
AcDbEntity
  8
0
  6
Continuous
 62
     7
370
    15
100
AcDbPolyline
 90
        3
 70
   128
 43
0.0
 10
398.1566718992
 20
542.1448285287
 10
398.467172362
 20
541.9681603616
 10
398.8319925245
 20
541.9038270816
  0
LINE
  5
28A
330
1F
100
AcDbEntity
  8
0
  6
Continuous
 62
     7
370
    15
100
AcDbLine
 10
398.8319925245
 20
541.9038270816
 30
0.0
 11
400.9319933033
 21
541.9038270816
 31
0.0
  0
LWPOLYLINE
  5
28B
330
1F
100
AcDbEntity
  8
0
  6
Continuous
 62
     7
370
    15
100
AcDbPolyline
 90
        3
 70
   128
 43
0.0
 10
400.9319933033
 20
541.9038270816
 10
401.2968134658
 20
541.9681603616
 10
401.5011381881
 20
542.0683557694
  0
LWPOLYLINE
  5
28C
330
1F
100
AcDbEntity
  8
0
  6
Continuous
 62
     7
370
    15
100
AcDbPolyline
 90
        3
 70
   128
 43
0.0
 10
401.5011381881
 20
543.8726380373
 10
401.2968134658
 20
543.9728334452
 10
400.9319933033
 20
544.0371667251
  0
LINE
  5
28D
330
1F
100
AcDbEntity
  8
0
  6
Continuous
 62
     7
370
    15
100
AcDbLine
 10
400.9319933033
 20
544.0371667251
 30
0.0
 11
398.8319925245
 21
544.0371667251
 31
0.0
  0
LINE
  5
28E
330
1F
100
AcDbEntity
  8
0
  6
Continuous
 62
     7
370
    15
100
AcDbLine
 10
423.2796323077
 20
545.7871590957
 30
0.0
 11
423.2796323077
 21
545.5989375616
 31
0.0
  0
LINE
  5
28F
330
1F
100
AcDbEntity
  8
0
  6
Continuous
 62
     7
370
    15
100
AcDbLine
 10
264.0153260804
 20
538.8704970385
 30
0.0
 11
265.6819911576
 21
538.8704970385
 31
0.0
  0
LINE
  5
290
330
1F
100
AcDbEntity
  8
0
  6
Continuous
 62
     7
370
    15
100
AcDbLine
 10
269.015326279
 20
538.8704970385
 30
0.0
 11
270.6819913562
 21
538.8704970385
 31
0.0
  0
LINE
  5
291
330
1F
100
AcDbEntity
  8
0
  6
Continuous
 62
     7
370
    15
100
AcDbLine
 10
274.0153264777
 20
538.8704970385
 30
0.0
 11
275.6819915549
 21
538.8704970385
 31
0.0
  0
LINE
  5
292
330
1F
100
AcDbEntity
  8
0
  6
Continuous
 62
     7
370
    15
100
AcDbLine
 10
279.0153266764
 20
538.8704970385
 30
0.0
 11
280.6819917536
 21
538.8704970385
 31
0.0
  0
LINE
  5
293
330
1F
100
AcDbEntity
  8
0
  6
Continuous
 62
     7
370
    15
100
AcDbLine
 10
284.0153268751
 20
538.8704970385
 30
0.0
 11
285.6819919523
 21
538.8704970385
 31
0.0
  0
LINE
  5
294
330
1F
100
AcDbEntity
  8
0
  6
Continuous
 62
     7
370
    15
100
AcDbLine
 10
289.0153270738
 20
538.8704970385
 30
0.0
 11
290.681992151
 21
538.8704970385
 31
0.0
  0
LINE
  5
295
330
1F
100
AcDbEntity
  8
0
  6
Continuous
 62
     7
370
    15
100
AcDbLine
 10
294.0153272724
 20
538.8704970385
 30
0.0
 11
295.6819923497
 21
538.8704970385
 31
0.0
  0
LINE
  5
296
330
1F
100
AcDbEntity
  8
0
  6
Continuous
 62
     7
370
    15
100
AcDbLine
 10
299.0153274711
 20
538.8704970385
 30
0.0
 11
300.6819925483
 21
538.8704970385
 31
0.0
  0
LINE
  5
297
330
1F
100
AcDbEntity
  8
0
  6
Continuous
 62
     7
370
    15
100
AcDbLine
 10
304.0153276698
 20
538.8704970385
 30
0.0
 11
305.681992747
 21
538.8704970385
 31
0.0
  0
LINE
  5
298
330
1F
100
AcDbEntity
  8
0
  6
Continuous
 62
     7
370
    15
100
AcDbLine
 10
309.0153278685
 20
538.8704970385
 30
0.0
 11
310.6819929457
 21
538.8704970385
 31
0.0
  0
LINE
  5
299
330
1F
100
AcDbEntity
  8
0
  6
Continuous
 62
     7
370
    15
100
AcDbLine
 10
314.0153255837
 20
538.8704970385
 30
0.0
 11
315.6819931444
 21
538.8704970385
 31
0.0
  0
LINE
  5
29A
330
1F
100
AcDbEntity
  8
0
  6
Continuous
 62
     7
370
    15
100
AcDbLine
 10
319.0153270241
 20
538.8704970385
 30
0.0
 11
320.6819933431
 21
538.8704970385
 31
0.0
  0
LINE
  5
29B
330
1F
100
AcDbEntity
  8
0
  6
Continuous
 62
     7
370
    15
100
AcDbLine
 10
324.0153272228
 20
538.8704970385
 30
0.0
 11
325.6819935418
 21
538.8704970385
 31
0.0
  0
LINE
  5
29C
330
1F
100
AcDbEntity
  8
0
  6
Continuous
 62
     7
370
    15
100
AcDbLine
 10
329.0153261797
 20
538.8704970385
 30
0.0
 11
330.6819937404
 21
538.8704970385
 31
0.0
  0
LINE
  5
29D
330
1F
100
AcDbEntity
  8
0
  6
Continuous
 62
     7
370
    15
100
AcDbLine
 10
334.0153269993
 20
538.8704970385
 30
0.0
 11
335.6819933182
 21
538.8704970385
 31
0.0
  0
LINE
  5
29E
330
1F
100
AcDbEntity
  8
0
  6
Continuous
 62
     7
370
    15
100
AcDbLine
 10
339.0153267711
 20
538.8704970385
 30
0.0
 11
340.6819934393
 21
538.8704970385
 31
0.0
  0
LINE
  5
29F
330
1F
100
AcDbEntity
  8
0
  6
Continuous
 62
     7
370
    15
100
AcDbLine
 10
344.0153267757
 20
538.8704970385
 30
0.0
 11
345.6819937156
 21
538.8704970385
 31
0.0
  0
LINE
  5
2A0
330
1F
100
AcDbEntity
  8
0
  6
Continuous
 62
     7
370
    15
100
AcDbLine
 10
349.0153269744
 20
538.8704970385
 30
0.0
 11
350.6819932934
 21
538.8704970385
 31
0.0
  0
LINE
  5
2A1
330
1F
100
AcDbEntity
  8
0
  6
Continuous
 62
     7
370
    15
100
AcDbLine
 10
354.0153271731
 20
538.8704970385
 30
0.0
 11
355.6819934921
 21
538.8704970385
 31
0.0
  0
LINE
  5
2A2
330
1F
100
AcDbEntity
  8
0
  6
Continuous
 62
     7
370
    15
100
AcDbLine
 10
359.0153273718
 20
538.8704970385
 30
0.0
 11
360.681992449
 21
538.8704970385
 31
0.0
  0
LINE
  5
2A3
330
1F
100
AcDbEntity
  8
0
  6
Continuous
 62
     7
370
    15
100
AcDbLine
 10
364.0153275705
 20
538.8704970385
 30
0.0
 11
365.6819926477
 21
538.8704970385
 31
0.0
  0
LINE
  5
2A4
330
1F
100
AcDbEntity
  8
0
  6
Continuous
 62
     7
370
    15
100
AcDbLine
 10
369.0153277692
 20
538.8704970385
 30
0.0
 11
370.6819928464
 21
538.8704970385
 31
0.0
  0
LINE
  5
2A5
330
1F
100
AcDbEntity
  8
0
  6
Continuous
 62
     7
370
    15
100
AcDbLine
 10
374.0153279678
 20
538.8704970385
 30
0.0
 11
375.681993045
 21
538.8704970385
 31
0.0
  0
LINE
  5
2A6
330
1F
100
AcDbEntity
  8
0
  6
Continuous
 62
     7
370
    15
100
AcDbLine
 10
379.015325683
 20
538.8704970385
 30
0.0
 11
380.6819932437
 21
538.8704970385
 31
0.0
  0
LINE
  5
2A7
330
1F
100
AcDbEntity
  8
0
  6
Continuous
 62
     7
370
    15
100
AcDbLine
 10
384.0153258817
 20
538.8704970385
 30
0.0
 11
385.6819959259
 21
538.8704970385
 31
0.0
  0
LINE
  5
2A8
330
1F
100
AcDbEntity
  8
0
  6
Continuous
 62
     7
370
    15
100
AcDbLine
 10
389.0153260804
 20
538.8704970385
 30
0.0
 11
390.6819911576
 21
538.8704970385
 31
0.0
  0
LINE
  5
2A9
330
1F
100
AcDbEntity
  8
0
  6
Continuous
 62
     7
370
    15
100
AcDbLine
 10
394.015326279
 20
538.8704970385
 30
0.0
 11
395.6819913562
 21
538.8704970385
 31
0.0
  0
LINE
  5
2AA
330
1F
100
AcDbEntity
  8
0
  6
Continuous
 62
     7
370
    15
100
AcDbLine
 10
399.0153264777
 20
538.8704970385
 30
0.0
 11
400.6819915549
 21
538.8704970385
 31
0.0
  0
LINE
  5
2AB
330
1F
100
AcDbEntity
  8
0
  6
Continuous
 62
     7
370
    15
100
AcDbLine
 10
404.0153266764
 20
538.8704970385
 30
0.0
 11
405.6819917536
 21
538.8704970385
 31
0.0
  0
LINE
  5
2AC
330
1F
100
AcDbEntity
  8
0
  6
Continuous
 62
     7
370
    15
100
AcDbLine
 10
409.0153268751
 20
538.8704970385
 30
0.0
 11
410.6819919523
 21
538.8704970385
 31
0.0
  0
LINE
  5
2AD
330
1F
100
AcDbEntity
  8
0
  6
Continuous
 62
     7
370
    15
100
AcDbLine
 10
414.0153270738
 20
538.8704970385
 30
0.0
 11
415.681992151
 21
538.8704970385
 31
0.0
  0
LINE
  5
2AE
330
1F
100
AcDbEntity
  8
0
  6
Continuous
 62
     7
370
    15
100
AcDbLine
 10
423.2713174598
 20
388.072854271
 30
0.0
 11
423.2819966253
 21
388.072854271
 31
0.0
  0
LINE
  5
2AF
330
1F
100
AcDbEntity
  8
0
  6
Continuous
 62
     7
370
    15
100
AcDbLine
 10
422.8653253889
 20
388.072854271
 30
0.0
 11
423.2713174598
 21
388.072854271
 31
0.0
  0
LINE
  5
2B0
330
1F
100
AcDbEntity
  8
0
  6
Continuous
 62
     7
370
    15
100
AcDbLine
 10
266.448660868
 20
388.2371631667
 30
0.0
 11
266.6153253889
 21
388.2371631667
 31
0.0
  0
CIRCLE
  5
2B1
330
1F
100
AcDbEntity
  8
0
  6
Continuous
 62
     7
370
    15
100
AcDbCircle
 10
399.6833015153
 20
542.9567021134
 30
0.0
 40
0.9833333333333485
  0
ARC
  5
2B2
330
1F
100
AcDbEntity
  8
0
  6
Continuous
 62
     7
370
    15
100
AcDbCircle
 10
399.6833015153
 20
542.9567021134
 30
0.0
 40
1.333333333333314
100
AcDbArc
 50
180.0
 51
232.1531761873
  0
ARC
  5
2B3
330
1F
100
AcDbEntity
  8
0
  6
Continuous
 62
     7
370
    15
100
AcDbCircle
 10
399.6833015153
 20
542.9567021134
 30
0.0
 40
1.333333333333393
100
AcDbArc
 50
307.8468238127
 51
54.1297637602
  0
ARC
  5
2B4
330
1F
100
AcDbEntity
  8
0
  6
Continuous
 62
     7
370
    15
100
AcDbCircle
 10
399.6833015153
 20
542.9567021134
 30
0.0
 40
1.33333333333336
100
AcDbArc
 50
125.8702362398
 51
180.0
  0
CIRCLE
  5
2B5
330
1F
100
AcDbEntity
  8
0
  6
Continuous
 62
     7
370
    15
100
AcDbCircle
 10
399.6833015153
 20
542.9567021134
 30
0.0
 40
0.9166666666666288
  0
CIRCLE
  5
2B6
330
1F
100
AcDbEntity
  8
0
  6
Continuous
 62
     7
370
    15
100
AcDbCircle
 10
399.6833015153
 20
542.9567021134
 30
0.0
 40
0.6999999999999886
  0
ARC
  5
2B7
330
1F
100
AcDbEntity
  8
0
  6
Continuous
 62
     7
370
    15
100
AcDbCircle
 10
334.6833015153
 20
542.9567021134
 30
0.0
 40
1.333333333333373
100
AcDbArc
 50
180.0
 51
232.1531761873
  0
ARC
  5
2B8
330
1F
100
AcDbEntity
  8
0
  6
Continuous
 62
     7
370
    15
100
AcDbCircle
 10
334.6833015153
 20
542.9567021134
 30
0.0
 40
1.333333333333408
100
AcDbArc
 50
307.8468238127
 51
54.1297637601
  0
ARC
  5
2B9
330
1F
100
AcDbEntity
  8
0
  6
Continuous
 62
     7
370
    15
100
AcDbCircle
 10
334.6833015153
 20
542.9567021134
 30
0.0
 40
1.333333333333314
100
AcDbArc
 50
125.8702362399
 51
180.0
  0
CIRCLE
  5
2BA
330
1F
100
AcDbEntity
  8
0
  6
Continuous
 62
     7
370
    15
100
AcDbCircle
 10
334.6833015153
 20
542.9567021134
 30
0.0
 40
0.9833333333333485
  0
CIRCLE
  5
2BB
330
1F
100
AcDbEntity
  8
0
  6
Continuous
 62
     7
370
    15
100
AcDbCircle
 10
334.6833015153
 20
542.9567021134
 30
0.0
 40
0.9166666666666856
  0
CIRCLE
  5
2BC
330
1F
100
AcDbEntity
  8
0
  6
Continuous
 62
     7
370
    15
100
AcDbCircle
 10
334.6833015153
 20
542.9567021134
 30
0.0
 40
0.6999999999999886
  0
CIRCLE
  5
2BD
330
1F
100
AcDbEntity
  8
0
  6
Continuous
 62
     7
370
    15
100
AcDbCircle
 10
269.6819934479
 20
542.9704969631
 30
0.0
 40
0.9833333333333485
  0
ARC
  5
2BE
330
1F
100
AcDbEntity
  8
0
  6
Continuous
 62
     7
370
    15
100
AcDbCircle
 10
269.6819934479
 20
542.9704969631
 30
0.0
 40
1.333333333333371
100
AcDbArc
 50
180.0
 51
233.1301023542
  0
ARC
  5
2BF
330
1F
100
AcDbEntity
  8
0
  6
Continuous
 62
     7
370
    15
100
AcDbCircle
 10
269.6819934479
 20
542.9704969631
 30
0.0
 40
1.333333333333337
100
AcDbArc
 50
306.8698976458
 51
53.1301023541
  0
ARC
  5
2C0
330
1F
100
AcDbEntity
  8
0
  6
Continuous
 62
     7
370
    15
100
AcDbCircle
 10
269.6819934479
 20
542.9704969631
 30
0.0
 40
1.333333333333371
100
AcDbArc
 50
126.8698976459
 51
180.0
  0
CIRCLE
  5
2C1
330
1F
100
AcDbEntity
  8
0
  6
Continuous
 62
     7
370
    15
100
AcDbCircle
 10
269.6819934479
 20
542.9704969631
 30
0.0
 40
0.9166666666666288
  0
CIRCLE
  5
2C2
330
1F
100
AcDbEntity
  8
0
  6
Continuous
 62
     7
370
    15
100
AcDbCircle
 10
269.6819934479
 20
542.9704969631
 30
0.0
 40
0.6999999999999886
  0
LINE
  5
2C3
330
1F
100
AcDbEntity
  8
0
  6
Continuous
 62
     7
370
    15
100
AcDbLine
 10
275.7819932477
 20
246.0704977219
 30
0.0
 11
377.448659815
 21
246.0704977219
 31
0.0
  0
LINE
  5
2C4
330
1F
100
AcDbEntity
  8
0
  6
Continuous
 62
     7
370
    15
100
AcDbLine
 10
275.7819932477
 20
237.7371624018
 30
0.0
 11
377.448659815
 21
237.7371624018
 31
0.0
  0
LINE
  5
2C5
330
1F
100
AcDbEntity
  8
0
  6
Continuous
 62
     7
370
    15
100
AcDbLine
 10
394.2819924927
 20
245.2538346157
 30
0.0
 11
394.1153279718
 21
245.2538346157
 31
0.0
  0
SPLINE
  5
2C6
330
1F
100
AcDbEntity
  8
0
  6
Continuous
 62
     7
370
    15
100
AcDbSpline
210
0.0
220
0.0
230
1.0
 70
     8
 71
     3
 72
    10
 73
     6
 74
     0
 42
0.00000001
 43
0.00000001
 40
0.0
 40
0.0
 40
0.0
 40
0.0
 40
0.3047372105000031
 40
0.8218931320411133
 40
1.0
 40
1.0
 40
1.0
 40
1.0
 10
394.1153279718107
 20
245.7247510458112
 30
0.0
 10
394.1474369880854
 20
245.6852148756504
 30
0.0
 10
394.2340367830676
 20
245.5785836353466
 30
0.0
 10
394.2761791061187
 20
245.403611721294
 30
0.0
 10
394.2808069648306
 20
245.2843787626265
 30
0.0
 10
394.2819924927101
 20
245.2538346156558
 30
0.0
  0
LINE
  5
2C7
330
1F
100
AcDbEntity
  8
0
  6
Continuous
 62
     7
370
    15
100
AcDbLine
 10
394.2819924927
 20
237.7371624018
 30
0.0
 11
394.1153279718
 21
237.7371624018
 31
0.0
  0
LINE
  5
2C8
330
1F
100
AcDbEntity
  8
0
  6
Continuous
 62
     7
370
    15
100
AcDbLine
 10
394.2819924927
 20
245.2538346157
 30
0.0
 11
394.2819924927
 21
237.7371624018
 31
0.0
  0
LINE
  5
2C9
330
1F
100
AcDbEntity
  8
0
  6
Continuous
 62
     7
370
    15
100
AcDbLine
 10
275.7819932477
 20
126.0705028877
 30
0.0
 11
377.448659815
 21
126.0705028877
 31
0.0
  0
LINE
  5
2CA
330
1F
100
AcDbEntity
  8
0
  6
Continuous
 62
     7
370
    15
100
AcDbLine
 10
275.7819932477
 20
134.4038282737
 30
0.0
 11
377.448659815
 21
134.4038282737
 31
0.0
  0
SPLINE
  5
2CB
330
1F
100
AcDbEntity
  8
0
  6
Continuous
 62
     7
370
    15
100
AcDbSpline
210
0.0
220
0.0
230
1.0
 70
     8
 71
     3
 72
    10
 73
     6
 74
     0
 42
0.00000001
 43
0.00000001
 40
0.0
 40
0.0
 40
0.0
 40
0.0
 40
0.3047372105000031
 40
0.8218931320411133
 40
1.0
 40
1.0
 40
1.0
 40
1.0
 10
394.1153279718107
 20
134.0580815975944
 30
0.0
 10
394.1474369880854
 20
134.0185454274336
 30
0.0
 10
394.2340367830676
 20
133.9119141871298
 30
0.0
 10
394.2761791061187
 20
133.7369422730771
 30
0.0
 10
394.2808069648306
 20
133.6177093144097
 30
0.0
 10
394.2819924927101
 20
133.587165167439
 30
0.0
  0
LINE
  5
2CC
330
1F
100
AcDbEntity
  8
0
  6
Continuous
 62
     7
370
    15
100
AcDbLine
 10
394.2819924927
 20
133.5871651674
 30
0.0
 11
394.1153279718
 21
133.5871651674
 31
0.0
  0
LINE
  5
2CD
330
1F
100
AcDbEntity
  8
0
  6
Continuous
 62
     7
370
    15
100
AcDbLine
 10
394.2819924927
 20
126.0705028877
 30
0.0
 11
394.1153279718
 21
126.0705028877
 31
0.0
  0
LINE
  5
2CE
330
1F
100
AcDbEntity
  8
0
  6
Continuous
 62
     7
370
    15
100
AcDbLine
 10
394.2819924927
 20
133.5871651674
 30
0.0
 11
394.2819924927
 21
126.0705028877
 31
0.0
  0
LINE
  5
2CF
330
1F
100
AcDbEntity
  8
0
  6
Continuous
 62
     7
370
    15
100
AcDbLine
 10
440.031994559
 20
24.7705017433
 30
0.0
 11
424.865324475
 21
24.7705017433
 31
0.0
  0
LINE
  5
2D0
330
1F
100
AcDbEntity
  8
0
  6
Continuous
 62
     7
370
    15
100
AcDbLine
 10
435.8819913642
 20
28.2704864845
 30
0.0
 11
429.0153276698
 21
28.2704864845
 31
0.0
  0
LINE
  5
2D1
330
1F
100
AcDbEntity
  8
0
  6
Continuous
 62
     7
370
    15
100
AcDbLine
 10
432.4486644841
 20
29.6038423881
 30
0.0
 11
432.4486644841
 21
28.2704864845
 31
0.0
  0
LINE
  5
2D2
330
1F
100
AcDbEntity
  8
0
  6
Continuous
 62
     7
370
    15
100
AcDbLine
 10
432.4486644841
 20
29.6038423881
 30
0.0
 11
433.4486615436
 21
29.6038423881
 31
0.0
  0
LINE
  5
2D3
330
1F
100
AcDbEntity
  8
0
  6
Continuous
 62
     7
370
    15
100
AcDbLine
 10
433.4486615436
 20
29.6038423881
 30
0.0
 11
434.4486586031
 21
29.6038423881
 31
0.0
  0
LINE
  5
2D4
330
1F
100
AcDbEntity
  8
0
  6
Continuous
 62
     7
370
    15
100
AcDbLine
 10
434.4486586031
 20
29.6038423881
 30
0.0
 11
434.4486586031
 21
28.2704864845
 31
0.0
  0
LINE
  5
2D5
330
1F
100
AcDbEntity
  8
0
  6
Continuous
 62
     7
370
    15
100
AcDbLine
 10
430.4486604309
 20
29.6038423881
 30
0.0
 11
430.4486604309
 21
28.2704864845
 31
0.0
  0
LINE
  5
2D6
330
1F
100
AcDbEntity
  8
0
  6
Continuous
 62
     7
370
    15
100
AcDbLine
 10
430.4486604309
 20
29.6038423881
 30
0.0
 11
431.4486574904
 21
29.6038423881
 31
0.0
  0
LINE
  5
2D7
330
1F
100
AcDbEntity
  8
0
  6
Continuous
 62
     7
370
    15
100
AcDbLine
 10
431.4486574904
 20
29.6038423881
 30
0.0
 11
432.4486644841
 21
29.6038423881
 31
0.0
  0
LINE
  5
2D8
330
1F
100
AcDbEntity
  8
0
  6
Continuous
 62
     7
370
    15
100
AcDbLine
 10
275.0319929695
 20
24.7705017433
 30
0.0
 11
259.8653278526
 21
24.7705017433
 31
0.0
  0
LINE
  5
2D9
330
1F
100
AcDbEntity
  8
0
  6
Continuous
 62
     7
370
    15
100
AcDbLine
 10
270.8819947418
 20
28.2704864845
 30
0.0
 11
264.0153260804
 21
28.2704864845
 31
0.0
  0
LINE
  5
2DA
330
1F
100
AcDbEntity
  8
0
  6
Continuous
 62
     7
370
    15
100
AcDbLine
 10
267.4486579275
 20
29.6038423881
 30
0.0
 11
267.4486579275
 21
28.2704864845
 31
0.0
  0
LINE
  5
2DB
330
1F
100
AcDbEntity
  8
0
  6
Continuous
 62
     7
370
    15
100
AcDbLine
 10
267.4486579275
 20
29.6038423881
 30
0.0
 11
268.4486599541
 21
29.6038423881
 31
0.0
  0
LINE
  5
2DC
330
1F
100
AcDbEntity
  8
0
  6
Continuous
 62
     7
370
    15
100
AcDbLine
 10
268.4486599541
 20
29.6038423881
 30
0.0
 11
269.4486619807
 21
29.6038423881
 31
0.0
  0
LINE
  5
2DD
330
1F
100
AcDbEntity
  8
0
  6
Continuous
 62
     7
370
    15
100
AcDbLine
 10
269.4486619807
 20
29.6038423881
 30
0.0
 11
269.4486619807
 21
28.2704864845
 31
0.0
  0
LINE
  5
2DE
330
1F
100
AcDbEntity
  8
0
  6
Continuous
 62
     7
370
    15
100
AcDbLine
 10
265.4486588415
 20
29.6038423881
 30
0.0
 11
265.4486588415
 21
28.2704864845
 31
0.0
  0
LINE
  5
2DF
330
1F
100
AcDbEntity
  8
0
  6
Continuous
 62
     7
370
    15
100
AcDbLine
 10
265.4486588415
 20
29.6038423881
 30
0.0
 11
266.448660868
 21
29.6038423881
 31
0.0
  0
LINE
  5
2E0
330
1F
100
AcDbEntity
  8
0
  6
Continuous
 62
     7
370
    15
100
AcDbLine
 10
266.448660868
 20
29.6038423881
 30
0.0
 11
267.4486579275
 21
29.6038423881
 31
0.0
  0
LINE
  5
2E1
330
1F
100
AcDbEntity
  8
0
  6
Continuous
 62
     7
370
    15
100
AcDbLine
 10
250.7819922543
 20
44.5666347846
 30
0.0
 11
250.1485339578
 21
44.5666347846
 31
0.0
  0
LINE
  5
2E2
330
1F
100
AcDbEntity
  8
0
  6
Continuous
 62
     7
370
    15
100
AcDbLine
 10
250.7819922543
 20
44.603828083
 30
0.0
 11
250.7819922543
 21
44.5666347846
 31
0.0
  0
LINE
  5
2E3
330
1F
100
AcDbEntity
  8
0
  6
Continuous
 62
     7
370
    15
100
AcDbLine
 10
250.1485339578
 20
44.5666347846
 30
0.0
 11
249.8931081868
 21
44.5666347846
 31
0.0
  0
LINE
  5
2E4
330
1F
100
AcDbEntity
  8
0
  6
Continuous
 62
     7
370
    15
100
AcDbLine
 10
422.4486591196
 20
379.5666406458
 30
0.0
 11
422.4486591196
 21
379.6038314606
 31
0.0
  0
LINE
  5
2E5
330
1F
100
AcDbEntity
  8
0
  6
Continuous
 62
     7
370
    15
100
AcDbLine
 10
423.082112449
 20
379.5666406458
 30
0.0
 11
422.4486591196
 21
379.5666406458
 31
0.0
  0
LINE
  5
2E6
330
1F
100
AcDbEntity
  8
0
  6
Continuous
 62
     7
370
    15
100
AcDbLine
 10
423.3375481542
 20
379.5666406458
 30
0.0
 11
423.082112449
 21
379.5666406458
 31
0.0
  0
LINE
  5
2E7
330
1F
100
AcDbEntity
  8
0
  6
Continuous
 62
     7
370
    15
100
AcDbLine
 10
250.7819922543
 20
44.937176993
 30
0.0
 11
250.7819922543
 21
44.603828083
 31
0.0
  0
LINE
  5
2E8
330
1F
100
AcDbEntity
  8
0
  6
Continuous
 62
     7
370
    15
100
AcDbLine
 10
250.7819922543
 20
44.603828083
 30
0.0
 11
250.1485339578
 21
44.603828083
 31
0.0
  0
LINE
  5
2E9
330
1F
100
AcDbEntity
  8
0
  6
Continuous
 62
     7
370
    15
100
AcDbLine
 10
250.7819922543
 20
52.7743533159
 30
0.0
 11
250.7819922543
 21
44.937176993
 31
0.0
  0
LINE
  5
2EA
330
1F
100
AcDbEntity
  8
0
  6
Continuous
 62
     7
370
    15
100
AcDbLine
 10
250.1485339578
 20
53.107702226
 30
0.0
 11
250.7819922543
 21
53.107702226
 31
0.0
  0
LINE
  5
2EB
330
1F
100
AcDbEntity
  8
0
  6
Continuous
 62
     7
370
    15
100
AcDbLine
 10
250.7819922543
 20
53.107702226
 30
0.0
 11
250.7819922543
 21
52.7743533159
 31
0.0
  0
LINE
  5
2EC
330
1F
100
AcDbEntity
  8
0
  6
Continuous
 62
     7
370
    15
100
AcDbLine
 10
250.1485339578
 20
44.603828083
 30
0.0
 11
249.8931081868
 21
44.603828083
 31
0.0
  0
LINE
  5
2ED
330
1F
100
AcDbEntity
  8
0
  6
Continuous
 62
     7
370
    15
100
AcDbLine
 10
249.8931081868
 20
53.107702226
 30
0.0
 11
250.1485339578
 21
53.107702226
 31
0.0
  0
LINE
  5
2EE
330
1F
100
AcDbEntity
  8
0
  6
Continuous
 62
     7
370
    15
100
AcDbLine
 10
449.1153251903
 20
44.603828083
 30
0.0
 11
449.1153251903
 21
44.937176993
 31
0.0
  0
LINE
  5
2EF
330
1F
100
AcDbEntity
  8
0
  6
Continuous
 62
     7
370
    15
100
AcDbLine
 10
449.7487834867
 20
44.603828083
 30
0.0
 11
449.1153251903
 21
44.603828083
 31
0.0
  0
LINE
  5
2F0
330
1F
100
AcDbEntity
  8
0
  6
Continuous
 62
     7
370
    15
100
AcDbLine
 10
449.1153251903
 20
44.937176993
 30
0.0
 11
449.1153251903
 21
52.7743533159
 31
0.0
  0
LINE
  5
2F1
330
1F
100
AcDbEntity
  8
0
  6
Continuous
 62
     7
370
    15
100
AcDbLine
 10
449.1153251903
 20
53.107702226
 30
0.0
 11
449.7487834867
 21
53.107702226
 31
0.0
  0
LINE
  5
2F2
330
1F
100
AcDbEntity
  8
0
  6
Continuous
 62
     7
370
    15
100
AcDbLine
 10
449.1153251903
 20
52.7743533159
 30
0.0
 11
449.1153251903
 21
53.107702226
 31
0.0
  0
LINE
  5
2F3
330
1F
100
AcDbEntity
  8
0
  6
Continuous
 62
     7
370
    15
100
AcDbLine
 10
450.0042092578
 20
44.603828083
 30
0.0
 11
449.7487834867
 21
44.603828083
 31
0.0
  0
LINE
  5
2F4
330
1F
100
AcDbEntity
  8
0
  6
Continuous
 62
     7
370
    15
100
AcDbLine
 10
449.7487834867
 20
53.107702226
 30
0.0
 11
450.0042092578
 21
53.107702226
 31
0.0
  0
LINE
  5
2F5
330
1F
100
AcDbEntity
  8
0
  6
Continuous
 62
     7
370
    15
100
AcDbLine
 10
422.4486591196
 20
387.7743517265
 30
0.0
 11
422.4486591196
 21
387.8038299486
 31
0.0
  0
LINE
  5
2F6
330
1F
100
AcDbEntity
  8
0
  6
Continuous
 62
     7
370
    15
100
AcDbLine
 10
422.4486591196
 20
379.9371629859
 30
0.0
 11
422.4486591196
 21
387.7743517265
 31
0.0
  0
LINE
  5
2F7
330
1F
100
AcDbEntity
  8
0
  6
Continuous
 62
     7
370
    15
100
AcDbLine
 10
422.4486591196
 20
379.6038314606
 30
0.0
 11
422.4486591196
 21
379.9371629859
 31
0.0
  0
LINE
  5
2F8
330
1F
100
AcDbEntity
  8
0
  6
Continuous
 62
     7
370
    15
100
AcDbLine
 10
423.082112449
 20
379.6038314606
 30
0.0
 11
422.4486591196
 21
379.6038314606
 31
0.0
  0
LINE
  5
2F9
330
1F
100
AcDbEntity
  8
0
  6
Continuous
 62
     7
370
    15
100
AcDbLine
 10
423.3375481542
 20
379.6038314606
 30
0.0
 11
423.082112449
 21
379.6038314606
 31
0.0
  0
LINE
  5
2FA
330
1F
100
AcDbEntity
  8
0
  6
Continuous
 62
     7
370
    15
100
AcDbLine
 10
394.1153279718
 20
53.0705089276
 30
0.0
 11
394.1153279718
 21
379.6038314606
 31
0.0
  0
LINE
  5
2FB
330
1F
100
AcDbEntity
  8
0
  6
Continuous
 62
     7
370
    15
100
AcDbLine
 10
377.4553951399
 20
53.0705089276
 30
0.0
 11
377.7819938239
 21
53.0705089276
 31
0.0
  0
LINE
  5
2FC
330
1F
100
AcDbEntity
  8
0
  6
Continuous
 62
     7
370
    15
100
AcDbLine
 10
377.448659815
 20
53.0705089276
 30
0.0
 11
377.448659815
 21
379.6038314606
 31
0.0
  0
LINE
  5
2FD
330
1F
100
AcDbEntity
  8
0
  6
Continuous
 62
     7
370
    15
100
AcDbLine
 10
377.4553951399
 20
379.6038314606
 30
0.0
 11
377.7819938239
 21
379.6038314606
 31
0.0
  0
LINE
  5
2FE
330
1F
100
AcDbEntity
  8
0
  6
Continuous
 62
     7
370
    15
100
AcDbLine
 10
377.7819938239
 20
379.6038314606
 30
0.0
 11
393.781993963
 21
379.6038314606
 31
0.0
  0
LINE
  5
2FF
330
1F
100
AcDbEntity
  8
0
  6
Continuous
 62
     7
370
    15
100
AcDbLine
 10
377.7819938239
 20
53.0705089276
 30
0.0
 11
393.781993963
 21
53.0705089276
 31
0.0
  0
LINE
  5
300
330
1F
100
AcDbEntity
  8
0
  6
Continuous
 62
     7
370
    15
100
AcDbLine
 10
275.7819932477
 20
387.8038299486
 30
0.0
 11
275.7819932477
 21
387.7371633952
 31
0.0
  0
LINE
  5
301
330
1F
100
AcDbEntity
  8
0
  6
Continuous
 62
     7
370
    15
100
AcDbLine
 10
275.7819932477
 20
379.6038314606
 30
0.0
 11
377.4553951399
 21
379.6038314606
 31
0.0
  0
LINE
  5
302
330
1F
100
AcDbEntity
  8
0
  6
Continuous
 62
     7
370
    15
100
AcDbLine
 10
394.108592647
 20
379.6038314606
 30
0.0
 11
422.4486591196
 21
379.6038314606
 31
0.0
  0
LINE
  5
303
330
1F
100
AcDbEntity
  8
0
  6
Continuous
 62
     7
370
    15
100
AcDbLine
 10
275.7819932477
 20
379.9371629859
 30
0.0
 11
275.7819932477
 21
379.6038314606
 31
0.0
  0
LINE
  5
304
330
1F
100
AcDbEntity
  8
0
  6
Continuous
 62
     7
370
    15
100
AcDbLine
 10
275.7819932477
 20
387.7371633952
 30
0.0
 11
275.7819932477
 21
379.9371629859
 31
0.0
  0
LINE
  5
305
330
1F
100
AcDbEntity
  8
0
  6
Continuous
 62
     7
370
    15
100
AcDbLine
 10
422.4486591196
 20
387.7371633952
 30
0.0
 11
422.4486591196
 21
379.9371629859
 31
0.0
  0
LINE
  5
306
330
1F
100
AcDbEntity
  8
0
  6
Continuous
 62
     7
370
    15
100
AcDbLine
 10
265.802114385
 20
44.603828083
 30
0.0
 11
269.0952064371
 21
44.603828083
 31
0.0
  0
LINE
  5
307
330
1F
100
AcDbEntity
  8
0
  6
Continuous
 62
     7
370
    15
100
AcDbLine
 10
263.2153274393
 20
41.5204798088
 30
0.0
 11
271.6819933828
 21
41.5204798088
 31
0.0
  0
LINE
  5
308
330
1F
100
AcDbEntity
  8
0
  6
Continuous
 62
     7
370
    15
100
AcDbLine
 10
263.5486614482
 20
41.1871706352
 30
0.0
 11
271.348659374
 21
41.1871706352
 31
0.0
  0
LINE
  5
309
330
1F
100
AcDbEntity
  8
0
  6
Continuous
 62
     7
370
    15
100
AcDbLine
 10
430.8021159745
 20
44.603828083
 30
0.0
 11
434.0952030595
 21
44.603828083
 31
0.0
  0
LINE
  5
30A
330
1F
100
AcDbEntity
  8
0
  6
Continuous
 62
     7
370
    15
100
AcDbLine
 10
428.2153240617
 20
41.5204798088
 30
0.0
 11
436.6819949723
 21
41.5204798088
 31
0.0
  0
LINE
  5
30B
330
1F
100
AcDbEntity
  8
0
  6
Continuous
 62
     7
370
    15
100
AcDbLine
 10
428.5486630377
 20
41.1871706352
 30
0.0
 11
436.3486559964
 21
41.1871706352
 31
0.0
  0
LINE
  5
30C
330
1F
100
AcDbEntity
  8
0
  6
Continuous
 62
     7
370
    15
100
AcDbLine
 10
449.1153251903
 20
44.937176993
 30
0.0
 11
449.1153251903
 21
52.7371600176
 31
0.0
  0
LINE
  5
30D
330
1F
100
AcDbEntity
  8
0
  6
Continuous
 62
     7
370
    15
100
AcDbLine
 10
250.7819922543
 20
44.937176993
 30
0.0
 11
250.7819922543
 21
52.7371600176
 31
0.0
  0
LINE
  5
30E
330
1F
100
AcDbEntity
  8
0
  6
Continuous
 62
     7
370
    15
100
AcDbLine
 10
449.1153251903
 20
53.0705089276
 30
0.0
 11
394.108592647
 21
53.0705089276
 31
0.0
  0
LINE
  5
30F
330
1F
100
AcDbEntity
  8
0
  6
Continuous
 62
     7
370
    15
100
AcDbLine
 10
377.4553951399
 20
53.0705089276
 30
0.0
 11
275.7752579228
 21
53.0705089276
 31
0.0
  0
LINE
  5
310
330
1F
100
AcDbEntity
  8
0
  6
Continuous
 62
     7
370
    15
100
AcDbLine
 10
259.1220628993
 20
53.0705089276
 30
0.0
 11
250.7819922543
 21
53.0705089276
 31
0.0
  0
LINE
  5
311
330
1F
100
AcDbEntity
  8
0
  6
Continuous
 62
     7
370
    15
100
AcDbLine
 10
449.1153251903
 20
44.603828083
 30
0.0
 11
434.0952030595
 21
44.603828083
 31
0.0
  0
LINE
  5
312
330
1F
100
AcDbEntity
  8
0
  6
Continuous
 62
     7
370
    15
100
AcDbLine
 10
430.8021159745
 20
44.603828083
 30
0.0
 11
269.0952064371
 21
44.603828083
 31
0.0
  0
LINE
  5
313
330
1F
100
AcDbEntity
  8
0
  6
Continuous
 62
     7
370
    15
100
AcDbLine
 10
265.802114385
 20
44.603828083
 30
0.0
 11
250.7819922543
 21
44.603828083
 31
0.0
  0
LINE
  5
314
330
1F
100
AcDbEntity
  8
0
  6
Continuous
 62
     7
370
    15
100
AcDbLine
 10
259.4486615833
 20
53.0705089276
 30
0.0
 11
275.4486592388
 21
53.0705089276
 31
0.0
  0
LINE
  5
315
330
1F
100
AcDbEntity
  8
0
  6
Continuous
 62
     7
370
    15
100
AcDbLine
 10
266.448660868
 20
388.070497404
 30
0.0
 11
266.6153253889
 21
388.070497404
 31
0.0
  0
LINE
  5
316
330
1F
100
AcDbEntity
  8
0
  6
Continuous
 62
     7
370
    15
100
AcDbLine
 10
259.1220628993
 20
53.0705089276
 30
0.0
 11
259.4486615833
 21
53.0705089276
 31
0.0
  0
LINE
  5
317
330
1F
100
AcDbEntity
  8
0
  6
Continuous
 62
     7
370
    15
100
AcDbLine
 10
259.1153275744
 20
53.0705089276
 30
0.0
 11
259.1153275744
 21
387.970496953
 31
0.0
  0
LINE
  5
318
330
1F
100
AcDbEntity
  8
0
  6
Continuous
 62
     7
370
    15
100
AcDbLine
 10
275.7819932477
 20
53.0705089276
 30
0.0
 11
275.7819932477
 21
379.6038314606
 31
0.0
  0
LINE
  5
319
330
1F
100
AcDbEntity
  8
0
  6
Continuous
 62
     7
370
    15
100
AcDbLine
 10
275.4486592388
 20
53.0705089276
 30
0.0
 11
275.7752579228
 21
53.0705089276
 31
0.0
  0
ENDSEC
  0
SECTION
  2
OBJECTS
  0
DICTIONARY
  5
C
330
0
100
AcDbDictionary
281
     1
  3
ACAD_GROUP
350
D
  3
ACAD_LAYOUT
350
1A
  3
ACAD_MLINESTYLE
350
17
  3
ACAD_PLOTSETTINGS
350
19
  3
ACAD_PLOTSTYLENAME
350
E
  0
DICTIONARY
  5
D
102
{ACAD_REACTORS
330
C
102
}
330
C
100
AcDbDictionary
281
     1
  0
DICTIONARY
  5
1A
102
{ACAD_REACTORS
330
C
102
}
330
C
100
AcDbDictionary
281
     1
  3
Layout1
350
1E
  3
Layout2
350
26
  3
Model
350
22
  0
DICTIONARY
  5
17
102
{ACAD_REACTORS
330
C
102
}
330
C
100
AcDbDictionary
281
     1
  3
Standard
350
18
  0
DICTIONARY
  5
19
102
{ACAD_REACTORS
330
C
102
}
330
C
100
AcDbDictionary
281
     1
  0
ACDBDICTIONARYWDFLT
  5
E
102
{ACAD_REACTORS
330
C
102
}
330
C
100
AcDbDictionary
281
     1
  3
Normal
350
F
100
AcDbDictionaryWithDefault
340
F
  0
LAYOUT
  5
1E
102
{ACAD_REACTORS
330
1A
102
}
330
1A
100
AcDbPlotSettings
  1

  2
none_device
  4

  6

 40
0.0
 41
0.0
 42
0.0
 43
0.0
 44
0.0
 45
0.0
 46
0.0
 47
0.0
 48
0.0
 49
0.0
140
0.0
141
0.0
142
1.0
143
1.0
 70
   688
 72
     0
 73
     0
 74
     5
  7

 75
    16
147
1.0
148
0.0
149
0.0
100
AcDbLayout
  1
Layout1
 70
     1
 71
     1
 10
0.0
 20
0.0
 11
420.0
 21
297.0
 12
0.0
 22
0.0
 32
0.0
 14
1.0000000000E+20
 24
1.0000000000E+20
 34
1.0000000000E+20
 15
-1.0000000000E+20
 25
-1.0000000000E+20
 35
-1.0000000000E+20
146
0.0
 13
0.0
 23
0.0
 33
0.0
 16
1.0
 26
0.0
 36
0.0
 17
0.0
 27
1.0
 37
0.0
 76
     0
330
1B
  0
LAYOUT
  5
26
102
{ACAD_REACTORS
330
1A
102
}
330
1A
100
AcDbPlotSettings
  1

  2
none_device
  4

  6

 40
0.0
 41
0.0
 42
0.0
 43
0.0
 44
0.0
 45
0.0
 46
0.0
 47
0.0
 48
0.0
 49
0.0
140
0.0
141
0.0
142
1.0
143
1.0
 70
   688
 72
     0
 73
     0
 74
     5
  7

 75
    16
147
1.0
148
0.0
149
0.0
100
AcDbLayout
  1
Layout2
 70
     1
 71
     2
 10
0.0
 20
0.0
 11
0.0
 21
0.0
 12
0.0
 22
0.0
 32
0.0
 14
0.0
 24
0.0
 34
0.0
 15
0.0
 25
0.0
 35
0.0
146
0.0
 13
0.0
 23
0.0
 33
0.0
 16
1.0
 26
0.0
 36
0.0
 17
0.0
 27
1.0
 37
0.0
 76
     0
330
23
  0
LAYOUT
  5
22
102
{ACAD_REACTORS
330
1A
102
}
330
1A
100
AcDbPlotSettings
  1

  2
none_device
  4

  6

 40
0.0
 41
0.0
 42
0.0
 43
0.0
 44
0.0
 45
0.0
 46
0.0
 47
0.0
 48
0.0
 49
0.0
140
0.0
141
0.0
142
1.0
143
1.0
 70
  1712
 72
     0
 73
     0
 74
     0
  7

 75
     0
147
1.0
148
0.0
149
0.0
100
AcDbLayout
  1
Model
 70
     1
 71
     0
 10
0.0
 20
0.0
 11
841.0
 21
594.0
 12
0.0
 22
0.0
 32
0.0
 14
0.0
 24
0.0
 34
0.0
 15
841.0
 25
594.0
 35
0.0
146
0.0
 13
0.0
 23
0.0
 33
0.0
 16
1.0
 26
0.0
 36
0.0
 17
0.0
 27
1.0
 37
0.0
 76
     0
330
1F
331
29
  0
MLINESTYLE
  5
18
102
{ACAD_REACTORS
330
17
102
}
330
17
100
AcDbMlineStyle
  2
Standard
 70
     0
  3

 62
   256
 51
90.0
 52
90.0
 71
     2
 49
0.5
 62
   256
  6
BYLAYER
 49
-0.5
 62
   256
  6
BYLAYER
  0
ACDBPLACEHOLDER
  5
F
102
{ACAD_REACTORS
330
E
102
}
330
E
  0
ENDSEC
  0
EOF
