  0
SECTION
  2
HEADER
  9
$ACADVER
  1
AC1009
  9
$DWGCODEPAGE
  3
ansi_1252
  9
$INSBASE
 10
0.0
 20
0.0
 30
0.0
  9
$EXTMIN
 10
0.0
 20
0.0
 30
0.0
  9
$EXTMAX
 10
841.0
 20
594.0
 30
0.0
  9
$LIMMIN
 10
0.0
 20
0.0
  9
$LIMMAX
 10
841.0
 20
594.0
  9
$ORTHOMODE
 70
     0
  9
$REGENMODE
 70
     1
  9
$FILLMODE
 70
     1
  9
$QTEXTMODE
 70
     0
  9
$MIRRTEXT
 70
     1
  9
$DRAGMODE
 70
     2
  9
$LTSCALE
 40
1.0
  9
$OSMODE
 70
    37
  9
$ATTMODE
 70
     1
  9
$TEXTSIZE
 40
3.5
  9
$TRACEWID
 40
1.0
  9
$TEXTSTYLE
  7
STANDARD
  9
$CLAYER
  8
0
  9
$CELTYPE
  6
BYLAYER
  9
$CECOLOR
 62
   256
  9
$DIMSCALE
 40
1.0
  9
$DIMASZ
 40
3.302
  9
$DIMEXO
 40
1.0
  9
$DIMDLI
 40
3.75
  9
$DIMRND
 40
0.0
  9
$DIMDLE
 40
0.0
  9
$DIMEXE
 40
1.0
  9
$DIMTP
 40
0.0
  9
$DIMTM
 40
0.0
  9
$DIMTXT
 40
3.5
  9
$DIMCEN
 40
2.5
  9
$DIMTSZ
 40
0.0
  9
$DIMTOL
 70
     0
  9
$DIMLIM
 70
     0
  9
$DIMTIH
 70
     1
  9
$DIMTOH
 70
     1
  9
$DIMSE1
 70
     0
  9
$DIMSE2
 70
     0
  9
$DIMTAD
 70
     1
  9
$DIMZIN
 70
     0
  9
$DIMBLK
  1

  9
$DIMASO
 70
     1
  9
$DIMSHO
 70
     1
  9
$DIMPOST
  1

  9
$DIMAPOST
  1

  9
$DIMALT
 70
     0
  9
$DIMALTD
 70
     3
  9
$DIMALTF
 40
0.0393700787
  9
$DIMLFAC
 40
1.0
  9
$DIMTOFL
 70
     1
  9
$DIMTVP
 40
0.0
  9
$DIMTIX
 70
     0
  9
$DIMSOXD
 70
     0
  9
$DIMSAH
 70
     0
  9
$DIMBLK1
  1

  9
$DIMBLK2
  1

  9
$DIMSTYLE
  2
ISO-25
  9
$DIMCLRD
 70
     0
  9
$DIMCLRE
 70
     0
  9
$DIMCLRT
 70
     0
  9
$DIMTFAC
 40
1.0
  9
$DIMGAP
 40
1.524
  9
$LUNITS
 70
     2
  9
$LUPREC
 70
     1
  9
$SKETCHINC
 40
1.0
  9
$FILLETRAD
 40
10.0
  9
$AUNITS
 70
     0
  9
$AUPREC
 70
     1
  9
$MENU
  1
.
  9
$ELEVATION
 40
0.0
  9
$PELEVATION
 40
0.0
  9
$THICKNESS
 40
0.0
  9
$LIMCHECK
 70
     0
  9
$CHAMFERA
 40
10.0
  9
$CHAMFERB
 40
10.0
  9
$SKPOLY
 70
     0
  9
$TDCREATE
 40
2455862.565408831
  9
$TDUPDATE
 40
2455862.565408843
  9
$TDINDWG
 40
0.0000000116
  9
$TDUSRTIMER
 40
0.0000000116
  9
$USRTIMER
 70
     1
  9
$ANGBASE
 50
0.0
  9
$ANGDIR
 70
     0
  9
$PDMODE
 70
     0
  9
$PDSIZE
 40
-1.0
  9
$PLINEWID
 40
0.0
  9
$COORDS
 70
     1
  9
$SPLFRAME
 70
     0
  9
$SPLINETYPE
 70
     6
  9
$SPLINESEGS
 70
     8
  9
$ATTDIA
 70
     0
  9
$ATTREQ
 70
     1
  9
$HANDLING
 70
     1
  9
$HANDSEED
  5
62B
  9
$SURFTAB1
 70
     6
  9
$SURFTAB2
 70
     6
  9
$SURFTYPE
 70
     6
  9
$SURFU
 70
     6
  9
$SURFV
 70
     6
  9
$UCSNAME
  2

  9
$UCSORG
 10
0.0
 20
0.0
 30
0.0
  9
$UCSXDIR
 10
1.0
 20
0.0
 30
0.0
  9
$UCSYDIR
 10
0.0
 20
1.0
 30
0.0
  9
$PUCSNAME
  2

  9
$PUCSORG
 10
0.0
 20
0.0
 30
0.0
  9
$PUCSXDIR
 10
1.0
 20
0.0
 30
0.0
  9
$PUCSYDIR
 10
0.0
 20
1.0
 30
0.0
  9
$USERI1
 70
     0
  9
$USERI2
 70
     0
  9
$USERI3
 70
     0
  9
$USERI4
 70
     0
  9
$USERI5
 70
     0
  9
$USERR1
 40
0.0
  9
$USERR2
 40
0.0
  9
$USERR3
 40
0.0
  9
$USERR4
 40
0.0
  9
$USERR5
 40
0.0
  9
$WORLDVIEW
 70
     1
  9
$SHADEDGE
 70
     3
  9
$SHADEDIF
 70
    70
  9
$TILEMODE
 70
     1
  9
$MAXACTVP
 70
    64
  9
$PLIMCHECK
 70
     0
  9
$PEXTMIN
 10
1.0000000000E+20
 20
1.0000000000E+20
 30
1.0000000000E+20
  9
$PEXTMAX
 10
-1.0000000000E+20
 20
-1.0000000000E+20
 30
-1.0000000000E+20
  9
$PLIMMIN
 10
0.0
 20
0.0
  9
$PLIMMAX
 10
420.0
 20
297.0
  9
$UNITMODE
 70
     0
  9
$VISRETAIN
 70
     1
  9
$PLINEGEN
 70
     0
  9
$PSLTSCALE
 70
     1
  0
ENDSEC
  0
SECTION
  2
TABLES
  0
TABLE
  2
VPORT
 70
     1
  0
VPORT
  2
*ACTIVE
 70
     0
 10
0.0
 20
0.0
 11
1.0
 21
1.0
 12
420.5
 22
297.0
 13
0.0
 23
0.0
 14
10.0
 24
10.0
 15
10.0
 25
10.0
 16
0.0
 26
0.0
 36
1.0
 17
0.0
 27
0.0
 37
0.0
 40
594.0
 41
1.4158249158
 42
50.0
 43
0.0
 44
0.0
 50
0.0
 51
0.0
 71
     0
 72
  2000
 73
     1
 74
     3
 75
     0
 76
     0
 77
     0
 78
     0
  0
ENDTAB
  0
TABLE
  2
LTYPE
 70
     8
  0
LTYPE
  2
CONTINUOUS
 70
     0
  3
Solid line
 72
    65
 73
     0
 40
0.0
  0
LTYPE
  2
SLD-SOLID
 70
     0
  3
SolidWorks Line Style
 72
    65
 73
     0
 40
0.0
  0
LTYPE
  2
SLD-DASHED
 70
     0
  3
SolidWorks Line Style
 72
    65
 73
     2
 40
1.905
 49
1.27
 49
-0.635
  0
LTYPE
  2
SLD-PHANTOM
 70
     0
  3
SolidWorks Line Style
 72
    65
 73
     6
 40
12.7
 49
6.35
 49
-1.27
 49
1.27
 49
-1.27
 49
1.27
 49
-1.27
  0
LTYPE
  2
SLD-CHAIN
 70
     0
  3
SolidWorks Line Style
 72
    65
 73
     4
 40
10.16
 49
6.35
 49
-1.27
 49
1.27
 49
-1.27
  0
LTYPE
  2
SLD-CENTER
 70
     0
  3
SolidWorks Line Style
 72
    65
 73
     4
 40
19.05
 49
15.24
 49
-1.27
 49
1.27
 49
-1.27
  0
LTYPE
  2
SLD-STITCH
 70
     0
  3
SolidWorks Line Style
 72
    65
 73
     2
 40
0.635
 49
0.0
 49
-0.635
  0
LTYPE
  2
SLD-THIN-THICK-CHAIN
 70
     0
  3
SolidWorks Line Style
 72
    65
 73
     4
 40
10.16
 49
6.35
 49
-1.27
 49
1.27
 49
-1.27
  0
ENDTAB
  0
TABLE
  2
LAYER
 70
     1
  0
LAYER
  2
0
 70
     0
 62
     7
  6
CONTINUOUS
  0
ENDTAB
  0
TABLE
  2
STYLE
 70
     1
  0
STYLE
  2
STANDARD
 70
     0
 40
0.0
 41
1.0
 50
0.0
 71
     0
 42
2.5
  3
txt
  4

  0
ENDTAB
  0
TABLE
  2
VIEW
 70
     0
  0
ENDTAB
  0
TABLE
  2
UCS
 70
     0
  0
ENDTAB
  0
TABLE
  2
APPID
 70
     1
  0
APPID
  2
ACAD
 70
     0
  0
ENDTAB
  0
TABLE
  2
DIMSTYLE
 70
     1
  0
DIMSTYLE
  2
ISO-25
 70
     0
  3

  4

  5

  6

  7

 40
1.0
 41
2.5
 42
0.625
 43
3.75
 44
1.25
 45
0.0
 46
0.0
 47
0.0
 48
0.0
140
2.5
141
2.5
142
0.0
143
0.0393700787
144
1.0
145
0.0
146
1.0
147
0.625
 71
     0
 72
     0
 73
     0
 74
     0
 75
     0
 76
     0
 77
     1
 78
     8
170
     0
171
     3
172
     1
173
     0
174
     0
175
     0
176
     0
177
     0
178
     0
  0
ENDTAB
  0
ENDSEC
  0
SECTION
  2
BLOCKS
  0
BLOCK
  8
0
  2
$MODEL_SPACE
 70
     0
 10
0.0
 20
0.0
 30
0.0
  3
$MODEL_SPACE
  1

  0
ENDBLK
  5
21
  8
0
  0
BLOCK
 67
     1
  8
0
  2
$PAPER_SPACE
 70
     0
 10
0.0
 20
0.0
 30
0.0
  3
$PAPER_SPACE
  1

  0
ENDBLK
  5
1D
 67
     1
  8
0
  0
ENDSEC
  0
SECTION
  2
ENTITIES
  0
LINE
  5
46
  8
0
  6
SLD-SOLID
 62
     7
 10
558.7711154889
 20
309.127069164
 30
0.0
 11
568.7711059521
 21
313.1270698196
 31
0.0
  0
LINE
  5
47
  8
0
  6
SLD-SOLID
 62
     7
 10
561.9619905423
 20
372.8507152683
 30
0.0
 11
558.7711154889
 21
374.1270742304
 31
0.0
  0
LINE
  5
48
  8
0
  6
SLD-SOLID
 62
     7
 10
568.7711059521
 20
370.1270661242
 30
0.0
 11
566.3247525166
 21
371.1056104786
 31
0.0
  0
LINE
  5
49
  8
0
  6
SLD-SOLID
 62
     7
 10
568.7711059521
 20
313.1270698196
 30
0.0
 11
588.1814777325
 21
321.8617356307
 31
0.0
  0
LINE
  5
4A
  8
0
  6
SLD-SOLID
 62
     7
 10
569.2270814846
 20
369.9218920357
 30
0.0
 11
568.7711059521
 21
370.1270661242
 31
0.0
  0
ARC
  5
4B
  8
0
  6
SLD-SOLID
 62
     7
 10
587.7711086961
 20
322.7736539058
 30
0.0
 40
1.000000000000114
 50
294.227745318
 51
0.0
  0
LINE
  5
4C
  8
0
  6
SLD-SOLID
 62
     7
 10
556.7711114357
 20
334.5152578241
 30
0.0
 11
558.7711154889
 21
334.4803444035
 31
0.0
  0
LINE
  5
4D
  8
0
  6
SLD-SOLID
 62
     7
 10
562.7207874726
 20
372.5579670555
 30
0.0
 11
561.9606792401
 21
372.8620103485
 31
0.0
  0
LINE
  5
4E
  8
0
  6
SLD-SOLID
 62
     7
 10
566.3334547947
 20
371.1128971464
 30
0.0
 11
565.5905425023
 21
371.4100561029
 31
0.0
  0
LINE
  5
4F
  8
0
  6
SLD-SOLID
 62
     7
 10
556.7711114357
 20
279.3270713574
 30
0.0
 11
556.8711131285
 21
279.3270713574
 31
0.0
  0
LINE
  5
50
  8
0
  6
SLD-SOLID
 62
     7
 10
556.8711131285
 20
294.3270719535
 30
0.0
 11
556.7711114357
 21
294.3270719535
 31
0.0
  0
LINE
  5
51
  8
0
  6
SLD-SOLID
 62
     7
 10
556.7711114357
 20
279.0270662791
 30
0.0
 11
560.271096177
 21
280.1770708448
 31
0.0
  0
LINE
  5
52
  8
0
  6
SLD-SOLID
 62
     7
 10
560.271096177
 20
293.4770650155
 30
0.0
 11
556.7711114357
 21
294.6270695812
 31
0.0
  0
ARC
  5
53
  8
0
  6
SLD-SOLID
 62
     7
 10
482.8771046416
 20
182.6440322192
 30
0.0
 40
13.00599594552331
 50
115.0458189161
 51
180.0
  0
ARC
  5
54
  8
0
  6
SLD-SOLID
 62
     7
 10
405.8651127506
 20
182.6440322192
 30
0.0
 40
13.00599594552335
 50
0.0
 51
64.9541810839
  0
ARC
  5
55
  8
0
  6
SLD-SOLID
 62
     7
 10
482.8771046416
 20
-93.7898956275
 30
0.0
 40
13.00599594552335
 50
180.0
 51
244.9541810839
  0
ARC
  5
56
  8
0
  6
SLD-SOLID
 62
     7
 10
405.8651127506
 20
-93.7898956275
 30
0.0
 40
13.00599594552338
 50
295.0458189161
 51
0.0
  0
ARC
  5
57
  8
0
  6
SLD-SOLID
 62
     7
 10
469.6711086961
 20
-41.5016404852
 30
0.0
 40
0.2000000000000455
 50
0.0
 51
77.846802531
  0
ARC
  5
58
  8
0
  6
SLD-SOLID
 62
     7
 10
419.0711086961
 20
-41.5016404852
 30
0.0
 40
0.2000000000000455
 50
102.153197469
 51
180.0
  0
LINE
  5
59
  8
0
  6
SLD-SOLID
 62
     7
 10
469.8711156319
 20
-93.7899061554
 30
0.0
 11
469.8711156319
 21
-41.5016421192
 31
0.0
  0
LINE
  5
5A
  8
0
  6
SLD-SOLID
 62
     7
 10
418.871109135
 20
-41.5016421192
 30
0.0
 11
418.871109135
 21
-93.7899061554
 31
0.0
  0
ARC
  5
5B
  8
0
  6
SLD-SOLID
 62
     7
 10
469.6711086961
 20
-39.6442229231
 30
0.0
 40
0.2000000000000455
 50
282.153197469
 51
0.0
  0
ARC
  5
5C
  8
0
  6
SLD-SOLID
 62
     7
 10
419.0711086961
 20
-39.6442229231
 30
0.0
 40
0.2000000000000455
 50
180.0
 51
257.846802531
  0
ARC
  5
5D
  8
0
  6
SLD-SOLID
 62
     7
 10
469.6711086961
 20
128.4983595148
 30
0.0
 40
0.2000000000000178
 50
0.0
 51
77.846802531
  0
ARC
  5
5E
  8
0
  6
SLD-SOLID
 62
     7
 10
419.0711086961
 20
128.4983595148
 30
0.0
 40
0.2000000000000455
 50
102.153197469
 51
180.0
  0
LINE
  5
5F
  8
0
  6
SLD-SOLID
 62
     7
 10
469.8711156319
 20
-39.6442272776
 30
0.0
 11
469.8711156319
 21
128.4983596689
 31
0.0
  0
LINE
  5
60
  8
0
  6
SLD-SOLID
 62
     7
 10
418.871109135
 20
128.4983596689
 30
0.0
 11
418.871109135
 21
-39.6442272776
 31
0.0
  0
LINE
  5
61
  8
0
  6
SLD-SOLID
 62
     7
 10
469.8711156319
 20
130.3557745106
 30
0.0
 11
469.8711156319
 21
182.6440329588
 31
0.0
  0
LINE
  5
62
  8
0
  6
SLD-SOLID
 62
     7
 10
418.871109135
 20
182.6440329588
 30
0.0
 11
418.871109135
 21
130.3557745106
 31
0.0
  0
ARC
  5
63
  8
0
  6
SLD-SOLID
 62
     7
 10
469.6711086961
 20
130.3557770769
 30
0.0
 40
0.2000000000000853
 50
282.153197469
 51
0.0
  0
ARC
  5
64
  8
0
  6
SLD-SOLID
 62
     7
 10
419.0711086961
 20
130.3557770769
 30
0.0
 40
0.2000000000000853
 50
180.0
 51
257.846802531
  0
ARC
  5
65
  8
0
  6
SLD-SOLID
 62
     7
 10
469.8711086961
 20
129.4270682959
 30
0.0
 40
0.7499999999999111
 50
102.153197469
 51
257.846802531
  0
ARC
  5
66
  8
0
  6
SLD-SOLID
 62
     7
 10
418.8711086961
 20
129.4270682959
 30
0.0
 40
0.7499999999998991
 50
282.153197469
 51
77.846802531
  0
ARC
  5
67
  8
0
  6
SLD-SOLID
 62
     7
 10
469.8711086961
 20
-40.5729317041
 30
0.0
 40
0.7499999999999974
 50
102.153197469
 51
257.846802531
  0
ARC
  5
68
  8
0
  6
SLD-SOLID
 62
     7
 10
418.8711086961
 20
-40.5729317041
 30
0.0
 40
0.7499999999999974
 50
282.153197469
 51
77.846802531
  0
LINE
  5
69
  8
0
  6
SLD-SOLID
 62
     7
 10
450.3711133669
 20
-125.0729271286
 30
0.0
 11
450.3711133669
 21
-105.5729397648
 31
0.0
  0
LINE
  5
6A
  8
0
  6
SLD-SOLID
 62
     7
 10
438.3711039494
 20
-105.5729397648
 30
0.0
 11
438.3711039494
 21
-125.0729271286
 31
0.0
  0
LINE
  5
6B
  8
0
  6
SLD-SOLID
 62
     7
 10
438.3711039494
 20
-125.0729271286
 30
0.0
 11
438.8711124133
 21
-125.5729206913
 31
0.0
  0
LINE
  5
6C
  8
0
  6
SLD-SOLID
 62
     7
 10
449.8711049031
 20
-125.5729206913
 30
0.0
 11
450.3711133669
 21
-125.0729271286
 31
0.0
  0
ARC
  5
6D
  8
0
  6
SLD-SOLID
 62
     7
 10
282.8771046416
 20
182.6440322192
 30
0.0
 40
13.00599594552341
 50
115.0458189161
 51
180.0
  0
ARC
  5
6E
  8
0
  6
SLD-SOLID
 62
     7
 10
205.8651127506
 20
182.6440322192
 30
0.0
 40
13.00599594552335
 50
0.0
 51
64.9541810839
  0
ARC
  5
6F
  8
0
  6
SLD-SOLID
 62
     7
 10
282.8771046416
 20
-93.7898956275
 30
0.0
 40
13.00599594552341
 50
180.0
 51
244.9541810839
  0
ARC
  5
70
  8
0
  6
SLD-SOLID
 62
     7
 10
205.8651127506
 20
-93.7898956275
 30
0.0
 40
13.00599594552335
 50
295.0458189161
 51
0.0
  0
ARC
  5
71
  8
0
  6
SLD-SOLID
 62
     7
 10
269.6711086961
 20
128.4983595148
 30
0.0
 40
0.2000000000000178
 50
0.0
 51
77.846802531
  0
ARC
  5
72
  8
0
  6
SLD-SOLID
 62
     7
 10
219.0711086961
 20
128.4983595148
 30
0.0
 40
0.2000000000000455
 50
102.153197469
 51
180.0
  0
ARC
  5
73
  8
0
  6
SLD-SOLID
 62
     7
 10
269.6711086961
 20
-41.5016404852
 30
0.0
 40
0.199999999999997
 50
0.0
 51
77.846802531
  0
ARC
  5
74
  8
0
  6
SLD-SOLID
 62
     7
 10
219.0711086961
 20
-41.5016404852
 30
0.0
 40
0.2000000000000171
 50
102.153197469
 51
180.0
  0
ARC
  5
75
  8
0
  6
SLD-SOLID
 62
     7
 10
269.6711086961
 20
-39.6442229231
 30
0.0
 40
0.199999999999997
 50
282.153197469
 51
0.0
  0
ARC
  5
76
  8
0
  6
SLD-SOLID
 62
     7
 10
219.0711086961
 20
-39.6442229231
 30
0.0
 40
0.2000000000000171
 50
180.0
 51
257.846802531
  0
LINE
  5
77
  8
0
  6
SLD-SOLID
 62
     7
 10
269.8711089264
 20
130.3557745106
 30
0.0
 11
269.8711089264
 21
182.6440329588
 31
0.0
  0
LINE
  5
78
  8
0
  6
SLD-SOLID
 62
     7
 10
218.8711061548
 20
182.6440329588
 30
0.0
 11
218.8711061548
 21
130.3557745106
 31
0.0
  0
LINE
  5
79
  8
0
  6
SLD-SOLID
 62
     7
 10
269.8711089264
 20
-93.7899061554
 30
0.0
 11
269.8711089264
 21
-41.5016421192
 31
0.0
  0
LINE
  5
7A
  8
0
  6
SLD-SOLID
 62
     7
 10
218.8711061548
 20
-41.5016421192
 30
0.0
 11
218.8711061548
 21
-93.7899061554
 31
0.0
  0
ARC
  5
7B
  8
0
  6
SLD-SOLID
 62
     7
 10
269.6711086961
 20
130.3557770769
 30
0.0
 40
0.2000000000000734
 50
282.153197469
 51
0.0
  0
ARC
  5
7C
  8
0
  6
SLD-SOLID
 62
     7
 10
219.0711086961
 20
130.3557770769
 30
0.0
 40
0.2000000000000853
 50
180.0
 51
257.846802531
  0
LINE
  5
7D
  8
0
  6
SLD-SOLID
 62
     7
 10
269.8711089264
 20
-39.6442272776
 30
0.0
 11
269.8711089264
 21
128.4983596689
 31
0.0
  0
LINE
  5
7E
  8
0
  6
SLD-SOLID
 62
     7
 10
218.8711061548
 20
128.4983596689
 30
0.0
 11
218.8711061548
 21
-39.6442272776
 31
0.0
  0
ARC
  5
7F
  8
0
  6
SLD-SOLID
 62
     7
 10
269.8711086961
 20
129.4270682959
 30
0.0
 40
0.7499999999998871
 50
102.153197469
 51
257.846802531
  0
ARC
  5
80
  8
0
  6
SLD-SOLID
 62
     7
 10
218.8711086961
 20
129.4270682959
 30
0.0
 40
0.7499999999998931
 50
282.153197469
 51
77.846802531
  0
ARC
  5
81
  8
0
  6
SLD-SOLID
 62
     7
 10
269.8711086961
 20
-40.5729317041
 30
0.0
 40
0.7499999999999855
 50
102.153197469
 51
257.846802531
  0
ARC
  5
82
  8
0
  6
SLD-SOLID
 62
     7
 10
218.8711086961
 20
-40.5729317041
 30
0.0
 40
0.7499999999999915
 50
282.153197469
 51
77.846802531
  0
LINE
  5
83
  8
0
  6
SLD-SOLID
 62
     7
 10
250.3711103867
 20
-125.0729271286
 30
0.0
 11
250.3711103867
 21
-105.5729397648
 31
0.0
  0
LINE
  5
84
  8
0
  6
SLD-SOLID
 62
     7
 10
238.3711084197
 20
-105.5729397648
 30
0.0
 11
238.3711084197
 21
-125.0729271286
 31
0.0
  0
LINE
  5
85
  8
0
  6
SLD-SOLID
 62
     7
 10
238.3711084197
 20
-125.0729271286
 30
0.0
 11
238.871109433
 21
-125.5729206913
 31
0.0
  0
LINE
  5
86
  8
0
  6
SLD-SOLID
 62
     7
 10
249.8711093734
 20
-125.5729206913
 30
0.0
 11
250.3711103867
 21
-125.0729271286
 31
0.0
  0
POLYLINE
  5
87
  8
0
  6
SLD-SOLID
 62
     7
 66
     1
 10
0.0
 20
0.0
 30
0.0
  0
VERTEX
  5
374
  8
0
  6
SLD-SOLID
 62
     7
 10
186.1721544932
 20
354.18312167
 30
0.0
  0
VERTEX
  5
375
  8
0
  6
SLD-SOLID
 62
     7
 10
186.1725195716
 20
354.1912279016
 30
0.0
  0
VERTEX
  5
376
  8
0
  6
SLD-SOLID
 62
     7
 10
186.191272683
 20
354.220747102
 30
0.0
  0
VERTEX
  5
377
  8
0
  6
SLD-SOLID
 62
     7
 10
186.2348064254
 20
354.2549601681
 30
0.0
  0
VERTEX
  5
378
  8
0
  6
SLD-SOLID
 62
     7
 10
186.2970783781
 20
354.2825869209
 30
0.0
  0
VERTEX
  5
379
  8
0
  6
SLD-SOLID
 62
     7
 10
186.3809421132
 20
354.2995891458
 30
0.0
  0
VERTEX
  5
37A
  8
0
  6
SLD-SOLID
 62
     7
 10
186.4211081932
 20
354.2995891458
 30
0.0
  0
SEQEND
  5
37B
  8
0
  6
SLD-SOLID
 62
     7
  0
LINE
  5
88
  8
0
  6
SLD-SOLID
 62
     7
 10
186.4211081932
 20
354.3014815933
 30
0.0
 11
191.5211051176
 21
354.3014815933
 31
0.0
  0
ARC
  5
89
  8
0
  6
SLD-SOLID
 62
     7
 10
191.5211086961
 20
354.5514776318
 30
0.0
 40
0.2500000000000568
 50
270.0
 51
0.0
  0
ARC
  5
8A
  8
0
  6
SLD-SOLID
 62
     7
 10
191.5211086961
 20
359.377644604
 30
0.0
 40
0.25
 50
0.0
 51
90.0
  0
LINE
  5
8B
  8
0
  6
SLD-SOLID
 62
     7
 10
191.5211051176
 20
359.6276483423
 30
0.0
 11
186.4211081932
 21
359.6276483423
 31
0.0
  0
ARC
  5
8C
  8
0
  6
SLD-SOLID
 62
     7
 10
185.2211086961
 20
359.0770682959
 30
0.0
 40
0.25
 50
90.0
 51
180.0
  0
LINE
  5
8D
  8
0
  6
SLD-SOLID
 62
     7
 10
185.4843317936
 20
359.3270621187
 30
0.0
 11
185.2211102317
 21
359.3270621187
 31
0.0
  0
LINE
  5
8E
  8
0
  6
SLD-SOLID
 62
     7
 10
186.9926273297
 20
341.6264942772
 30
0.0
 11
191.5211051176
 21
341.6264942772
 31
0.0
  0
ARC
  5
8F
  8
0
  6
SLD-SOLID
 62
     7
 10
191.5211086961
 20
341.8764919878
 30
0.0
 40
0.25
 50
270.0
 51
0.0
  0
POLYLINE
  5
90
  8
0
  6
SLD-SOLID
 62
     7
 66
     1
 10
0.0
 20
0.0
 30
0.0
  0
VERTEX
  5
37C
  8
0
  6
SLD-SOLID
 62
     7
 10
186.1687197755
 20
346.2891272194
 30
0.0
  0
VERTEX
  5
37D
  8
0
  6
SLD-SOLID
 62
     7
 10
186.1679672669
 20
346.2670735008
 30
0.0
  0
VERTEX
  5
37E
  8
0
  6
SLD-SOLID
 62
     7
 10
186.1316456865
 20
346.2097487337
 30
0.0
  0
VERTEX
  5
37F
  8
0
  6
SLD-SOLID
 62
     7
 10
186.0792532037
 20
346.1720487959
 30
0.0
  0
VERTEX
  5
380
  8
0
  6
SLD-SOLID
 62
     7
 10
186.012719519
 20
346.1462101824
 30
0.0
  0
VERTEX
  5
381
  8
0
  6
SLD-SOLID
 62
     7
 10
185.9305768679
 20
346.134617079
 30
0.0
  0
VERTEX
  5
382
  8
0
  6
SLD-SOLID
 62
     7
 10
185.9214126538
 20
346.1350939161
 30
0.0
  0
SEQEND
  5
383
  8
0
  6
SLD-SOLID
 62
     7
  0
LINE
  5
91
  8
0
  6
SLD-SOLID
 62
     7
 10
185.92110718
 20
346.1344531662
 30
0.0
 11
180.821102805
 21
346.1344531662
 31
0.0
  0
ARC
  5
92
  8
0
  6
SLD-SOLID
 62
     7
 10
180.8211086961
 20
345.8844504005
 30
0.0
 40
0.2500000000000284
 50
90.0
 51
180.0
  0
ARC
  5
93
  8
0
  6
SLD-SOLID
 62
     7
 10
180.8211086961
 20
341.4466291858
 30
0.0
 40
0.2500000000000284
 50
180.0
 51
270.0
  0
LINE
  5
94
  8
0
  6
SLD-SOLID
 62
     7
 10
180.821102805
 20
341.1966255791
 30
0.0
 11
185.92110718
 21
341.1966255791
 31
0.0
  0
ARC
  5
95
  8
0
  6
SLD-SOLID
 62
     7
 10
187.1211086961
 20
342.1770682959
 30
0.0
 40
0.2499999999999735
 50
301.0756875733
 51
0.0
  0
LINE
  5
96
  8
0
  6
SLD-SOLID
 62
     7
 10
185.92110718
 20
360.0575021393
 30
0.0
 11
180.821102805
 21
360.0575021393
 31
0.0
  0
ARC
  5
97
  8
0
  6
SLD-SOLID
 62
     7
 10
180.8211086961
 20
359.8075074059
 30
0.0
 40
0.2500000000000284
 50
90.0
 51
180.0
  0
LINE
  5
98
  8
0
  6
SLD-SOLID
 62
     7
 10
192.5711079906
 20
355.627073992
 30
0.0
 11
192.4829005669
 21
355.7798406965
 31
0.0
  0
LINE
  5
99
  8
0
  6
SLD-SOLID
 62
     7
 10
192.4829005669
 20
345.4742870218
 30
0.0
 11
192.5711079906
 21
345.6270686275
 31
0.0
  0
LINE
  5
9A
  8
0
  6
SLD-SOLID
 62
     7
 10
187.3711093734
 20
345.6270686275
 30
0.0
 11
187.4593167971
 21
345.4742870218
 31
0.0
  0
LINE
  5
9B
  8
0
  6
SLD-SOLID
 62
     7
 10
192.8211122225
 20
345.6270686275
 30
0.0
 11
193.0174648236
 21
345.2869645245
 31
0.0
  0
LINE
  5
9C
  8
0
  6
SLD-SOLID
 62
     7
 10
197.8247507881
 20
345.2869645245
 30
0.0
 11
198.0211108397
 21
345.6270686275
 31
0.0
  0
LINE
  5
9D
  8
0
  6
SLD-SOLID
 62
     7
 10
193.0174648236
 20
355.9671631939
 30
0.0
 11
192.8211122225
 21
355.627073992
 31
0.0
  0
LINE
  5
9E
  8
0
  6
SLD-SOLID
 62
     7
 10
198.0211108397
 20
355.627073992
 30
0.0
 11
197.8247507881
 21
355.9671631939
 31
0.0
  0
LINE
  5
9F
  8
0
  6
SLD-SOLID
 62
     7
 10
198.0211108397
 20
344.5270649082
 30
0.0
 11
198.5711052488
 21
344.5270649082
 31
0.0
  0
LINE
  5
A0
  8
0
  6
SLD-SOLID
 62
     7
 10
198.5711052488
 20
356.7270628101
 30
0.0
 11
198.0211108397
 21
356.7270628101
 31
0.0
  0
LINE
  5
A1
  8
0
  6
SLD-SOLID
 62
     7
 10
198.9711120199
 20
353.6270699388
 30
0.0
 11
198.5711052488
 21
353.6270699388
 31
0.0
  0
LINE
  5
A2
  8
0
  6
SLD-SOLID
 62
     7
 10
192.8211122225
 20
353.6270699388
 30
0.0
 11
192.5711079906
 21
353.6270699388
 31
0.0
  0
LINE
  5
A3
  8
0
  6
SLD-SOLID
 62
     7
 10
192.5711079906
 20
347.6270726807
 30
0.0
 11
192.8211122225
 21
347.6270726807
 31
0.0
  0
LINE
  5
A4
  8
0
  6
SLD-SOLID
 62
     7
 10
198.5711052488
 20
347.6270726807
 30
0.0
 11
198.9711120199
 21
347.6270726807
 31
0.0
  0
LINE
  5
A5
  8
0
  6
SLD-SOLID
 62
     7
 10
265.3711072575
 20
197.1270685009
 30
0.0
 11
265.3711072575
 21
197.6270681172
 31
0.0
  0
LINE
  5
A6
  8
0
  6
SLD-SOLID
 62
     7
 10
257.3711096714
 20
197.6270681172
 30
0.0
 11
257.3711096714
 21
197.1270685009
 31
0.0
  0
LINE
  5
A7
  8
0
  6
SLD-SOLID
 62
     7
 10
430.3711100887
 20
197.1270685009
 30
0.0
 11
430.3711100887
 21
197.6270681172
 31
0.0
  0
LINE
  5
A8
  8
0
  6
SLD-SOLID
 62
     7
 10
422.3711087774
 20
197.6270681172
 30
0.0
 11
422.3711087774
 21
197.1270685009
 31
0.0
  0
LINE
  5
A9
  8
0
  6
SLD-SOLID
 62
     7
 10
574.7375010918
 20
242.2057381756
 30
0.0
 11
554.0782033871
 21
245.076927442
 31
0.0
  0
LINE
  5
AA
  8
0
  6
SLD-SOLID
 62
     7
 10
535.1600318621
 20
247.7061367518
 30
0.0
 11
523.4723656844
 21
249.3304639048
 31
0.0
  0
LINE
  5
AB
  8
0
  6
SLD-SOLID
 62
     7
 10
504.5541941594
 20
251.9596769399
 30
0.0
 11
500.7711022566
 21
252.4854420609
 31
0.0
  0
LINE
  5
AC
  8
0
  6
SLD-SOLID
 62
     7
 10
500.7711022566
 20
244.4085507578
 30
0.0
 11
573.6362754773
 21
234.2818948365
 31
0.0
  0
ARC
  5
AD
  8
0
  6
SLD-SOLID
 62
     7
 10
572.8103384094
 20
228.3390140984
 30
0.0
 40
6.000000000000028
 50
37.0878273088
 51
82.0878273088
  0
ARC
  5
AE
  8
0
  6
SLD-SOLID
 62
     7
 10
572.8103384094
 20
228.3390140984
 30
0.0
 40
14.00000000000005
 50
37.0878273088
 51
82.0878273088
  0
LINE
  5
AF
  8
0
  6
SLD-SOLID
 62
     7
 10
611.6323589753
 20
200.2001817729
 30
0.0
 11
583.9783071946
 21
236.7815515882
 31
0.0
  0
LINE
  5
B0
  8
0
  6
SLD-SOLID
 62
     7
 10
577.5966166924
 20
231.9572447724
 30
0.0
 11
605.2506684731
 21
195.3758737928
 31
0.0
  0
LINE
  5
B1
  8
0
  6
SLD-SOLID
 62
     7
 10
529.1021882962
 20
268.7720275409
 30
0.0
 11
528.3820598792
 21
263.5903722531
 31
0.0
  0
LINE
  5
B2
  8
0
  6
SLD-SOLID
 62
     7
 10
527.5671898793
 20
257.727081973
 30
0.0
 11
526.3490944575
 21
248.9624238498
 31
0.0
  0
LINE
  5
B3
  8
0
  6
SLD-SOLID
 62
     7
 10
532.2919755648
 20
248.136493463
 30
0.0
 11
533.5100709866
 21
256.9011515862
 31
0.0
  0
LINE
  5
B4
  8
0
  6
SLD-SOLID
 62
     7
 10
534.3249409865
 20
262.7644418663
 30
0.0
 11
535.0450694035
 21
267.9461008794
 31
0.0
  0
LINE
  5
B5
  8
0
  6
SLD-SOLID
 62
     7
 10
580.5215954255
 20
176.6816797591
 30
0.0
 11
581.8113803338
 21
174.9755228794
 31
0.0
  0
LINE
  5
B6
  8
0
  6
SLD-SOLID
 62
     7
 10
637.6512169312
 20
217.1882196254
 30
0.0
 11
636.3614320229
 21
218.8943765051
 31
0.0
  0
ARC
  5
B7
  8
0
  6
SLD-SOLID
 62
     7
 10
582.6090941186
 20
175.5785612448
 30
0.0
 40
0.999999999999934
 50
217.0878273088
 51
298.5570616989
  0
ARC
  5
B8
  8
0
  6
SLD-SOLID
 62
     7
 10
636.8535145044
 20
216.5851809179
 30
0.0
 40
0.999999999999981
 50
315.6185929188
 51
37.0878273088
  0
LINE
  5
B9
  8
0
  6
SLD-SOLID
 62
     7
 10
583.0871283482
 20
174.7002202011
 30
0.0
 11
598.5812365483
 21
183.1328245736
 31
0.0
  0
LINE
  5
BA
  8
0
  6
SLD-SOLID
 62
     7
 10
625.2301155995
 20
203.2783139422
 30
0.0
 11
637.5682174633
 21
215.8857491723
 31
0.0
  0
ARC
  5
BB
  8
0
  6
SLD-SOLID
 62
     7
 10
599.5373023638
 20
181.3761411835
 30
0.0
 40
2.000000000000022
 50
37.0878273088
 51
118.5570616989
  0
ARC
  5
BC
  8
0
  6
SLD-SOLID
 62
     7
 10
626.6595125567
 20
201.87945102
 30
0.0
 40
2.000000000000107
 50
135.6185929188
 51
217.0878273088
  0
LINE
  5
BD
  8
0
  6
SLD-SOLID
 62
     7
 10
601.1327325772
 20
182.5822173542
 30
0.0
 11
602.5062322091
 21
180.7653299458
 31
0.0
  0
LINE
  5
BE
  8
0
  6
SLD-SOLID
 62
     7
 10
626.4375864933
 20
198.8564846962
 30
0.0
 11
625.0640868615
 21
200.6733739673
 31
0.0
  0
LINE
  5
BF
  8
0
  6
SLD-SOLID
 62
     7
 10
603.7123023938
 20
179.1699054576
 30
0.0
 11
603.8092791508
 21
179.1288751102
 31
0.0
  0
LINE
  5
C0
  8
0
  6
SLD-SOLID
 62
     7
 10
627.6566802929
 20
197.1565737314
 30
0.0
 11
627.643656678
 21
197.2610606737
 31
0.0
  0
LINE
  5
C1
  8
0
  6
SLD-SOLID
 62
     7
 10
602.5062322091
 20
180.7653299458
 30
0.0
 11
603.7123023938
 21
179.1699054576
 31
0.0
  0
LINE
  5
C2
  8
0
  6
SLD-SOLID
 62
     7
 10
627.643656678
 20
197.2610606737
 30
0.0
 11
626.4375864933
 21
198.8564846962
 31
0.0
  0
ARC
  5
C3
  8
0
  6
SLD-SOLID
 62
     7
 10
604.0380923468
 20
167.1310571322
 30
0.0
 40
12.00000000000014
 50
353.6791486124
 51
91.092599071
  0
ARC
  5
C4
  8
0
  6
SLD-SOLID
 62
     7
 10
639.1374231846
 20
193.6647522148
 30
0.0
 40
11.99999999999999
 50
163.0830555467
 51
260.4965060052
  0
ARC
  5
C5
  8
0
  6
SLD-SOLID
 62
     7
 10
620.9347485739
 20
165.259424598
 30
0.0
 40
5.000000000000065
 50
173.6791486124
 51
217.0878273088
  0
ARC
  5
C6
  8
0
  6
SLD-SOLID
 62
     7
 10
636.3305914187
 20
176.8980681229
 30
0.0
 40
4.999999999999956
 50
37.0878273088
 51
80.4965060052
  0
LINE
  5
C7
  8
0
  6
SLD-SOLID
 62
     7
 10
616.946202464
 20
162.2442333884
 30
0.0
 11
666.1044775914
 21
97.2166276462
 31
0.0
  0
LINE
  5
C8
  8
0
  6
SLD-SOLID
 62
     7
 10
689.4774257611
 20
114.88565718
 30
0.0
 11
640.3191506337
 21
179.9132610596
 31
0.0
  0
ARC
  5
C9
  8
0
  6
SLD-SOLID
 62
     7
 10
670.0930268364
 20
100.2318185
 30
0.0
 40
5.00000000000002
 50
217.0878273088
 51
307.0878273088
  0
ARC
  5
CA
  8
0
  6
SLD-SOLID
 62
     7
 10
685.4888696812
 20
111.8704620248
 30
0.0
 40
4.999999999999999
 50
307.0878273088
 51
37.0878273088
  0
LINE
  5
CB
  8
0
  6
SLD-SOLID
 62
     7
 10
504.3960928391
 20
273.2090345509
 30
0.0
 11
504.3961524437
 21
273.2089674956
 31
0.0
  0
LINE
  5
CC
  8
0
  6
SLD-SOLID
 62
     7
 10
556.7711114357
 20
343.2270727045
 30
0.0
 11
558.7711154889
 21
343.2270727045
 31
0.0
  0
LINE
  5
CD
  8
0
  6
SLD-SOLID
 62
     7
 10
568.7711059521
 20
365.3268507606
 30
0.0
 11
568.7711059521
 21
370.1270661242
 31
0.0
  0
LINE
  5
CE
  8
0
  6
SLD-SOLID
 62
     7
 10
568.7711059521
 20
313.1270698196
 30
0.0
 11
568.7711059521
 21
317.9272926337
 31
0.0
  0
LINE
  5
CF
  8
0
  6
SLD-SOLID
 62
     7
 10
562.0775043438
 20
360.8642957098
 30
0.0
 11
562.0782195996
 21
361.8485919125
 31
0.0
  0
LINE
  5
D0
  8
0
  6
SLD-SOLID
 62
     7
 10
562.8125488232
 20
360.2893791086
 30
0.0
 11
562.0775043438
 21
360.8642957098
 31
0.0
  0
LINE
  5
D1
  8
0
  6
SLD-SOLID
 62
     7
 10
566.2228583764
 20
360.1474902517
 30
0.0
 11
562.8199099968
 21
361.0117874033
 31
0.0
  0
ARC
  5
D2
  8
0
  6
SLD-SOLID
 62
     7
 10
568.9822086511
 20
387.901532749
 30
0.0
 40
16.6076121634915
 50
244.9940321113
 51
247.1156685177
  0
POLYLINE
  5
D3
  8
0
  6
SLD-SOLID
 62
     7
 66
     1
 10
0.0
 20
0.0
 30
0.0
  0
VERTEX
  5
384
  8
0
  6
SLD-SOLID
 62
     7
 10
564.1775249909
 20
371.921642769
 30
0.0
  0
VERTEX
  5
385
  8
0
  6
SLD-SOLID
 62
     7
 10
563.3225559662
 20
372.2673795111
 30
0.0
  0
VERTEX
  5
386
  8
0
  6
SLD-SOLID
 62
     7
 10
562.5239729355
 20
372.6010761148
 30
0.0
  0
SEQEND
  5
387
  8
0
  6
SLD-SOLID
 62
     7
  0
ARC
  5
D4
  8
0
  6
SLD-SOLID
 62
     7
 10
578.0961712636
 20
405.3127883682
 30
0.0
 40
36.17592180564231
 50
247.3718471852
 51
251.0105682691
  0
POLYLINE
  5
D5
  8
0
  6
SLD-SOLID
 62
     7
 66
     1
 10
0.0
 20
0.0
 30
0.0
  0
VERTEX
  5
388
  8
0
  6
SLD-SOLID
 62
     7
 10
562.9164397191
 20
334.2647842056
 30
0.0
  0
VERTEX
  5
389
  8
0
  6
SLD-SOLID
 62
     7
 10
563.1449937294
 20
334.1620854027
 30
0.0
  0
VERTEX
  5
38A
  8
0
  6
SLD-SOLID
 62
     7
 10
563.4004890393
 20
334.1439208872
 30
0.0
  0
SEQEND
  5
38B
  8
0
  6
SLD-SOLID
 62
     7
  0
POLYLINE
  5
D6
  8
0
  6
SLD-SOLID
 62
     7
 66
     1
 10
0.0
 20
0.0
 30
0.0
  0
VERTEX
  5
38C
  8
0
  6
SLD-SOLID
 62
     7
 10
564.5308613251
 20
334.6645227558
 30
0.0
  0
VERTEX
  5
38D
  8
0
  6
SLD-SOLID
 62
     7
 10
563.9556168984
 20
335.1425520069
 30
0.0
  0
VERTEX
  5
38E
  8
0
  6
SLD-SOLID
 62
     7
 10
563.8076185654
 20
335.2173260338
 30
0.0
  0
SEQEND
  5
38F
  8
0
  6
SLD-SOLID
 62
     7
  0
LINE
  5
D7
  8
0
  6
SLD-SOLID
 62
     7
 10
565.8277391861
 20
333.4402582533
 30
0.0
 11
564.5308613251
 21
334.6645227558
 31
0.0
  0
LINE
  5
D8
  8
0
  6
SLD-SOLID
 62
     7
 10
565.4764592122
 20
336.4316514618
 30
0.0
 11
566.2090599011
 21
336.4973506815
 31
0.0
  0
LINE
  5
D9
  8
0
  6
SLD-SOLID
 62
     7
 10
565.4892444085
 20
334.8689964897
 30
0.0
 11
565.4764592122
 21
336.4316514618
 31
0.0
  0
POLYLINE
  5
DA
  8
0
  6
SLD-SOLID
 62
     7
 66
     1
 10
0.0
 20
0.0
 30
0.0
  0
VERTEX
  5
390
  8
0
  6
SLD-SOLID
 62
     7
 10
563.1777762841
 20
336.1906549818
 30
0.0
  0
VERTEX
  5
391
  8
0
  6
SLD-SOLID
 62
     7
 10
563.6955916356
 20
336.1388585455
 30
0.0
  0
VERTEX
  5
392
  8
0
  6
SLD-SOLID
 62
     7
 10
564.0115856598
 20
336.0087118036
 30
0.0
  0
SEQEND
  5
393
  8
0
  6
SLD-SOLID
 62
     7
  0
ARC
  5
DB
  8
0
  6
SLD-SOLID
 62
     7
 10
563.3900279444
 20
334.7717396798
 30
0.0
 40
1.43470254808831
 50
98.5076366484
 51
182.7302272653
  0
ARC
  5
DC
  8
0
  6
SLD-SOLID
 62
     7
 10
563.2334120579
 20
334.6044482426
 30
0.0
 40
1.280287752589395
 50
175.5672689821
 51
239.3445902631
  0
POLYLINE
  5
DD
  8
0
  6
SLD-SOLID
 62
     7
 66
     1
 10
0.0
 20
0.0
 30
0.0
  0
VERTEX
  5
394
  8
0
  6
SLD-SOLID
 62
     7
 10
562.717866845
 20
313.7759110815
 30
0.0
  0
VERTEX
  5
395
  8
0
  6
SLD-SOLID
 62
     7
 10
562.7244531582
 20
313.7396863586
 30
0.0
  0
VERTEX
  5
396
  8
0
  6
SLD-SOLID
 62
     7
 10
562.7437650631
 20
313.7092656381
 30
0.0
  0
VERTEX
  5
397
  8
0
  6
SLD-SOLID
 62
     7
 10
562.8207146595
 20
313.669740308
 30
0.0
  0
VERTEX
  5
398
  8
0
  6
SLD-SOLID
 62
     7
 10
562.9376291703
 20
313.6588699109
 30
0.0
  0
VERTEX
  5
399
  8
0
  6
SLD-SOLID
 62
     7
 10
563.0860149334
 20
313.679634679
 30
0.0
  0
SEQEND
  5
39A
  8
0
  6
SLD-SOLID
 62
     7
  0
LINE
  5
DE
  8
0
  6
SLD-SOLID
 62
     7
 10
563.6273443173
 20
313.9686725027
 30
0.0
 11
563.6003434132
 21
314.0539220459
 31
0.0
  0
POLYLINE
  5
DF
  8
0
  6
SLD-SOLID
 62
     7
 66
     1
 10
0.0
 20
0.0
 30
0.0
  0
VERTEX
  5
39B
  8
0
  6
SLD-SOLID
 62
     7
 10
564.9604618023
 20
314.2903215177
 30
0.0
  0
VERTEX
  5
39C
  8
0
  6
SLD-SOLID
 62
     7
 10
565.2058541249
 20
314.408308912
 30
0.0
  0
VERTEX
  5
39D
  8
0
  6
SLD-SOLID
 62
     7
 10
565.4193281601
 20
314.5466140396
 30
0.0
  0
VERTEX
  5
39E
  8
0
  6
SLD-SOLID
 62
     7
 10
565.499645419
 20
314.6203002817
 30
0.0
  0
VERTEX
  5
39F
  8
0
  6
SLD-SOLID
 62
     7
 10
565.5565380524
 20
314.6928689367
 30
0.0
  0
VERTEX
  5
3A0
  8
0
  6
SLD-SOLID
 62
     7
 10
565.5983209084
 20
314.8238203413
 30
0.0
  0
SEQEND
  5
3A1
  8
0
  6
SLD-SOLID
 62
     7
  0
LINE
  5
E0
  8
0
  6
SLD-SOLID
 62
     7
 10
564.9497329663
 20
313.9483324177
 30
0.0
 11
564.9604618023
 21
314.2903215177
 31
0.0
  0
POLYLINE
  5
E1
  8
0
  6
SLD-SOLID
 62
     7
 66
     1
 10
0.0
 20
0.0
 30
0.0
  0
VERTEX
  5
3A2
  8
0
  6
SLD-SOLID
 62
     7
 10
564.974021859
 20
315.3004786856
 30
0.0
  0
VERTEX
  5
3A3
  8
0
  6
SLD-SOLID
 62
     7
 10
565.1123940419
 20
315.3470969684
 30
0.0
  0
VERTEX
  5
3A4
  8
0
  6
SLD-SOLID
 62
     7
 10
565.2496039341
 20
315.3858548886
 30
0.0
  0
VERTEX
  5
3A5
  8
0
  6
SLD-SOLID
 62
     7
 10
565.513980336
 20
315.4373234994
 30
0.0
  0
VERTEX
  5
3A6
  8
0
  6
SLD-SOLID
 62
     7
 10
565.7530843686
 20
315.4506749398
 30
0.0
  0
VERTEX
  5
3A7
  8
0
  6
SLD-SOLID
 62
     7
 10
565.9583627652
 20
315.4293960816
 30
0.0
  0
VERTEX
  5
3A8
  8
0
  6
SLD-SOLID
 62
     7
 10
566.1226629685
 20
315.376735378
 30
0.0
  0
VERTEX
  5
3A9
  8
0
  6
SLD-SOLID
 62
     7
 10
566.2393986653
 20
315.2952930815
 30
0.0
  0
VERTEX
  5
3AA
  8
0
  6
SLD-SOLID
 62
     7
 10
566.2745654057
 20
315.2010581381
 30
0.0
  0
SEQEND
  5
3AB
  8
0
  6
SLD-SOLID
 62
     7
  0
ARC
  5
E2
  8
0
  6
SLD-SOLID
 62
     7
 10
565.4802267885
 20
313.5344448941
 30
0.0
 40
1.837149635517017
 50
105.9940907638
 51
147.6542221064
  0
ARC
  5
E3
  8
0
  6
SLD-SOLID
 62
     7
 10
563.5119606922
 20
313.5055276899
 30
0.0
 40
1.094088848712247
 50
67.642270565
 51
115.3007026475
  0
ARC
  5
E4
  8
0
  6
SLD-SOLID
 62
     7
 10
563.4261613049
 20
312.9789852487
 30
0.0
 40
1.563026592701981
 50
104.1379301112
 51
160.0059352406
  0
LINE
  5
E5
  8
0
  6
SLD-SOLID
 62
     7
 10
562.0042204331
 20
313.4104377515
 30
0.0
 11
561.95734138
 21
313.5134196765
 31
0.0
  0
LINE
  5
E6
  8
0
  6
SLD-SOLID
 62
     7
 10
558.7711154889
 20
309.127069164
 30
0.0
 11
558.7711154889
 21
374.1270742304
 31
0.0
  0
LINE
  5
E7
  8
0
  6
SLD-SOLID
 62
     7
 10
563.4041845272
 20
334.1416559107
 30
0.0
 11
563.3935749005
 21
333.3374253399
 31
0.0
  0
ARC
  5
E8
  8
0
  6
SLD-SOLID
 62
     7
 10
563.2388057691
 20
334.6094958496
 30
0.0
 40
1.281451078190878
 50
175.8904834326
 51
276.9369166898
  0
ARC
  5
E9
  8
0
  6
SLD-SOLID
 62
     7
 10
563.3940862456
 20
334.7697835931
 30
0.0
 40
1.435069728237266
 50
98.5200905718
 51
182.7335361923
  0
ARC
  5
EA
  8
0
  6
SLD-SOLID
 62
     7
 10
563.1448662394
 20
333.7849985756
 30
0.0
 40
2.404295955197426
 50
39.4847786778
 51
89.1276350327
  0
LINE
  5
EB
  8
0
  6
SLD-SOLID
 62
     7
 10
565.0004863213
 20
335.3138259537
 30
0.0
 11
565.4929398964
 21
334.8668805248
 31
0.0
  0
LINE
  5
EC
  8
0
  6
SLD-SOLID
 62
     7
 10
565.4929398964
 20
334.8668805248
 30
0.0
 11
565.4801845025
 21
336.4300421364
 31
0.0
  0
LINE
  5
ED
  8
0
  6
SLD-SOLID
 62
     7
 10
565.4801845025
 20
336.4300421364
 30
0.0
 11
566.2127553891
 21
336.4957264549
 31
0.0
  0
LINE
  5
EE
  8
0
  6
SLD-SOLID
 62
     7
 10
566.2127553891
 20
336.4957264549
 30
0.0
 11
566.2102817963
 21
333.4713718779
 31
0.0
  0
LINE
  5
EF
  8
0
  6
SLD-SOLID
 62
     7
 10
566.2102817963
 20
333.4713718779
 30
0.0
 11
565.8314644764
 21
333.4376952536
 31
0.0
  0
LINE
  5
F0
  8
0
  6
SLD-SOLID
 62
     7
 10
565.8314644764
 20
333.4376952536
 30
0.0
 11
564.5345866154
 21
334.6623769886
 31
0.0
  0
ARC
  5
F1
  8
0
  6
SLD-SOLID
 62
     7
 10
563.1217015166
 20
333.6020680346
 30
0.0
 40
1.766493526857107
 50
36.8866373488
 51
85.6900238754
  0
ARC
  5
F2
  8
0
  6
SLD-SOLID
 62
     7
 10
563.3264100875
 20
334.7425387806
 30
0.0
 40
0.6251815704409344
 50
96.6088420607
 51
182.6414939212
  0
ARC
  5
F3
  8
0
  6
SLD-SOLID
 62
     7
 10
563.2921242631
 20
334.7212001576
 30
0.0
 40
0.5902787790491857
 50
180.7254653162
 51
280.9436190289
  0
LINE
  5
F4
  8
0
  6
SLD-SOLID
 62
     7
 10
563.181471772
 20
336.1890158541
 30
0.0
 11
563.1777762841
 21
336.1906549818
 31
0.0
  0
LINE
  5
F5
  8
0
  6
SLD-SOLID
 62
     7
 10
561.9606494378
 20
334.7013435251
 30
0.0
 11
561.9569539498
 21
334.7033998854
 31
0.0
  0
LINE
  5
F6
  8
0
  6
SLD-SOLID
 62
     7
 10
563.4041845272
 20
334.1416559107
 30
0.0
 11
563.4004890393
 21
334.1439208872
 31
0.0
  0
LINE
  5
F7
  8
0
  6
SLD-SOLID
 62
     7
 10
565.8314644764
 20
333.4376952536
 30
0.0
 11
565.8277391861
 21
333.4402582533
 31
0.0
  0
LINE
  5
F8
  8
0
  6
SLD-SOLID
 62
     7
 10
566.2127553891
 20
336.4957264549
 30
0.0
 11
566.2090599011
 21
336.4973506815
 31
0.0
  0
LINE
  5
F9
  8
0
  6
SLD-SOLID
 62
     7
 10
565.4801845025
 20
336.4300421364
 30
0.0
 11
565.4764592122
 21
336.4316514618
 31
0.0
  0
LINE
  5
FA
  8
0
  6
SLD-SOLID
 62
     7
 10
568.7711059521
 20
363.4924731142
 30
0.0
 11
568.7711059521
 21
319.7616702802
 31
0.0
  0
LINE
  5
FB
  8
0
  6
SLD-SOLID
 62
     7
 10
562.0812296341
 20
360.8700326569
 30
0.0
 11
562.0819150875
 21
361.8546119816
 31
0.0
  0
LINE
  5
FC
  8
0
  6
SLD-SOLID
 62
     7
 10
562.0819150875
 20
361.8546119816
 30
0.0
 11
566.2255703877
 21
360.8026794083
 31
0.0
  0
LINE
  5
FD
  8
0
  6
SLD-SOLID
 62
     7
 10
566.2255703877
 20
360.8026794083
 30
0.0
 11
566.2265836667
 21
360.1533166058
 31
0.0
  0
LINE
  5
FE
  8
0
  6
SLD-SOLID
 62
     7
 10
566.2265836667
 20
360.1533166058
 30
0.0
 11
562.8236352871
 21
361.0176137573
 31
0.0
  0
LINE
  5
FF
  8
0
  6
SLD-SOLID
 62
     7
 10
562.8236352871
 20
361.0176137573
 30
0.0
 11
562.8162741135
 21
360.2949968464
 31
0.0
  0
LINE
  5
100
  8
0
  6
SLD-SOLID
 62
     7
 10
562.8162741135
 20
360.2949968464
 30
0.0
 11
562.0812296341
 21
360.8700326569
 31
0.0
  0
LINE
  5
101
  8
0
  6
SLD-SOLID
 62
     7
 10
562.0812296341
 20
360.8700326569
 30
0.0
 11
562.0775043438
 21
360.8642957098
 31
0.0
  0
LINE
  5
102
  8
0
  6
SLD-SOLID
 62
     7
 10
562.8162741135
 20
360.2949968464
 30
0.0
 11
562.8125488232
 21
360.2893791086
 31
0.0
  0
LINE
  5
103
  8
0
  6
SLD-SOLID
 62
     7
 10
562.0819150875
 20
361.8546119816
 30
0.0
 11
562.0782195996
 21
361.8485919125
 31
0.0
  0
LINE
  5
104
  8
0
  6
SLD-SOLID
 62
     7
 10
566.2265836667
 20
360.1533166058
 30
0.0
 11
566.2228583764
 21
360.1474902517
 31
0.0
  0
ARC
  5
105
  8
0
  6
SLD-SOLID
 62
     7
 10
568.0321448991
 20
364.3691429439
 30
0.0
 40
1.195962833651683
 50
358.7575260064
 51
51.0387846982
  0
ARC
  5
106
  8
0
  6
SLD-SOLID
 62
     7
 10
568.8054897824
 20
365.3260690078
 30
0.0
 40
0.0343927161777268
 50
178.6975441065
 51
231.6691516274
  0
ARC
  5
107
  8
0
  6
SLD-SOLID
 62
     7
 10
568.0321472984
 20
318.8849920884
 30
0.0
 40
1.195960616342409
 50
308.9611533824
 51
1.2428769963
  0
ARC
  5
108
  8
0
  6
SLD-SOLID
 62
     7
 10
568.8051632191
 20
317.9282207392
 30
0.0
 40
0.0340699107091215
 50
128.0604596957
 51
181.5609992613
  0
ARC
  5
109
  8
0
  6
SLD-SOLID
 62
     7
 10
577.3715836851
 20
387.5080688071
 30
0.0
 40
19.38058445035439
 50
245.1502418184
 51
245.8415917355
  0
LINE
  5
10A
  8
0
  6
SLD-SOLID
 62
     7
 10
569.4398700665
 20
369.8248854763
 30
0.0
 11
586.8336080979
 21
361.9436464197
 31
0.0
  0
LINE
  5
10B
  8
0
  6
SLD-SOLID
 62
     7
 10
586.8336080979
 20
361.9436464197
 30
0.0
 11
588.1814777325
 21
361.3354108221
 31
0.0
  0
POLYLINE
  5
10C
  8
0
  6
SLD-SOLID
 62
     7
 66
     1
 10
0.0
 20
0.0
 30
0.0
  0
VERTEX
  5
3AC
  8
0
  6
SLD-SOLID
 62
     7
 10
563.0481063794
 20
314.4864878542
 30
0.0
  0
VERTEX
  5
3AD
  8
0
  6
SLD-SOLID
 62
     7
 10
563.0462586354
 20
314.4905782229
 30
0.0
  0
VERTEX
  5
3AE
  8
0
  6
SLD-SOLID
 62
     7
 10
563.0443810891
 20
314.4946685917
 30
0.0
  0
SEQEND
  5
3AF
  8
0
  6
SLD-SOLID
 62
     7
  0
ARC
  5
10D
  8
0
  6
SLD-SOLID
 62
     7
 10
563.548963506
 20
312.8390110247
 30
0.0
 40
1.721928501738011
 50
106.9100412933
 51
157.2442097842
  0
POLYLINE
  5
10E
  8
0
  6
SLD-SOLID
 62
     7
 66
     1
 10
0.0
 20
0.0
 30
0.0
  0
VERTEX
  5
3B0
  8
0
  6
SLD-SOLID
 62
     7
 10
561.9610666703
 20
313.5050601251
 30
0.0
  0
VERTEX
  5
3B1
  8
0
  6
SLD-SOLID
 62
     7
 10
561.9592189263
 20
313.5092399008
 30
0.0
  0
VERTEX
  5
3B2
  8
0
  6
SLD-SOLID
 62
     7
 10
561.95734138
 20
313.5134196765
 30
0.0
  0
SEQEND
  5
3B3
  8
0
  6
SLD-SOLID
 62
     7
  0
LINE
  5
10F
  8
0
  6
SLD-SOLID
 62
     7
 10
563.0897104214
 20
313.6712006218
 30
0.0
 11
563.0812763642
 21
313.3350900299
 31
0.0
  0
POLYLINE
  5
110
  8
0
  6
SLD-SOLID
 62
     7
 66
     1
 10
0.0
 20
0.0
 30
0.0
  0
VERTEX
  5
3B4
  8
0
  6
SLD-SOLID
 62
     7
 10
563.0812763642
 20
313.3350900299
 30
0.0
  0
VERTEX
  5
3B5
  8
0
  6
SLD-SOLID
 62
     7
 10
562.685054488
 20
313.2368913776
 30
0.0
  0
VERTEX
  5
3B6
  8
0
  6
SLD-SOLID
 62
     7
 10
562.345606036
 20
313.212334264
 30
0.0
  0
SEQEND
  5
3B7
  8
0
  6
SLD-SOLID
 62
     7
  0
POLYLINE
  5
111
  8
0
  6
SLD-SOLID
 62
     7
 66
     1
 10
0.0
 20
0.0
 30
0.0
  0
VERTEX
  5
3B8
  8
0
  6
SLD-SOLID
 62
     7
 10
562.345606036
 20
313.212334264
 30
0.0
  0
VERTEX
  5
3B9
  8
0
  6
SLD-SOLID
 62
     7
 10
562.0541691254
 20
313.3003554232
 30
0.0
  0
VERTEX
  5
3BA
  8
0
  6
SLD-SOLID
 62
     7
 10
561.9610666703
 20
313.5050601251
 30
0.0
  0
SEQEND
  5
3BB
  8
0
  6
SLD-SOLID
 62
     7
  0
ARC
  5
112
  8
0
  6
SLD-SOLID
 62
     7
 10
563.5147208797
 20
313.5310652549
 30
0.0
 40
1.063278625428695
 50
66.9011776519
 51
116.0302103151
  0
ARC
  5
113
  8
0
  6
SLD-SOLID
 62
     7
 10
565.4838728812
 20
313.5265661073
 30
0.0
 40
1.836873362148757
 50
105.9939910285
 51
147.663213506
  0
POLYLINE
  5
114
  8
0
  6
SLD-SOLID
 62
     7
 66
     1
 10
0.0
 20
0.0
 30
0.0
  0
VERTEX
  5
3BC
  8
0
  6
SLD-SOLID
 62
     7
 10
564.9777471493
 20
315.292335201
 30
0.0
  0
VERTEX
  5
3BD
  8
0
  6
SLD-SOLID
 62
     7
 10
565.2533292244
 20
315.377711404
 30
0.0
  0
VERTEX
  5
3BE
  8
0
  6
SLD-SOLID
 62
     7
 10
565.517675824
 20
315.4291651136
 30
0.0
  0
VERTEX
  5
3BF
  8
0
  6
SLD-SOLID
 62
     7
 10
565.7568096589
 20
315.4424942023
 30
0.0
  0
VERTEX
  5
3C0
  8
0
  6
SLD-SOLID
 62
     7
 10
565.9620582531
 20
315.4211855418
 30
0.0
  0
VERTEX
  5
3C1
  8
0
  6
SLD-SOLID
 62
     7
 10
566.1263882588
 20
315.3684875853
 30
0.0
  0
VERTEX
  5
3C2
  8
0
  6
SLD-SOLID
 62
     7
 10
566.2431239556
 20
315.2870080358
 30
0.0
  0
VERTEX
  5
3C3
  8
0
  6
SLD-SOLID
 62
     7
 10
566.3285970162
 20
315.0578505284
 30
0.0
  0
SEQEND
  5
3C4
  8
0
  6
SLD-SOLID
 62
     7
  0
ARC
  5
115
  8
0
  6
SLD-SOLID
 62
     7
 10
564.6155790413
 20
315.7600349531
 30
0.0
 40
1.851349115834245
 50
280.5156635886
 51
337.7107503925
  0
LINE
  5
116
  8
0
  6
SLD-SOLID
 62
     7
 10
564.9534582566
 20
313.9397791512
 30
0.0
 11
564.9641572903
 21
314.2818725593
 31
0.0
  0
POLYLINE
  5
117
  8
0
  6
SLD-SOLID
 62
     7
 66
     1
 10
0.0
 20
0.0
 30
0.0
  0
VERTEX
  5
3C5
  8
0
  6
SLD-SOLID
 62
     7
 10
564.9641572903
 20
314.2818725593
 30
0.0
  0
VERTEX
  5
3C6
  8
0
  6
SLD-SOLID
 62
     7
 10
565.2095794152
 20
314.3998599536
 30
0.0
  0
VERTEX
  5
3C7
  8
0
  6
SLD-SOLID
 62
     7
 10
565.4230236481
 20
314.538187433
 30
0.0
  0
VERTEX
  5
3C8
  8
0
  6
SLD-SOLID
 62
     7
 10
565.5033409069
 20
314.6118736751
 30
0.0
  0
VERTEX
  5
3C9
  8
0
  6
SLD-SOLID
 62
     7
 10
565.5602633427
 20
314.684479583
 30
0.0
  0
VERTEX
  5
3CA
  8
0
  6
SLD-SOLID
 62
     7
 10
565.6020461987
 20
314.8154533393
 30
0.0
  0
SEQEND
  5
3CB
  8
0
  6
SLD-SOLID
 62
     7
  0
POLYLINE
  5
118
  8
0
  6
SLD-SOLID
 62
     7
 66
     1
 10
0.0
 20
0.0
 30
0.0
  0
VERTEX
  5
3CC
  8
0
  6
SLD-SOLID
 62
     7
 10
565.6020461987
 20
314.8154607899
 30
0.0
  0
VERTEX
  5
3CD
  8
0
  6
SLD-SOLID
 62
     7
 10
565.5608593892
 20
314.9157530553
 30
0.0
  0
VERTEX
  5
3CE
  8
0
  6
SLD-SOLID
 62
     7
 10
565.4296397637
 20
314.969017256
 30
0.0
  0
VERTEX
  5
3CF
  8
0
  6
SLD-SOLID
 62
     7
 10
565.335196204
 20
314.9750075228
 30
0.0
  0
VERTEX
  5
3D0
  8
0
  6
SLD-SOLID
 62
     7
 10
565.2277588318
 20
314.9655378348
 30
0.0
  0
VERTEX
  5
3D1
  8
0
  6
SLD-SOLID
 62
     7
 10
564.9858235787
 20
314.9016193039
 30
0.0
  0
SEQEND
  5
3D2
  8
0
  6
SLD-SOLID
 62
     7
  0
ARC
  5
119
  8
0
  6
SLD-SOLID
 62
     7
 10
565.2058118254
 20
314.0124722023
 30
0.0
 40
0.9159570934179222
 50
103.8967565784
 51
167.8731711555
  0
LINE
  5
11A
  8
0
  6
SLD-SOLID
 62
     7
 10
564.3102943371
 20
314.2048931605
 30
0.0
 11
563.6310696076
 21
313.9602682478
 31
0.0
  0
POLYLINE
  5
11B
  8
0
  6
SLD-SOLID
 62
     7
 66
     1
 10
0.0
 20
0.0
 30
0.0
  0
VERTEX
  5
3D3
  8
0
  6
SLD-SOLID
 62
     7
 10
563.6310696076
 20
313.9602682478
 30
0.0
  0
VERTEX
  5
3D4
  8
0
  6
SLD-SOLID
 62
     7
 10
563.5990023087
 20
314.0615886933
 30
0.0
  0
VERTEX
  5
3D5
  8
0
  6
SLD-SOLID
 62
     7
 10
563.5165988873
 20
314.1406021006
 30
0.0
  0
VERTEX
  5
3D6
  8
0
  6
SLD-SOLID
 62
     7
 10
563.4408413838
 20
314.1608304269
 30
0.0
  0
VERTEX
  5
3D7
  8
0
  6
SLD-SOLID
 62
     7
 10
563.3470236729
 20
314.1636541969
 30
0.0
  0
VERTEX
  5
3D8
  8
0
  6
SLD-SOLID
 62
     7
 10
563.2353245686
 20
314.148358155
 30
0.0
  0
VERTEX
  5
3D9
  8
0
  6
SLD-SOLID
 62
     7
 10
563.1750940751
 20
314.1329503543
 30
0.0
  0
VERTEX
  5
3DA
  8
0
  6
SLD-SOLID
 62
     7
 10
563.113611884
 20
314.1129678971
 30
0.0
  0
SEQEND
  5
3DB
  8
0
  6
SLD-SOLID
 62
     7
  0
ARC
  5
11C
  8
0
  6
SLD-SOLID
 62
     7
 10
563.2082818486
 20
313.6103229132
 30
0.0
 40
0.5114825334796779
 50
100.6663411703
 51
162.098396129
  0
POLYLINE
  5
11D
  8
0
  6
SLD-SOLID
 62
     7
 66
     1
 10
0.0
 20
0.0
 30
0.0
  0
VERTEX
  5
3DC
  8
0
  6
SLD-SOLID
 62
     7
 10
562.721562333
 20
313.7675440795
 30
0.0
  0
VERTEX
  5
3DD
  8
0
  6
SLD-SOLID
 62
     7
 10
562.7474903534
 20
313.7008837349
 30
0.0
  0
VERTEX
  5
3DE
  8
0
  6
SLD-SOLID
 62
     7
 10
562.8244101475
 20
313.6613360531
 30
0.0
  0
VERTEX
  5
3DF
  8
0
  6
SLD-SOLID
 62
     7
 10
562.9413544606
 20
313.6504507548
 30
0.0
  0
VERTEX
  5
3E0
  8
0
  6
SLD-SOLID
 62
     7
 10
563.012671418
 20
313.6571711785
 30
0.0
  0
VERTEX
  5
3E1
  8
0
  6
SLD-SOLID
 62
     7
 10
563.0897104214
 20
313.6712006218
 30
0.0
  0
SEQEND
  5
3E2
  8
0
  6
SLD-SOLID
 62
     7
  0
POLYLINE
  5
11E
  8
0
  6
SLD-SOLID
 62
     7
 66
     1
 10
0.0
 20
0.0
 30
0.0
  0
VERTEX
  5
3E3
  8
0
  6
SLD-SOLID
 62
     7
 10
564.9777471493
 20
315.292335201
 30
0.0
  0
VERTEX
  5
3E4
  8
0
  6
SLD-SOLID
 62
     7
 10
564.975869603
 20
315.296403218
 30
0.0
  0
VERTEX
  5
3E5
  8
0
  6
SLD-SOLID
 62
     7
 10
564.974021859
 20
315.3004786856
 30
0.0
  0
SEQEND
  5
3E6
  8
0
  6
SLD-SOLID
 62
     7
  0
POLYLINE
  5
11F
  8
0
  6
SLD-SOLID
 62
     7
 66
     1
 10
0.0
 20
0.0
 30
0.0
  0
VERTEX
  5
3E7
  8
0
  6
SLD-SOLID
 62
     7
 10
563.9318644474
 20
314.5091003663
 30
0.0
  0
VERTEX
  5
3E8
  8
0
  6
SLD-SOLID
 62
     7
 10
563.9299869011
 20
314.5132354385
 30
0.0
  0
VERTEX
  5
3E9
  8
0
  6
SLD-SOLID
 62
     7
 10
563.9281391571
 20
314.5173705108
 30
0.0
  0
SEQEND
  5
3EA
  8
0
  6
SLD-SOLID
 62
     7
  0
LINE
  5
120
  8
0
  6
SLD-SOLID
 62
     7
 10
563.6310696076
 20
313.9602682478
 30
0.0
 11
563.6273443173
 21
313.9686725027
 31
0.0
  0
POLYLINE
  5
121
  8
0
  6
SLD-SOLID
 62
     7
 66
     1
 10
0.0
 20
0.0
 30
0.0
  0
VERTEX
  5
3EB
  8
0
  6
SLD-SOLID
 62
     7
 10
565.6020461987
 20
314.8154607899
 30
0.0
  0
VERTEX
  5
3EC
  8
0
  6
SLD-SOLID
 62
     7
 10
565.6001686524
 20
314.8196405656
 30
0.0
  0
VERTEX
  5
3ED
  8
0
  6
SLD-SOLID
 62
     7
 10
565.5983209084
 20
314.8238203413
 30
0.0
  0
SEQEND
  5
3EE
  8
0
  6
SLD-SOLID
 62
     7
  0
LINE
  5
122
  8
0
  6
SLD-SOLID
 62
     7
 10
563.0897104214
 20
313.6712006218
 30
0.0
 11
563.0860149334
 21
313.679634679
 31
0.0
  0
LINE
  5
123
  8
0
  6
SLD-SOLID
 62
     7
 10
564.9641572903
 20
314.2818725593
 30
0.0
 11
564.9604618023
 21
314.2903215177
 31
0.0
  0
POLYLINE
  5
124
  8
0
  6
SLD-SOLID
 62
     7
 66
     1
 10
0.0
 20
0.0
 30
0.0
  0
VERTEX
  5
3EF
  8
0
  6
SLD-SOLID
 62
     7
 10
564.9534582566
 20
313.9397791512
 30
0.0
  0
VERTEX
  5
3F0
  8
0
  6
SLD-SOLID
 62
     7
 10
564.9516105126
 20
313.9440557844
 30
0.0
  0
VERTEX
  5
3F1
  8
0
  6
SLD-SOLID
 62
     7
 10
564.9497329663
 20
313.9483324177
 30
0.0
  0
SEQEND
  5
3F2
  8
0
  6
SLD-SOLID
 62
     7
  0
LINE
  5
125
  8
0
  6
SLD-SOLID
 62
     7
 10
588.7711166809
 20
357.1947357542
 30
0.0
 11
588.7711166809
 21
326.0594001896
 31
0.0
  0
LINE
  5
126
  8
0
  6
SLD-SOLID
 62
     7
 10
588.7711166809
 20
326.0594001896
 30
0.0
 11
588.7711166809
 21
322.7736568934
 31
0.0
  0
LINE
  5
127
  8
0
  6
SLD-SOLID
 62
     7
 10
588.7711166809
 20
360.4207179434
 30
0.0
 11
588.7711166809
 21
357.1947357542
 31
0.0
  0
ARC
  5
128
  8
0
  6
SLD-SOLID
 62
     7
 10
587.7676942305
 20
360.4212772758
 30
0.0
 40
1.003422606380351
 50
359.9680619213
 51
65.6460653102
  0
LINE
  5
129
  8
0
  6
SLD-SOLID
 62
     7
 10
556.7711114357
 20
342.8770742304
 30
0.0
 11
558.7711154889
 21
342.8770742304
 31
0.0
  0
LINE
  5
12A
  8
0
  6
SLD-SOLID
 62
     7
 10
558.7711154889
 20
340.3421631939
 30
0.0
 11
556.7711114357
 21
340.3770617134
 31
0.0
  0
LINE
  5
12B
  8
0
  6
SLD-SOLID
 62
     7
 10
558.7711154889
 20
337.3660287744
 30
0.0
 11
556.7711114357
 21
337.3697242624
 31
0.0
  0
LINE
  5
12C
  8
0
  6
SLD-SOLID
 62
     7
 10
562.5276684235
 20
372.6103446371
 30
0.0
 11
562.5239729355
 21
372.6010761148
 31
0.0
  0
POLYLINE
  5
12D
  8
0
  6
SLD-SOLID
 62
     7
 66
     1
 10
0.0
 20
0.0
 30
0.0
  0
VERTEX
  5
3F3
  8
0
  6
SLD-SOLID
 62
     7
 10
564.1812502812
 20
371.9309112913
 30
0.0
  0
VERTEX
  5
3F4
  8
0
  6
SLD-SOLID
 62
     7
 10
563.3262812565
 20
372.2766480333
 30
0.0
  0
VERTEX
  5
3F5
  8
0
  6
SLD-SOLID
 62
     7
 10
562.5276684235
 20
372.6103446371
 30
0.0
  0
SEQEND
  5
3F6
  8
0
  6
SLD-SOLID
 62
     7
  0
POLYLINE
  5
12E
  8
0
  6
SLD-SOLID
 62
     7
 66
     1
 10
0.0
 20
0.0
 30
0.0
  0
VERTEX
  5
3F7
  8
0
  6
SLD-SOLID
 62
     7
 10
564.1812502812
 20
371.9309112913
 30
0.0
  0
VERTEX
  5
3F8
  8
0
  6
SLD-SOLID
 62
     7
 10
564.1793727349
 20
371.9262770302
 30
0.0
  0
VERTEX
  5
3F9
  8
0
  6
SLD-SOLID
 62
     7
 10
564.1775249909
 20
371.921642769
 30
0.0
  0
SEQEND
  5
3FA
  8
0
  6
SLD-SOLID
 62
     7
  0
ARC
  5
12F
  8
0
  6
SLD-SOLID
 62
     7
 10
578.0902972535
 20
405.2974224209
 30
0.0
 40
36.14949035104923
 50
247.3708681083
 51
251.0122422203
  0
ARC
  5
130
  8
0
  6
SLD-SOLID
 62
     7
 10
567.4243387253
 20
384.3930717577
 30
0.0
 40
12.75970369732471
 50
244.6717209564
 51
247.4331877281
  0
ARC
  5
131
  8
0
  6
SLD-SOLID
 62
     7
 10
601.7205807294
 20
465.06704945
 30
0.0
 40
100.3843642021061
 50
248.7300639383
 51
248.9069802267
  0
POLYLINE
  5
132
  8
0
  6
SLD-SOLID
 62
     7
 66
     1
 10
0.0
 20
0.0
 30
0.0
  0
VERTEX
  5
3FB
  8
0
  6
SLD-SOLID
 62
     7
 10
565.3049170445
 20
371.5206972248
 30
0.0
  0
VERTEX
  5
3FC
  8
0
  6
SLD-SOLID
 62
     7
 10
564.7408186863
 20
371.7430225498
 30
0.0
  0
VERTEX
  5
3FD
  8
0
  6
SLD-SOLID
 62
     7
 10
564.1507327031
 20
371.9783565886
 30
0.0
  0
SEQEND
  5
3FE
  8
0
  6
SLD-SOLID
 62
     7
  0
POLYLINE
  5
133
  8
0
  6
SLD-SOLID
 62
     7
 66
     1
 10
0.0
 20
0.0
 30
0.0
  0
VERTEX
  5
3FF
  8
0
  6
SLD-SOLID
 62
     7
 10
564.1507327031
 20
371.9783565886
 30
0.0
  0
VERTEX
  5
400
  8
0
  6
SLD-SOLID
 62
     7
 10
563.280475087
 20
372.3285040743
 30
0.0
  0
VERTEX
  5
401
  8
0
  6
SLD-SOLID
 62
     7
 10
563.0751966904
 20
372.4120548851
 30
0.0
  0
VERTEX
  5
402
  8
0
  6
SLD-SOLID
 62
     7
 10
562.8947734307
 20
372.4861285574
 30
0.0
  0
VERTEX
  5
403
  8
0
  6
SLD-SOLID
 62
     7
 10
562.762421317
 20
372.5407562143
 30
0.0
  0
VERTEX
  5
404
  8
0
  6
SLD-SOLID
 62
     7
 10
562.7274631928
 20
372.5552103407
 30
0.0
  0
VERTEX
  5
405
  8
0
  6
SLD-SOLID
 62
     7
 10
562.716942973
 20
372.5594720728
 30
0.0
  0
SEQEND
  5
406
  8
0
  6
SLD-SOLID
 62
     7
  0
ARC
  5
134
  8
0
  6
SLD-SOLID
 62
     7
 10
587.2074676623
 20
430.688385179
 30
0.0
 40
63.07738373191516
 50
247.1536269823
 51
248.6129517609
  0
ARC
  5
135
  8
0
  6
SLD-SOLID
 62
     7
 10
587.216695089
 20
428.450253757
 30
0.0
 40
61.00231457067903
 50
247.8382780971
 51
249.2397731947
  0
POLYLINE
  5
136
  8
0
  6
SLD-SOLID
 62
     7
 66
     1
 10
0.0
 20
0.0
 30
0.0
  0
VERTEX
  5
407
  8
0
  6
SLD-SOLID
 62
     7
 10
566.3284778069
 20
371.114893902
 30
0.0
  0
VERTEX
  5
408
  8
0
  6
SLD-SOLID
 62
     7
 10
566.3266002606
 20
371.1102447397
 30
0.0
  0
VERTEX
  5
409
  8
0
  6
SLD-SOLID
 62
     7
 10
566.3247525166
 20
371.1056104786
 30
0.0
  0
SEQEND
  5
40A
  8
0
  6
SLD-SOLID
 62
     7
  0
POLYLINE
  5
137
  8
0
  6
SLD-SOLID
 62
     7
 66
     1
 10
0.0
 20
0.0
 30
0.0
  0
VERTEX
  5
40B
  8
0
  6
SLD-SOLID
 62
     7
 10
561.9656860302
 20
372.8599390871
 30
0.0
  0
VERTEX
  5
40C
  8
0
  6
SLD-SOLID
 62
     7
 10
561.9638084839
 20
372.855304826
 30
0.0
  0
VERTEX
  5
40D
  8
0
  6
SLD-SOLID
 62
     7
 10
561.9619607399
 20
372.8506556637
 30
0.0
  0
SEQEND
  5
40E
  8
0
  6
SLD-SOLID
 62
     7
  0
LINE
  5
138
  8
0
  6
SLD-SOLID
 62
     7
 10
362.5711097787
 20
500.812917102
 30
0.0
 11
368.5711070369
 21
500.1815847046
 31
0.0
  0
LINE
  5
139
  8
0
  6
SLD-SOLID
 62
     7
 10
377.0711093615
 20
499.2872170097
 30
0.0
 11
383.0711066197
 21
498.6559144146
 31
0.0
  0
LINE
  5
13A
  8
0
  6
SLD-SOLID
 62
     7
 10
391.5711089443
 20
497.7615467197
 30
0.0
 11
397.5711062025
 21
497.1302143223
 31
0.0
  0
LINE
  5
13B
  8
0
  6
SLD-SOLID
 62
     7
 10
406.071108527
 20
496.2358466274
 30
0.0
 11
412.0711057852
 21
495.6045440323
 31
0.0
  0
LINE
  5
13C
  8
0
  6
SLD-SOLID
 62
     7
 10
420.5711081098
 20
494.7101763374
 30
0.0
 11
426.571105368
 21
494.07884394
 31
0.0
  0
LINE
  5
13D
  8
0
  6
SLD-SOLID
 62
     7
 10
435.0711076926
 20
493.1845060474
 30
0.0
 11
441.0711049508
 21
492.55317365
 31
0.0
  0
LINE
  5
13E
  8
0
  6
SLD-SOLID
 62
     7
 10
449.5711147259
 20
491.6588059551
 30
0.0
 11
455.5711119841
 21
491.02750336
 31
0.0
  0
LINE
  5
13F
  8
0
  6
SLD-SOLID
 62
     7
 10
464.0711068581
 20
490.1331356651
 30
0.0
 11
470.0419425438
 21
489.5048729069
 31
0.0
  0
POLYLINE
  5
140
  8
0
  6
SLD-SOLID
 62
     7
 66
     1
 10
0.0
 20
0.0
 30
0.0
  0
VERTEX
  5
40F
  8
0
  6
SLD-SOLID
 62
     7
 10
470.0419425438
 20
489.5048729069
 30
0.0
  0
VERTEX
  5
410
  8
0
  6
SLD-SOLID
 62
     7
 10
470.0378149222
 20
489.4657126553
 30
0.0
  0
VERTEX
  5
411
  8
0
  6
SLD-SOLID
 62
     7
 10
470.0256108712
 20
489.3496922142
 30
0.0
  0
VERTEX
  5
412
  8
0
  6
SLD-SOLID
 62
     7
 10
470.0057774256
 20
489.1612819321
 30
0.0
  0
VERTEX
  5
413
  8
0
  6
SLD-SOLID
 62
     7
 10
469.9791043471
 20
488.9077535755
 30
0.0
  0
VERTEX
  5
414
  8
0
  6
SLD-SOLID
 62
     7
 10
469.9466049145
 20
488.5987928993
 30
0.0
  0
VERTEX
  5
415
  8
0
  6
SLD-SOLID
 62
     7
 10
469.9095159243
 20
488.2463208324
 30
0.0
  0
VERTEX
  5
416
  8
0
  6
SLD-SOLID
 62
     7
 10
469.8692678879
 20
487.8638676292
 30
0.0
  0
VERTEX
  5
417
  8
0
  6
SLD-SOLID
 62
     7
 10
469.8274254273
 20
487.4661258347
 30
0.0
  0
SEQEND
  5
418
  8
0
  6
SLD-SOLID
 62
     7
  0
LINE
  5
141
  8
0
  6
SLD-SOLID
 62
     7
 10
470.0711041163
 20
487.4404958374
 30
0.0
 11
469.8274254273
 21
487.4661258347
 31
0.0
  0
LINE
  5
142
  8
0
  6
SLD-SOLID
 62
     7
 10
470.0711041163
 20
476.6311339027
 30
0.0
 11
464.0711068581
 21
477.2624663002
 31
0.0
  0
LINE
  5
143
  8
0
  6
SLD-SOLID
 62
     7
 10
455.5711119841
 20
478.1568339951
 30
0.0
 11
449.5711147259
 21
478.7881365902
 31
0.0
  0
LINE
  5
144
  8
0
  6
SLD-SOLID
 62
     7
 10
441.0711049508
 20
479.682504285
 30
0.0
 11
435.0711076926
 21
480.3138366825
 31
0.0
  0
LINE
  5
145
  8
0
  6
SLD-SOLID
 62
     7
 10
426.571105368
 20
481.2082043774
 30
0.0
 11
420.5711081098
 21
481.8395069725
 31
0.0
  0
LINE
  5
146
  8
0
  6
SLD-SOLID
 62
     7
 10
412.0711057852
 20
482.7338746674
 30
0.0
 11
406.071108527
 21
483.3652070648
 31
0.0
  0
LINE
  5
147
  8
0
  6
SLD-SOLID
 62
     7
 10
397.5711062025
 20
484.2595747597
 30
0.0
 11
391.5711089443
 21
484.8908773548
 31
0.0
  0
LINE
  5
148
  8
0
  6
SLD-SOLID
 62
     7
 10
383.0711066197
 20
485.7852450497
 30
0.0
 11
377.0711093615
 21
486.4165774471
 31
0.0
  0
LINE
  5
149
  8
0
  6
SLD-SOLID
 62
     7
 10
368.5711070369
 20
487.310945142
 30
0.0
 11
362.5711097787
 21
487.9422477371
 31
0.0
  0
LINE
  5
14A
  8
0
  6
SLD-SOLID
 62
     7
 10
238.071110792
 20
487.1077529079
 30
0.0
 11
232.0711060832
 21
486.4778212196
 31
0.0
  0
LINE
  5
14B
  8
0
  6
SLD-SOLID
 62
     7
 10
354.0711074541
 20
488.4773782379
 30
0.0
 11
348.071110196
 21
487.8474465496
 31
0.0
  0
LINE
  5
14C
  8
0
  6
SLD-SOLID
 62
     7
 10
339.5711078714
 20
486.955045808
 30
0.0
 11
333.5711087506
 21
486.3251141197
 31
0.0
  0
LINE
  5
14D
  8
0
  6
SLD-SOLID
 62
     7
 10
325.0711082886
 20
485.4327133781
 30
0.0
 11
319.0711082365
 21
484.8027816898
 31
0.0
  0
LINE
  5
14E
  8
0
  6
SLD-SOLID
 62
     7
 10
310.5711087058
 20
483.9103809483
 30
0.0
 11
304.5711086537
 21
483.2804492599
 31
0.0
  0
LINE
  5
14F
  8
0
  6
SLD-SOLID
 62
     7
 10
296.0711091231
 20
482.388018716
 30
0.0
 11
290.0711081396
 21
481.7580870277
 31
0.0
  0
LINE
  5
150
  8
0
  6
SLD-SOLID
 62
     7
 10
281.5711095403
 20
480.8656862862
 30
0.0
 11
275.5711085568
 21
480.2357545979
 31
0.0
  0
LINE
  5
151
  8
0
  6
SLD-SOLID
 62
     7
 10
267.0711099575
 20
479.3433538563
 30
0.0
 11
261.0711089741
 21
478.713422168
 31
0.0
  0
LINE
  5
152
  8
0
  6
SLD-SOLID
 62
     7
 10
252.5711103748
 20
477.8210214264
 30
0.0
 11
246.5711093913
 21
477.1910897381
 31
0.0
  0
LINE
  5
153
  8
0
  6
SLD-SOLID
 62
     7
 10
238.071110792
 20
476.2986591942
 30
0.0
 11
232.0711060832
 21
475.6687275059
 31
0.0
  0
LINE
  5
154
  8
0
  6
SLD-SOLID
 62
     7
 10
246.5711093913
 20
490.0614312775
 30
0.0
 11
252.5711103748
 21
490.6913629658
 31
0.0
  0
LINE
  5
155
  8
0
  6
SLD-SOLID
 62
     7
 10
261.0711089741
 20
491.5837637073
 30
0.0
 11
267.0711099575
 21
492.2136953957
 31
0.0
  0
LINE
  5
156
  8
0
  6
SLD-SOLID
 62
     7
 10
275.5711085568
 20
493.1060961372
 30
0.0
 11
281.5711095403
 21
493.7360278255
 31
0.0
  0
LINE
  5
157
  8
0
  6
SLD-SOLID
 62
     7
 10
290.0711081396
 20
494.6284583694
 30
0.0
 11
296.0711091231
 21
495.2583900578
 31
0.0
  0
LINE
  5
158
  8
0
  6
SLD-SOLID
 62
     7
 10
304.5711086537
 20
496.1507907993
 30
0.0
 11
310.5711087058
 21
496.7807224876
 31
0.0
  0
LINE
  5
159
  8
0
  6
SLD-SOLID
 62
     7
 10
319.0711082365
 20
497.6731232292
 30
0.0
 11
325.0711082886
 21
498.3030549175
 31
0.0
  0
LINE
  5
15A
  8
0
  6
SLD-SOLID
 62
     7
 10
333.5711087506
 20
499.1954556591
 30
0.0
 11
339.5711078714
 21
499.8253873474
 31
0.0
  0
LINE
  5
15B
  8
0
  6
SLD-SOLID
 62
     7
 10
348.071110196
 20
500.7178178913
 30
0.0
 11
354.0711074541
 21
501.3477495796
 31
0.0
  0
LINE
  5
15C
  8
0
  6
SLD-SOLID
 62
     7
 10
470.0711041163
 20
488.692133773
 30
0.0
 11
469.9582278202
 21
488.7092701084
 31
0.0
  0
LINE
  5
15D
  8
0
  6
SLD-SOLID
 62
     7
 10
501.1711090277
 20
424.3270746357
 30
0.0
 11
500.7711022566
 21
424.3270746357
 31
0.0
  0
LINE
  5
15E
  8
0
  6
SLD-SOLID
 62
     7
 10
501.1711090277
 20
424.3270746357
 30
0.0
 11
501.1711090277
 21
422.6770690567
 31
0.0
  0
LINE
  5
15F
  8
0
  6
SLD-SOLID
 62
     7
 10
501.1711090277
 20
422.6770690567
 30
0.0
 11
501.5711157988
 21
422.6770690567
 31
0.0
  0
LINE
  5
160
  8
0
  6
SLD-SOLID
 62
     7
 10
501.5711157988
 20
422.6770690567
 30
0.0
 11
501.5711157988
 21
423.0770609266
 31
0.0
  0
ARC
  5
161
  8
0
  6
SLD-SOLID
 62
     7
 10
546.5179574127
 20
198.9644052414
 30
0.0
 40
8.203621487928983
 50
344.89814247
 51
359.3900094716
  0
LINE
  5
162
  8
0
  6
SLD-SOLID
 62
     7
 10
491.5711104344
 20
196.8270680792
 30
0.0
 11
554.438260145
 21
196.8270680792
 31
0.0
  0
LINE
  5
163
  8
0
  6
SLD-SOLID
 62
     7
 10
491.5711104344
 20
196.8270680792
 30
0.0
 11
491.5711104344
 21
197.6270681172
 31
0.0
  0
LINE
  5
164
  8
0
  6
SLD-SOLID
 62
     7
 10
501.5711157988
 20
423.0770609266
 30
0.0
 11
501.5711157988
 21
425.1270732767
 31
0.0
  0
ARC
  5
165
  8
0
  6
SLD-SOLID
 62
     7
 10
546.5177693234
 20
422.9897106783
 30
0.0
 40
8.203809708467556
 50
0.6100696282
 51
15.1016867959
  0
LINE
  5
166
  8
0
  6
SLD-SOLID
 62
     7
 10
556.7711114357
 20
198.8770683221
 30
0.0
 11
554.7211139868
 21
198.8770683221
 31
0.0
  0
LINE
  5
167
  8
0
  6
SLD-SOLID
 62
     7
 10
556.7711114357
 20
423.0770609266
 30
0.0
 11
556.7711114357
 21
244.7026736028
 31
0.0
  0
LINE
  5
168
  8
0
  6
SLD-SOLID
 62
     7
 10
556.7711114357
 20
234.4065616763
 30
0.0
 11
556.7711114357
 21
234.3902504928
 31
0.0
  0
LINE
  5
169
  8
0
  6
SLD-SOLID
 62
     7
 10
556.7711114357
 20
233.0853204168
 30
0.0
 11
556.7711114357
 21
198.8770683221
 31
0.0
  0
LINE
  5
16A
  8
0
  6
SLD-SOLID
 62
     7
 10
554.7211139868
 20
423.0770609266
 30
0.0
 11
556.7711114357
 21
423.0770609266
 31
0.0
  0
LINE
  5
16B
  8
0
  6
SLD-SOLID
 62
     7
 10
554.7211139868
 20
424.3270746357
 30
0.0
 11
554.7211139868
 21
425.1270732767
 31
0.0
  0
ARC
  5
16C
  8
0
  6
SLD-SOLID
 62
     7
 10
554.7211086961
 20
423.0770682959
 30
0.0
 40
1.250000000000114
 50
0.0
 51
90.0
  0
ARC
  5
16D
  8
0
  6
SLD-SOLID
 62
     7
 10
554.7211086961
 20
423.0770682959
 30
0.0
 40
2.050000000000068
 50
0.0
 51
90.0
  0
LINE
  5
16E
  8
0
  6
SLD-SOLID
 62
     7
 10
554.7211139868
 20
197.6270681172
 30
0.0
 11
554.7211139868
 21
196.8270680792
 31
0.0
  0
ARC
  5
16F
  8
0
  6
SLD-SOLID
 62
     7
 10
554.7211086961
 20
198.8770682959
 30
0.0
 40
2.050000000000068
 50
270.0
 51
0.0
  0
ARC
  5
170
  8
0
  6
SLD-SOLID
 62
     7
 10
554.7211086961
 20
198.8770682959
 30
0.0
 40
1.250000000000682
 50
270.0
 51
0.0
  0
LINE
  5
171
  8
0
  6
SLD-SOLID
 62
     7
 10
554.7211139868
 20
196.8270680792
 30
0.0
 11
554.438260145
 21
196.8270680792
 31
0.0
  0
LINE
  5
172
  8
0
  6
SLD-SOLID
 62
     7
 10
556.8711131285
 20
294.3270719535
 30
0.0
 11
556.8711131285
 21
279.3270713574
 31
0.0
  0
LINE
  5
173
  8
0
  6
SLD-SOLID
 62
     7
 10
501.5711157988
 20
424.2563537247
 30
0.0
 11
501.1711090277
 21
424.2563537247
 31
0.0
  0
LINE
  5
174
  8
0
  6
SLD-SOLID
 62
     7
 10
560.271096177
 20
293.4770650155
 30
0.0
 11
560.271096177
 21
280.1770708448
 31
0.0
  0
LINE
  5
175
  8
0
  6
SLD-SOLID
 62
     7
 10
222.8617637824
 20
488.0270651466
 30
0.0
 11
222.8617637824
 21
487.927078355
 31
0.0
  0
LINE
  5
176
  8
0
  6
SLD-SOLID
 62
     7
 10
222.4418192576
 20
488.0270651466
 30
0.0
 11
222.4418192576
 21
487.927078355
 31
0.0
  0
LINE
  5
177
  8
0
  6
SLD-SOLID
 62
     7
 10
222.4418192576
 20
488.0270651466
 30
0.0
 11
222.8617637824
 21
488.0270651466
 31
0.0
  0
LINE
  5
178
  8
0
  6
SLD-SOLID
 62
     7
 10
238.071110792
 20
488.0270651466
 30
0.0
 11
232.0711060832
 21
488.0270651466
 31
0.0
  0
LINE
  5
179
  8
0
  6
SLD-SOLID
 62
     7
 10
223.5711112092
 20
488.0270651466
 30
0.0
 11
222.8617637824
 21
488.0270651466
 31
0.0
  0
LINE
  5
17A
  8
0
  6
SLD-SOLID
 62
     7
 10
278.4418191235
 20
504.2270711548
 30
0.0
 11
278.4434861909
 21
504.3270579464
 31
0.0
  0
ARC
  5
17B
  8
0
  6
SLD-SOLID
 62
     7
 10
281.4418193742
 20
504.2270682959
 30
0.0
 40
2.999999999999943
 50
180.0
 51
272.4700091553
  0
LINE
  5
17C
  8
0
  6
SLD-SOLID
 62
     7
 10
235.4418158005
 20
488.0270651466
 30
0.0
 11
235.4418158005
 21
504.3270579464
 31
0.0
  0
LINE
  5
17D
  8
0
  6
SLD-SOLID
 62
     7
 10
235.4418158005
 20
510.5192652828
 30
0.0
 11
235.4418158005
 21
513.7348762638
 31
0.0
  0
ARC
  5
17E
  8
0
  6
SLD-SOLID
 62
     7
 10
281.3418193742
 20
504.3270682959
 30
0.0
 40
2.199999999999989
 50
180.0
 51
275.9823686541
  0
LINE
  5
17F
  8
0
  6
SLD-SOLID
 62
     7
 10
477.3711084793
 20
-105.5729397648
 30
0.0
 11
411.371108837
 21
-105.5729397648
 31
0.0
  0
LINE
  5
180
  8
0
  6
SLD-SOLID
 62
     7
 10
450.3711133669
 20
-125.0729271286
 30
0.0
 11
438.3711039494
 21
-125.0729271286
 31
0.0
  0
LINE
  5
181
  8
0
  6
SLD-SOLID
 62
     7
 10
449.8711049031
 20
-125.5729206913
 30
0.0
 11
438.8711124133
 21
-125.5729206913
 31
0.0
  0
LINE
  5
182
  8
0
  6
SLD-SOLID
 62
     7
 10
277.3711092244
 20
-105.5729397648
 30
0.0
 11
211.3711058567
 21
-105.5729397648
 31
0.0
  0
LINE
  5
183
  8
0
  6
SLD-SOLID
 62
     7
 10
250.3711103867
 20
-125.0729271286
 30
0.0
 11
238.3711084197
 21
-125.0729271286
 31
0.0
  0
LINE
  5
184
  8
0
  6
SLD-SOLID
 62
     7
 10
249.8711093734
 20
-125.5729206913
 30
0.0
 11
238.871109433
 21
-125.5729206913
 31
0.0
  0
LINE
  5
185
  8
0
  6
SLD-SOLID
 62
     7
 10
228.8711115192
 20
194.4270684308
 30
0.0
 11
228.8711115192
 21
195.627068255
 31
0.0
  0
LINE
  5
186
  8
0
  6
SLD-SOLID
 62
     7
 10
459.8711102675
 20
194.4270684308
 30
0.0
 11
228.8711115192
 21
194.4270684308
 31
0.0
  0
LINE
  5
187
  8
0
  6
SLD-SOLID
 62
     7
 10
459.8711102675
 20
195.627068255
 30
0.0
 11
459.8711102675
 21
194.4270684308
 31
0.0
  0
LINE
  5
188
  8
0
  6
SLD-SOLID
 62
     7
 10
479.8711060952
 20
194.4270684308
 30
0.0
 11
460.3711038302
 21
194.4270684308
 31
0.0
  0
LINE
  5
189
  8
0
  6
SLD-SOLID
 62
     7
 10
460.3711038302
 20
195.627068255
 30
0.0
 11
460.3711038302
 21
194.4270684308
 31
0.0
  0
LINE
  5
18A
  8
0
  6
SLD-SOLID
 62
     7
 10
484.8711013268
 20
195.627068255
 30
0.0
 11
484.8711013268
 21
194.4270684308
 31
0.0
  0
LINE
  5
18B
  8
0
  6
SLD-SOLID
 62
     7
 10
484.8711013268
 20
194.4270684308
 30
0.0
 11
479.8711060952
 21
194.4270684308
 31
0.0
  0
LINE
  5
18C
  8
0
  6
SLD-SOLID
 62
     7
 10
228.3711105059
 20
195.627068255
 30
0.0
 11
228.3711105059
 21
194.4270684308
 31
0.0
  0
LINE
  5
18D
  8
0
  6
SLD-SOLID
 62
     7
 10
228.3711105059
 20
194.4270684308
 30
0.0
 11
208.8711082409
 21
194.4270684308
 31
0.0
  0
LINE
  5
18E
  8
0
  6
SLD-SOLID
 62
     7
 10
203.8711055587
 20
195.627068255
 30
0.0
 11
203.8711055587
 21
194.4270684308
 31
0.0
  0
LINE
  5
18F
  8
0
  6
SLD-SOLID
 62
     7
 10
208.8711082409
 20
194.4270684308
 30
0.0
 11
203.8711055587
 21
194.4270684308
 31
0.0
  0
LINE
  5
190
  8
0
  6
SLD-SOLID
 62
     7
 10
460.3711038302
 20
194.4270684308
 30
0.0
 11
459.8711102675
 21
194.4270684308
 31
0.0
  0
LINE
  5
191
  8
0
  6
SLD-SOLID
 62
     7
 10
228.8711115192
 20
194.4270684308
 30
0.0
 11
228.3711105059
 21
194.4270684308
 31
0.0
  0
ARC
  5
192
  8
0
  6
SLD-SOLID
 62
     7
 10
546.5180439659
 20
427.2643986156
 30
0.0
 40
8.203534843528619
 50
344.898064699
 51
359.3900660962
  0
LINE
  5
193
  8
0
  6
SLD-SOLID
 62
     7
 10
502.84425611
 20
425.1270732767
 30
0.0
 11
554.438260145
 21
425.1270732767
 31
0.0
  0
LINE
  5
194
  8
0
  6
SLD-SOLID
 62
     7
 10
502.84425611
 20
425.1270732767
 30
0.0
 11
502.84425611
 21
427.1770707256
 31
0.0
  0
LINE
  5
195
  8
0
  6
SLD-SOLID
 62
     7
 10
501.6711025904
 20
518.0770746357
 30
0.0
 11
501.6711025904
 21
504.0270677692
 31
0.0
  0
ARC
  5
196
  8
0
  6
SLD-SOLID
 62
     7
 10
502.8211086961
 20
518.0770682959
 30
0.0
 40
1.149999999999977
 50
90.0
 51
180.0
  0
LINE
  5
197
  8
0
  6
SLD-SOLID
 62
     7
 10
530.9711068343
 20
519.2270568497
 30
0.0
 11
502.8211146067
 21
519.2270568497
 31
0.0
  0
ARC
  5
198
  8
0
  6
SLD-SOLID
 62
     7
 10
530.9711086961
 20
494.3270682959
 30
0.0
 40
24.89999999999995
 50
1.1505949934
 51
90.0
  0
LINE
  5
199
  8
0
  6
SLD-SOLID
 62
     7
 10
554.3711155127
 20
494.8270610458
 30
0.0
 11
555.8660894106
 21
494.8270610458
 31
0.0
  0
LINE
  5
19A
  8
0
  6
SLD-SOLID
 62
     7
 10
554.3711155127
 20
494.3270674831
 30
0.0
 11
554.3711155127
 21
494.8270610458
 31
0.0
  0
LINE
  5
19B
  8
0
  6
SLD-SOLID
 62
     7
 10
554.7211139868
 20
494.3270674831
 30
0.0
 11
554.3711155127
 21
494.3270674831
 31
0.0
  0
LINE
  5
19C
  8
0
  6
SLD-SOLID
 62
     7
 10
501.6711025904
 20
504.0270677692
 30
0.0
 11
503.2211064766
 21
504.0270677692
 31
0.0
  0
LINE
  5
19D
  8
0
  6
SLD-SOLID
 62
     7
 10
503.2211064766
 20
503.6270609982
 30
0.0
 11
502.8211146067
 21
503.6270609982
 31
0.0
  0
LINE
  5
19E
  8
0
  6
SLD-SOLID
 62
     7
 10
503.2211064766
 20
504.0270677692
 30
0.0
 11
503.2211064766
 21
503.6270609982
 31
0.0
  0
LINE
  5
19F
  8
0
  6
SLD-SOLID
 62
     7
 10
502.84425611
 20
427.1770707256
 30
0.0
 11
502.8211146067
 21
427.1770707256
 31
0.0
  0
LINE
  5
1A0
  8
0
  6
SLD-SOLID
 62
     7
 10
500.7711022566
 20
503.6270609982
 30
0.0
 11
502.8211146067
 21
503.6270609982
 31
0.0
  0
LINE
  5
1A1
  8
0
  6
SLD-SOLID
 62
     7
 10
502.8211146067
 20
427.1770707256
 30
0.0
 11
500.7711022566
 21
427.1770707256
 31
0.0
  0
LINE
  5
1A2
  8
0
  6
SLD-SOLID
 62
     7
 10
554.7211139868
 20
494.3270674831
 30
0.0
 11
556.3459217022
 21
494.3270674831
 31
0.0
  0
LINE
  5
1A3
  8
0
  6
SLD-SOLID
 62
     7
 10
556.7711114357
 20
494.3270674831
 30
0.0
 11
556.7711114357
 21
427.1770707256
 31
0.0
  0
LINE
  5
1A4
  8
0
  6
SLD-SOLID
 62
     7
 10
556.7711114357
 20
427.1770707256
 30
0.0
 11
554.7211139868
 21
427.1770707256
 31
0.0
  0
LINE
  5
1A5
  8
0
  6
SLD-SOLID
 62
     7
 10
500.7711022566
 20
506.127058614
 30
0.0
 11
500.7711022566
 21
518.0770746357
 31
0.0
  0
LINE
  5
1A6
  8
0
  6
SLD-SOLID
 62
     7
 10
501.5711157988
 20
506.127058614
 30
0.0
 11
501.5711157988
 21
518.0770746357
 31
0.0
  0
ARC
  5
1A7
  8
0
  6
SLD-SOLID
 62
     7
 10
502.8211086961
 20
518.0770682959
 30
0.0
 40
2.050000000000068
 50
90.0
 51
180.0
  0
ARC
  5
1A8
  8
0
  6
SLD-SOLID
 62
     7
 10
502.8211086961
 20
518.0770682959
 30
0.0
 40
1.25
 50
90.0
 51
180.0
  0
LINE
  5
1A9
  8
0
  6
SLD-SOLID
 62
     7
 10
530.9711068343
 20
519.3270734436
 30
0.0
 11
502.8211146067
 21
519.3270734436
 31
0.0
  0
LINE
  5
1AA
  8
0
  6
SLD-SOLID
 62
     7
 10
530.9711068343
 20
520.1270571835
 30
0.0
 11
502.8211146067
 21
520.1270571835
 31
0.0
  0
ARC
  5
1AB
  8
0
  6
SLD-SOLID
 62
     7
 10
530.9711086961
 20
494.3270682959
 30
0.0
 40
25.80000000000001
 50
0.0
 51
90.0
  0
LINE
  5
1AC
  8
0
  6
SLD-SOLID
 62
     7
 10
556.3459217022
 20
494.3270674831
 30
0.0
 11
556.7711114357
 21
494.3270674831
 31
0.0
  0
ARC
  5
1AD
  8
0
  6
SLD-SOLID
 62
     7
 10
530.9711086961
 20
494.3270682959
 30
0.0
 40
25.0
 50
0.0
 51
90.0
  0
LINE
  5
1AE
  8
0
  6
SLD-SOLID
 62
     7
 10
500.7711022566
 20
504.1270545608
 30
0.0
 11
501.5711157988
 21
504.1270545608
 31
0.0
  0
LINE
  5
1AF
  8
0
  6
SLD-SOLID
 62
     7
 10
500.7711022566
 20
504.565804351
 30
0.0
 11
500.7711022566
 21
506.127058614
 31
0.0
  0
LINE
  5
1B0
  8
0
  6
SLD-SOLID
 62
     7
 10
501.5711157988
 20
504.1270545608
 30
0.0
 11
501.5711157988
 21
506.127058614
 31
0.0
  0
LINE
  5
1B1
  8
0
  6
SLD-SOLID
 62
     7
 10
501.5711157988
 20
425.9270719177
 30
0.0
 11
500.7711022566
 21
425.9270719177
 31
0.0
  0
LINE
  5
1B2
  8
0
  6
SLD-SOLID
 62
     7
 10
501.5711157988
 20
425.9270719177
 30
0.0
 11
501.5711157988
 21
427.1770707256
 31
0.0
  0
LINE
  5
1B3
  8
0
  6
SLD-SOLID
 62
     7
 10
554.7211139868
 20
425.9270719177
 30
0.0
 11
554.7211139868
 21
425.1270732767
 31
0.0
  0
ARC
  5
1B4
  8
0
  6
SLD-SOLID
 62
     7
 10
554.7211086961
 20
427.1770682959
 30
0.0
 40
1.250000000000227
 50
270.0
 51
0.0
  0
ARC
  5
1B5
  8
0
  6
SLD-SOLID
 62
     7
 10
554.7211086961
 20
427.1770682959
 30
0.0
 40
2.050000000000068
 50
270.0
 51
0.0
  0
LINE
  5
1B6
  8
0
  6
SLD-SOLID
 62
     7
 10
554.7211139868
 20
425.1270732767
 30
0.0
 11
554.438260145
 21
425.1270732767
 31
0.0
  0
LINE
  5
1B7
  8
0
  6
SLD-SOLID
 62
     7
 10
501.6711025904
 20
425.1270732767
 30
0.0
 11
501.6711025904
 21
425.9270719177
 31
0.0
  0
LINE
  5
1B8
  8
0
  6
SLD-SOLID
 62
     7
 10
502.84425611
 20
425.9270719177
 30
0.0
 11
501.6711025904
 21
425.9270719177
 31
0.0
  0
LINE
  5
1B9
  8
0
  6
SLD-SOLID
 62
     7
 10
502.84425611
 20
425.1270732767
 30
0.0
 11
501.6711025904
 21
425.1270732767
 31
0.0
  0
LINE
  5
1BA
  8
0
  6
SLD-SOLID
 62
     7
 10
501.5711157988
 20
425.1270732767
 30
0.0
 11
501.5711157988
 21
425.9270719177
 31
0.0
  0
LINE
  5
1BB
  8
0
  6
SLD-SOLID
 62
     7
 10
501.6711025904
 20
425.9270719177
 30
0.0
 11
501.5711157988
 21
425.9270719177
 31
0.0
  0
LINE
  5
1BC
  8
0
  6
SLD-SOLID
 62
     7
 10
501.6711025904
 20
425.1270732767
 30
0.0
 11
501.5711157988
 21
425.1270732767
 31
0.0
  0
LINE
  5
1BD
  8
0
  6
SLD-SOLID
 62
     7
 10
558.3711087178
 20
208.8210518397
 30
0.0
 11
558.3711087178
 21
235.147205267
 31
0.0
  0
LINE
  5
1BE
  8
0
  6
SLD-SOLID
 62
     7
 10
558.3711087178
 20
244.4803072996
 30
0.0
 11
558.3711087178
 21
264.8326895124
 31
0.0
  0
LINE
  5
1BF
  8
0
  6
SLD-SOLID
 62
     7
 10
556.7711114357
 20
266.8270683772
 30
0.0
 11
558.3711087178
 21
266.8270683772
 31
0.0
  0
LINE
  5
1C0
  8
0
  6
SLD-SOLID
 62
     7
 10
558.3711087178
 20
264.8326895124
 30
0.0
 11
558.3711087178
 21
266.8270683772
 31
0.0
  0
LINE
  5
1C1
  8
0
  6
SLD-SOLID
 62
     7
 10
556.7711114357
 20
206.8270683213
 30
0.0
 11
558.3711087178
 21
206.8270683213
 31
0.0
  0
LINE
  5
1C2
  8
0
  6
SLD-SOLID
 62
     7
 10
558.3711087178
 20
206.8270683213
 30
0.0
 11
558.3711087178
 21
208.8210518397
 31
0.0
  0
LINE
  5
1C3
  8
0
  6
SLD-SOLID
 62
     7
 10
559.7711026143
 20
264.2893521971
 30
0.0
 11
559.7711026143
 21
244.2857391126
 31
0.0
  0
LINE
  5
1C4
  8
0
  6
SLD-SOLID
 62
     7
 10
559.7711026143
 20
236.2088478095
 30
0.0
 11
559.7711026143
 21
209.3647840358
 31
0.0
  0
ARC
  5
1C5
  8
0
  6
SLD-SOLID
 62
     7
 10
556.7710563891
 20
264.2893312161
 30
0.0
 40
3.000046225259614
 50
0.0004007027
 51
57.7684225289
  0
LINE
  5
1C6
  8
0
  6
SLD-SOLID
 62
     7
 10
558.3711087178
 20
266.8270683772
 30
0.0
 11
558.3711087178
 21
264.8326895124
 31
0.0
  0
ARC
  5
1C7
  8
0
  6
SLD-SOLID
 62
     7
 10
556.771094202
 20
209.364784622
 30
0.0
 40
3.000008412229094
 50
302.2311790719
 51
359.999988803
  0
LINE
  5
1C8
  8
0
  6
SLD-SOLID
 62
     7
 10
558.3711087178
 20
208.8210518397
 30
0.0
 11
558.3711087178
 21
206.8270683213
 31
0.0
  0
LINE
  5
1C9
  8
0
  6
SLD-SOLID
 62
     7
 10
222.4418192576
 20
487.927078355
 30
0.0
 11
222.4418192576
 21
484.832375396
 31
0.0
  0
LINE
  5
1CA
  8
0
  6
SLD-SOLID
 62
     7
 10
222.8530168007
 20
487.927078355
 30
0.0
 11
222.4418192576
 21
487.927078355
 31
0.0
  0
LINE
  5
1CB
  8
0
  6
SLD-SOLID
 62
     7
 10
222.8530168007
 20
487.927078355
 30
0.0
 11
222.8530168007
 21
482.4554911739
 31
0.0
  0
LINE
  5
1CC
  8
0
  6
SLD-SOLID
 62
     7
 10
223.5711112092
 20
487.927078355
 30
0.0
 11
222.8530168007
 21
487.927078355
 31
0.0
  0
LINE
  5
1CD
  8
0
  6
SLD-SOLID
 62
     7
 10
470.0418233345
 20
487.927078355
 30
0.0
 11
469.8778360556
 21
487.945287574
 31
0.0
  0
POLYLINE
  5
1CE
  8
0
  6
SLD-SOLID
 62
     7
 66
     1
 10
0.0
 20
0.0
 30
0.0
  0
VERTEX
  5
419
  8
0
  6
SLD-SOLID
 62
     7
 10
353.7418178688
 20
471.3270655758
 30
0.0
  0
VERTEX
  5
41A
  8
0
  6
SLD-SOLID
 62
     7
 10
353.8940593074
 20
472.0924488193
 30
0.0
  0
VERTEX
  5
41B
  8
0
  6
SLD-SOLID
 62
     7
 10
354.0711074541
 20
472.426503051
 30
0.0
  0
SEQEND
  5
41C
  8
0
  6
SLD-SOLID
 62
     7
  0
POLYLINE
  5
1CF
  8
0
  6
SLD-SOLID
 62
     7
 66
     1
 10
0.0
 20
0.0
 30
0.0
  0
VERTEX
  5
41D
  8
0
  6
SLD-SOLID
 62
     7
 10
354.0711074541
 20
470.2276579029
 30
0.0
  0
VERTEX
  5
41E
  8
0
  6
SLD-SOLID
 62
     7
 10
353.8940593074
 20
470.5617121345
 30
0.0
  0
VERTEX
  5
41F
  8
0
  6
SLD-SOLID
 62
     7
 10
353.7418178688
 20
471.3270655758
 30
0.0
  0
SEQEND
  5
420
  8
0
  6
SLD-SOLID
 62
     7
  0
LINE
  5
1D0
  8
0
  6
SLD-SOLID
 62
     7
 10
238.071110792
 20
487.927078355
 30
0.0
 11
232.0711060832
 21
487.927078355
 31
0.0
  0
LINE
  5
1D1
  8
0
  6
SLD-SOLID
 62
     7
 10
470.0711041163
 20
487.927078355
 30
0.0
 11
470.0418233345
 21
487.927078355
 31
0.0
  0
LINE
  5
1D2
  8
0
  6
SLD-SOLID
 62
     7
 10
222.0711081694
 20
482.6270631439
 30
0.0
 11
222.7655246328
 21
482.6270631439
 31
0.0
  0
LINE
  5
1D3
  8
0
  6
SLD-SOLID
 62
     7
 10
222.0711081694
 20
482.6270631439
 30
0.0
 11
222.0711081694
 21
479.6270719654
 31
0.0
  0
LINE
  5
1D4
  8
0
  6
SLD-SOLID
 62
     7
 10
222.8711068104
 20
482.4554911739
 30
0.0
 11
222.8711068104
 21
479.6270719654
 31
0.0
  0
LINE
  5
1D5
  8
0
  6
SLD-SOLID
 62
     7
 10
222.0711081694
 20
479.6270719654
 30
0.0
 11
222.0711081694
 21
465.5289939529
 31
0.0
  0
LINE
  5
1D6
  8
0
  6
SLD-SOLID
 62
     7
 10
222.8711068104
 20
479.6270719654
 30
0.0
 11
222.8711068104
 21
466.2009469158
 31
0.0
  0
LINE
  5
1D7
  8
0
  6
SLD-SOLID
 62
     7
 10
220.8211093615
 20
485.6270543224
 30
0.0
 11
217.5711065005
 21
485.6270543224
 31
0.0
  0
LINE
  5
1D8
  8
0
  6
SLD-SOLID
 62
     7
 10
220.8211093615
 20
484.8270705826
 30
0.0
 11
217.5711065005
 21
484.8270705826
 31
0.0
  0
ARC
  5
1D9
  8
0
  6
SLD-SOLID
 62
     7
 10
220.8211086961
 20
483.5770682959
 30
0.0
 40
2.049999999999955
 50
30.3287647094
 51
90.0
  0
ARC
  5
1DA
  8
0
  6
SLD-SOLID
 62
     7
 10
220.8211086961
 20
483.5770682959
 30
0.0
 40
1.25
 50
0.0
 51
90.0
  0
LINE
  5
1DB
  8
0
  6
SLD-SOLID
 62
     7
 10
222.0711081694
 20
483.5770717747
 30
0.0
 11
222.0711081694
 21
482.6270631439
 31
0.0
  0
POLYLINE
  5
1DC
  8
0
  6
SLD-SOLID
 62
     7
 66
     1
 10
0.0
 20
0.0
 30
0.0
  0
VERTEX
  5
421
  8
0
  6
SLD-SOLID
 62
     7
 10
201.8211081098
 20
518.0770746357
 30
0.0
  0
VERTEX
  5
422
  8
0
  6
SLD-SOLID
 62
     7
 10
201.5349313091
 20
518.8024333603
 30
0.0
  0
VERTEX
  5
423
  8
0
  6
SLD-SOLID
 62
     7
 10
201.2486502002
 20
519.4341531879
 30
0.0
  0
VERTEX
  5
424
  8
0
  6
SLD-SOLID
 62
     7
 10
200.9623690914
 20
519.8901585228
 30
0.0
  0
VERTEX
  5
425
  8
0
  6
SLD-SOLID
 62
     7
 10
200.6760805319
 20
520.1114109642
 30
0.0
  0
VERTEX
  5
426
  8
0
  6
SLD-SOLID
 62
     7
 10
200.5781799029
 20
520.1270571835
 30
0.0
  0
SEQEND
  5
427
  8
0
  6
SLD-SOLID
 62
     7
  0
ARC
  5
1DD
  8
0
  6
SLD-SOLID
 62
     7
 10
199.7832242716
 20
517.2936662636
 30
0.0
 40
2.183277173320559
 50
21.0278824104
 51
68.647106463
  0
LINE
  5
1DE
  8
0
  6
SLD-SOLID
 62
     7
 10
200.5781799029
 20
520.1270571835
 30
0.0
 11
200.5781799029
 21
519.3270734436
 31
0.0
  0
POLYLINE
  5
1DF
  8
0
  6
SLD-SOLID
 62
     7
 66
     1
 10
0.0
 20
0.0
 30
0.0
  0
VERTEX
  5
428
  8
0
  6
SLD-SOLID
 62
     7
 10
499.9640404652
 20
520.1270571835
 30
0.0
  0
VERTEX
  5
429
  8
0
  6
SLD-SOLID
 62
     7
 10
499.6778636645
 20
519.9944368488
 30
0.0
  0
VERTEX
  5
42A
  8
0
  6
SLD-SOLID
 62
     7
 10
499.3915825556
 20
519.6135631687
 30
0.0
  0
VERTEX
  5
42B
  8
0
  6
SLD-SOLID
 62
     7
 10
499.1053014468
 20
519.0337589867
 30
0.0
  0
VERTEX
  5
42C
  8
0
  6
SLD-SOLID
 62
     7
 10
498.8190054367
 20
518.3300665504
 30
0.0
  0
VERTEX
  5
42D
  8
0
  6
SLD-SOLID
 62
     7
 10
498.7211048077
 20
518.0770746357
 30
0.0
  0
SEQEND
  5
42E
  8
0
  6
SLD-SOLID
 62
     7
  0
LINE
  5
1E0
  8
0
  6
SLD-SOLID
 62
     7
 10
499.9640404652
 20
520.1270571835
 30
0.0
 11
499.9640404652
 21
519.3270734436
 31
0.0
  0
ARC
  5
1E1
  8
0
  6
SLD-SOLID
 62
     7
 10
500.7973681538
 20
517.2554988818
 30
0.0
 40
2.232903088318836
 50
111.9133338073
 51
158.4113338734
  0
LINE
  5
1E2
  8
0
  6
SLD-SOLID
 62
     7
 10
499.9640404652
 20
520.1270571835
 30
0.0
 11
200.5781799029
 21
520.1270571835
 31
0.0
  0
POLYLINE
  5
1E3
  8
0
  6
SLD-SOLID
 62
     7
 66
     1
 10
0.0
 20
0.0
 30
0.0
  0
VERTEX
  5
42F
  8
0
  6
SLD-SOLID
 62
     7
 10
498.7211048077
 20
518.0770746357
 30
0.0
  0
VERTEX
  5
430
  8
0
  6
SLD-SOLID
 62
     7
 10
499.4464635323
 20
518.3632365353
 30
0.0
  0
VERTEX
  5
431
  8
0
  6
SLD-SOLID
 62
     7
 10
500.0781833599
 20
518.6495176441
 30
0.0
  0
VERTEX
  5
432
  8
0
  6
SLD-SOLID
 62
     7
 10
500.5341886948
 20
518.935798753
 30
0.0
  0
VERTEX
  5
433
  8
0
  6
SLD-SOLID
 62
     7
 10
500.7554411362
 20
519.2220798618
 30
0.0
  0
VERTEX
  5
434
  8
0
  6
SLD-SOLID
 62
     7
 10
500.7711022566
 20
519.3200102932
 30
0.0
  0
SEQEND
  5
435
  8
0
  6
SLD-SOLID
 62
     7
  0
ARC
  5
1E4
  8
0
  6
SLD-SOLID
 62
     7
 10
497.9377881607
 20
520.1148614623
 30
0.0
 40
2.183153709656409
 50
291.0265490089
 51
338.6487833104
  0
LINE
  5
1E5
  8
0
  6
SLD-SOLID
 62
     7
 10
500.7711022566
 20
519.3200102932
 30
0.0
 11
499.9711036156
 21
519.3200102932
 31
0.0
  0
POLYLINE
  5
1E6
  8
0
  6
SLD-SOLID
 62
     7
 66
     1
 10
0.0
 20
0.0
 30
0.0
  0
VERTEX
  5
436
  8
0
  6
SLD-SOLID
 62
     7
 10
500.7711022566
 20
198.4341392218
 30
0.0
  0
VERTEX
  5
437
  8
0
  6
SLD-SOLID
 62
     7
 10
500.6384968232
 20
198.7203169539
 30
0.0
  0
VERTEX
  5
438
  8
0
  6
SLD-SOLID
 62
     7
 10
500.2576082419
 20
199.0065989941
 30
0.0
  0
VERTEX
  5
439
  8
0
  6
SLD-SOLID
 62
     7
 10
499.6777891587
 20
199.2928819656
 30
0.0
  0
VERTEX
  5
43A
  8
0
  6
SLD-SOLID
 62
     7
 10
498.9740967225
 20
199.5791649371
 30
0.0
  0
VERTEX
  5
43B
  8
0
  6
SLD-SOLID
 62
     7
 10
498.7211048077
 20
199.6770683601
 30
0.0
  0
SEQEND
  5
43C
  8
0
  6
SLD-SOLID
 62
     7
  0
LINE
  5
1E7
  8
0
  6
SLD-SOLID
 62
     7
 10
500.7711022566
 20
198.4341392218
 30
0.0
 11
499.9711036156
 21
198.4341392218
 31
0.0
  0
ARC
  5
1E8
  8
0
  6
SLD-SOLID
 62
     7
 10
497.8996224849
 20
197.6008946056
 30
0.0
 40
2.232785405135333
 50
21.9122508686
 51
68.4127173272
  0
LINE
  5
1E9
  8
0
  6
SLD-SOLID
 62
     7
 10
500.7711022566
 20
519.3200102932
 30
0.0
 11
500.7711022566
 21
518.0770746357
 31
0.0
  0
LINE
  5
1EA
  8
0
  6
SLD-SOLID
 62
     7
 10
500.7711022566
 20
504.565804351
 30
0.0
 11
500.7711022566
 21
198.4341392218
 31
0.0
  0
POLYLINE
  5
1EB
  8
0
  6
SLD-SOLID
 62
     7
 66
     1
 10
0.0
 20
0.0
 30
0.0
  0
VERTEX
  5
43D
  8
0
  6
SLD-SOLID
 62
     7
 10
199.7711106609
 20
519.3200102932
 30
0.0
  0
VERTEX
  5
43E
  8
0
  6
SLD-SOLID
 62
     7
 10
199.9037309955
 20
519.0338185913
 30
0.0
  0
VERTEX
  5
43F
  8
0
  6
SLD-SOLID
 62
     7
 10
200.2846046756
 20
518.7475374824
 30
0.0
  0
VERTEX
  5
440
  8
0
  6
SLD-SOLID
 62
     7
 10
200.8644237588
 20
518.4612563736
 30
0.0
  0
VERTEX
  5
441
  8
0
  6
SLD-SOLID
 62
     7
 10
201.5681161951
 20
518.1749752647
 30
0.0
  0
VERTEX
  5
442
  8
0
  6
SLD-SOLID
 62
     7
 10
201.8211081098
 20
518.0770746357
 30
0.0
  0
SEQEND
  5
443
  8
0
  6
SLD-SOLID
 62
     7
  0
LINE
  5
1EC
  8
0
  6
SLD-SOLID
 62
     7
 10
199.7711106609
 20
519.3200102932
 30
0.0
 11
200.5711093019
 21
519.3200102932
 31
0.0
  0
ARC
  5
1ED
  8
0
  6
SLD-SOLID
 62
     7
 10
202.642600133
 20
520.1532537753
 30
0.0
 40
2.232793981486715
 50
201.9121309737
 51
248.412536707
  0
POLYLINE
  5
1EE
  8
0
  6
SLD-SOLID
 62
     7
 66
     1
 10
0.0
 20
0.0
 30
0.0
  0
VERTEX
  5
444
  8
0
  6
SLD-SOLID
 62
     7
 10
201.8211081098
 20
199.6770683601
 30
0.0
  0
VERTEX
  5
445
  8
0
  6
SLD-SOLID
 62
     7
 10
201.0957493852
 20
199.390890628
 30
0.0
  0
VERTEX
  5
446
  8
0
  6
SLD-SOLID
 62
     7
 10
200.4640295576
 20
199.1046085878
 30
0.0
  0
VERTEX
  5
447
  8
0
  6
SLD-SOLID
 62
     7
 10
200.0080316733
 20
198.818326082
 30
0.0
  0
VERTEX
  5
448
  8
0
  6
SLD-SOLID
 62
     7
 10
199.7867792319
 20
198.5320426448
 30
0.0
  0
VERTEX
  5
449
  8
0
  6
SLD-SOLID
 62
     7
 10
199.7711106609
 20
198.4341392218
 30
0.0
  0
SEQEND
  5
44A
  8
0
  6
SLD-SOLID
 62
     7
  0
LINE
  5
1EF
  8
0
  6
SLD-SOLID
 62
     7
 10
199.7711106609
 20
519.3200102932
 30
0.0
 11
199.7711106609
 21
198.4341392218
 31
0.0
  0
POLYLINE
  5
1F0
  8
0
  6
SLD-SOLID
 62
     7
 66
     1
 10
0.0
 20
0.0
 30
0.0
  0
VERTEX
  5
44B
  8
0
  6
SLD-SOLID
 62
     7
 10
498.7211048077
 20
199.6770683601
 30
0.0
  0
VERTEX
  5
44C
  8
0
  6
SLD-SOLID
 62
     7
 10
499.0072816084
 20
198.9517068415
 30
0.0
  0
VERTEX
  5
44D
  8
0
  6
SLD-SOLID
 62
     7
 10
499.2935627173
 20
198.3199921361
 30
0.0
  0
VERTEX
  5
44E
  8
0
  6
SLD-SOLID
 62
     7
 10
499.5798438261
 20
197.8639886639
 30
0.0
  0
VERTEX
  5
44F
  8
0
  6
SLD-SOLID
 62
     7
 10
499.8661398362
 20
197.6427390165
 30
0.0
  0
VERTEX
  5
450
  8
0
  6
SLD-SOLID
 62
     7
 10
499.9640404652
 20
197.6270681172
 30
0.0
  0
SEQEND
  5
451
  8
0
  6
SLD-SOLID
 62
     7
  0
ARC
  5
1F1
  8
0
  6
SLD-SOLID
 62
     7
 10
500.7590352312
 20
200.46052552
 30
0.0
 40
2.18333816261829
 50
201.0286387906
 51
248.6466294967
  0
LINE
  5
1F2
  8
0
  6
SLD-SOLID
 62
     7
 10
499.9640404652
 20
197.6270681172
 30
0.0
 11
499.9640404652
 21
198.4270681552
 31
0.0
  0
POLYLINE
  5
1F3
  8
0
  6
SLD-SOLID
 62
     7
 66
     1
 10
0.0
 20
0.0
 30
0.0
  0
VERTEX
  5
452
  8
0
  6
SLD-SOLID
 62
     7
 10
200.5781799029
 20
197.6270681172
 30
0.0
  0
VERTEX
  5
453
  8
0
  6
SLD-SOLID
 62
     7
 10
200.8643567036
 20
197.7596870548
 30
0.0
  0
VERTEX
  5
454
  8
0
  6
SLD-SOLID
 62
     7
 10
201.1506378125
 20
198.1405639946
 30
0.0
  0
VERTEX
  5
455
  8
0
  6
SLD-SOLID
 62
     7
 10
201.4369189213
 20
198.7203854061
 30
0.0
  0
VERTEX
  5
456
  8
0
  6
SLD-SOLID
 62
     7
 10
201.7232074808
 20
199.4240759797
 30
0.0
  0
VERTEX
  5
457
  8
0
  6
SLD-SOLID
 62
     7
 10
201.8211081098
 20
199.6770683601
 30
0.0
  0
SEQEND
  5
458
  8
0
  6
SLD-SOLID
 62
     7
  0
LINE
  5
1F4
  8
0
  6
SLD-SOLID
 62
     7
 10
200.5781799029
 20
197.6270681172
 30
0.0
 11
200.5781799029
 21
198.4270681552
 31
0.0
  0
ARC
  5
1F5
  8
0
  6
SLD-SOLID
 62
     7
 10
199.7449022533
 20
200.4985796674
 30
0.0
 40
2.232825919438727
 50
291.9127463486
 51
338.41232881
  0
LINE
  5
1F6
  8
0
  6
SLD-SOLID
 62
     7
 10
499.9640404652
 20
197.6270681172
 30
0.0
 11
200.5781799029
 21
197.6270681172
 31
0.0
  0
LINE
  5
1F7
  8
0
  6
SLD-SOLID
 62
     7
 10
441.0711049508
 20
512.1270707733
 30
0.0
 11
441.0711049508
 21
468.1270710117
 31
0.0
  0
LINE
  5
1F8
  8
0
  6
SLD-SOLID
 62
     7
 10
435.0711076926
 20
468.1270710117
 30
0.0
 11
435.0711076926
 21
512.1270707733
 31
0.0
  0
ARC
  5
1F9
  8
0
  6
SLD-SOLID
 62
     7
 10
423.5711086961
 20
512.1270682959
 30
0.0
 40
3.0
 50
0.0
 51
180.0
  0
LINE
  5
1FA
  8
0
  6
SLD-SOLID
 62
     7
 10
420.5711081098
 20
468.1270710117
 30
0.0
 11
420.5711081098
 21
512.1270707733
 31
0.0
  0
ARC
  5
1FB
  8
0
  6
SLD-SOLID
 62
     7
 10
438.0711086961
 20
468.1270682959
 30
0.0
 40
3.0
 50
180.0
 51
0.0
  0
ARC
  5
1FC
  8
0
  6
SLD-SOLID
 62
     7
 10
452.5711086961
 20
468.1270682959
 30
0.0
 40
3.0
 50
180.0
 51
0.0
  0
LINE
  5
1FD
  8
0
  6
SLD-SOLID
 62
     7
 10
449.5711147259
 20
468.1270710117
 30
0.0
 11
449.5711147259
 21
512.1270707733
 31
0.0
  0
ARC
  5
1FE
  8
0
  6
SLD-SOLID
 62
     7
 10
452.5711086961
 20
512.1270682959
 30
0.0
 40
3.0
 50
0.0
 51
180.0
  0
LINE
  5
1FF
  8
0
  6
SLD-SOLID
 62
     7
 10
464.0711068581
 20
468.1270710117
 30
0.0
 11
464.0711068581
 21
508.1270626671
 31
0.0
  0
ARC
  5
200
  8
0
  6
SLD-SOLID
 62
     7
 10
467.0711086961
 20
512.1270682959
 30
0.0
 40
5.000000000000045
 50
306.8698976458
 51
233.1301023542
  0
ARC
  5
201
  8
0
  6
SLD-SOLID
 62
     7
 10
438.0711086961
 20
512.1270682959
 30
0.0
 40
3.000000000000057
 50
0.0
 51
180.0
  0
LINE
  5
202
  8
0
  6
SLD-SOLID
 62
     7
 10
455.5711119841
 20
512.1270707733
 30
0.0
 11
455.5711119841
 21
468.1270710117
 31
0.0
  0
LINE
  5
203
  8
0
  6
SLD-SOLID
 62
     7
 10
238.071110792
 20
508.1270626671
 30
0.0
 11
238.071110792
 21
468.1270710117
 31
0.0
  0
ARC
  5
204
  8
0
  6
SLD-SOLID
 62
     7
 10
235.0711086961
 20
468.1270682959
 30
0.0
 40
3.000000000000028
 50
180.0
 51
0.0
  0
LINE
  5
205
  8
0
  6
SLD-SOLID
 62
     7
 10
232.0711060832
 20
468.1270710117
 30
0.0
 11
232.0711060832
 21
508.1270626671
 31
0.0
  0
ARC
  5
206
  8
0
  6
SLD-SOLID
 62
     7
 10
235.0711086961
 20
512.1270682959
 30
0.0
 40
5.000000000000062
 50
306.8698976458
 51
233.1301023542
  0
LINE
  5
207
  8
0
  6
SLD-SOLID
 62
     7
 10
470.0711041163
 20
508.1270626671
 30
0.0
 11
470.0711041163
 21
468.1270710117
 31
0.0
  0
ARC
  5
208
  8
0
  6
SLD-SOLID
 62
     7
 10
467.0711086961
 20
468.1270682959
 30
0.0
 40
3.0
 50
180.0
 51
0.0
  0
LINE
  5
209
  8
0
  6
SLD-SOLID
 62
     7
 10
223.5711112092
 20
512.1270707733
 30
0.0
 11
223.5711112092
 21
468.1270710117
 31
0.0
  0
ARC
  5
20A
  8
0
  6
SLD-SOLID
 62
     7
 10
220.5711086961
 20
468.1270682959
 30
0.0
 40
3.0
 50
180.0
 51
0.0
  0
LINE
  5
20B
  8
0
  6
SLD-SOLID
 62
     7
 10
217.5711065005
 20
468.1270710117
 30
0.0
 11
217.5711065005
 21
512.1270707733
 31
0.0
  0
ARC
  5
20C
  8
0
  6
SLD-SOLID
 62
     7
 10
220.5711086961
 20
512.1270682959
 30
0.0
 40
3.000000000000028
 50
0.0
 51
180.0
  0
LINE
  5
20D
  8
0
  6
SLD-SOLID
 62
     7
 10
252.5711103748
 20
512.1270707733
 30
0.0
 11
252.5711103748
 21
468.1270710117
 31
0.0
  0
ARC
  5
20E
  8
0
  6
SLD-SOLID
 62
     7
 10
249.5711086961
 20
468.1270682959
 30
0.0
 40
3.0
 50
180.0
 51
0.0
  0
LINE
  5
20F
  8
0
  6
SLD-SOLID
 62
     7
 10
246.5711093913
 20
468.1270710117
 30
0.0
 11
246.5711093913
 21
512.1270707733
 31
0.0
  0
ARC
  5
210
  8
0
  6
SLD-SOLID
 62
     7
 10
249.5711086961
 20
512.1270682959
 30
0.0
 40
3.0
 50
0.0
 51
180.0
  0
LINE
  5
211
  8
0
  6
SLD-SOLID
 62
     7
 10
267.0711099575
 20
512.1270707733
 30
0.0
 11
267.0711099575
 21
468.1270710117
 31
0.0
  0
ARC
  5
212
  8
0
  6
SLD-SOLID
 62
     7
 10
264.0711086961
 20
468.1270682959
 30
0.0
 40
3.0
 50
180.0
 51
0.0
  0
LINE
  5
213
  8
0
  6
SLD-SOLID
 62
     7
 10
261.0711089741
 20
468.1270710117
 30
0.0
 11
261.0711089741
 21
512.1270707733
 31
0.0
  0
ARC
  5
214
  8
0
  6
SLD-SOLID
 62
     7
 10
264.0711086961
 20
512.1270682959
 30
0.0
 40
3.000000000000057
 50
0.0
 51
180.0
  0
LINE
  5
215
  8
0
  6
SLD-SOLID
 62
     7
 10
281.5711095403
 20
512.1270707733
 30
0.0
 11
281.5711095403
 21
468.1270710117
 31
0.0
  0
ARC
  5
216
  8
0
  6
SLD-SOLID
 62
     7
 10
278.5711086961
 20
468.1270682959
 30
0.0
 40
3.0
 50
180.0
 51
0.0
  0
LINE
  5
217
  8
0
  6
SLD-SOLID
 62
     7
 10
275.5711085568
 20
468.1270710117
 30
0.0
 11
275.5711085568
 21
512.1270707733
 31
0.0
  0
ARC
  5
218
  8
0
  6
SLD-SOLID
 62
     7
 10
278.5711086961
 20
512.1270682959
 30
0.0
 40
3.0
 50
0.0
 51
180.0
  0
LINE
  5
219
  8
0
  6
SLD-SOLID
 62
     7
 10
296.0711091231
 20
512.1270707733
 30
0.0
 11
296.0711091231
 21
468.1270710117
 31
0.0
  0
ARC
  5
21A
  8
0
  6
SLD-SOLID
 62
     7
 10
293.0711086961
 20
468.1270682959
 30
0.0
 40
3.0
 50
180.0
 51
0.0
  0
LINE
  5
21B
  8
0
  6
SLD-SOLID
 62
     7
 10
290.0711081396
 20
468.1270710117
 30
0.0
 11
290.0711081396
 21
512.1270707733
 31
0.0
  0
ARC
  5
21C
  8
0
  6
SLD-SOLID
 62
     7
 10
293.0711086961
 20
512.1270682959
 30
0.0
 40
3.000000000000057
 50
0.0
 51
180.0
  0
LINE
  5
21D
  8
0
  6
SLD-SOLID
 62
     7
 10
310.5711087058
 20
512.1270707733
 30
0.0
 11
310.5711087058
 21
468.1270710117
 31
0.0
  0
ARC
  5
21E
  8
0
  6
SLD-SOLID
 62
     7
 10
307.5711086961
 20
468.1270682959
 30
0.0
 40
3.0
 50
180.0
 51
0.0
  0
LINE
  5
21F
  8
0
  6
SLD-SOLID
 62
     7
 10
304.5711086537
 20
468.1270710117
 30
0.0
 11
304.5711086537
 21
512.1270707733
 31
0.0
  0
ARC
  5
220
  8
0
  6
SLD-SOLID
 62
     7
 10
307.5711086961
 20
512.1270682959
 30
0.0
 40
3.0
 50
0.0
 51
180.0
  0
LINE
  5
221
  8
0
  6
SLD-SOLID
 62
     7
 10
325.0711082886
 20
512.1270707733
 30
0.0
 11
325.0711082886
 21
468.1270710117
 31
0.0
  0
ARC
  5
222
  8
0
  6
SLD-SOLID
 62
     7
 10
322.0711086961
 20
468.1270682959
 30
0.0
 40
3.000000000000057
 50
180.0
 51
0.0
  0
LINE
  5
223
  8
0
  6
SLD-SOLID
 62
     7
 10
319.0711082365
 20
468.1270710117
 30
0.0
 11
319.0711082365
 21
512.1270707733
 31
0.0
  0
ARC
  5
224
  8
0
  6
SLD-SOLID
 62
     7
 10
322.0711086961
 20
512.1270682959
 30
0.0
 40
3.000000000000057
 50
0.0
 51
180.0
  0
LINE
  5
225
  8
0
  6
SLD-SOLID
 62
     7
 10
339.5711078714
 20
512.1270707733
 30
0.0
 11
339.5711078714
 21
468.1270710117
 31
0.0
  0
ARC
  5
226
  8
0
  6
SLD-SOLID
 62
     7
 10
336.5711086961
 20
468.1270682959
 30
0.0
 40
3.0
 50
180.0
 51
0.0
  0
LINE
  5
227
  8
0
  6
SLD-SOLID
 62
     7
 10
333.5711087506
 20
468.1270710117
 30
0.0
 11
333.5711087506
 21
512.1270707733
 31
0.0
  0
ARC
  5
228
  8
0
  6
SLD-SOLID
 62
     7
 10
336.5711086961
 20
512.1270682959
 30
0.0
 40
3.000000000000057
 50
0.0
 51
180.0
  0
LINE
  5
229
  8
0
  6
SLD-SOLID
 62
     7
 10
354.0711074541
 20
512.1270707733
 30
0.0
 11
354.0711074541
 21
468.1270710117
 31
0.0
  0
ARC
  5
22A
  8
0
  6
SLD-SOLID
 62
     7
 10
351.0711086961
 20
468.1270682959
 30
0.0
 40
3.0
 50
180.0
 51
0.0
  0
LINE
  5
22B
  8
0
  6
SLD-SOLID
 62
     7
 10
348.071110196
 20
468.1270710117
 30
0.0
 11
348.071110196
 21
512.1270707733
 31
0.0
  0
ARC
  5
22C
  8
0
  6
SLD-SOLID
 62
     7
 10
351.0711086961
 20
512.1270682959
 30
0.0
 40
3.0
 50
0.0
 51
180.0
  0
LINE
  5
22D
  8
0
  6
SLD-SOLID
 62
     7
 10
368.5711070369
 20
512.1270707733
 30
0.0
 11
368.5711070369
 21
468.1270710117
 31
0.0
  0
ARC
  5
22E
  8
0
  6
SLD-SOLID
 62
     7
 10
365.5711086961
 20
468.1270682959
 30
0.0
 40
3.0
 50
180.0
 51
0.0
  0
LINE
  5
22F
  8
0
  6
SLD-SOLID
 62
     7
 10
362.5711097787
 20
468.1270710117
 30
0.0
 11
362.5711097787
 21
512.1270707733
 31
0.0
  0
ARC
  5
230
  8
0
  6
SLD-SOLID
 62
     7
 10
365.5711086961
 20
512.1270682959
 30
0.0
 40
3.000000000000057
 50
0.0
 51
180.0
  0
LINE
  5
231
  8
0
  6
SLD-SOLID
 62
     7
 10
383.0711066197
 20
512.1270707733
 30
0.0
 11
383.0711066197
 21
468.1270710117
 31
0.0
  0
ARC
  5
232
  8
0
  6
SLD-SOLID
 62
     7
 10
380.0711086961
 20
468.1270682959
 30
0.0
 40
3.0
 50
180.0
 51
0.0
  0
LINE
  5
233
  8
0
  6
SLD-SOLID
 62
     7
 10
377.0711093615
 20
468.1270710117
 30
0.0
 11
377.0711093615
 21
512.1270707733
 31
0.0
  0
ARC
  5
234
  8
0
  6
SLD-SOLID
 62
     7
 10
380.0711086961
 20
512.1270682959
 30
0.0
 40
3.0
 50
0.0
 51
180.0
  0
LINE
  5
235
  8
0
  6
SLD-SOLID
 62
     7
 10
397.5711062025
 20
512.1270707733
 30
0.0
 11
397.5711062025
 21
468.1270710117
 31
0.0
  0
ARC
  5
236
  8
0
  6
SLD-SOLID
 62
     7
 10
394.5711086961
 20
468.1270682959
 30
0.0
 40
3.000000000000057
 50
180.0
 51
0.0
  0
LINE
  5
237
  8
0
  6
SLD-SOLID
 62
     7
 10
391.5711089443
 20
468.1270710117
 30
0.0
 11
391.5711089443
 21
512.1270707733
 31
0.0
  0
ARC
  5
238
  8
0
  6
SLD-SOLID
 62
     7
 10
394.5711086961
 20
512.1270682959
 30
0.0
 40
3.0
 50
0.0
 51
180.0
  0
LINE
  5
239
  8
0
  6
SLD-SOLID
 62
     7
 10
412.0711057852
 20
512.1270707733
 30
0.0
 11
412.0711057852
 21
468.1270710117
 31
0.0
  0
ARC
  5
23A
  8
0
  6
SLD-SOLID
 62
     7
 10
409.0711086961
 20
468.1270682959
 30
0.0
 40
3.000000000000057
 50
180.0
 51
0.0
  0
LINE
  5
23B
  8
0
  6
SLD-SOLID
 62
     7
 10
406.071108527
 20
468.1270710117
 30
0.0
 11
406.071108527
 21
512.1270707733
 31
0.0
  0
ARC
  5
23C
  8
0
  6
SLD-SOLID
 62
     7
 10
409.0711086961
 20
512.1270682959
 30
0.0
 40
3.0
 50
0.0
 51
180.0
  0
LINE
  5
23D
  8
0
  6
SLD-SOLID
 62
     7
 10
426.571105368
 20
512.1270707733
 30
0.0
 11
426.571105368
 21
468.1270710117
 31
0.0
  0
ARC
  5
23E
  8
0
  6
SLD-SOLID
 62
     7
 10
423.5711086961
 20
468.1270682959
 30
0.0
 40
3.0
 50
180.0
 51
0.0
  0
ARC
  5
23F
  8
0
  6
SLD-SOLID
 62
     7
 10
202.6045396316
 20
197.6391618362
 30
0.0
 40
2.183306654956446
 50
111.0282358445
 51
158.6467959597
  0
LINE
  5
240
  8
0
  6
SLD-SOLID
 62
     7
 10
199.7711106609
 20
198.4341392218
 30
0.0
 11
200.5711093019
 21
198.4341392218
 31
0.0
  0
LINE
  5
241
  8
0
  6
SLD-SOLID
 62
     7
 10
238.2211058806
 20
508.9270762093
 30
0.0
 11
231.9211109947
 21
508.9270762093
 31
0.0
  0
LINE
  5
242
  8
0
  6
SLD-SOLID
 62
     7
 10
238.2211058806
 20
515.3270653374
 30
0.0
 11
238.9889627169
 21
515.233575452
 31
0.0
  0
LINE
  5
243
  8
0
  6
SLD-SOLID
 62
     7
 10
238.9889627169
 20
509.0205660946
 30
0.0
 11
238.2211058806
 21
508.9270762093
 31
0.0
  0
LINE
  5
244
  8
0
  6
SLD-SOLID
 62
     7
 10
231.9211109947
 20
515.3270653374
 30
0.0
 11
238.2211058806
 21
515.3270653374
 31
0.0
  0
LINE
  5
245
  8
0
  6
SLD-SOLID
 62
     7
 10
231.9211109947
 20
508.9270762093
 30
0.0
 11
231.1532541583
 21
509.0205660946
 31
0.0
  0
LINE
  5
246
  8
0
  6
SLD-SOLID
 62
     7
 10
231.1532541583
 20
515.233575452
 30
0.0
 11
231.9211109947
 21
515.3270653374
 31
0.0
  0
LINE
  5
247
  8
0
  6
SLD-SOLID
 62
     7
 10
470.221114106
 20
508.9270762093
 30
0.0
 11
463.9211117695
 21
508.9270762093
 31
0.0
  0
LINE
  5
248
  8
0
  6
SLD-SOLID
 62
     7
 10
470.221114106
 20
515.3270653374
 30
0.0
 11
470.9889709423
 21
515.233575452
 31
0.0
  0
LINE
  5
249
  8
0
  6
SLD-SOLID
 62
     7
 10
470.9889709423
 20
509.0205660946
 30
0.0
 11
470.221114106
 21
508.9270762093
 31
0.0
  0
LINE
  5
24A
  8
0
  6
SLD-SOLID
 62
     7
 10
463.9211117695
 20
515.3270653374
 30
0.0
 11
470.221114106
 21
515.3270653374
 31
0.0
  0
LINE
  5
24B
  8
0
  6
SLD-SOLID
 62
     7
 10
463.9211117695
 20
508.9270762093
 30
0.0
 11
463.1532549332
 21
509.0205660946
 31
0.0
  0
LINE
  5
24C
  8
0
  6
SLD-SOLID
 62
     7
 10
463.1532549332
 20
515.233575452
 30
0.0
 11
463.9211117695
 21
515.3270653374
 31
0.0
  0
LINE
  5
24D
  8
0
  6
SLD-SOLID
 62
     7
 10
217.5711065005
 20
504.3270579464
 30
0.0
 11
223.5711112092
 21
504.3270579464
 31
0.0
  0
LINE
  5
24E
  8
0
  6
SLD-SOLID
 62
     7
 10
232.0711060832
 20
504.3270579464
 30
0.0
 11
238.071110792
 21
504.3270579464
 31
0.0
  0
LINE
  5
24F
  8
0
  6
SLD-SOLID
 62
     7
 10
246.5711093913
 20
504.3270579464
 30
0.0
 11
252.5711103748
 21
504.3270579464
 31
0.0
  0
LINE
  5
250
  8
0
  6
SLD-SOLID
 62
     7
 10
261.0711089741
 20
504.3270579464
 30
0.0
 11
267.0711099575
 21
504.3270579464
 31
0.0
  0
LINE
  5
251
  8
0
  6
SLD-SOLID
 62
     7
 10
275.5711085568
 20
504.3270579464
 30
0.0
 11
281.5711095403
 21
504.3270579464
 31
0.0
  0
LINE
  5
252
  8
0
  6
SLD-SOLID
 62
     7
 10
290.0711081396
 20
504.3270579464
 30
0.0
 11
296.0711091231
 21
504.3270579464
 31
0.0
  0
LINE
  5
253
  8
0
  6
SLD-SOLID
 62
     7
 10
304.5711086537
 20
504.3270579464
 30
0.0
 11
310.5711087058
 21
504.3270579464
 31
0.0
  0
LINE
  5
254
  8
0
  6
SLD-SOLID
 62
     7
 10
319.0711082365
 20
504.3270579464
 30
0.0
 11
325.0711082886
 21
504.3270579464
 31
0.0
  0
LINE
  5
255
  8
0
  6
SLD-SOLID
 62
     7
 10
333.5711087506
 20
504.3270579464
 30
0.0
 11
339.5711078714
 21
504.3270579464
 31
0.0
  0
LINE
  5
256
  8
0
  6
SLD-SOLID
 62
     7
 10
348.071110196
 20
504.3270579464
 30
0.0
 11
354.0711074541
 21
504.3270579464
 31
0.0
  0
LINE
  5
257
  8
0
  6
SLD-SOLID
 62
     7
 10
362.5711097787
 20
504.3270579464
 30
0.0
 11
368.5711070369
 21
504.3270579464
 31
0.0
  0
LINE
  5
258
  8
0
  6
SLD-SOLID
 62
     7
 10
377.0711093615
 20
504.3270579464
 30
0.0
 11
383.0711066197
 21
504.3270579464
 31
0.0
  0
LINE
  5
259
  8
0
  6
SLD-SOLID
 62
     7
 10
391.5711089443
 20
504.3270579464
 30
0.0
 11
397.5711062025
 21
504.3270579464
 31
0.0
  0
LINE
  5
25A
  8
0
  6
SLD-SOLID
 62
     7
 10
406.071108527
 20
504.3270579464
 30
0.0
 11
412.0711057852
 21
504.3270579464
 31
0.0
  0
LINE
  5
25B
  8
0
  6
SLD-SOLID
 62
     7
 10
420.5711081098
 20
504.3270579464
 30
0.0
 11
426.571105368
 21
504.3270579464
 31
0.0
  0
LINE
  5
25C
  8
0
  6
SLD-SOLID
 62
     7
 10
435.0711076926
 20
504.3270579464
 30
0.0
 11
441.0711049508
 21
504.3270579464
 31
0.0
  0
LINE
  5
25D
  8
0
  6
SLD-SOLID
 62
     7
 10
449.5711147259
 20
504.3270579464
 30
0.0
 11
455.5711119841
 21
504.3270579464
 31
0.0
  0
LINE
  5
25E
  8
0
  6
SLD-SOLID
 62
     7
 10
464.0711068581
 20
504.3270579464
 30
0.0
 11
470.0711041163
 21
504.3270579464
 31
0.0
  0
LINE
  5
25F
  8
0
  6
SLD-SOLID
 62
     7
 10
263.3711069296
 20
195.627068255
 30
0.0
 11
206.441816635
 21
195.627068255
 31
0.0
  0
LINE
  5
260
  8
0
  6
SLD-SOLID
 62
     7
 10
263.3711069296
 20
197.1270685009
 30
0.0
 11
206.441816635
 21
197.1270685009
 31
0.0
  0
LINE
  5
261
  8
0
  6
SLD-SOLID
 62
     7
 10
201.4418214034
 20
195.627068255
 30
0.0
 11
201.4418214034
 21
197.1270685009
 31
0.0
  0
LINE
  5
262
  8
0
  6
SLD-SOLID
 62
     7
 10
206.441816635
 20
197.1270685009
 30
0.0
 11
201.4418214034
 21
197.1270685009
 31
0.0
  0
LINE
  5
263
  8
0
  6
SLD-SOLID
 62
     7
 10
206.441816635
 20
195.627068255
 30
0.0
 11
201.4418214034
 21
195.627068255
 31
0.0
  0
LINE
  5
264
  8
0
  6
SLD-SOLID
 62
     7
 10
268.3711096118
 20
195.627068255
 30
0.0
 11
268.3711096118
 21
197.1270685009
 31
0.0
  0
LINE
  5
265
  8
0
  6
SLD-SOLID
 62
     7
 10
268.3711096118
 20
197.1270685009
 30
0.0
 11
263.3711069296
 21
197.1270685009
 31
0.0
  0
LINE
  5
266
  8
0
  6
SLD-SOLID
 62
     7
 10
268.3711096118
 20
195.627068255
 30
0.0
 11
263.3711069296
 21
195.627068255
 31
0.0
  0
LINE
  5
267
  8
0
  6
SLD-SOLID
 62
     7
 10
413.3711054395
 20
195.627068255
 30
0.0
 11
413.3711054395
 21
197.1270685009
 31
0.0
  0
LINE
  5
268
  8
0
  6
SLD-SOLID
 62
     7
 10
418.3711081217
 20
197.1270685009
 30
0.0
 11
413.3711054395
 21
197.1270685009
 31
0.0
  0
LINE
  5
269
  8
0
  6
SLD-SOLID
 62
     7
 10
418.3711081217
 20
195.627068255
 30
0.0
 11
413.3711054395
 21
195.627068255
 31
0.0
  0
LINE
  5
26A
  8
0
  6
SLD-SOLID
 62
     7
 10
482.3003977011
 20
197.1270685009
 30
0.0
 11
418.3711081217
 21
197.1270685009
 31
0.0
  0
LINE
  5
26B
  8
0
  6
SLD-SOLID
 62
     7
 10
482.3003977011
 20
195.627068255
 30
0.0
 11
418.3711081217
 21
195.627068255
 31
0.0
  0
LINE
  5
26C
  8
0
  6
SLD-SOLID
 62
     7
 10
487.3003929327
 20
195.627068255
 30
0.0
 11
487.3003929327
 21
197.1270685009
 31
0.0
  0
LINE
  5
26D
  8
0
  6
SLD-SOLID
 62
     7
 10
487.3003929327
 20
197.1270685009
 30
0.0
 11
482.3003977011
 21
197.1270685009
 31
0.0
  0
LINE
  5
26E
  8
0
  6
SLD-SOLID
 62
     7
 10
487.3003929327
 20
195.627068255
 30
0.0
 11
482.3003977011
 21
195.627068255
 31
0.0
  0
LINE
  5
26F
  8
0
  6
SLD-SOLID
 62
     7
 10
273.3711085688
 20
197.1270685009
 30
0.0
 11
268.3711096118
 21
197.1270685009
 31
0.0
  0
LINE
  5
270
  8
0
  6
SLD-SOLID
 62
     7
 10
273.3711085688
 20
195.627068255
 30
0.0
 11
268.3711096118
 21
195.627068255
 31
0.0
  0
LINE
  5
271
  8
0
  6
SLD-SOLID
 62
     7
 10
413.3711054395
 20
197.1270685009
 30
0.0
 11
408.3711102079
 21
197.1270685009
 31
0.0
  0
LINE
  5
272
  8
0
  6
SLD-SOLID
 62
     7
 10
413.3711054395
 20
195.627068255
 30
0.0
 11
408.3711102079
 21
195.627068255
 31
0.0
  0
LINE
  5
273
  8
0
  6
SLD-SOLID
 62
     7
 10
408.3711102079
 20
197.1270685009
 30
0.0
 11
273.3711085688
 21
197.1270685009
 31
0.0
  0
LINE
  5
274
  8
0
  6
SLD-SOLID
 62
     7
 10
408.3711102079
 20
195.627068255
 30
0.0
 11
273.3711085688
 21
195.627068255
 31
0.0
  0
LINE
  5
275
  8
0
  6
SLD-SOLID
 62
     7
 10
487.3003929327
 20
197.1270685009
 30
0.0
 11
487.3003929327
 21
197.6270681172
 31
0.0
  0
LINE
  5
276
  8
0
  6
SLD-SOLID
 62
     7
 10
201.4418214034
 20
197.6270681172
 30
0.0
 11
201.4418214034
 21
197.1270685009
 31
0.0
  0
LINE
  5
277
  8
0
  6
SLD-SOLID
 62
     7
 10
201.4418214034
 20
199.4304629899
 30
0.0
 11
201.4418214034
 21
199.1106584593
 31
0.0
  0
LINE
  5
278
  8
0
  6
SLD-SOLID
 62
     7
 10
199.8711123537
 20
198.4341392218
 30
0.0
 11
199.8711123537
 21
198.3770682401
 31
0.0
  0
LINE
  5
279
  8
0
  6
SLD-SOLID
 62
     7
 10
201.3711079429
 20
199.3844887166
 30
0.0
 11
201.3711079429
 21
199.0173352807
 31
0.0
  0
ARC
  5
27A
  8
0
  6
SLD-SOLID
 62
     7
 10
486.1211086961
 20
198.3770682959
 30
0.0
 40
2.750000000000119
 50
295.3934892294
 51
344.1733798681
  0
ARC
  5
27B
  8
0
  6
SLD-SOLID
 62
     7
 10
202.6211086961
 20
198.3770682959
 30
0.0
 40
2.750000000000056
 50
180.0
 51
244.6065107706
  0
CIRCLE
  5
27C
  8
0
  6
SLD-SOLID
 62
     7
 10
467.0711086961
 20
512.1270682959
 30
0.0
 40
2.550000000000011
  0
ARC
  5
27D
  8
0
  6
SLD-SOLID
 62
     7
 10
467.0711086961
 20
512.1270682959
 30
0.0
 40
3.5
 50
180.0
 51
246.104491814
  0
ARC
  5
27E
  8
0
  6
SLD-SOLID
 62
     7
 10
467.0711086961
 20
512.1270682959
 30
0.0
 40
3.500000000000026
 50
293.895508186
 51
66.1044918137
  0
ARC
  5
27F
  8
0
  6
SLD-SOLID
 62
     7
 10
467.0711086961
 20
512.1270682959
 30
0.0
 40
3.500000000000049
 50
113.8955081863
 51
180.0
  0
CIRCLE
  5
280
  8
0
  6
SLD-SOLID
 62
     7
 10
467.0711086961
 20
512.1270682959
 30
0.0
 40
2.125
  0
CIRCLE
  5
281
  8
0
  6
SLD-SOLID
 62
     7
 10
467.0711086961
 20
512.1270682959
 30
0.0
 40
1.650000000000034
  0
CIRCLE
  5
282
  8
0
  6
SLD-SOLID
 62
     7
 10
235.0711086961
 20
512.1270682959
 30
0.0
 40
2.549999999999983
  0
ARC
  5
283
  8
0
  6
SLD-SOLID
 62
     7
 10
235.0711086961
 20
512.1270682959
 30
0.0
 40
3.5
 50
180.0
 51
246.104491814
  0
ARC
  5
284
  8
0
  6
SLD-SOLID
 62
     7
 10
235.0711086961
 20
512.1270682959
 30
0.0
 40
3.500000000000037
 50
293.895508186
 51
66.1044918137
  0
ARC
  5
285
  8
0
  6
SLD-SOLID
 62
     7
 10
235.0711086961
 20
512.1270682959
 30
0.0
 40
3.500000000000037
 50
113.8955081863
 51
180.0
  0
CIRCLE
  5
286
  8
0
  6
SLD-SOLID
 62
     7
 10
235.0711086961
 20
512.1270682959
 30
0.0
 40
2.125
  0
CIRCLE
  5
287
  8
0
  6
SLD-SOLID
 62
     7
 10
235.0711086961
 20
512.1270682959
 30
0.0
 40
1.650000000000006
  0
LINE
  5
288
  8
0
  6
SLD-SOLID
 62
     7
 10
390.096162207
 20
542.8034952766
 30
0.0
 11
390.1048421334
 21
542.7542618401
 31
0.0
  0
LINE
  5
289
  8
0
  6
SLD-SOLID
 62
     7
 10
390.1048421334
 20
542.7542618401
 30
0.0
 11
391.1768093179
 21
543.1968263275
 31
0.0
  0
LINE
  5
28A
  8
0
  6
SLD-SOLID
 62
     7
 10
391.1768093179
 20
543.1968263275
 30
0.0
 11
399.3861942957
 21
520.6417134888
 31
0.0
  0
LINE
  5
28B
  8
0
  6
SLD-SOLID
 62
     7
 10
399.3861942957
 20
520.6417134888
 30
0.0
 11
398.7576409648
 21
520.1270571835
 31
0.0
  0
LINE
  5
28C
  8
0
  6
SLD-SOLID
 62
     7
 10
316.2102035652
 20
520.1270571835
 30
0.0
 11
316.2102035652
 21
529.9781850464
 31
0.0
  0
LINE
  5
28D
  8
0
  6
SLD-SOLID
 62
     7
 10
316.2102035652
 20
529.9781850464
 30
0.0
 11
317.3688861947
 21
529.9289516098
 31
0.0
  0
LINE
  5
28E
  8
0
  6
SLD-SOLID
 62
     7
 10
317.3688861947
 20
529.9289516098
 30
0.0
 11
317.3602044056
 21
529.9781850464
 31
0.0
  0
LINE
  5
28F
  8
0
  6
SLD-SOLID
 62
     7
 10
199.6102004717
 20
505.1270714886
 30
0.0
 11
199.7711106609
 21
505.1270714886
 31
0.0
  0
ARC
  5
290
  8
0
  6
SLD-SOLID
 62
     7
 10
199.6102039464
 20
506.1270682959
 30
0.0
 40
1.000000000000017
 50
186.8176762516
 51
270.0
  0
LINE
  5
291
  8
0
  6
SLD-SOLID
 62
     7
 10
198.6172764967
 20
506.0083559639
 30
0.0
 11
198.6172764967
 21
518.0770746357
 31
0.0
  0
POLYLINE
  5
292
  8
0
  6
SLD-SOLID
 62
     7
 66
     1
 10
0.0
 20
0.0
 30
0.0
  0
VERTEX
  5
459
  8
0
  6
SLD-SOLID
 62
     7
 10
198.6172764967
 20
518.0770746357
 30
0.0
  0
VERTEX
  5
45A
  8
0
  6
SLD-SOLID
 62
     7
 10
198.9034532975
 20
518.8024333603
 30
0.0
  0
VERTEX
  5
45B
  8
0
  6
SLD-SOLID
 62
     7
 10
199.1897344063
 20
519.4341531879
 30
0.0
  0
VERTEX
  5
45C
  8
0
  6
SLD-SOLID
 62
     7
 10
199.4760155152
 20
519.8901585228
 30
0.0
  0
VERTEX
  5
45D
  8
0
  6
SLD-SOLID
 62
     7
 10
199.7623040746
 20
520.1114109642
 30
0.0
  0
VERTEX
  5
45E
  8
0
  6
SLD-SOLID
 62
     7
 10
199.8602047037
 20
520.1270571835
 30
0.0
  0
SEQEND
  5
45F
  8
0
  6
SLD-SOLID
 62
     7
  0
LINE
  5
293
  8
0
  6
SLD-SOLID
 62
     7
 10
199.8602047037
 20
520.1270571835
 30
0.0
 11
200.5781799029
 21
520.1270571835
 31
0.0
  0
LINE
  5
294
  8
0
  6
SLD-SOLID
 62
     7
 10
317.0042249779
 20
531.9970539696
 30
0.0
 11
389.7401809166
 21
544.8223641998
 31
0.0
  0
POLYLINE
  5
295
  8
0
  6
SLD-SOLID
 62
     7
 66
     1
 10
0.0
 20
0.0
 30
0.0
  0
VERTEX
  5
460
  8
0
  6
SLD-SOLID
 62
     7
 10
389.8140161704
 20
544.4036415703
 30
0.0
  0
VERTEX
  5
461
  8
0
  6
SLD-SOLID
 62
     7
 10
389.8406370948
 20
544.2526630051
 30
0.0
  0
VERTEX
  5
462
  8
0
  6
SLD-SOLID
 62
     7
 10
389.8705884288
 20
544.0827897675
 30
0.0
  0
VERTEX
  5
463
  8
0
  6
SLD-SOLID
 62
     7
 10
389.9034976433
 20
543.8961676247
 30
0.0
  0
VERTEX
  5
464
  8
0
  6
SLD-SOLID
 62
     7
 10
389.9389177035
 20
543.6952999718
 30
0.0
  0
VERTEX
  5
465
  8
0
  6
SLD-SOLID
 62
     7
 10
389.9763941239
 20
543.4827498085
 30
0.0
  0
VERTEX
  5
466
  8
0
  6
SLD-SOLID
 62
     7
 10
390.0154351662
 20
543.2613185532
 30
0.0
  0
VERTEX
  5
467
  8
0
  6
SLD-SOLID
 62
     7
 10
390.055534191
 20
543.0339268333
 30
0.0
  0
VERTEX
  5
468
  8
0
  6
SLD-SOLID
 62
     7
 10
390.096162207
 20
542.8034952766
 30
0.0
  0
SEQEND
  5
469
  8
0
  6
SLD-SOLID
 62
     7
  0
POLYLINE
  5
296
  8
0
  6
SLD-SOLID
 62
     7
 66
     1
 10
0.0
 20
0.0
 30
0.0
  0
VERTEX
  5
46A
  8
0
  6
SLD-SOLID
 62
     7
 10
317.3602044056
 20
529.9781850464
 30
0.0
  0
VERTEX
  5
46B
  8
0
  6
SLD-SOLID
 62
     7
 10
317.3195754583
 20
530.2086166031
 30
0.0
  0
VERTEX
  5
46C
  8
0
  6
SLD-SOLID
 62
     7
 10
317.2794782962
 20
530.4360083229
 30
0.0
  0
VERTEX
  5
46D
  8
0
  6
SLD-SOLID
 62
     7
 10
317.2404363225
 20
530.6574395782
 30
0.0
  0
VERTEX
  5
46E
  8
0
  6
SLD-SOLID
 62
     7
 10
317.2029589708
 20
530.8699897415
 30
0.0
  0
VERTEX
  5
46F
  8
0
  6
SLD-SOLID
 62
     7
 10
317.167537048
 20
531.0708573944
 30
0.0
  0
VERTEX
  5
470
  8
0
  6
SLD-SOLID
 62
     7
 10
317.1346324901
 20
531.2574795372
 30
0.0
  0
VERTEX
  5
471
  8
0
  6
SLD-SOLID
 62
     7
 10
317.1046755682
 20
531.4273527748
 30
0.0
  0
VERTEX
  5
472
  8
0
  6
SLD-SOLID
 62
     7
 10
317.0780593003
 20
531.57833134
 30
0.0
  0
SEQEND
  5
473
  8
0
  6
SLD-SOLID
 62
     7
  0
POLYLINE
  5
297
  8
0
  6
SLD-SOLID
 62
     7
 66
     1
 10
0.0
 20
0.0
 30
0.0
  0
VERTEX
  5
474
  8
0
  6
SLD-SOLID
 62
     7
 10
500.3264367054
 20
519.3200102932
 30
0.0
  0
VERTEX
  5
475
  8
0
  6
SLD-SOLID
 62
     7
 10
500.2576082419
 20
519.4341531879
 30
0.0
  0
VERTEX
  5
476
  8
0
  6
SLD-SOLID
 62
     7
 10
499.9640404652
 20
519.6650317795
 30
0.0
  0
SEQEND
  5
477
  8
0
  6
SLD-SOLID
 62
     7
  0
ARC
  5
298
  8
0
  6
SLD-SOLID
 62
     7
 10
199.650270882
 20
518.1610202439
 30
0.0
 40
1.043447191175744
 50
130.530963318
 51
184.6144477249
  0
LINE
  5
299
  8
0
  6
SLD-SOLID
 62
     7
 10
197.8102072547
 20
518.0770746357
 30
0.0
 11
198.6102058958
 21
518.0770746357
 31
0.0
  0
ARC
  5
29A
  8
0
  6
SLD-SOLID
 62
     7
 10
199.860182224
 20
518.0770822143
 30
0.0
 40
2.049974969254794
 50
89.9993717041
 51
180.0002118189
  0
LINE
  5
29B
  8
0
  6
SLD-SOLID
 62
     7
 10
389.8140161704
 20
544.4036415703
 30
0.0
 11
389.7401809166
 21
544.8223641998
 31
0.0
  0
ARC
  5
29C
  8
0
  6
SLD-SOLID
 62
     7
 10
390.0961620794
 20
542.8035056434
 30
0.0
 40
1.250000000000034
 50
20.0
 51
100.0
  0
ARC
  5
29D
  8
0
  6
SLD-SOLID
 62
     7
 10
390.0961620794
 20
542.8035056434
 30
0.0
 40
2.050000000000074
 50
20.0
 51
100.0
  0
LINE
  5
29E
  8
0
  6
SLD-SOLID
 62
     7
 10
315.3102041627
 20
521.3770559914
 30
0.0
 11
316.1102037351
 21
521.3770559914
 31
0.0
  0
LINE
  5
29F
  8
0
  6
SLD-SOLID
 62
     7
 10
315.3102041627
 20
529.9781850464
 30
0.0
 11
315.3102041627
 21
521.3770559914
 31
0.0
  0
LINE
  5
2A0
  8
0
  6
SLD-SOLID
 62
     7
 10
316.1102037351
 20
529.9781850464
 30
0.0
 11
316.1102037351
 21
521.3770559914
 31
0.0
  0
LINE
  5
2A1
  8
0
  6
SLD-SOLID
 62
     7
 10
317.0042249779
 20
531.9970539696
 30
0.0
 11
317.0780593003
 21
531.57833134
 31
0.0
  0
ARC
  5
2A2
  8
0
  6
SLD-SOLID
 62
     7
 10
317.3602039464
 20
529.9781937569
 30
0.0
 40
2.050000000000063
 50
100.0
 51
180.0
  0
ARC
  5
2A3
  8
0
  6
SLD-SOLID
 62
     7
 10
317.3602039464
 20
529.9781937569
 30
0.0
 40
1.250000000000024
 50
100.0
 51
180.0
  0
LINE
  5
2A4
  8
0
  6
SLD-SOLID
 62
     7
 10
399.4801610182
 20
520.6759265549
 30
0.0
 11
400.2319171499
 21
520.9495416767
 31
0.0
  0
LINE
  5
2A5
  8
0
  6
SLD-SOLID
 62
     7
 10
400.2319171499
 20
520.9495416767
 30
0.0
 11
392.0225321721
 21
543.5046545155
 31
0.0
  0
LINE
  5
2A6
  8
0
  6
SLD-SOLID
 62
     7
 10
399.4801610182
 20
520.6759265549
 30
0.0
 11
391.2707760404
 21
543.2310393936
 31
0.0
  0
LINE
  5
2A7
  8
0
  6
SLD-SOLID
 62
     7
 10
198.6102058958
 20
518.0770746357
 30
0.0
 11
198.6102058958
 21
476.9211999065
 31
0.0
  0
LINE
  5
2A8
  8
0
  6
SLD-SOLID
 62
     7
 10
197.8102072547
 20
476.9211999065
 30
0.0
 11
198.6102058958
 21
476.9211999065
 31
0.0
  0
LINE
  5
2A9
  8
0
  6
SLD-SOLID
 62
     7
 10
197.8102072547
 20
518.0770746357
 30
0.0
 11
197.8102072547
 21
476.9211999065
 31
0.0
  0
POLYLINE
  5
2AA
  8
0
  6
SLD-SOLID
 62
     7
 66
     1
 10
0.0
 20
0.0
 30
0.0
  0
VERTEX
  5
478
  8
0
  6
SLD-SOLID
 62
     7
 10
501.5711157988
 20
426.5770754702
 30
0.0
  0
VERTEX
  5
479
  8
0
  6
SLD-SOLID
 62
     7
 10
501.6211687993
 20
426.5664658434
 30
0.0
  0
VERTEX
  5
47A
  8
0
  6
SLD-SOLID
 62
     7
 10
502.0211159657
 20
426.5270671732
 30
0.0
  0
SEQEND
  5
47B
  8
0
  6
SLD-SOLID
 62
     7
  0
LINE
  5
2AB
  8
0
  6
SLD-SOLID
 62
     7
 10
502.84425611
 20
426.5270671732
 30
0.0
 11
502.0211159657
 21
426.5270671732
 31
0.0
  0
LINE
  5
2AC
  8
0
  6
SLD-SOLID
 62
     7
 10
197.8102072547
 20
474.1270831711
 30
0.0
 11
198.6102058958
 21
474.1270831711
 31
0.0
  0
LINE
  5
2AD
  8
0
  6
SLD-SOLID
 62
     7
 10
197.8102072547
 20
474.1270831711
 30
0.0
 11
197.8102072547
 21
476.9211999065
 31
0.0
  0
LINE
  5
2AE
  8
0
  6
SLD-SOLID
 62
     7
 10
198.6102058958
 20
474.1270831711
 30
0.0
 11
198.6102058958
 21
476.9211999065
 31
0.0
  0
ARC
  5
2AF
  8
0
  6
SLD-SOLID
 62
     7
 10
401.4065341494
 20
521.3770682959
 30
0.0
 40
2.049999999999963
 50
200.0
 51
217.5718693197
  0
ARC
  5
2B0
  8
0
  6
SLD-SOLID
 62
     7
 10
401.4065341494
 20
521.3770682959
 30
0.0
 40
1.249999999999941
 50
200.0
 51
270.0
  0
ARC
  5
2B1
  8
0
  6
SLD-SOLID
 62
     7
 10
314.0602039464
 20
521.3770682959
 30
0.0
 40
1.250000000000057
 50
270.0
 51
0.0
  0
ARC
  5
2B2
  8
0
  6
SLD-SOLID
 62
     7
 10
314.0602039464
 20
521.3770682959
 30
0.0
 40
2.050000000000011
 50
322.4281306803
 51
0.0
  0
LINE
  5
2B3
  8
0
  6
SLD-SOLID
 62
     7
 10
198.9711120199
 20
339.6270713694
 30
0.0
 11
199.7711106609
 21
339.6270713694
 31
0.0
  0
LINE
  5
2B4
  8
0
  6
SLD-SOLID
 62
     7
 10
198.9711120199
 20
341.6270754225
 30
0.0
 11
198.9711120199
 21
339.6270713694
 31
0.0
  0
LINE
  5
2B5
  8
0
  6
SLD-SOLID
 62
     7
 10
198.9711120199
 20
215.6270687393
 30
0.0
 11
199.7711106609
 21
215.6270687393
 31
0.0
  0
LINE
  5
2B6
  8
0
  6
SLD-SOLID
 62
     7
 10
198.9711120199
 20
217.6270681358
 30
0.0
 11
198.9711120199
 21
215.6270687393
 31
0.0
  0
LINE
  5
2B7
  8
0
  6
SLD-SOLID
 62
     7
 10
198.9711120199
 20
227.6270679123
 30
0.0
 11
198.9711120199
 21
217.6270681358
 31
0.0
  0
LINE
  5
2B8
  8
0
  6
SLD-SOLID
 62
     7
 10
198.9711120199
 20
468.6270645744
 30
0.0
 11
199.7711106609
 21
468.6270645744
 31
0.0
  0
LINE
  5
2B9
  8
0
  6
SLD-SOLID
 62
     7
 10
198.9711120199
 20
470.6270686275
 30
0.0
 11
198.9711120199
 21
468.6270645744
 31
0.0
  0
LINE
  5
2BA
  8
0
  6
SLD-SOLID
 62
     7
 10
198.9711120199
 20
361.6270712501
 30
0.0
 11
198.9711120199
 21
359.627067197
 31
0.0
  0
LINE
  5
2BB
  8
0
  6
SLD-SOLID
 62
     7
 10
198.9711120199
 20
361.6270712501
 30
0.0
 11
199.7711106609
 21
361.6270712501
 31
0.0
  0
LINE
  5
2BC
  8
0
  6
SLD-SOLID
 62
     7
 10
198.9711120199
 20
487.6270583755
 30
0.0
 11
198.9711120199
 21
485.6270543224
 31
0.0
  0
LINE
  5
2BD
  8
0
  6
SLD-SOLID
 62
     7
 10
198.9711120199
 20
487.6270583755
 30
0.0
 11
199.7711106609
 21
487.6270583755
 31
0.0
  0
LINE
  5
2BE
  8
0
  6
SLD-SOLID
 62
     7
 10
198.9711120199
 20
359.627067197
 30
0.0
 11
198.9711120199
 21
341.6270754225
 31
0.0
  0
LINE
  5
2BF
  8
0
  6
SLD-SOLID
 62
     7
 10
198.9711120199
 20
485.6270543224
 30
0.0
 11
198.9711120199
 21
470.6270686275
 31
0.0
  0
LINE
  5
2C0
  8
0
  6
SLD-SOLID
 62
     7
 10
198.9711120199
 20
229.6270682401
 30
0.0
 11
198.9711120199
 21
227.6270679123
 31
0.0
  0
LINE
  5
2C1
  8
0
  6
SLD-SOLID
 62
     7
 10
198.9711120199
 20
229.6270682401
 30
0.0
 11
199.7711106609
 21
229.6270682401
 31
0.0
  0
LINE
  5
2C2
  8
0
  6
SLD-SOLID
 62
     7
 10
198.9711120199
 20
363.6270753033
 30
0.0
 11
198.9711120199
 21
361.6270712501
 31
0.0
  0
LINE
  5
2C3
  8
0
  6
SLD-SOLID
 62
     7
 10
198.9711120199
 20
231.6270685679
 30
0.0
 11
198.9711120199
 21
229.6270682401
 31
0.0
  0
LINE
  5
2C4
  8
0
  6
SLD-SOLID
 62
     7
 10
198.9711120199
 20
339.6270713694
 30
0.0
 11
198.9711120199
 21
337.6270673162
 31
0.0
  0
LINE
  5
2C5
  8
0
  6
SLD-SOLID
 62
     7
 10
198.9711120199
 20
468.6270645744
 30
0.0
 11
198.9711120199
 21
466.6270605213
 31
0.0
  0
LINE
  5
2C6
  8
0
  6
SLD-SOLID
 62
     7
 10
198.9711120199
 20
215.6270687393
 30
0.0
 11
198.9711120199
 21
213.6270684115
 31
0.0
  0
LINE
  5
2C7
  8
0
  6
SLD-SOLID
 62
     7
 10
198.9711120199
 20
466.6270605213
 30
0.0
 11
198.9711120199
 21
363.6270753033
 31
0.0
  0
LINE
  5
2C8
  8
0
  6
SLD-SOLID
 62
     7
 10
198.9711120199
 20
337.6270673162
 30
0.0
 11
198.9711120199
 21
231.6270685679
 31
0.0
  0
LINE
  5
2C9
  8
0
  6
SLD-SOLID
 62
     7
 10
198.9711120199
 20
213.6270684115
 30
0.0
 11
198.9711120199
 21
199.627068445
 31
0.0
  0
LINE
  5
2CA
  8
0
  6
SLD-SOLID
 62
     7
 10
198.9711120199
 20
197.6270681172
 30
0.0
 11
199.7711106609
 21
197.6270681172
 31
0.0
  0
LINE
  5
2CB
  8
0
  6
SLD-SOLID
 62
     7
 10
198.9711120199
 20
199.627068445
 30
0.0
 11
198.9711120199
 21
197.6270681172
 31
0.0
  0
LINE
  5
2CC
  8
0
  6
SLD-SOLID
 62
     7
 10
199.7711106609
 20
198.4341392218
 30
0.0
 11
199.7711106609
 21
197.6270681172
 31
0.0
  0
POLYLINE
  5
2CD
  8
0
  6
SLD-SOLID
 62
     7
 66
     1
 10
0.0
 20
0.0
 30
0.0
  0
VERTEX
  5
47C
  8
0
  6
SLD-SOLID
 62
     7
 10
184.9711059998
 20
353.9603791124
 30
0.0
  0
VERTEX
  5
47D
  8
0
  6
SLD-SOLID
 62
     7
 10
184.971120901
 20
353.9597383625
 30
0.0
  0
VERTEX
  5
47E
  8
0
  6
SLD-SOLID
 62
     7
 10
184.9902539919
 20
353.9372227079
 30
0.0
  0
VERTEX
  5
47F
  8
0
  6
SLD-SOLID
 62
     7
 10
185.0313215922
 20
353.9208612329
 30
0.0
  0
VERTEX
  5
480
  8
0
  6
SLD-SOLID
 62
     7
 10
185.0848540138
 20
353.9092830307
 30
0.0
  0
VERTEX
  5
481
  8
0
  6
SLD-SOLID
 62
     7
 10
185.1487725447
 20
353.9018920547
 30
0.0
  0
VERTEX
  5
482
  8
0
  6
SLD-SOLID
 62
     7
 10
185.2211102317
 20
353.8992247469
 30
0.0
  0
SEQEND
  5
483
  8
0
  6
SLD-SOLID
 62
     7
  0
LINE
  5
2CE
  8
0
  6
SLD-SOLID
 62
     7
 10
184.9711059998
 20
346.1344531662
 30
0.0
 11
184.9711059998
 21
353.9603791124
 31
0.0
  0
POLYLINE
  5
2CF
  8
0
  6
SLD-SOLID
 62
     7
 66
     1
 10
0.0
 20
0.0
 30
0.0
  0
VERTEX
  5
484
  8
0
  6
SLD-SOLID
 62
     7
 10
185.92110718
 20
353.8992247469
 30
0.0
  0
VERTEX
  5
485
  8
0
  6
SLD-SOLID
 62
     7
 10
185.993444867
 20
353.9018920547
 30
0.0
  0
VERTEX
  5
486
  8
0
  6
SLD-SOLID
 62
     7
 10
186.0573633979
 20
353.9092830307
 30
0.0
  0
VERTEX
  5
487
  8
0
  6
SLD-SOLID
 62
     7
 10
186.1108958195
 20
353.9208612329
 30
0.0
  0
VERTEX
  5
488
  8
0
  6
SLD-SOLID
 62
     7
 10
186.1519634198
 20
353.9372227079
 30
0.0
  0
VERTEX
  5
489
  8
0
  6
SLD-SOLID
 62
     7
 10
186.1710965107
 20
353.9597383625
 30
0.0
  0
VERTEX
  5
48A
  8
0
  6
SLD-SOLID
 62
     7
 10
186.1711114119
 20
353.9603791124
 30
0.0
  0
SEQEND
  5
48B
  8
0
  6
SLD-SOLID
 62
     7
  0
LINE
  5
2D0
  8
0
  6
SLD-SOLID
 62
     7
 10
186.1711114119
 20
353.9603791124
 30
0.0
 11
186.1711114119
 21
346.4572123177
 31
0.0
  0
LINE
  5
2D1
  8
0
  6
SLD-SOLID
 62
     7
 10
185.92110718
 20
353.8992247469
 30
0.0
 11
185.2211102317
 21
353.8992247469
 31
0.0
  0
ARC
  5
2D2
  8
0
  6
SLD-SOLID
 62
     7
 10
186.2482802488
 20
358.3197463361
 30
0.0
 40
1.289392236632774
 50
82.2969868303
 51
172.1061570472
  0
POLYLINE
  5
2D3
  8
0
  6
SLD-SOLID
 62
     7
 66
     1
 10
0.0
 20
0.0
 30
0.0
  0
VERTEX
  5
48C
  8
0
  6
SLD-SOLID
 62
     7
 10
184.9711059998
 20
354.1828683502
 30
0.0
  0
VERTEX
  5
48D
  8
0
  6
SLD-SOLID
 62
     7
 10
185.0602521966
 20
354.5248201973
 30
0.0
  0
VERTEX
  5
48E
  8
0
  6
SLD-SOLID
 62
     7
 10
185.3229000638
 20
354.830219496
 30
0.0
  0
VERTEX
  5
48F
  8
0
  6
SLD-SOLID
 62
     7
 10
185.7172592948
 20
355.0501308329
 30
0.0
  0
VERTEX
  5
490
  8
0
  6
SLD-SOLID
 62
     7
 10
186.1785098384
 20
355.1611295826
 30
0.0
  0
VERTEX
  5
491
  8
0
  6
SLD-SOLID
 62
     7
 10
186.4211081932
 20
355.1751515753
 30
0.0
  0
SEQEND
  5
492
  8
0
  6
SLD-SOLID
 62
     7
  0
LINE
  5
2D4
  8
0
  6
SLD-SOLID
 62
     7
 10
184.9711059998
 20
354.1828683502
 30
0.0
 11
184.9711059998
 21
358.4968290216
 31
0.0
  0
LINE
  5
2D5
  8
0
  6
SLD-SOLID
 62
     7
 10
191.7711093496
 20
359.377651561
 30
0.0
 11
191.7711093496
 21
355.0636759884
 31
0.0
  0
LINE
  5
2D6
  8
0
  6
SLD-SOLID
 62
     7
 10
191.7711093496
 20
355.0636759884
 30
0.0
 11
191.7711093496
 21
354.5514783747
 31
0.0
  0
LINE
  5
2D7
  8
0
  6
SLD-SOLID
 62
     7
 10
184.9711059998
 20
353.9603791124
 30
0.0
 11
184.9711059998
 21
354.1828683502
 31
0.0
  0
LINE
  5
2D8
  8
0
  6
SLD-SOLID
 62
     7
 10
186.1711114119
 20
354.1828683502
 30
0.0
 11
186.1711114119
 21
353.9603791124
 31
0.0
  0
LINE
  5
2D9
  8
0
  6
SLD-SOLID
 62
     7
 10
186.4211081932
 20
359.6276483423
 30
0.0
 11
186.4211081932
 21
359.5975032932
 31
0.0
  0
LINE
  5
2DA
  8
0
  6
SLD-SOLID
 62
     7
 10
184.9711059998
 20
358.4968290216
 30
0.0
 11
184.9711059998
 21
359.0770653374
 31
0.0
  0
LINE
  5
2DB
  8
0
  6
SLD-SOLID
 62
     7
 10
191.7711093496
 20
342.3886886723
 30
0.0
 11
191.7711093496
 21
341.8764910585
 31
0.0
  0
LINE
  5
2DC
  8
0
  6
SLD-SOLID
 62
     7
 10
191.7711093496
 20
345.1257488615
 30
0.0
 11
191.7711093496
 21
342.3886886723
 31
0.0
  0
ARC
  5
2DD
  8
0
  6
SLD-SOLID
 62
     7
 10
187.1906440409
 20
346.1049650529
 30
0.0
 40
0.4652093144379739
 50
67.1746840778
 51
98.5967196485
  0
LINE
  5
2DE
  8
0
  6
SLD-SOLID
 62
     7
 10
187.3711093734
 20
354.3014815933
 30
0.0
 11
187.3711093734
 21
346.5337446815
 31
0.0
  0
ARC
  5
2DF
  8
0
  6
SLD-SOLID
 62
     7
 10
186.3515737023
 20
346.1049728228
 30
0.0
 40
0.4652009728426563
 50
81.4036741644
 51
112.8253418146
  0
LINE
  5
2E0
  8
0
  6
SLD-SOLID
 62
     7
 10
186.1711114119
 20
346.5337446815
 30
0.0
 11
186.1711114119
 21
353.9603791124
 31
0.0
  0
LINE
  5
2E1
  8
0
  6
SLD-SOLID
 62
     7
 10
186.4211081932
 20
346.5649477131
 30
0.0
 11
187.1211051415
 21
346.5649477131
 31
0.0
  0
ARC
  5
2E2
  8
0
  6
SLD-SOLID
 62
     7
 10
186.0510763438
 20
342.5351451706
 30
0.0
 40
1.325564888643312
 50
264.3732155989
 51
354.7637082671
  0
ARC
  5
2E3
  8
0
  6
SLD-SOLID
 62
     7
 10
186.0429167398
 20
346.5334435574
 30
0.0
 40
1.350435847064164
 50
264.8248764565
 51
349.5864852901
  0
LINE
  5
2E4
  8
0
  6
SLD-SOLID
 62
     7
 10
187.3711093734
 20
346.2893507368
 30
0.0
 11
187.3711093734
 21
342.4141696579
 31
0.0
  0
LINE
  5
2E5
  8
0
  6
SLD-SOLID
 62
     7
 10
180.5711060236
 20
341.4466223604
 30
0.0
 11
180.5711060236
 21
345.3218183405
 31
0.0
  0
LINE
  5
2E6
  8
0
  6
SLD-SOLID
 62
     7
 10
180.5711060236
 20
345.3218183405
 30
0.0
 11
180.5711060236
 21
345.8844563848
 31
0.0
  0
LINE
  5
2E7
  8
0
  6
SLD-SOLID
 62
     7
 10
187.3711093734
 20
346.5337446815
 30
0.0
 11
187.3711093734
 21
346.2893507368
 31
0.0
  0
LINE
  5
2E8
  8
0
  6
SLD-SOLID
 62
     7
 10
186.1711114119
 20
346.2893507368
 30
0.0
 11
186.1711114119
 21
346.5337446815
 31
0.0
  0
LINE
  5
2E9
  8
0
  6
SLD-SOLID
 62
     7
 10
185.92110718
 20
341.1966255791
 30
0.0
 11
185.92110718
 21
341.2159672863
 31
0.0
  0
LINE
  5
2EA
  8
0
  6
SLD-SOLID
 62
     7
 10
187.3711093734
 20
342.4141696579
 30
0.0
 11
187.3711093734
 21
342.177062381
 31
0.0
  0
ARC
  5
2EB
  8
0
  6
SLD-SOLID
 62
     7
 10
185.987799572
 20
358.6085941075
 30
0.0
 40
1.431136036900711
 50
45.4027426884
 51
92.6710088323
  0
LINE
  5
2EC
  8
0
  6
SLD-SOLID
 62
     7
 10
180.5711060236
 20
359.2448673136
 30
0.0
 11
180.5711060236
 21
359.8075053579
 31
0.0
  0
LINE
  5
2ED
  8
0
  6
SLD-SOLID
 62
     7
 10
180.5711060236
 20
355.9437683708
 30
0.0
 11
180.5711060236
 21
359.2448673136
 31
0.0
  0
LINE
  5
2EE
  8
0
  6
SLD-SOLID
 62
     7
 10
192.1245276402
 20
356.128393758
 30
0.0
 11
192.5711079906
 21
353.9945027716
 31
0.0
  0
POLYLINE
  5
2EF
  8
0
  6
SLD-SOLID
 62
     7
 66
     1
 10
0.0
 20
0.0
 30
0.0
  0
VERTEX
  5
493
  8
0
  6
SLD-SOLID
 62
     7
 10
192.5711079906
 20
353.9945027716
 30
0.0
  0
VERTEX
  5
494
  8
0
  6
SLD-SOLID
 62
     7
 10
192.5686791013
 20
353.8428089506
 30
0.0
  0
VERTEX
  5
495
  8
0
  6
SLD-SOLID
 62
     7
 10
192.1245276402
 20
351.8606117851
 30
0.0
  0
SEQEND
  5
496
  8
0
  6
SLD-SOLID
 62
     7
  0
LINE
  5
2F0
  8
0
  6
SLD-SOLID
 62
     7
 10
192.1245276402
 20
351.8606117851
 30
0.0
 11
187.8176897238
 21
351.8606117851
 31
0.0
  0
POLYLINE
  5
2F1
  8
0
  6
SLD-SOLID
 62
     7
 66
     1
 10
0.0
 20
0.0
 30
0.0
  0
VERTEX
  5
497
  8
0
  6
SLD-SOLID
 62
     7
 10
187.3711093734
 20
353.9945027716
 30
0.0
  0
VERTEX
  5
498
  8
0
  6
SLD-SOLID
 62
     7
 10
187.3735382627
 20
353.8428089506
 30
0.0
  0
VERTEX
  5
499
  8
0
  6
SLD-SOLID
 62
     7
 10
187.8176897238
 20
351.8606117851
 30
0.0
  0
SEQEND
  5
49A
  8
0
  6
SLD-SOLID
 62
     7
  0
LINE
  5
2F2
  8
0
  6
SLD-SOLID
 62
     7
 10
187.4353557299
 20
354.3014815933
 30
0.0
 11
187.3711093734
 21
353.9945027716
 31
0.0
  0
LINE
  5
2F3
  8
0
  6
SLD-SOLID
 62
     7
 10
192.1245276402
 20
356.128393758
 30
0.0
 11
191.7711093496
 21
356.128393758
 31
0.0
  0
POLYLINE
  5
2F4
  8
0
  6
SLD-SOLID
 62
     7
 66
     1
 10
0.0
 20
0.0
 30
0.0
  0
VERTEX
  5
49B
  8
0
  6
SLD-SOLID
 62
     7
 10
192.5711079906
 20
349.1099617369
 30
0.0
  0
VERTEX
  5
49C
  8
0
  6
SLD-SOLID
 62
     7
 10
192.535695381
 20
349.8585215694
 30
0.0
  0
VERTEX
  5
49D
  8
0
  6
SLD-SOLID
 62
     7
 10
192.1245276402
 20
351.8606117851
 30
0.0
  0
SEQEND
  5
49E
  8
0
  6
SLD-SOLID
 62
     7
  0
LINE
  5
2F5
  8
0
  6
SLD-SOLID
 62
     7
 10
192.5711079906
 20
349.1099617369
 30
0.0
 11
192.5711079906
 21
353.9945027716
 31
0.0
  0
POLYLINE
  5
2F6
  8
0
  6
SLD-SOLID
 62
     7
 66
     1
 10
0.0
 20
0.0
 30
0.0
  0
VERTEX
  5
49F
  8
0
  6
SLD-SOLID
 62
     7
 10
187.3711093734
 20
349.1099617369
 30
0.0
  0
VERTEX
  5
4A0
  8
0
  6
SLD-SOLID
 62
     7
 10
187.406521983
 20
349.8585215694
 30
0.0
  0
VERTEX
  5
4A1
  8
0
  6
SLD-SOLID
 62
     7
 10
187.8176897238
 20
351.8606117851
 30
0.0
  0
SEQEND
  5
4A2
  8
0
  6
SLD-SOLID
 62
     7
  0
POLYLINE
  5
2F7
  8
0
  6
SLD-SOLID
 62
     7
 66
     1
 10
0.0
 20
0.0
 30
0.0
  0
VERTEX
  5
4A3
  8
0
  6
SLD-SOLID
 62
     7
 10
192.1245276402
 20
346.3592967874
 30
0.0
  0
VERTEX
  5
4A4
  8
0
  6
SLD-SOLID
 62
     7
 10
192.3138766955
 20
347.0543763525
 30
0.0
  0
VERTEX
  5
4A5
  8
0
  6
SLD-SOLID
 62
     7
 10
192.5711079906
 20
349.1099617369
 30
0.0
  0
SEQEND
  5
4A6
  8
0
  6
SLD-SOLID
 62
     7
  0
LINE
  5
2F8
  8
0
  6
SLD-SOLID
 62
     7
 10
192.1245276402
 20
346.3592967874
 30
0.0
 11
187.8176897238
 21
346.3592967874
 31
0.0
  0
POLYLINE
  5
2F9
  8
0
  6
SLD-SOLID
 62
     7
 66
     1
 10
0.0
 20
0.0
 30
0.0
  0
VERTEX
  5
4A7
  8
0
  6
SLD-SOLID
 62
     7
 10
187.8176897238
 20
346.3592967874
 30
0.0
  0
VERTEX
  5
4A8
  8
0
  6
SLD-SOLID
 62
     7
 10
187.6283406685
 20
347.0543763525
 30
0.0
  0
VERTEX
  5
4A9
  8
0
  6
SLD-SOLID
 62
     7
 10
187.3711093734
 20
349.1099617369
 30
0.0
  0
SEQEND
  5
4AA
  8
0
  6
SLD-SOLID
 62
     7
  0
LINE
  5
2FA
  8
0
  6
SLD-SOLID
 62
     7
 10
192.1245276402
 20
346.3592967874
 30
0.0
 11
192.5711079906
 21
345.7425228245
 31
0.0
  0
LINE
  5
2FB
  8
0
  6
SLD-SOLID
 62
     7
 10
192.5711079906
 20
349.1099617369
 30
0.0
 11
192.5711079906
 21
345.7425228245
 31
0.0
  0
LINE
  5
2FC
  8
0
  6
SLD-SOLID
 62
     7
 10
187.8176897238
 20
346.3592967874
 30
0.0
 11
187.3711093734
 21
345.7425228245
 31
0.0
  0
LINE
  5
2FD
  8
0
  6
SLD-SOLID
 62
     7
 10
192.4219920705
 20
355.7446739561
 30
0.0
 11
192.1245276402
 21
356.128393758
 31
0.0
  0
LINE
  5
2FE
  8
0
  6
SLD-SOLID
 62
     7
 10
192.5711079906
 20
355.627073992
 30
0.0
 11
192.5711079906
 21
353.9945027716
 31
0.0
  0
POLYLINE
  5
2FF
  8
0
  6
SLD-SOLID
 62
     7
 66
     1
 10
0.0
 20
0.0
 30
0.0
  0
VERTEX
  5
4AB
  8
0
  6
SLD-SOLID
 62
     7
 10
192.5711079906
 20
345.7425228245
 30
0.0
  0
VERTEX
  5
4AC
  8
0
  6
SLD-SOLID
 62
     7
 10
192.5686791013
 20
345.6986836082
 30
0.0
  0
VERTEX
  5
4AD
  8
0
  6
SLD-SOLID
 62
     7
 10
192.1245276402
 20
345.1257488615
 30
0.0
  0
SEQEND
  5
4AE
  8
0
  6
SLD-SOLID
 62
     7
  0
LINE
  5
300
  8
0
  6
SLD-SOLID
 62
     7
 10
192.1245276402
 20
345.1257488615
 30
0.0
 11
187.8176897238
 21
345.1257488615
 31
0.0
  0
LINE
  5
301
  8
0
  6
SLD-SOLID
 62
     7
 10
187.5202252935
 20
345.5094537622
 30
0.0
 11
187.8176897238
 21
345.1257488615
 31
0.0
  0
LINE
  5
302
  8
0
  6
SLD-SOLID
 62
     7
 10
192.5711079906
 20
345.7425228245
 30
0.0
 11
192.5711079906
 21
345.6270686275
 31
0.0
  0
LINE
  5
303
  8
0
  6
SLD-SOLID
 62
     7
 10
184.5245256494
 20
355.2346519119
 30
0.0
 11
184.9711059998
 21
352.5762996561
 31
0.0
  0
POLYLINE
  5
304
  8
0
  6
SLD-SOLID
 62
     7
 66
     1
 10
0.0
 20
0.0
 30
0.0
  0
VERTEX
  5
4AF
  8
0
  6
SLD-SOLID
 62
     7
 10
184.9711059998
 20
352.5762996561
 30
0.0
  0
VERTEX
  5
4B0
  8
0
  6
SLD-SOLID
 62
     7
 10
184.9686771105
 20
352.3873231298
 30
0.0
  0
VERTEX
  5
4B1
  8
0
  6
SLD-SOLID
 62
     7
 10
184.5245256494
 20
349.9179474003
 30
0.0
  0
SEQEND
  5
4B2
  8
0
  6
SLD-SOLID
 62
     7
  0
LINE
  5
305
  8
0
  6
SLD-SOLID
 62
     7
 10
184.5245256494
 20
349.9179474003
 30
0.0
 11
180.2176951836
 21
349.9179474003
 31
0.0
  0
POLYLINE
  5
306
  8
0
  6
SLD-SOLID
 62
     7
 66
     1
 10
0.0
 20
0.0
 30
0.0
  0
VERTEX
  5
4B3
  8
0
  6
SLD-SOLID
 62
     7
 10
179.7711073826
 20
352.5762996561
 30
0.0
  0
VERTEX
  5
4B4
  8
0
  6
SLD-SOLID
 62
     7
 10
179.7735362719
 20
352.3873231298
 30
0.0
  0
VERTEX
  5
4B5
  8
0
  6
SLD-SOLID
 62
     7
 10
180.2176951836
 20
349.9179474003
 30
0.0
  0
SEQEND
  5
4B6
  8
0
  6
SLD-SOLID
 62
     7
  0
LINE
  5
307
  8
0
  6
SLD-SOLID
 62
     7
 10
180.2176951836
 20
355.2346519119
 30
0.0
 11
179.7711073826
 21
352.5762996561
 31
0.0
  0
LINE
  5
308
  8
0
  6
SLD-SOLID
 62
     7
 10
184.5245256494
 20
355.2346519119
 30
0.0
 11
180.2176951836
 21
355.2346519119
 31
0.0
  0
POLYLINE
  5
309
  8
0
  6
SLD-SOLID
 62
     7
 66
     1
 10
0.0
 20
0.0
 30
0.0
  0
VERTEX
  5
4B7
  8
0
  6
SLD-SOLID
 62
     7
 10
179.7711073826
 20
347.6141533739
 30
0.0
  0
VERTEX
  5
4B8
  8
0
  6
SLD-SOLID
 62
     7
 10
179.8065274428
 20
348.24110483
 30
0.0
  0
VERTEX
  5
4B9
  8
0
  6
SLD-SOLID
 62
     7
 10
180.2176951836
 20
349.9179474003
 30
0.0
  0
SEQEND
  5
4BA
  8
0
  6
SLD-SOLID
 62
     7
  0
LINE
  5
30A
  8
0
  6
SLD-SOLID
 62
     7
 10
179.7711073826
 20
347.6141533739
 30
0.0
 11
179.7711073826
 21
352.5762996561
 31
0.0
  0
POLYLINE
  5
30B
  8
0
  6
SLD-SOLID
 62
     7
 66
     1
 10
0.0
 20
0.0
 30
0.0
  0
VERTEX
  5
4BB
  8
0
  6
SLD-SOLID
 62
     7
 10
184.9711059998
 20
347.6141533739
 30
0.0
  0
VERTEX
  5
4BC
  8
0
  6
SLD-SOLID
 62
     7
 10
184.9356933902
 20
348.24110483
 30
0.0
  0
VERTEX
  5
4BD
  8
0
  6
SLD-SOLID
 62
     7
 10
184.5245256494
 20
349.9179474003
 30
0.0
  0
SEQEND
  5
4BE
  8
0
  6
SLD-SOLID
 62
     7
  0
LINE
  5
30C
  8
0
  6
SLD-SOLID
 62
     7
 10
184.7500249217
 20
346.1344531662
 30
0.0
 11
184.9711059998
 21
347.6141533739
 31
0.0
  0
LINE
  5
30D
  8
0
  6
SLD-SOLID
 62
     7
 10
180.5711060236
 20
345.3103593475
 30
0.0
 11
180.2176951836
 21
345.3103593475
 31
0.0
  0
POLYLINE
  5
30E
  8
0
  6
SLD-SOLID
 62
     7
 66
     1
 10
0.0
 20
0.0
 30
0.0
  0
VERTEX
  5
4BF
  8
0
  6
SLD-SOLID
 62
     7
 10
180.2176951836
 20
345.3103593475
 30
0.0
  0
VERTEX
  5
4C0
  8
0
  6
SLD-SOLID
 62
     7
 10
180.0283312272
 20
345.8925179131
 30
0.0
  0
VERTEX
  5
4C1
  8
0
  6
SLD-SOLID
 62
     7
 10
179.7711073826
 20
347.6141533739
 30
0.0
  0
SEQEND
  5
4C2
  8
0
  6
SLD-SOLID
 62
     7
  0
POLYLINE
  5
30F
  8
0
  6
SLD-SOLID
 62
     7
 66
     1
 10
0.0
 20
0.0
 30
0.0
  0
VERTEX
  5
4C3
  8
0
  6
SLD-SOLID
 62
     7
 10
179.7711073826
 20
355.5892101414
 30
0.0
  0
VERTEX
  5
4C4
  8
0
  6
SLD-SOLID
 62
     7
 10
179.7735362719
 20
355.5640122778
 30
0.0
  0
VERTEX
  5
4C5
  8
0
  6
SLD-SOLID
 62
     7
 10
180.2176951836
 20
355.2346519119
 30
0.0
  0
SEQEND
  5
4C6
  8
0
  6
SLD-SOLID
 62
     7
  0
LINE
  5
310
  8
0
  6
SLD-SOLID
 62
     7
 10
179.7711073826
 20
352.5762996561
 30
0.0
 11
179.7711073826
 21
355.5892101414
 31
0.0
  0
POLYLINE
  5
311
  8
0
  6
SLD-SOLID
 62
     7
 66
     1
 10
0.0
 20
0.0
 30
0.0
  0
VERTEX
  5
4C7
  8
0
  6
SLD-SOLID
 62
     7
 10
184.9711059998
 20
355.5892101414
 30
0.0
  0
VERTEX
  5
4C8
  8
0
  6
SLD-SOLID
 62
     7
 10
184.9686771105
 20
355.5640122778
 30
0.0
  0
VERTEX
  5
4C9
  8
0
  6
SLD-SOLID
 62
     7
 10
184.5245256494
 20
355.2346519119
 30
0.0
  0
SEQEND
  5
4CA
  8
0
  6
SLD-SOLID
 62
     7
  0
LINE
  5
312
  8
0
  6
SLD-SOLID
 62
     7
 10
180.2176951836
 20
345.3103593475
 30
0.0
 11
179.7711073826
 21
345.6649324781
 31
0.0
  0
LINE
  5
313
  8
0
  6
SLD-SOLID
 62
     7
 10
179.7711073826
 20
347.6141533739
 30
0.0
 11
179.7711073826
 21
345.6272176392
 31
0.0
  0
LINE
  5
314
  8
0
  6
SLD-SOLID
 62
     7
 10
184.5245256494
 20
355.9437683708
 30
0.0
 11
184.9711059998
 21
355.5892101414
 31
0.0
  0
LINE
  5
315
  8
0
  6
SLD-SOLID
 62
     7
 10
180.2176951836
 20
355.9437683708
 30
0.0
 11
179.7711073826
 21
355.5892101414
 31
0.0
  0
LINE
  5
316
  8
0
  6
SLD-SOLID
 62
     7
 10
184.5245256494
 20
355.9437683708
 30
0.0
 11
180.2176951836
 21
355.9437683708
 31
0.0
  0
LINE
  5
317
  8
0
  6
SLD-SOLID
 62
     7
 10
197.5745230387
 20
348.7232319004
 30
0.0
 11
198.0211108397
 21
346.8390247709
 31
0.0
  0
POLYLINE
  5
318
  8
0
  6
SLD-SOLID
 62
     7
 66
     1
 10
0.0
 20
0.0
 30
0.0
  0
VERTEX
  5
4CB
  8
0
  6
SLD-SOLID
 62
     7
 10
198.0211108397
 20
346.8390247709
 30
0.0
  0
VERTEX
  5
4CC
  8
0
  6
SLD-SOLID
 62
     7
 10
198.0186819504
 20
346.7050931341
 30
0.0
  0
VERTEX
  5
4CD
  8
0
  6
SLD-SOLID
 62
     7
 10
197.5745230387
 20
344.9548176414
 30
0.0
  0
SEQEND
  5
4CE
  8
0
  6
SLD-SOLID
 62
     7
  0
LINE
  5
319
  8
0
  6
SLD-SOLID
 62
     7
 10
197.5745230387
 20
344.9548176414
 30
0.0
 11
193.2676925729
 21
344.9548176414
 31
0.0
  0
POLYLINE
  5
31A
  8
0
  6
SLD-SOLID
 62
     7
 66
     1
 10
0.0
 20
0.0
 30
0.0
  0
VERTEX
  5
4CF
  8
0
  6
SLD-SOLID
 62
     7
 10
192.8211122225
 20
346.8390247709
 30
0.0
  0
VERTEX
  5
4D0
  8
0
  6
SLD-SOLID
 62
     7
 10
192.8235411118
 20
346.7050931341
 30
0.0
  0
VERTEX
  5
4D1
  8
0
  6
SLD-SOLID
 62
     7
 10
193.2676925729
 20
344.9548176414
 30
0.0
  0
SEQEND
  5
4D2
  8
0
  6
SLD-SOLID
 62
     7
  0
LINE
  5
31B
  8
0
  6
SLD-SOLID
 62
     7
 10
193.2676925729
 20
348.7232319004
 30
0.0
 11
192.8211122225
 21
346.8390247709
 31
0.0
  0
LINE
  5
31C
  8
0
  6
SLD-SOLID
 62
     7
 10
197.5745230387
 20
348.7232319004
 30
0.0
 11
193.2676925729
 21
348.7232319004
 31
0.0
  0
POLYLINE
  5
31D
  8
0
  6
SLD-SOLID
 62
     7
 66
     1
 10
0.0
 20
0.0
 30
0.0
  0
VERTEX
  5
4D3
  8
0
  6
SLD-SOLID
 62
     7
 10
193.2676925729
 20
348.7232319004
 30
0.0
  0
VERTEX
  5
4D4
  8
0
  6
SLD-SOLID
 62
     7
 10
193.078336067
 20
349.4399181492
 30
0.0
  0
VERTEX
  5
4D5
  8
0
  6
SLD-SOLID
 62
     7
 10
192.8211122225
 20
351.5593550093
 30
0.0
  0
SEQEND
  5
4D6
  8
0
  6
SLD-SOLID
 62
     7
  0
LINE
  5
31E
  8
0
  6
SLD-SOLID
 62
     7
 10
192.8211122225
 20
346.8390247709
 30
0.0
 11
192.8211122225
 21
351.5593550093
 31
0.0
  0
POLYLINE
  5
31F
  8
0
  6
SLD-SOLID
 62
     7
 66
     1
 10
0.0
 20
0.0
 30
0.0
  0
VERTEX
  5
4D7
  8
0
  6
SLD-SOLID
 62
     7
 10
197.5745230387
 20
348.7232319004
 30
0.0
  0
VERTEX
  5
4D8
  8
0
  6
SLD-SOLID
 62
     7
 10
197.7638795446
 20
349.4399181492
 30
0.0
  0
VERTEX
  5
4D9
  8
0
  6
SLD-SOLID
 62
     7
 10
198.0211108397
 20
351.5593550093
 30
0.0
  0
SEQEND
  5
4DA
  8
0
  6
SLD-SOLID
 62
     7
  0
POLYLINE
  5
320
  8
0
  6
SLD-SOLID
 62
     7
 66
     1
 10
0.0
 20
0.0
 30
0.0
  0
VERTEX
  5
4DB
  8
0
  6
SLD-SOLID
 62
     7
 10
192.8211122225
 20
351.5593550093
 30
0.0
  0
VERTEX
  5
4DC
  8
0
  6
SLD-SOLID
 62
     7
 10
192.8565248321
 20
352.3311904556
 30
0.0
  0
VERTEX
  5
4DD
  8
0
  6
SLD-SOLID
 62
     7
 10
193.2676925729
 20
354.3954930193
 30
0.0
  0
SEQEND
  5
4DE
  8
0
  6
SLD-SOLID
 62
     7
  0
LINE
  5
321
  8
0
  6
SLD-SOLID
 62
     7
 10
197.5745230387
 20
354.3954930193
 30
0.0
 11
193.2676925729
 21
354.3954930193
 31
0.0
  0
POLYLINE
  5
322
  8
0
  6
SLD-SOLID
 62
     7
 66
     1
 10
0.0
 20
0.0
 30
0.0
  0
VERTEX
  5
4DF
  8
0
  6
SLD-SOLID
 62
     7
 10
198.0211108397
 20
351.5593550093
 30
0.0
  0
VERTEX
  5
4E0
  8
0
  6
SLD-SOLID
 62
     7
 10
197.9856907795
 20
352.3311904556
 30
0.0
  0
VERTEX
  5
4E1
  8
0
  6
SLD-SOLID
 62
     7
 10
197.5745230387
 20
354.3954930193
 30
0.0
  0
SEQEND
  5
4E2
  8
0
  6
SLD-SOLID
 62
     7
  0
POLYLINE
  5
323
  8
0
  6
SLD-SOLID
 62
     7
 66
     1
 10
0.0
 20
0.0
 30
0.0
  0
VERTEX
  5
4E3
  8
0
  6
SLD-SOLID
 62
     7
 10
192.8211122225
 20
355.3474089987
 30
0.0
  0
VERTEX
  5
4E4
  8
0
  6
SLD-SOLID
 62
     7
 10
192.8235411118
 20
355.2797428257
 30
0.0
  0
VERTEX
  5
4E5
  8
0
  6
SLD-SOLID
 62
     7
 10
193.2676925729
 20
354.3954930193
 30
0.0
  0
SEQEND
  5
4E6
  8
0
  6
SLD-SOLID
 62
     7
  0
LINE
  5
324
  8
0
  6
SLD-SOLID
 62
     7
 10
192.8211122225
 20
351.5593550093
 30
0.0
 11
192.8211122225
 21
355.3474089987
 31
0.0
  0
POLYLINE
  5
325
  8
0
  6
SLD-SOLID
 62
     7
 66
     1
 10
0.0
 20
0.0
 30
0.0
  0
VERTEX
  5
4E7
  8
0
  6
SLD-SOLID
 62
     7
 10
198.0211108397
 20
355.3474089987
 30
0.0
  0
VERTEX
  5
4E8
  8
0
  6
SLD-SOLID
 62
     7
 10
198.0186819504
 20
355.2797428257
 30
0.0
  0
VERTEX
  5
4E9
  8
0
  6
SLD-SOLID
 62
     7
 10
197.5745230387
 20
354.3954930193
 30
0.0
  0
SEQEND
  5
4EA
  8
0
  6
SLD-SOLID
 62
     7
  0
LINE
  5
326
  8
0
  6
SLD-SOLID
 62
     7
 10
197.5745230387
 20
356.2993249781
 30
0.0
 11
197.7504684995
 21
355.924277652
 31
0.0
  0
LINE
  5
327
  8
0
  6
SLD-SOLID
 62
     7
 10
193.2676925729
 20
356.2993249781
 30
0.0
 11
192.8211122225
 21
355.3474089987
 31
0.0
  0
LINE
  5
328
  8
0
  6
SLD-SOLID
 62
     7
 10
197.5745230387
 20
356.2993249781
 30
0.0
 11
193.2676925729
 21
356.2993249781
 31
0.0
  0
LINE
  5
329
  8
0
  6
SLD-SOLID
 62
     7
 10
193.2676925729
 20
344.9548176414
 30
0.0
 11
193.0917471121
 21
345.3298500664
 31
0.0
  0
LINE
  5
32A
  8
0
  6
SLD-SOLID
 62
     7
 10
192.8211122225
 20
345.6270686275
 30
0.0
 11
192.8211122225
 21
346.8390247709
 31
0.0
  0
LINE
  5
32B
  8
0
  6
SLD-SOLID
 62
     7
 10
197.5745230387
 20
344.9548176414
 30
0.0
 11
197.7504684995
 21
345.3298500664
 31
0.0
  0
LINE
  5
32C
  8
0
  6
SLD-SOLID
 62
     7
 10
192.8211122225
 20
355.3474089987
 30
0.0
 11
192.8211122225
 21
355.627073992
 31
0.0
  0
LINE
  5
32D
  8
0
  6
SLD-SOLID
 62
     7
 10
198.0211108397
 20
356.7270628101
 30
0.0
 11
198.0211108397
 21
344.5270649082
 31
0.0
  0
LINE
  5
32E
  8
0
  6
SLD-SOLID
 62
     7
 10
198.5711052488
 20
356.7270628101
 30
0.0
 11
198.5711052488
 21
344.5270649082
 31
0.0
  0
POLYLINE
  5
32F
  8
0
  6
SLD-SOLID
 62
     7
 66
     1
 10
0.0
 20
0.0
 30
0.0
  0
VERTEX
  5
4EB
  8
0
  6
SLD-SOLID
 62
     7
 10
535.0450694035
 20
267.9461008794
 30
0.0
  0
VERTEX
  5
4EC
  8
0
  6
SLD-SOLID
 62
     7
 10
534.865868039
 20
267.9710007197
 30
0.0
  0
VERTEX
  5
4ED
  8
0
  6
SLD-SOLID
 62
     7
 10
534.3498855303
 20
268.042712558
 30
0.0
  0
VERTEX
  5
4EE
  8
0
  6
SLD-SOLID
 62
     7
 10
533.5593491267
 20
268.1525788195
 30
0.0
  0
VERTEX
  5
4EF
  8
0
  6
SLD-SOLID
 62
     7
 10
532.5896113585
 20
268.2873523719
 30
0.0
  0
VERTEX
  5
4F0
  8
0
  6
SLD-SOLID
 62
     7
 10
531.5576463412
 20
268.4307760484
 30
0.0
  0
VERTEX
  5
4F1
  8
0
  6
SLD-SOLID
 62
     7
 10
530.587908573
 20
268.5655496008
 30
0.0
  0
VERTEX
  5
4F2
  8
0
  6
SLD-SOLID
 62
     7
 10
529.7973721693
 20
268.6754158623
 30
0.0
  0
VERTEX
  5
4F3
  8
0
  6
SLD-SOLID
 62
     7
 10
529.2813896607
 20
268.7471202499
 30
0.0
  0
VERTEX
  5
4F4
  8
0
  6
SLD-SOLID
 62
     7
 10
529.1021882962
 20
268.7720275409
 30
0.0
  0
VERTEX
  5
4F5
  8
0
  6
SLD-SOLID
 62
     7
 10
529.1021882962
 20
268.7720275409
 30
0.0
  0
SEQEND
  5
4F6
  8
0
  6
SLD-SOLID
 62
     7
  0
POLYLINE
  5
330
  8
0
  6
SLD-SOLID
 62
     7
 66
     1
 10
0.0
 20
0.0
 30
0.0
  0
VERTEX
  5
4F7
  8
0
  6
SLD-SOLID
 62
     7
 10
532.2919755648
 20
248.136493463
 30
0.0
  0
VERTEX
  5
4F8
  8
0
  6
SLD-SOLID
 62
     7
 10
532.1127742003
 20
248.1613970286
 30
0.0
  0
VERTEX
  5
4F9
  8
0
  6
SLD-SOLID
 62
     7
 10
531.5967916916
 20
248.2331088669
 30
0.0
  0
VERTEX
  5
4FA
  8
0
  6
SLD-SOLID
 62
     7
 10
530.806255288
 20
248.3429751284
 30
0.0
  0
VERTEX
  5
4FB
  8
0
  6
SLD-SOLID
 62
     7
 10
529.8365175198
 20
248.4777486808
 30
0.0
  0
VERTEX
  5
4FC
  8
0
  6
SLD-SOLID
 62
     7
 10
528.8045376013
 20
248.621168632
 30
0.0
  0
VERTEX
  5
4FD
  8
0
  6
SLD-SOLID
 62
     7
 10
527.8348147343
 20
248.7559421844
 30
0.0
  0
VERTEX
  5
4FE
  8
0
  6
SLD-SOLID
 62
     7
 10
527.0442783307
 20
248.8658084459
 30
0.0
  0
VERTEX
  5
4FF
  8
0
  6
SLD-SOLID
 62
     7
 10
526.528295822
 20
248.9375202841
 30
0.0
  0
VERTEX
  5
500
  8
0
  6
SLD-SOLID
 62
     7
 10
526.3490944575
 20
248.9624238498
 30
0.0
  0
VERTEX
  5
501
  8
0
  6
SLD-SOLID
 62
     7
 10
526.3490944575
 20
248.9624238498
 30
0.0
  0
SEQEND
  5
502
  8
0
  6
SLD-SOLID
 62
     7
  0
POLYLINE
  5
331
  8
0
  6
SLD-SOLID
 62
     7
 66
     1
 10
0.0
 20
0.0
 30
0.0
  0
VERTEX
  5
503
  8
0
  6
SLD-SOLID
 62
     7
 10
580.5215954255
 20
176.6816797591
 30
0.0
  0
VERTEX
  5
504
  8
0
  6
SLD-SOLID
 62
     7
 10
580.557417817
 20
176.7087700701
 30
0.0
  0
VERTEX
  5
505
  8
0
  6
SLD-SOLID
 62
     7
 10
580.8435499142
 20
176.9250716007
 30
0.0
  0
VERTEX
  5
506
  8
0
  6
SLD-SOLID
 62
     7
 10
581.4128934811
 20
177.3554543889
 30
0.0
  0
VERTEX
  5
507
  8
0
  6
SLD-SOLID
 62
     7
 10
582.2595476578
 20
177.9955039657
 30
0.0
  0
VERTEX
  5
508
  8
0
  6
SLD-SOLID
 62
     7
 10
583.3748995732
 20
178.8386526442
 30
0.0
  0
VERTEX
  5
509
  8
0
  6
SLD-SOLID
 62
     7
 10
584.7474455307
 20
179.8762465752
 30
0.0
  0
VERTEX
  5
50A
  8
0
  6
SLD-SOLID
 62
     7
 10
586.3631188343
 20
181.0976388789
 30
0.0
  0
VERTEX
  5
50B
  8
0
  6
SLD-SOLID
 62
     7
 10
588.2053493927
 20
182.4902995414
 30
0.0
  0
VERTEX
  5
50C
  8
0
  6
SLD-SOLID
 62
     7
 10
590.2552425335
 20
184.0399327613
 30
0.0
  0
VERTEX
  5
50D
  8
0
  6
SLD-SOLID
 62
     7
 10
592.4917578171
 20
185.7306408621
 30
0.0
  0
VERTEX
  5
50E
  8
0
  6
SLD-SOLID
 62
     7
 10
594.8919176529
 20
187.5450751669
 30
0.0
  0
VERTEX
  5
50F
  8
0
  6
SLD-SOLID
 62
     7
 10
597.431135125
 20
189.4646157435
 30
0.0
  0
VERTEX
  5
510
  8
0
  6
SLD-SOLID
 62
     7
 10
600.0833332013
 20
191.4695651195
 30
0.0
  0
VERTEX
  5
511
  8
0
  6
SLD-SOLID
 62
     7
 10
602.821272559
 20
193.5393513105
 30
0.0
  0
VERTEX
  5
512
  8
0
  6
SLD-SOLID
 62
     7
 10
605.6169092129
 20
195.6527336425
 30
0.0
  0
VERTEX
  5
513
  8
0
  6
SLD-SOLID
 62
     7
 10
608.4415137242
 20
197.7880276664
 30
0.0
  0
VERTEX
  5
514
  8
0
  6
SLD-SOLID
 62
     7
 10
611.2661182354
 20
199.9233216903
 30
0.0
  0
VERTEX
  5
515
  8
0
  6
SLD-SOLID
 62
     7
 10
614.0617548893
 20
202.0367042552
 30
0.0
  0
VERTEX
  5
516
  8
0
  6
SLD-SOLID
 62
     7
 10
616.7997240494
 20
204.1064900387
 30
0.0
  0
VERTEX
  5
517
  8
0
  6
SLD-SOLID
 62
     7
 10
619.4518923233
 20
206.1114398222
 30
0.0
  0
VERTEX
  5
518
  8
0
  6
SLD-SOLID
 62
     7
 10
621.9911097954
 20
208.030980166
 30
0.0
  0
VERTEX
  5
519
  8
0
  6
SLD-SOLID
 62
     7
 10
624.3912696312
 20
209.8454135395
 30
0.0
  0
VERTEX
  5
51A
  8
0
  6
SLD-SOLID
 62
     7
 10
626.6277849148
 20
211.5361221059
 30
0.0
  0
VERTEX
  5
51B
  8
0
  6
SLD-SOLID
 62
     7
 10
628.6776780556
 20
213.0857567228
 30
0.0
  0
VERTEX
  5
51C
  8
0
  6
SLD-SOLID
 62
     7
 10
630.519908614
 20
214.4784155226
 30
0.0
  0
VERTEX
  5
51D
  8
0
  6
SLD-SOLID
 62
     7
 10
632.1356117199
 20
215.6998087577
 30
0.0
  0
VERTEX
  5
51E
  8
0
  6
SLD-SOLID
 62
     7
 10
633.5081576775
 20
216.7374026886
 30
0.0
  0
VERTEX
  5
51F
  8
0
  6
SLD-SOLID
 62
     7
 10
634.6234797905
 20
217.5805504358
 30
0.0
  0
VERTEX
  5
520
  8
0
  6
SLD-SOLID
 62
     7
 10
635.4701637696
 20
218.2206009439
 30
0.0
  0
VERTEX
  5
521
  8
0
  6
SLD-SOLID
 62
     7
 10
636.0394775341
 20
218.6509846634
 30
0.0
  0
VERTEX
  5
522
  8
0
  6
SLD-SOLID
 62
     7
 10
636.3256096314
 20
218.867286194
 30
0.0
  0
VERTEX
  5
523
  8
0
  6
SLD-SOLID
 62
     7
 10
636.3614320229
 20
218.8943765051
 30
0.0
  0
SEQEND
  5
524
  8
0
  6
SLD-SOLID
 62
     7
  0
POLYLINE
  5
332
  8
0
  6
SLD-SOLID
 62
     7
 66
     1
 10
0.0
 20
0.0
 30
0.0
  0
VERTEX
  5
525
  8
0
  6
SLD-SOLID
 62
     7
 10
602.5062322091
 20
180.7653299458
 30
0.0
  0
VERTEX
  5
526
  8
0
  6
SLD-SOLID
 62
     7
 10
602.5851785611
 20
180.825010959
 30
0.0
  0
VERTEX
  5
527
  8
0
  6
SLD-SOLID
 62
     7
 10
602.93395514
 20
181.0886776931
 30
0.0
  0
VERTEX
  5
528
  8
0
  6
SLD-SOLID
 62
     7
 10
603.5531877945
 20
181.5567846335
 30
0.0
  0
VERTEX
  5
529
  8
0
  6
SLD-SOLID
 62
     7
 10
604.4283329915
 20
182.2183608002
 30
0.0
  0
VERTEX
  5
52A
  8
0
  6
SLD-SOLID
 62
     7
 10
605.5388867329
 20
183.0579015351
 30
0.0
  0
VERTEX
  5
52B
  8
0
  6
SLD-SOLID
 62
     7
 10
606.8588315915
 20
184.0557261295
 30
0.0
  0
VERTEX
  5
52C
  8
0
  6
SLD-SOLID
 62
     7
 10
608.3572029541
 20
185.1884472109
 30
0.0
  0
VERTEX
  5
52D
  8
0
  6
SLD-SOLID
 62
     7
 10
609.9989234875
 20
186.4295164979
 30
0.0
  0
VERTEX
  5
52E
  8
0
  6
SLD-SOLID
 62
     7
 10
611.745488591
 20
187.7498394734
 30
0.0
  0
VERTEX
  5
52F
  8
0
  6
SLD-SOLID
 62
     7
 10
613.5559498738
 20
189.1184748075
 30
0.0
  0
VERTEX
  5
530
  8
0
  6
SLD-SOLID
 62
     7
 10
615.3878688286
 20
190.5033393688
 30
0.0
  0
VERTEX
  5
531
  8
0
  6
SLD-SOLID
 62
     7
 10
617.1983301114
 20
191.8719737715
 30
0.0
  0
VERTEX
  5
532
  8
0
  6
SLD-SOLID
 62
     7
 10
618.9448654126
 20
193.1922986097
 30
0.0
  0
VERTEX
  5
533
  8
0
  6
SLD-SOLID
 62
     7
 10
620.5865859459
 20
194.4333660341
 30
0.0
  0
VERTEX
  5
534
  8
0
  6
SLD-SOLID
 62
     7
 10
622.0849871109
 20
195.5660880468
 30
0.0
  0
VERTEX
  5
535
  8
0
  6
SLD-SOLID
 62
     7
 10
623.4049319695
 20
196.5639121755
 30
0.0
  0
VERTEX
  5
536
  8
0
  6
SLD-SOLID
 62
     7
 10
624.5154857109
 20
197.4034524447
 30
0.0
  0
VERTEX
  5
537
  8
0
  6
SLD-SOLID
 62
     7
 10
625.3906309079
 20
198.0650295428
 30
0.0
  0
VERTEX
  5
538
  8
0
  6
SLD-SOLID
 62
     7
 10
626.0098635624
 20
198.5331369489
 30
0.0
  0
VERTEX
  5
539
  8
0
  6
SLD-SOLID
 62
     7
 10
626.3586401413
 20
198.7968032173
 30
0.0
  0
VERTEX
  5
53A
  8
0
  6
SLD-SOLID
 62
     7
 10
626.4375864933
 20
198.8564846962
 30
0.0
  0
SEQEND
  5
53B
  8
0
  6
SLD-SOLID
 62
     7
  0
LINE
  5
333
  8
0
  6
SLD-SOLID
 62
     7
 10
536.1418246697
 20
215.0086388848
 30
0.0
 11
500.7711022566
 21
232.781254772
 31
0.0
  0
LINE
  5
334
  8
0
  6
SLD-SOLID
 62
     7
 10
529.2019813727
 20
200.7644517272
 30
0.0
 11
530.2697389792
 21
200.3273787833
 31
0.0
  0
LINE
  5
335
  8
0
  6
SLD-SOLID
 62
     7
 10
529.2019813727
 20
200.7544518839
 30
0.0
 11
529.2019813727
 21
200.7644517272
 31
0.0
  0
LINE
  5
336
  8
0
  6
SLD-SOLID
 62
     7
 10
530.2697389792
 20
200.3273787833
 30
0.0
 11
536.1418246697
 21
215.0086388848
 31
0.0
  0
LINE
  5
337
  8
0
  6
SLD-SOLID
 62
     7
 10
529.2019813727
 20
198.7044518738
 30
0.0
 11
500.7711022566
 21
198.7044518738
 31
0.0
  0
LINE
  5
338
  8
0
  6
SLD-SOLID
 62
     7
 10
529.2019813727
 20
200.7544518839
 30
0.0
 11
529.2019813727
 21
198.7044518738
 31
0.0
  0
LINE
  5
339
  8
0
  6
SLD-SOLID
 62
     7
 10
530.3625881146
 20
200.2902420628
 30
0.0
 11
536.2346738051
 21
214.9715023971
 31
0.0
  0
LINE
  5
33A
  8
0
  6
SLD-SOLID
 62
     7
 10
536.2346738051
 20
214.9715023971
 30
0.0
 11
536.9774668883
 21
214.6744077019
 31
0.0
  0
LINE
  5
33B
  8
0
  6
SLD-SOLID
 62
     7
 10
530.3625881146
 20
200.2902420628
 30
0.0
 11
531.1053811978
 21
199.9931476004
 31
0.0
  0
LINE
  5
33C
  8
0
  6
SLD-SOLID
 62
     7
 10
531.1053811978
 20
199.9931476004
 30
0.0
 11
536.9774668883
 21
214.6744077019
 31
0.0
  0
ARC
  5
33D
  8
0
  6
SLD-SOLID
 62
     7
 10
529.2019825018
 20
200.7544518024
 30
0.0
 40
1.249999999999972
 50
270.0
 51
338.2
  0
ARC
  5
33E
  8
0
  6
SLD-SOLID
 62
     7
 10
529.2019825018
 20
200.7544518024
 30
0.0
 40
2.049999999999983
 50
270.0
 51
338.2
  0
POLYLINE
  5
33F
  8
0
  6
SLD-SOLID
 62
     7
 66
     1
 10
0.0
 20
0.0
 30
0.0
  0
VERTEX
  5
53C
  8
0
  6
SLD-SOLID
 62
     7
 10
603.8092791508
 20
179.1288751102
 30
0.0
  0
VERTEX
  5
53D
  8
0
  6
SLD-SOLID
 62
     7
 10
603.9448499154
 20
179.2313764728
 30
0.0
  0
VERTEX
  5
53E
  8
0
  6
SLD-SOLID
 62
     7
 10
604.3567180108
 20
179.5427287853
 30
0.0
  0
VERTEX
  5
53F
  8
0
  6
SLD-SOLID
 62
     7
 10
605.0352274846
 20
180.0556584186
 30
0.0
  0
VERTEX
  5
540
  8
0
  6
SLD-SOLID
 62
     7
 10
605.9644936989
 20
180.7581419981
 30
0.0
  0
VERTEX
  5
541
  8
0
  6
SLD-SOLID
 62
     7
 10
607.1227311562
 20
181.6337118781
 30
0.0
  0
VERTEX
  5
542
  8
0
  6
SLD-SOLID
 62
     7
 10
608.4827601384
 20
182.6618491597
 30
0.0
  0
VERTEX
  5
543
  8
0
  6
SLD-SOLID
 62
     7
 10
610.0127517651
 20
183.8184530771
 30
0.0
  0
VERTEX
  5
544
  8
0
  6
SLD-SOLID
 62
     7
 10
611.6767942379
 20
185.0764146931
 30
0.0
  0
VERTEX
  5
545
  8
0
  6
SLD-SOLID
 62
     7
 10
613.4359359215
 20
186.4062483347
 30
0.0
  0
VERTEX
  5
546
  8
0
  6
SLD-SOLID
 62
     7
 10
615.2489005993
 20
187.7767826355
 30
0.0
  0
VERTEX
  5
547
  8
0
  6
SLD-SOLID
 62
     7
 10
617.073219962
 20
189.1558953486
 30
0.0
  0
VERTEX
  5
548
  8
0
  6
SLD-SOLID
 62
     7
 10
618.8661276768
 20
190.5112593359
 30
0.0
  0
VERTEX
  5
549
  8
0
  6
SLD-SOLID
 62
     7
 10
620.5856024693
 20
191.8111062533
 30
0.0
  0
VERTEX
  5
54A
  8
0
  6
SLD-SOLID
 62
     7
 10
622.1913217972
 20
193.0249706767
 30
0.0
  0
VERTEX
  5
54B
  8
0
  6
SLD-SOLID
 62
     7
 10
623.6456751297
 20
194.1243988386
 30
0.0
  0
VERTEX
  5
54C
  8
0
  6
SLD-SOLID
 62
     7
 10
624.9145388077
 20
195.083621975
 30
0.0
  0
VERTEX
  5
54D
  8
0
  6
SLD-SOLID
 62
     7
 10
625.9682297181
 20
195.880156096
 30
0.0
  0
VERTEX
  5
54E
  8
0
  6
SLD-SOLID
 62
     7
 10
626.7819821309
 20
196.4953309781
 30
0.0
  0
VERTEX
  5
54F
  8
0
  6
SLD-SOLID
 62
     7
 10
627.3367821644
 20
196.9147283509
 30
0.0
  0
VERTEX
  5
550
  8
0
  6
SLD-SOLID
 62
     7
 10
627.6195764016
 20
197.1285171732
 30
0.0
  0
VERTEX
  5
551
  8
0
  6
SLD-SOLID
 62
     7
 10
627.6566802929
 20
197.1565737314
 30
0.0
  0
SEQEND
  5
552
  8
0
  6
SLD-SOLID
 62
     7
  0
POLYLINE
  5
340
  8
0
  6
SLD-SOLID
 62
     7
 66
     1
 10
0.0
 20
0.0
 30
0.0
  0
VERTEX
  5
553
  8
0
  6
SLD-SOLID
 62
     7
 10
603.7123023938
 20
179.1699054576
 30
0.0
  0
VERTEX
  5
554
  8
0
  6
SLD-SOLID
 62
     7
 10
603.8483797978
 20
179.2727681733
 30
0.0
  0
VERTEX
  5
555
  8
0
  6
SLD-SOLID
 62
     7
 10
604.2616784047
 20
179.5852157212
 30
0.0
  0
VERTEX
  5
556
  8
0
  6
SLD-SOLID
 62
     7
 10
604.9425720642
 20
180.0999502576
 30
0.0
  0
VERTEX
  5
557
  8
0
  6
SLD-SOLID
 62
     7
 10
605.8751165341
 20
180.8049055672
 30
0.0
  0
VERTEX
  5
558
  8
0
  6
SLD-SOLID
 62
     7
 10
607.0374071072
 20
181.6835599876
 30
0.0
  0
VERTEX
  5
559
  8
0
  6
SLD-SOLID
 62
     7
 10
608.4022342633
 20
182.7153163887
 30
0.0
  0
VERTEX
  5
55A
  8
0
  6
SLD-SOLID
 62
     7
 10
609.9376201104
 20
183.8759901858
 30
0.0
  0
VERTEX
  5
55B
  8
0
  6
SLD-SOLID
 62
     7
 10
611.6075336407
 20
185.1383811719
 30
0.0
  0
VERTEX
  5
55C
  8
0
  6
SLD-SOLID
 62
     7
 10
613.372844405
 20
186.4728937782
 30
0.0
  0
VERTEX
  5
55D
  8
0
  6
SLD-SOLID
 62
     7
 10
615.1921867798
 20
187.8482523299
 30
0.0
  0
VERTEX
  5
55E
  8
0
  6
SLD-SOLID
 62
     7
 10
617.0229434441
 20
189.2322190962
 30
0.0
  0
VERTEX
  5
55F
  8
0
  6
SLD-SOLID
 62
     7
 10
618.8221692513
 20
190.5923542491
 30
0.0
  0
VERTEX
  5
560
  8
0
  6
SLD-SOLID
 62
     7
 10
620.5476641129
 20
191.8967776857
 30
0.0
  0
VERTEX
  5
561
  8
0
  6
SLD-SOLID
 62
     7
 10
622.1590458821
 20
193.1149140856
 30
0.0
  0
VERTEX
  5
562
  8
0
  6
SLD-SOLID
 62
     7
 10
623.618525214
 20
194.2182128242
 30
0.0
  0
VERTEX
  5
563
  8
0
  6
SLD-SOLID
 62
     7
 10
624.8918592404
 20
195.1808120049
 30
0.0
  0
VERTEX
  5
564
  8
0
  6
SLD-SOLID
 62
     7
 10
625.9492456387
 20
195.9801494069
 30
0.0
  0
VERTEX
  5
565
  8
0
  6
SLD-SOLID
 62
     7
 10
626.7658888768
 20
196.5974900796
 30
0.0
  0
VERTEX
  5
566
  8
0
  6
SLD-SOLID
 62
     7
 10
627.3226260613
 20
197.0183635987
 30
0.0
  0
VERTEX
  5
567
  8
0
  6
SLD-SOLID
 62
     7
 10
627.6064037751
 20
197.2329049296
 30
0.0
  0
VERTEX
  5
568
  8
0
  6
SLD-SOLID
 62
     7
 10
627.643656678
 20
197.2610606737
 30
0.0
  0
SEQEND
  5
569
  8
0
  6
SLD-SOLID
 62
     7
  0
POLYLINE
  5
341
  8
0
  6
SLD-SOLID
 62
     7
 66
     1
 10
0.0
 20
0.0
 30
0.0
  0
VERTEX
  5
56A
  8
0
  6
SLD-SOLID
 62
     7
 10
602.5062322091
 20
180.7653299458
 30
0.0
  0
VERTEX
  5
56B
  8
0
  6
SLD-SOLID
 62
     7
 10
602.6422798108
 20
180.8681907988
 30
0.0
  0
VERTEX
  5
56C
  8
0
  6
SLD-SOLID
 62
     7
 10
603.05560822
 20
181.1806402094
 30
0.0
  0
VERTEX
  5
56D
  8
0
  6
SLD-SOLID
 62
     7
 10
603.7365018795
 20
181.6953747458
 30
0.0
  0
VERTEX
  5
56E
  8
0
  6
SLD-SOLID
 62
     7
 10
604.6690463494
 20
182.4003300554
 30
0.0
  0
VERTEX
  5
56F
  8
0
  6
SLD-SOLID
 62
     7
 10
605.8313369225
 20
183.2789844758
 30
0.0
  0
VERTEX
  5
570
  8
0
  6
SLD-SOLID
 62
     7
 10
607.1961640786
 20
184.3107390142
 30
0.0
  0
VERTEX
  5
571
  8
0
  6
SLD-SOLID
 62
     7
 10
608.7315201233
 20
185.471414674
 30
0.0
  0
VERTEX
  5
572
  8
0
  6
SLD-SOLID
 62
     7
 10
610.4014336537
 20
186.7338037974
 30
0.0
  0
VERTEX
  5
573
  8
0
  6
SLD-SOLID
 62
     7
 10
612.1667742203
 20
188.0683182663
 30
0.0
  0
VERTEX
  5
574
  8
0
  6
SLD-SOLID
 62
     7
 10
613.9861165951
 20
189.4436768181
 30
0.0
  0
VERTEX
  5
575
  8
0
  6
SLD-SOLID
 62
     7
 10
615.8168732594
 20
190.8276435844
 30
0.0
  0
VERTEX
  5
576
  8
0
  6
SLD-SOLID
 62
     7
 10
617.6160692643
 20
192.1877787373
 30
0.0
  0
VERTEX
  5
577
  8
0
  6
SLD-SOLID
 62
     7
 10
619.3415939282
 20
193.4922012425
 30
0.0
  0
VERTEX
  5
578
  8
0
  6
SLD-SOLID
 62
     7
 10
620.9529756974
 20
194.7103385738
 30
0.0
  0
VERTEX
  5
579
  8
0
  6
SLD-SOLID
 62
     7
 10
622.4124550293
 20
195.8136363811
 30
0.0
  0
VERTEX
  5
57A
  8
0
  6
SLD-SOLID
 62
     7
 10
623.6857890557
 20
196.7762355617
 30
0.0
  0
VERTEX
  5
57B
  8
0
  6
SLD-SOLID
 62
     7
 10
624.743175454
 20
197.5755734294
 30
0.0
  0
VERTEX
  5
57C
  8
0
  6
SLD-SOLID
 62
     7
 10
625.5597888897
 20
198.1929141021
 30
0.0
  0
VERTEX
  5
57D
  8
0
  6
SLD-SOLID
 62
     7
 10
626.1165260743
 20
198.6137876212
 30
0.0
  0
VERTEX
  5
57E
  8
0
  6
SLD-SOLID
 62
     7
 10
626.4003335904
 20
198.8283294178
 30
0.0
  0
VERTEX
  5
57F
  8
0
  6
SLD-SOLID
 62
     7
 10
626.4375864933
 20
198.8564846962
 30
0.0
  0
SEQEND
  5
580
  8
0
  6
SLD-SOLID
 62
     7
  0
POLYLINE
  5
342
  8
0
  6
SLD-SOLID
 62
     7
 66
     1
 10
0.0
 20
0.0
 30
0.0
  0
VERTEX
  5
581
  8
0
  6
SLD-SOLID
 62
     7
 10
673.1082319687
 20
96.2432614452
 30
0.0
  0
VERTEX
  5
582
  8
0
  6
SLD-SOLID
 62
     7
 10
673.1093048523
 20
96.2440884597
 30
0.0
  0
VERTEX
  5
583
  8
0
  6
SLD-SOLID
 62
     7
 10
673.2825159501
 20
96.3750249631
 30
0.0
  0
VERTEX
  5
584
  8
0
  6
SLD-SOLID
 62
     7
 10
673.7448691796
 20
96.7245316989
 30
0.0
  0
VERTEX
  5
585
  8
0
  6
SLD-SOLID
 62
     7
 10
674.4785725544
 20
97.2791827208
 30
0.0
  0
VERTEX
  5
586
  8
0
  6
SLD-SOLID
 62
     7
 10
675.4554330777
 20
98.0176544673
 30
0.0
  0
VERTEX
  5
587
  8
0
  6
SLD-SOLID
 62
     7
 10
676.6379296254
 20
98.9115676767
 30
0.0
  0
VERTEX
  5
588
  8
0
  6
SLD-SOLID
 62
     7
 10
677.9805838536
 20
99.9265751726
 30
0.0
  0
VERTEX
  5
589
  8
0
  6
SLD-SOLID
 62
     7
 10
679.4318377446
 20
101.0236657149
 30
0.0
  0
VERTEX
  5
58A
  8
0
  6
SLD-SOLID
 62
     7
 10
680.9359013508
 20
102.1606839187
 30
0.0
  0
VERTEX
  5
58B
  8
0
  6
SLD-SOLID
 62
     7
 10
682.4349879692
 20
103.2939321286
 30
0.0
  0
VERTEX
  5
58C
  8
0
  6
SLD-SOLID
 62
     7
 10
683.8714897107
 20
104.3798617012
 30
0.0
  0
VERTEX
  5
58D
  8
0
  6
SLD-SOLID
 62
     7
 10
685.1901828717
 20
105.3767344839
 30
0.0
  0
VERTEX
  5
58E
  8
0
  6
SLD-SOLID
 62
     7
 10
686.3403737019
 20
106.2462470419
 30
0.0
  0
VERTEX
  5
58F
  8
0
  6
SLD-SOLID
 62
     7
 10
687.2779249619
 20
106.9549835212
 30
0.0
  0
VERTEX
  5
590
  8
0
  6
SLD-SOLID
 62
     7
 10
687.9667460392
 20
107.4757120497
 30
0.0
  0
VERTEX
  5
591
  8
0
  6
SLD-SOLID
 62
     7
 10
688.380402274
 20
107.7884129173
 30
0.0
  0
VERTEX
  5
592
  8
0
  6
SLD-SOLID
 62
     7
 10
688.5040521096
 20
107.8819028027
 30
0.0
  0
SEQEND
  5
593
  8
0
  6
SLD-SOLID
 62
     7
  0
LINE
  5
343
  8
0
  6
SLD-SOLID
 62
     7
 10
504.3358474444
 20
272.1822476871
 30
0.0
 11
504.3520450066
 21
272.3706654198
 31
0.0
  0
LINE
  5
344
  8
0
  6
SLD-SOLID
 62
     7
 10
500.7711022566
 20
272.6776665933
 30
0.0
 11
504.3358474444
 21
272.1822476871
 31
0.0
  0
LINE
  5
345
  8
0
  6
SLD-SOLID
 62
     7
 10
504.3358474444
 20
272.1822476871
 30
0.0
 11
504.3000548552
 21
271.9965494163
 31
0.0
  0
LINE
  5
346
  8
0
  6
SLD-SOLID
 62
     7
 10
500.7711022566
 20
277.3445985205
 30
0.0
 11
504.4216036271
 21
273.1799400336
 31
0.0
  0
POLYLINE
  5
347
  8
0
  6
SLD-SOLID
 62
     7
 66
     1
 10
0.0
 20
0.0
 30
0.0
  0
VERTEX
  5
594
  8
0
  6
SLD-SOLID
 62
     7
 10
504.4216036271
 20
273.1799400336
 30
0.0
  0
VERTEX
  5
595
  8
0
  6
SLD-SOLID
 62
     7
 10
504.4194429587
 20
273.1549135334
 30
0.0
  0
VERTEX
  5
596
  8
0
  6
SLD-SOLID
 62
     7
 10
504.4130801629
 20
273.0807504541
 30
0.0
  0
VERTEX
  5
597
  8
0
  6
SLD-SOLID
 62
     7
 10
504.4027089547
 20
272.9601330049
 30
0.0
  0
VERTEX
  5
598
  8
0
  6
SLD-SOLID
 62
     7
 10
504.3887316655
 20
272.7974346764
 30
0.0
  0
VERTEX
  5
599
  8
0
  6
SLD-SOLID
 62
     7
 10
504.3716251324
 20
272.5985414273
 30
0.0
  0
VERTEX
  5
59A
  8
0
  6
SLD-SOLID
 62
     7
 10
504.3520450066
 20
272.3706654198
 30
0.0
  0
SEQEND
  5
59B
  8
0
  6
SLD-SOLID
 62
     7
  0
LINE
  5
348
  8
0
  6
SLD-SOLID
 62
     7
 10
504.1462897728
 20
271.1989796645
 30
0.0
 11
500.7711022566
 21
269.0121523029
 31
0.0
  0
POLYLINE
  5
349
  8
0
  6
SLD-SOLID
 62
     7
 66
     1
 10
0.0
 20
0.0
 30
0.0
  0
VERTEX
  5
59C
  8
0
  6
SLD-SOLID
 62
     7
 10
504.3000548552
 20
271.9965494163
 30
0.0
  0
VERTEX
  5
59D
  8
0
  6
SLD-SOLID
 62
     7
 10
504.2567520808
 20
271.7719665653
 30
0.0
  0
VERTEX
  5
59E
  8
0
  6
SLD-SOLID
 62
     7
 10
504.218962736
 20
271.5759492404
 30
0.0
  0
VERTEX
  5
59F
  8
0
  6
SLD-SOLID
 62
     7
 10
504.1880577277
 20
271.4156052954
 30
0.0
  0
VERTEX
  5
5A0
  8
0
  6
SLD-SOLID
 62
     7
 10
504.1651397417
 20
271.2967312819
 30
0.0
  0
VERTEX
  5
5A1
  8
0
  6
SLD-SOLID
 62
     7
 10
504.1510432433
 20
271.2236410863
 30
0.0
  0
VERTEX
  5
5A2
  8
0
  6
SLD-SOLID
 62
     7
 10
504.1462897728
 20
271.1989796645
 30
0.0
  0
SEQEND
  5
5A3
  8
0
  6
SLD-SOLID
 62
     7
  0
LINE
  5
34A
  8
0
  6
SLD-SOLID
 62
     7
 10
506.5914809178
 20
266.618779946
 30
0.0
 11
506.4813613366
 21
265.8263995237
 31
0.0
  0
POLYLINE
  5
34B
  8
0
  6
SLD-SOLID
 62
     7
 66
     1
 10
0.0
 20
0.0
 30
0.0
  0
VERTEX
  5
5A4
  8
0
  6
SLD-SOLID
 62
     7
 10
506.5914809178
 20
266.618779946
 30
0.0
  0
VERTEX
  5
5A5
  8
0
  6
SLD-SOLID
 62
     7
 10
506.6866397332
 20
266.6055551655
 30
0.0
  0
VERTEX
  5
5A6
  8
0
  6
SLD-SOLID
 62
     7
 10
506.9684653948
 20
266.5663911886
 30
0.0
  0
VERTEX
  5
5A7
  8
0
  6
SLD-SOLID
 62
     7
 10
507.4261247586
 20
266.5027893073
 30
0.0
  0
VERTEX
  5
5A8
  8
0
  6
SLD-SOLID
 62
     7
 10
508.0420046519
 20
266.4171933121
 30
0.0
  0
VERTEX
  5
5A9
  8
0
  6
SLD-SOLID
 62
     7
 10
508.7924867342
 20
266.3128926343
 30
0.0
  0
VERTEX
  5
5AA
  8
0
  6
SLD-SOLID
 62
     7
 10
509.6486925553
 20
266.1938994116
 30
0.0
  0
VERTEX
  5
5AB
  8
0
  6
SLD-SOLID
 62
     7
 10
510.5777203511
 20
266.0647845752
 30
0.0
  0
VERTEX
  5
5AC
  8
0
  6
SLD-SOLID
 62
     7
 10
511.5438818406
 20
265.9305064864
 30
0.0
  0
SEQEND
  5
5AD
  8
0
  6
SLD-SOLID
 62
     7
  0
POLYLINE
  5
34C
  8
0
  6
SLD-SOLID
 62
     7
 66
     1
 10
0.0
 20
0.0
 30
0.0
  0
VERTEX
  5
5AE
  8
0
  6
SLD-SOLID
 62
     7
 10
506.4813613366
 20
265.8263995237
 30
0.0
  0
VERTEX
  5
5AF
  8
0
  6
SLD-SOLID
 62
     7
 10
506.5765201519
 20
265.8131747431
 30
0.0
  0
VERTEX
  5
5B0
  8
0
  6
SLD-SOLID
 62
     7
 10
506.8583458136
 20
265.7740070409
 30
0.0
  0
VERTEX
  5
5B1
  8
0
  6
SLD-SOLID
 62
     7
 10
507.3159902762
 20
265.7104051597
 30
0.0
  0
VERTEX
  5
5B2
  8
0
  6
SLD-SOLID
 62
     7
 10
507.9318850707
 20
265.6248091645
 30
0.0
  0
VERTEX
  5
5B3
  8
0
  6
SLD-SOLID
 62
     7
 10
508.6823522519
 20
265.5205084867
 30
0.0
  0
VERTEX
  5
5B4
  8
0
  6
SLD-SOLID
 62
     7
 10
509.5385580729
 20
265.401515264
 30
0.0
  0
VERTEX
  5
5B5
  8
0
  6
SLD-SOLID
 62
     7
 10
510.4676007698
 20
265.2724004275
 30
0.0
  0
VERTEX
  5
5B6
  8
0
  6
SLD-SOLID
 62
     7
 10
511.4337622593
 20
265.1381223387
 30
0.0
  0
SEQEND
  5
5B7
  8
0
  6
SLD-SOLID
 62
     7
  0
POLYLINE
  5
34D
  8
0
  6
SLD-SOLID
 62
     7
 66
     1
 10
0.0
 20
0.0
 30
0.0
  0
VERTEX
  5
5B8
  8
0
  6
SLD-SOLID
 62
     7
 10
551.1631041239
 20
260.4243076331
 30
0.0
  0
VERTEX
  5
5B9
  8
0
  6
SLD-SOLID
 62
     7
 10
552.1292656134
 20
260.2900332696
 30
0.0
  0
VERTEX
  5
5BA
  8
0
  6
SLD-SOLID
 62
     7
 10
553.0582934092
 20
260.1609184331
 30
0.0
  0
VERTEX
  5
5BB
  8
0
  6
SLD-SOLID
 62
     7
 10
553.9144992302
 20
260.0419252104
 30
0.0
  0
VERTEX
  5
5BC
  8
0
  6
SLD-SOLID
 62
     7
 10
554.6649813126
 20
259.9376245326
 30
0.0
  0
VERTEX
  5
5BD
  8
0
  6
SLD-SOLID
 62
     7
 10
555.2808761071
 20
259.8520285375
 30
0.0
  0
VERTEX
  5
5BE
  8
0
  6
SLD-SOLID
 62
     7
 10
555.7385205697
 20
259.7884266562
 30
0.0
  0
VERTEX
  5
5BF
  8
0
  6
SLD-SOLID
 62
     7
 10
556.0203462313
 20
259.749258954
 30
0.0
  0
VERTEX
  5
5C0
  8
0
  6
SLD-SOLID
 62
     7
 10
556.1155050467
 20
259.7360341734
 30
0.0
  0
SEQEND
  5
5C1
  8
0
  6
SLD-SOLID
 62
     7
  0
LINE
  5
34E
  8
0
  6
SLD-SOLID
 62
     7
 10
556.1155050467
 20
259.7360341734
 30
0.0
 11
556.0053705643
 21
258.9436500258
 31
0.0
  0
POLYLINE
  5
34F
  8
0
  6
SLD-SOLID
 62
     7
 66
     1
 10
0.0
 20
0.0
 30
0.0
  0
VERTEX
  5
5C2
  8
0
  6
SLD-SOLID
 62
     7
 10
551.0529696415
 20
259.6319234855
 30
0.0
  0
VERTEX
  5
5C3
  8
0
  6
SLD-SOLID
 62
     7
 10
552.0191460322
 20
259.4976491219
 30
0.0
  0
VERTEX
  5
5C4
  8
0
  6
SLD-SOLID
 62
     7
 10
552.948173828
 20
259.3685342855
 30
0.0
  0
VERTEX
  5
5C5
  8
0
  6
SLD-SOLID
 62
     7
 10
553.804379649
 20
259.2495410628
 30
0.0
  0
VERTEX
  5
5C6
  8
0
  6
SLD-SOLID
 62
     7
 10
554.5548468302
 20
259.145240385
 30
0.0
  0
VERTEX
  5
5C7
  8
0
  6
SLD-SOLID
 62
     7
 10
555.1707416247
 20
259.0596443898
 30
0.0
  0
VERTEX
  5
5C8
  8
0
  6
SLD-SOLID
 62
     7
 10
555.6284009884
 20
258.9960425086
 30
0.0
  0
VERTEX
  5
5C9
  8
0
  6
SLD-SOLID
 62
     7
 10
555.9102117489
 20
258.9568748064
 30
0.0
  0
VERTEX
  5
5CA
  8
0
  6
SLD-SOLID
 62
     7
 10
556.0053705643
 20
258.9436500258
 30
0.0
  0
SEQEND
  5
5CB
  8
0
  6
SLD-SOLID
 62
     7
  0
LINE
  5
350
  8
0
  6
SLD-SOLID
 62
     7
 10
511.5438818406
 20
265.9305064864
 30
0.0
 11
551.1631041239
 21
260.4243076331
 31
0.0
  0
LINE
  5
351
  8
0
  6
SLD-SOLID
 62
     7
 10
511.4337622593
 20
265.1381223387
 30
0.0
 11
551.0529696415
 21
259.6319234855
 31
0.0
  0
POLYLINE
  5
352
  8
0
  6
SLD-SOLID
 62
     7
 66
     1
 10
0.0
 20
0.0
 30
0.0
  0
VERTEX
  5
5CC
  8
0
  6
SLD-SOLID
 62
     7
 10
506.4813613366
 20
265.8263995237
 30
0.0
  0
VERTEX
  5
5CD
  8
0
  6
SLD-SOLID
 62
     7
 10
506.4780532788
 20
265.8026098198
 30
0.0
  0
VERTEX
  5
5CE
  8
0
  6
SLD-SOLID
 62
     7
 10
506.4682632159
 20
265.7321534044
 30
0.0
  0
VERTEX
  5
5CF
  8
0
  6
SLD-SOLID
 62
     7
 10
506.4523636769
 20
265.6177422888
 30
0.0
  0
VERTEX
  5
5D0
  8
0
  6
SLD-SOLID
 62
     7
 10
506.4309656094
 20
265.4637685902
 30
0.0
  0
VERTEX
  5
5D1
  8
0
  6
SLD-SOLID
 62
     7
 10
506.4048885773
 20
265.2761517949
 30
0.0
  0
VERTEX
  5
5D2
  8
0
  6
SLD-SOLID
 62
     7
 10
506.3751458596
 20
265.0621003396
 30
0.0
  0
VERTEX
  5
5D3
  8
0
  6
SLD-SOLID
 62
     7
 10
506.3428699444
 20
264.8298396654
 30
0.0
  0
VERTEX
  5
5D4
  8
0
  6
SLD-SOLID
 62
     7
 10
506.3092976283
 20
264.588299293
 30
0.0
  0
SEQEND
  5
5D5
  8
0
  6
SLD-SOLID
 62
     7
  0
POLYLINE
  5
353
  8
0
  6
SLD-SOLID
 62
     7
 66
     1
 10
0.0
 20
0.0
 30
0.0
  0
VERTEX
  5
5D6
  8
0
  6
SLD-SOLID
 62
     7
 10
555.833306856
 20
257.7055497951
 30
0.0
  0
VERTEX
  5
5D7
  8
0
  6
SLD-SOLID
 62
     7
 10
555.8668791722
 20
257.9470901675
 30
0.0
  0
VERTEX
  5
5D8
  8
0
  6
SLD-SOLID
 62
     7
 10
555.8991550873
 20
258.1793508417
 30
0.0
  0
VERTEX
  5
5D9
  8
0
  6
SLD-SOLID
 62
     7
 10
555.9288978051
 20
258.393402297
 30
0.0
  0
VERTEX
  5
5DA
  8
0
  6
SLD-SOLID
 62
     7
 10
555.9549748372
 20
258.5810190923
 30
0.0
  0
VERTEX
  5
5DB
  8
0
  6
SLD-SOLID
 62
     7
 10
555.9763729046
 20
258.7349927909
 30
0.0
  0
VERTEX
  5
5DC
  8
0
  6
SLD-SOLID
 62
     7
 10
555.9922724436
 20
258.8494039065
 30
0.0
  0
VERTEX
  5
5DD
  8
0
  6
SLD-SOLID
 62
     7
 10
556.0020625065
 20
258.9198603219
 30
0.0
  0
VERTEX
  5
5DE
  8
0
  6
SLD-SOLID
 62
     7
 10
556.0053705643
 20
258.9436500258
 30
0.0
  0
SEQEND
  5
5DF
  8
0
  6
SLD-SOLID
 62
     7
  0
LINE
  5
354
  8
0
  6
SLD-SOLID
 62
     7
 10
506.3092976283
 20
264.588299293
 30
0.0
 11
504.83639235
 21
253.9901613183
 31
0.0
  0
LINE
  5
355
  8
0
  6
SLD-SOLID
 62
     7
 10
554.3604015778
 20
247.1074118204
 30
0.0
 11
555.833306856
 21
257.7055497951
 31
0.0
  0
LINE
  5
356
  8
0
  6
SLD-SOLID
 62
     7
 10
535.4422300528
 20
249.7366211302
 30
0.0
 11
535.6831222247
 21
251.4699614531
 31
0.0
  0
ARC
  5
357
  8
0
  6
SLD-SOLID
 62
     7
 10
529.8392885293
 20
252.2821257875
 30
0.0
 40
5.900000000000047
 50
352.0878318823
 51
172.0878273088
  0
LINE
  5
358
  8
0
  6
SLD-SOLID
 62
     7
 10
523.9954560469
 20
253.0942886061
 30
0.0
 11
523.754563875
 21
251.3609482831
 31
0.0
  0
LINE
  5
359
  8
0
  6
SLD-SOLID
 62
     7
 10
523.4723656844
 20
249.3304639048
 30
0.0
 11
504.5541941594
 21
251.9596769399
 31
0.0
  0
POLYLINE
  5
35A
  8
0
  6
SLD-SOLID
 62
     7
 66
     1
 10
0.0
 20
0.0
 30
0.0
  0
VERTEX
  5
5E0
  8
0
  6
SLD-SOLID
 62
     7
 10
504.5541941594
 20
251.9596769399
 30
0.0
  0
VERTEX
  5
5E1
  8
0
  6
SLD-SOLID
 62
     7
 10
504.559618182
 20
251.9986919052
 30
0.0
  0
VERTEX
  5
5E2
  8
0
  6
SLD-SOLID
 62
     7
 10
504.5756816338
 20
252.1142355091
 30
0.0
  0
VERTEX
  5
5E3
  8
0
  6
SLD-SOLID
 62
     7
 10
504.6017586659
 20
252.3018746561
 30
0.0
  0
VERTEX
  5
5E4
  8
0
  6
SLD-SOLID
 62
     7
 10
504.6368509005
 20
252.5543897337
 30
0.0
  0
VERTEX
  5
5E5
  8
0
  6
SLD-SOLID
 62
     7
 10
504.679602332
 20
252.8620838112
 30
0.0
  0
VERTEX
  5
5E6
  8
0
  6
SLD-SOLID
 62
     7
 10
504.7283887337
 20
253.2131253666
 30
0.0
  0
VERTEX
  5
5E7
  8
0
  6
SLD-SOLID
 62
     7
 10
504.7813325594
 20
253.5940325744
 30
0.0
  0
VERTEX
  5
5E8
  8
0
  6
SLD-SOLID
 62
     7
 10
504.83639235
 20
253.9901613183
 30
0.0
  0
SEQEND
  5
5E9
  8
0
  6
SLD-SOLID
 62
     7
  0
POLYLINE
  5
35B
  8
0
  6
SLD-SOLID
 62
     7
 66
     1
 10
0.0
 20
0.0
 30
0.0
  0
VERTEX
  5
5EA
  8
0
  6
SLD-SOLID
 62
     7
 10
523.754563875
 20
251.3609482831
 30
0.0
  0
VERTEX
  5
5EB
  8
0
  6
SLD-SOLID
 62
     7
 10
523.6995040844
 20
250.9648232645
 30
0.0
  0
VERTEX
  5
5EC
  8
0
  6
SLD-SOLID
 62
     7
 10
523.6465751599
 20
250.5839160568
 30
0.0
  0
VERTEX
  5
5ED
  8
0
  6
SLD-SOLID
 62
     7
 10
523.597773857
 20
250.2328745014
 30
0.0
  0
VERTEX
  5
5EE
  8
0
  6
SLD-SOLID
 62
     7
 10
523.5550224255
 20
249.9251804239
 30
0.0
  0
VERTEX
  5
5EF
  8
0
  6
SLD-SOLID
 62
     7
 10
523.5199301909
 20
249.6726653463
 30
0.0
  0
VERTEX
  5
5F0
  8
0
  6
SLD-SOLID
 62
     7
 10
523.4938531588
 20
249.4850261993
 30
0.0
  0
VERTEX
  5
5F1
  8
0
  6
SLD-SOLID
 62
     7
 10
523.477789707
 20
249.3694788701
 30
0.0
  0
VERTEX
  5
5F2
  8
0
  6
SLD-SOLID
 62
     7
 10
523.4723656844
 20
249.3304639048
 30
0.0
  0
SEQEND
  5
5F3
  8
0
  6
SLD-SOLID
 62
     7
  0
POLYLINE
  5
35C
  8
0
  6
SLD-SOLID
 62
     7
 66
     1
 10
0.0
 20
0.0
 30
0.0
  0
VERTEX
  5
5F4
  8
0
  6
SLD-SOLID
 62
     7
 10
554.3604015778
 20
247.1074118204
 30
0.0
  0
VERTEX
  5
5F5
  8
0
  6
SLD-SOLID
 62
     7
 10
554.3053417872
 20
246.7112830765
 30
0.0
  0
VERTEX
  5
5F6
  8
0
  6
SLD-SOLID
 62
     7
 10
554.2524128626
 20
246.330379594
 30
0.0
  0
VERTEX
  5
5F7
  8
0
  6
SLD-SOLID
 62
     7
 10
554.2036264609
 20
245.9793343133
 30
0.0
  0
VERTEX
  5
5F8
  8
0
  6
SLD-SOLID
 62
     7
 10
554.1608601283
 20
245.6716402359
 30
0.0
  0
VERTEX
  5
5F9
  8
0
  6
SLD-SOLID
 62
     7
 10
554.1257678936
 20
245.4191251583
 30
0.0
  0
VERTEX
  5
5FA
  8
0
  6
SLD-SOLID
 62
     7
 10
554.0996908616
 20
245.2314860112
 30
0.0
  0
VERTEX
  5
5FB
  8
0
  6
SLD-SOLID
 62
     7
 10
554.0836274098
 20
245.1159424073
 30
0.0
  0
VERTEX
  5
5FC
  8
0
  6
SLD-SOLID
 62
     7
 10
554.0782033871
 20
245.076927442
 30
0.0
  0
SEQEND
  5
5FD
  8
0
  6
SLD-SOLID
 62
     7
  0
LINE
  5
35D
  8
0
  6
SLD-SOLID
 62
     7
 10
554.0782033871
 20
245.076927442
 30
0.0
 11
535.1600318621
 21
247.7061367518
 31
0.0
  0
POLYLINE
  5
35E
  8
0
  6
SLD-SOLID
 62
     7
 66
     1
 10
0.0
 20
0.0
 30
0.0
  0
VERTEX
  5
5FE
  8
0
  6
SLD-SOLID
 62
     7
 10
535.1600318621
 20
247.7061367518
 30
0.0
  0
VERTEX
  5
5FF
  8
0
  6
SLD-SOLID
 62
     7
 10
535.1654558848
 20
247.7451517171
 30
0.0
  0
VERTEX
  5
600
  8
0
  6
SLD-SOLID
 62
     7
 10
535.1815193366
 20
247.8606990463
 30
0.0
  0
VERTEX
  5
601
  8
0
  6
SLD-SOLID
 62
     7
 10
535.2075963686
 20
248.0483344681
 30
0.0
  0
VERTEX
  5
602
  8
0
  6
SLD-SOLID
 62
     7
 10
535.2426886033
 20
248.300853271
 30
0.0
  0
VERTEX
  5
603
  8
0
  6
SLD-SOLID
 62
     7
 10
535.2854549359
 20
248.6085436232
 30
0.0
  0
VERTEX
  5
604
  8
0
  6
SLD-SOLID
 62
     7
 10
535.3342413376
 20
248.9595889039
 30
0.0
  0
VERTEX
  5
605
  8
0
  6
SLD-SOLID
 62
     7
 10
535.3871702622
 20
249.3404923863
 30
0.0
  0
VERTEX
  5
606
  8
0
  6
SLD-SOLID
 62
     7
 10
535.4422300528
 20
249.7366211302
 30
0.0
  0
SEQEND
  5
607
  8
0
  6
SLD-SOLID
 62
     7
  0
POLYLINE
  5
35F
  8
0
  6
SLD-SOLID
 62
     7
 66
     1
 10
0.0
 20
0.0
 30
0.0
  0
VERTEX
  5
608
  8
0
  6
SLD-SOLID
 62
     7
 10
535.2701514433
 20
248.4985208995
 30
0.0
  0
VERTEX
  5
609
  8
0
  6
SLD-SOLID
 62
     7
 10
535.0710272263
 20
248.5261960811
 30
0.0
  0
VERTEX
  5
60A
  8
0
  6
SLD-SOLID
 62
     7
 10
534.487229533
 20
248.6073291785
 30
0.0
  0
VERTEX
  5
60B
  8
0
  6
SLD-SOLID
 62
     7
 10
533.558544464
 20
248.7363993115
 30
0.0
  0
VERTEX
  5
60C
  8
0
  6
SLD-SOLID
 62
     7
 10
532.3977589081
 20
248.8977192826
 30
0.0
  0
SEQEND
  5
60D
  8
0
  6
SLD-SOLID
 62
     7
  0
POLYLINE
  5
360
  8
0
  6
SLD-SOLID
 62
     7
 66
     1
 10
0.0
 20
0.0
 30
0.0
  0
VERTEX
  5
60E
  8
0
  6
SLD-SOLID
 62
     7
 10
526.4548778008
 20
249.7236496694
 30
0.0
  0
VERTEX
  5
60F
  8
0
  6
SLD-SOLID
 62
     7
 10
525.2941071461
 20
249.8849733657
 30
0.0
  0
VERTEX
  5
610
  8
0
  6
SLD-SOLID
 62
     7
 10
524.365422077
 20
250.0140397734
 30
0.0
  0
VERTEX
  5
611
  8
0
  6
SLD-SOLID
 62
     7
 10
523.7816094826
 20
250.0951765961
 30
0.0
  0
VERTEX
  5
612
  8
0
  6
SLD-SOLID
 62
     7
 10
523.5824852656
 20
250.1228480525
 30
0.0
  0
SEQEND
  5
613
  8
0
  6
SLD-SOLID
 62
     7
  0
LINE
  5
361
  8
0
  6
SLD-SOLID
 62
     7
 10
549.3065982531
 20
226.8098621554
 30
0.0
 11
550.2862452935
 21
226.0496682412
 31
0.0
  0
LINE
  5
362
  8
0
  6
SLD-SOLID
 62
     7
 10
503.0367642115
 20
232.6163082308
 30
0.0
 11
504.1865825127
 21
233.0805539078
 31
0.0
  0
LINE
  5
363
  8
0
  6
SLD-SOLID
 62
     7
 10
504.0589540671
 20
252.0285016782
 30
0.0
 11
500.7711022566
 21
252.4854420609
 31
0.0
  0
LINE
  5
364
  8
0
  6
SLD-SOLID
 62
     7
 10
563.9830052327
 20
243.7003767974
 30
0.0
 11
554.5734434794
 21
245.0080989785
 31
0.0
  0
LINE
  5
365
  8
0
  6
SLD-SOLID
 62
     7
 10
500.7711022566
 20
238.2277539856
 30
0.0
 11
503.0367642115
 21
232.6163082308
 31
0.0
  0
LINE
  5
366
  8
0
  6
SLD-SOLID
 62
     7
 10
550.2862452935
 20
226.0496682412
 30
0.0
 11
558.3255707692
 21
236.40974899
 31
0.0
  0
POLYLINE
  5
367
  8
0
  6
SLD-SOLID
 62
     7
 66
     1
 10
0.0
 20
0.0
 30
0.0
  0
VERTEX
  5
614
  8
0
  6
SLD-SOLID
 62
     7
 10
549.3065982531
 20
226.8098621554
 30
0.0
  0
VERTEX
  5
615
  8
0
  6
SLD-SOLID
 62
     7
 10
549.2515533637
 20
226.4137352741
 30
0.0
  0
VERTEX
  5
616
  8
0
  6
SLD-SOLID
 62
     7
 10
549.1986095379
 20
226.0328299291
 30
0.0
  0
VERTEX
  5
617
  8
0
  6
SLD-SOLID
 62
     7
 10
549.1498231362
 20
225.681786511
 30
0.0
  0
VERTEX
  5
618
  8
0
  6
SLD-SOLID
 62
     7
 10
549.1070717047
 20
225.3740942962
 30
0.0
  0
VERTEX
  5
619
  8
0
  6
SLD-SOLID
 62
     7
 10
549.0719645689
 20
225.1215773559
 30
0.0
  0
VERTEX
  5
61A
  8
0
  6
SLD-SOLID
 62
     7
 10
549.0458875369
 20
224.9339400715
 30
0.0
  0
VERTEX
  5
61B
  8
0
  6
SLD-SOLID
 62
     7
 10
549.0298389862
 20
224.8183927423
 30
0.0
  0
VERTEX
  5
61C
  8
0
  6
SLD-SOLID
 62
     7
 10
549.0244149636
 20
224.779377777
 30
0.0
  0
SEQEND
  5
61D
  8
0
  6
SLD-SOLID
 62
     7
  0
LINE
  5
368
  8
0
  6
SLD-SOLID
 62
     7
 10
549.0244149636
 20
224.779377777
 30
0.0
 11
504.3358027409
 21
230.9901128448
 31
0.0
  0
POLYLINE
  5
369
  8
0
  6
SLD-SOLID
 62
     7
 66
     1
 10
0.0
 20
0.0
 30
0.0
  0
VERTEX
  5
61E
  8
0
  6
SLD-SOLID
 62
     7
 10
503.9247691105
 20
231.1966485269
 30
0.0
  0
VERTEX
  5
61F
  8
0
  6
SLD-SOLID
 62
     7
 10
503.9258717965
 20
231.204631824
 30
0.0
  0
VERTEX
  5
620
  8
0
  6
SLD-SOLID
 62
     7
 10
503.9519488285
 20
231.3922672457
 30
0.0
  0
VERTEX
  5
621
  8
0
  6
SLD-SOLID
 62
     7
 10
503.9870410632
 20
231.644784186
 30
0.0
  0
VERTEX
  5
622
  8
0
  6
SLD-SOLID
 62
     7
 10
504.0298073958
 20
231.9524782634
 30
0.0
  0
VERTEX
  5
623
  8
0
  6
SLD-SOLID
 62
     7
 10
504.0785937975
 20
232.3035216815
 30
0.0
  0
VERTEX
  5
624
  8
0
  6
SLD-SOLID
 62
     7
 10
504.1315227221
 20
232.6844270266
 30
0.0
  0
VERTEX
  5
625
  8
0
  6
SLD-SOLID
 62
     7
 10
504.1865825127
 20
233.0805539078
 30
0.0
  0
SEQEND
  5
626
  8
0
  6
SLD-SOLID
 62
     7
  0
LINE
  5
36A
  8
0
  6
SLD-SOLID
 62
     7
 10
503.0274956892
 20
232.6125643141
 30
0.0
 11
500.7711022566
 21
238.2010436542
 31
0.0
  0
LINE
  5
36B
  8
0
  6
SLD-SOLID
 62
     7
 10
502.2856711815
 20
232.3130509741
 30
0.0
 11
503.0274956892
 21
232.6125643141
 31
0.0
  0
LINE
  5
36C
  8
0
  6
SLD-SOLID
 62
     7
 10
502.2856711815
 20
232.3130509741
 30
0.0
 11
500.7711022566
 21
236.064243216
 31
0.0
  0
LINE
  5
36D
  8
0
  6
SLD-SOLID
 62
     7
 10
558.3369850586
 20
236.4081582911
 30
0.0
 11
550.2941578101
 21
226.043538276
 31
0.0
  0
LINE
  5
36E
  8
0
  6
SLD-SOLID
 62
     7
 10
550.2941578101
 20
226.043538276
 30
0.0
 11
550.9261756609
 21
225.5530907697
 31
0.0
  0
LINE
  5
36F
  8
0
  6
SLD-SOLID
 62
     7
 10
559.2510222863
 20
236.2811296172
 30
0.0
 11
550.9261756609
 21
225.5530907697
 31
0.0
  0
ARC
  5
370
  8
0
  6
SLD-SOLID
 62
     7
 10
504.1865832377
 20
233.0805540774
 30
0.0
 40
1.250000000000053
 50
201.9867291474
 51
262.0878273088
  0
POLYLINE
  5
371
  8
0
  6
SLD-SOLID
 62
     7
 66
     1
 10
0.0
 20
0.0
 30
0.0
  0
VERTEX
  5
627
  8
0
  6
SLD-SOLID
 62
     7
 10
502.2856711815
 20
232.3130509741
 30
0.0
  0
VERTEX
  5
628
  8
0
  6
SLD-SOLID
 62
     7
 10
502.4023472737
 20
232.0711064077
 30
0.0
  0
VERTEX
  5
629
  8
0
  6
SLD-SOLID
 62
     7
 10
502.5028705071
 20
231.9111014641
 30
0.0
  0
SEQEND
  5
62A
  8
0
  6
SLD-SOLID
 62
     7
  0
ARC
  5
372
  8
0
  6
SLD-SOLID
 62
     7
 10
549.306605133
 20
226.8098628846
 30
0.0
 40
2.050000000000078
 50
262.0878273087
 51
322.1889254702
  0
ARC
  5
373
  8
0
  6
SLD-SOLID
 62
     7
 10
549.306605133
 20
226.8098628846
 30
0.0
 40
1.250000000000084
 50
262.0878273087
 51
322.1889254702
  0
ENDSEC
  0
EOF
