  0
SECTION
  2
HEADER
  9
$ACADVER
  1
AC1015
  9
$ACADMAINTVER
 70
     6
  9
$DWGCODEPAGE
  3
ANSI_1252
  9
$INSBASE
 10
0.0
 20
0.0
 30
0.0
  9
$EXTMIN
 10
0.0
 20
0.0
 30
0.0
  9
$EXTMAX
 10
420.0
 20
297.0
 30
0.0
  9
$LIMMIN
 10
0.0
 20
0.0
  9
$LIMMAX
 10
420.0
 20
297.0
  9
$ORTHOMODE
 70
     0
  9
$REGENMODE
 70
     1
  9
$FILLMODE
 70
     1
  9
$QTEXTMODE
 70
     0
  9
$MIRRTEXT
 70
     1
  9
$LTSCALE
 40
1.0
  9
$ATTMODE
 70
     1
  9
$TEXTSIZE
 40
3.5
  9
$TRACEWID
 40
1.0
  9
$TEXTSTYLE
  7
Standard
  9
$CLAYER
  8
0
  9
$CELTYPE
  6
ByLayer
  9
$CECOLOR
 62
   256
  9
$CELTSCALE
 40
1.0
  9
$DISPSILH
 70
     0
  9
$DIMSCALE
 40
1.0
  9
$DIMASZ
 40
3.302
  9
$DIMEXO
 40
1.0
  9
$DIMDLI
 40
3.75
  9
$DIMRND
 40
0.0
  9
$DIMDLE
 40
0.0
  9
$DIMEXE
 40
1.0
  9
$DIMTP
 40
0.0
  9
$DIMTM
 40
0.0
  9
$DIMTXT
 40
3.5
  9
$DIMCEN
 40
2.5
  9
$DIMTSZ
 40
0.0
  9
$DIMTOL
 70
     0
  9
$DIMLIM
 70
     0
  9
$DIMTIH
 70
     1
  9
$DIMTOH
 70
     1
  9
$DIMSE1
 70
     0
  9
$DIMSE2
 70
     0
  9
$DIMTAD
 70
     1
  9
$DIMZIN
 70
     0
  9
$DIMBLK
  1

  9
$DIMASO
 70
     1
  9
$DIMSHO
 70
     1
  9
$DIMPOST
  1

  9
$DIMAPOST
  1

  9
$DIMALT
 70
     0
  9
$DIMALTD
 70
     3
  9
$DIMALTF
 40
0.0393700787
  9
$DIMLFAC
 40
4.0
  9
$DIMTOFL
 70
     1
  9
$DIMTVP
 40
0.0
  9
$DIMTIX
 70
     0
  9
$DIMSOXD
 70
     0
  9
$DIMSAH
 70
     0
  9
$DIMBLK1
  1

  9
$DIMBLK2
  1

  9
$DIMSTYLE
  2
ISO-25
  9
$DIMCLRD
 70
     0
  9
$DIMCLRE
 70
     0
  9
$DIMCLRT
 70
     0
  9
$DIMTFAC
 40
1.0
  9
$DIMGAP
 40
1.524
  9
$DIMJUST
 70
     0
  9
$DIMSD1
 70
     0
  9
$DIMSD2
 70
     0
  9
$DIMTOLJ
 70
     0
  9
$DIMTZIN
 70
     0
  9
$DIMALTZ
 70
     0
  9
$DIMALTTZ
 70
     0
  9
$DIMUPT
 70
     0
  9
$DIMDEC
 70
     1
  9
$DIMTDEC
 70
     1
  9
$DIMALTU
 70
     2
  9
$DIMALTTD
 70
     3
  9
$DIMTXSTY
  7
Standard
  9
$DIMAUNIT
 70
     0
  9
$DIMADEC
 70
     1
  9
$DIMALTRND
 40
0.0
  9
$DIMAZIN
 70
     0
  9
$DIMDSEP
 70
    44
  9
$DIMATFIT
 70
     3
  9
$DIMFRAC
 70
     0
  9
$DIMLDRBLK
  1

  9
$DIMLUNIT
 70
     2
  9
$DIMLWD
 70
    -2
  9
$DIMLWE
 70
    -2
  9
$DIMTMOVE
 70
     0
  9
$LUNITS
 70
     2
  9
$LUPREC
 70
     1
  9
$SKETCHINC
 40
1.0
  9
$FILLETRAD
 40
10.0
  9
$AUNITS
 70
     0
  9
$AUPREC
 70
     1
  9
$MENU
  1
.
  9
$ELEVATION
 40
0.0
  9
$PELEVATION
 40
0.0
  9
$THICKNESS
 40
0.0
  9
$LIMCHECK
 70
     0
  9
$CHAMFERA
 40
0.0
  9
$CHAMFERB
 40
0.0
  9
$CHAMFERC
 40
0.0
  9
$CHAMFERD
 40
0.0
  9
$SKPOLY
 70
     0
  9
$TDCREATE
 40
2457847.352175914
  9
$TDUCREATE
 40
2457847.310509248
  9
$TDUPDATE
 40
2457847.352178229
  9
$TDUUPDATE
 40
2457847.310511563
  9
$TDINDWG
 40
0.0000000116
  9
$TDUSRTIMER
 40
0.0000000116
  9
$USRTIMER
 70
     1
  9
$ANGBASE
 50
0.0
  9
$ANGDIR
 70
     0
  9
$PDMODE
 70
     0
  9
$PDSIZE
 40
-1.0
  9
$PLINEWID
 40
0.0
  9
$SPLFRAME
 70
     0
  9
$SPLINETYPE
 70
     6
  9
$SPLINESEGS
 70
     8
  9
$HANDSEED
  5
302
  9
$SURFTAB1
 70
     6
  9
$SURFTAB2
 70
     6
  9
$SURFTYPE
 70
     6
  9
$SURFU
 70
     6
  9
$SURFV
 70
     6
  9
$UCSBASE
  2

  9
$UCSNAME
  2

  9
$UCSORG
 10
0.0
 20
0.0
 30
0.0
  9
$UCSXDIR
 10
1.0
 20
0.0
 30
0.0
  9
$UCSYDIR
 10
0.0
 20
1.0
 30
0.0
  9
$UCSORTHOREF
  2

  9
$UCSORTHOVIEW
 70
     0
  9
$UCSORGTOP
 10
0.0
 20
0.0
 30
0.0
  9
$UCSORGBOTTOM
 10
0.0
 20
0.0
 30
0.0
  9
$UCSORGLEFT
 10
0.0
 20
0.0
 30
0.0
  9
$UCSORGRIGHT
 10
0.0
 20
0.0
 30
0.0
  9
$UCSORGFRONT
 10
0.0
 20
0.0
 30
0.0
  9
$UCSORGBACK
 10
0.0
 20
0.0
 30
0.0
  9
$PUCSBASE
  2

  9
$PUCSNAME
  2

  9
$PUCSORG
 10
0.0
 20
0.0
 30
0.0
  9
$PUCSXDIR
 10
1.0
 20
0.0
 30
0.0
  9
$PUCSYDIR
 10
0.0
 20
1.0
 30
0.0
  9
$PUCSORTHOREF
  2

  9
$PUCSORTHOVIEW
 70
     0
  9
$PUCSORGTOP
 10
0.0
 20
0.0
 30
0.0
  9
$PUCSORGBOTTOM
 10
0.0
 20
0.0
 30
0.0
  9
$PUCSORGLEFT
 10
0.0
 20
0.0
 30
0.0
  9
$PUCSORGRIGHT
 10
0.0
 20
0.0
 30
0.0
  9
$PUCSORGFRONT
 10
0.0
 20
0.0
 30
0.0
  9
$PUCSORGBACK
 10
0.0
 20
0.0
 30
0.0
  9
$USERI1
 70
     0
  9
$USERI2
 70
     0
  9
$USERI3
 70
     0
  9
$USERI4
 70
     0
  9
$USERI5
 70
     0
  9
$USERR1
 40
0.0
  9
$USERR2
 40
0.0
  9
$USERR3
 40
0.0
  9
$USERR4
 40
0.0
  9
$USERR5
 40
0.0
  9
$WORLDVIEW
 70
     1
  9
$SHADEDGE
 70
     3
  9
$SHADEDIF
 70
    70
  9
$TILEMODE
 70
     1
  9
$MAXACTVP
 70
    64
  9
$PINSBASE
 10
0.0
 20
0.0
 30
0.0
  9
$PLIMCHECK
 70
     0
  9
$PEXTMIN
 10
1.0000000000E+20
 20
1.0000000000E+20
 30
1.0000000000E+20
  9
$PEXTMAX
 10
-1.0000000000E+20
 20
-1.0000000000E+20
 30
-1.0000000000E+20
  9
$PLIMMIN
 10
0.0
 20
0.0
  9
$PLIMMAX
 10
420.0
 20
297.0
  9
$UNITMODE
 70
     0
  9
$VISRETAIN
 70
     1
  9
$PLINEGEN
 70
     0
  9
$PSLTSCALE
 70
     1
  9
$TREEDEPTH
 70
  3020
  9
$CMLSTYLE
  2
Standard
  9
$CMLJUST
 70
     0
  9
$CMLSCALE
 40
20.0
  9
$PROXYGRAPHICS
 70
     1
  9
$MEASUREMENT
 70
     1
  9
$CELWEIGHT
370
    -1
  9
$ENDCAPS
280
     0
  9
$JOINSTYLE
280
     0
  9
$LWDISPLAY
290
     1
  9
$INSUNITS
 70
     4
  9
$HYPERLINKBASE
  1

  9
$STYLESHEET
  1

  9
$XEDIT
290
     1
  9
$CEPSNTYPE
380
     0
  9
$PSTYLEMODE
290
     1
  9
$FINGERPRINTGUID
  2
{AB0B6888-33B7-422F-B25B-A9FFE5A079DD}
  9
$VERSIONGUID
  2
{FAEB1C32-E019-11D5-929B-00C0DF256EC4}
  9
$EXTNAMES
290
     1
  9
$PSVPSCALE
 40
0.0
  9
$OLESTARTUP
290
     0
  0
ENDSEC
  0
SECTION
  2
CLASSES
  0
CLASS
  1
ACDBDICTIONARYWDFLT
  2
AcDbDictionaryWithDefault
  3
ObjectDBX Classes
 90
        0
280
     0
281
     0
  0
CLASS
  1
VISUALSTYLE
  2
AcDbVisualStyle
  3
ObjectDBX Classes
 90
     4095
280
     0
281
     0
  0
CLASS
  1
MATERIAL
  2
AcDbMaterial
  3
ObjectDBX Classes
 90
     1153
280
     0
281
     0
  0
CLASS
  1
SCALE
  2
AcDbScale
  3
ObjectDBX Classes
 90
     1153
280
     0
281
     0
  0
CLASS
  1
TABLESTYLE
  2
AcDbTableStyle
  3
ObjectDBX Classes
 90
     4095
280
     0
281
     0
  0
CLASS
  1
MLEADERSTYLE
  2
AcDbMLeaderStyle
  3
ACDB_MLEADERSTYLE_CLASS
 90
     4095
280
     0
281
     0
  0
CLASS
  1
SUN
  2
AcDbSun
  3
SCENEOE
 90
     1153
280
     0
281
     0
  0
CLASS
  1
ACDBPLACEHOLDER
  2
AcDbPlaceHolder
  3
ObjectDBX Classes
 90
        0
280
     0
281
     0
  0
CLASS
  1
LAYOUT
  2
AcDbLayout
  3
ObjectDBX Classes
 90
        0
280
     0
281
     0
  0
ENDSEC
  0
SECTION
  2
TABLES
  0
TABLE
  2
VPORT
  5
8
330
0
100
AcDbSymbolTable
 70
     1
  0
VPORT
  5
29
330
8
100
AcDbSymbolTableRecord
100
AcDbViewportTableRecord
  2
*Active
 70
     0
 10
0.0
 20
0.0
 11
1.0
 21
1.0
 12
210.0
 22
148.5
 13
0.0
 23
0.0
 14
10.0
 24
10.0
 15
10.0
 25
10.0
 16
0.0
 26
0.0
 36
1.0
 17
0.0
 27
0.0
 37
0.0
 40
297.0
 41
1.4141414141
 42
50.0
 43
0.0
 44
0.0
 50
0.0
 51
0.0
 71
     0
 72
  2000
 73
     1
 74
     3
 75
     0
 76
     0
 77
     0
 78
     0
281
     0
 65
     1
110
0.0
120
0.0
130
0.0
111
1.0
121
0.0
131
0.0
112
0.0
122
1.0
132
0.0
 79
     0
146
0.0
  0
ENDTAB
  0
TABLE
  2
LTYPE
  5
5
330
0
100
AcDbSymbolTable
 70
     6
  0
LTYPE
  5
14
330
5
100
AcDbSymbolTableRecord
100
AcDbLinetypeTableRecord
  2
ByBlock
 70
     0
  3

 72
    65
 73
     0
 40
0.0
  0
LTYPE
  5
15
330
5
100
AcDbSymbolTableRecord
100
AcDbLinetypeTableRecord
  2
ByLayer
 70
     0
  3

 72
    65
 73
     0
 40
0.0
  0
LTYPE
  5
16
330
5
100
AcDbSymbolTableRecord
100
AcDbLinetypeTableRecord
  2
Continuous
 70
     0
  3
Solid line
 72
    65
 73
     0
 40
0.0
  0
LTYPE
  5
6E
330
5
100
AcDbSymbolTableRecord
100
AcDbLinetypeTableRecord
  2
HIDDEN
 70
     0
  3
Hidden __ __ __ __ __ __ __ __ __ __ __ __ __ __
 72
    65
 73
     2
 40
1.905
 49
1.27
 74
     0
 49
-0.635
 74
     0
  0
LTYPE
  5
6F
330
5
100
AcDbSymbolTableRecord
100
AcDbLinetypeTableRecord
  2
PHANTOM
 70
     0
  3
Phantom ______  __  __  ______  __  __  ______
 72
    65
 73
     6
 40
12.7
 49
6.35
 74
     0
 49
-1.27
 74
     0
 49
1.27
 74
     0
 49
-1.27
 74
     0
 49
1.27
 74
     0
 49
-1.27
 74
     0
  0
LTYPE
  5
70
330
5
100
AcDbSymbolTableRecord
100
AcDbLinetypeTableRecord
  2
CENTER
 70
     0
  3
Center ____ _ ____ _ ____ _ ____ _ ____ _ ____
 72
    65
 73
     4
 40
10.16
 49
6.35
 74
     0
 49
-1.27
 74
     0
 49
1.27
 74
     0
 49
-1.27
 74
     0
  0
LTYPE
  5
71
330
5
100
AcDbSymbolTableRecord
100
AcDbLinetypeTableRecord
  2
CENTERX2
 70
     0
  3
Center (2x) ________  __  ________  __  _____
 72
    65
 73
     4
 40
20.32
 49
12.7
 74
     0
 49
-2.54
 74
     0
 49
2.54
 74
     0
 49
-2.54
 74
     0
  0
LTYPE
  5
72
330
5
100
AcDbSymbolTableRecord
100
AcDbLinetypeTableRecord
  2
DOT2
 70
     0
  3
Dot (.5x) ........................................
 72
    65
 73
     2
 40
0.635
 49
0.0
 74
     0
 49
-0.635
 74
     0
  0
ENDTAB
  0
TABLE
  2
LAYER
  5
2
330
0
100
AcDbSymbolTable
 70
     4
  0
LAYER
  5
10
330
2
100
AcDbSymbolTableRecord
100
AcDbLayerTableRecord
  2
0
 70
     0
 62
     7
  6
Continuous
370
    -3
390
F
  0
LAYER
  5
73
330
2
100
AcDbSymbolTableRecord
100
AcDbLayerTableRecord
  2
FORMAT
 70
     0
 62
     7
  6
Continuous
370
    -3
390
F
  0
LAYER
  5
74
330
2
100
AcDbSymbolTableRecord
100
AcDbLayerTableRecord
  2
SLD-0
 70
     0
 62
     1
  6
Continuous
370
    -3
390
F
  0
LAYER
  5
75
330
2
100
AcDbSymbolTableRecord
100
AcDbLayerTableRecord
  2
WATERMARK
 70
     0
 62
    20
  6
Continuous
370
    -3
390
F
  0
ENDTAB
  0
TABLE
  2
STYLE
  5
3
330
0
100
AcDbSymbolTable
 70
     1
  0
STYLE
  5
11
330
3
100
AcDbSymbolTableRecord
100
AcDbTextStyleTableRecord
  2
Standard
 70
     0
 40
0.0
 41
1.0
 50
0.0
 71
     0
 42
3.5
  3
txt
  4

  0
ENDTAB
  0
TABLE
  2
VIEW
  5
6
330
0
100
AcDbSymbolTable
 70
     0
  0
ENDTAB
  0
TABLE
  2
UCS
  5
7
330
0
100
AcDbSymbolTable
 70
     0
  0
ENDTAB
  0
TABLE
  2
APPID
  5
9
330
0
100
AcDbSymbolTable
 70
     1
  0
APPID
  5
12
330
9
100
AcDbSymbolTableRecord
100
AcDbRegAppTableRecord
  2
ACAD
 70
     0
  0
ENDTAB
  0
TABLE
  2
DIMSTYLE
  5
A
330
0
100
AcDbSymbolTable
 70
     1
100
AcDbDimStyleTable
  0
DIMSTYLE
105
27
330
A
100
AcDbSymbolTableRecord
100
AcDbDimStyleTableRecord
  2
ISO-25
 70
     0
 41
2.5
 42
0.625
 43
3.75
 44
1.25
 73
     0
 74
     0
 77
     1
 78
     8
140
2.5
141
2.5
143
0.0393700787
147
0.625
171
     3
172
     1
178
     0
271
     2
272
     2
274
     3
278
    44
283
     0
284
     8
340
11
  0
ENDTAB
  0
TABLE
  2
BLOCK_RECORD
  5
1
330
0
100
AcDbSymbolTable
 70
     1
  0
BLOCK_RECORD
  5
1F
330
1
100
AcDbSymbolTableRecord
100
AcDbBlockTableRecord
  2
*Model_Space
340
22
  0
BLOCK_RECORD
  5
1B
330
1
100
AcDbSymbolTableRecord
100
AcDbBlockTableRecord
  2
*Paper_Space
340
1E
  0
BLOCK_RECORD
  5
23
330
1
100
AcDbSymbolTableRecord
100
AcDbBlockTableRecord
  2
*Paper_Space0
340
26
  0
ENDTAB
  0
ENDSEC
  0
SECTION
  2
BLOCKS
  0
BLOCK
  5
20
330
1F
100
AcDbEntity
  8
0
100
AcDbBlockBegin
  2
*Model_Space
 70
     0
 10
0.0
 20
0.0
 30
0.0
  3
*Model_Space
  1

  0
ENDBLK
  5
21
330
1F
100
AcDbEntity
  8
0
100
AcDbBlockEnd
  0
BLOCK
  5
1C
330
1B
100
AcDbEntity
 67
     1
  8
0
100
AcDbBlockBegin
  2
*Paper_Space
 70
     0
 10
0.0
 20
0.0
 30
0.0
  3
*Paper_Space
  1

  0
ENDBLK
  5
1D
330
1B
100
AcDbEntity
 67
     1
  8
0
100
AcDbBlockEnd
  0
BLOCK
  5
24
330
23
100
AcDbEntity
  8
0
100
AcDbBlockBegin
  2
*Paper_Space0
 70
     0
 10
0.0
 20
0.0
 30
0.0
  3
*Paper_Space0
  1

  0
ENDBLK
  5
25
330
23
100
AcDbEntity
  8
0
100
AcDbBlockEnd
  0
ENDSEC
  0
SECTION
  2
ENTITIES
  0
LINE
  5
76
330
1F
100
AcDbEntity
  8
0
  6
Continuous
 62
     7
370
    25
100
AcDbLine
 10
155.5887615173
 20
91.0753024085
 30
0.0
 11
155.5887615173
 21
92.075304435
 31
0.0
  0
LINE
  5
77
330
1F
100
AcDbEntity
  8
0
  6
Continuous
 62
     7
370
    25
100
AcDbLine
 10
141.3387587159
 20
92.075304435
 30
0.0
 11
141.3387587159
 21
91.0753024085
 31
0.0
  0
ARC
  5
78
330
1F
100
AcDbEntity
  8
0
  6
Continuous
 62
     7
370
    25
100
AcDbCircle
 10
155.0887587558
 20
91.0753031821
 30
0.0
 40
0.5
100
AcDbArc
 50
270.0
 51
0.0
  0
ARC
  5
79
330
1F
100
AcDbEntity
  8
0
  6
Continuous
 62
     7
370
    25
100
AcDbCircle
 10
141.8387587558
 20
91.0753031821
 30
0.0
 40
0.5
100
AcDbArc
 50
180.0
 51
270.0
  0
ARC
  5
7A
330
1F
100
AcDbEntity
  8
0
  6
Continuous
 62
     7
370
    25
100
AcDbCircle
 10
298.5887587558
 20
91.0753031821
 30
0.0
 40
0.5
100
AcDbArc
 50
270.0
 51
0.0
  0
ARC
  5
7B
330
1F
100
AcDbEntity
  8
0
  6
Continuous
 62
     7
370
    25
100
AcDbCircle
 10
285.3387587558
 20
91.0753031821
 30
0.0
 40
0.5
100
AcDbArc
 50
180.0
 51
270.0
  0
LINE
  5
7C
330
1F
100
AcDbEntity
  8
0
  6
Continuous
 62
     7
370
    25
100
AcDbLine
 10
299.0887617557
 20
91.0753024085
 30
0.0
 11
299.0887617557
 21
92.075304435
 31
0.0
  0
LINE
  5
7D
330
1F
100
AcDbEntity
  8
0
  6
Continuous
 62
     7
370
    25
100
AcDbLine
 10
284.8387589543
 20
92.075304435
 30
0.0
 11
284.8387589543
 21
91.0753024085
 31
0.0
  0
LINE
  5
7E
330
1F
100
AcDbEntity
  8
0
  6
Continuous
 62
     7
370
    25
100
AcDbLine
 10
155.5887540667
 20
90.9503040178
 30
0.0
 11
155.5887540667
 21
91.0730337067
 31
0.0
  0
LINE
  5
7F
330
1F
100
AcDbEntity
  8
0
  6
Continuous
 62
     7
370
    25
100
AcDbLine
 10
141.3387512653
 20
91.9503023191
 30
0.0
 11
141.3387512653
 21
90.9503040178
 31
0.0
  0
ARC
  5
80
330
1F
100
AcDbEntity
  8
0
  6
Continuous
 62
     7
370
    25
100
AcDbCircle
 10
155.0887536054
 20
90.9503031821
 30
0.0
 40
0.5
100
AcDbArc
 50
270.0
 51
0.0
  0
ARC
  5
81
330
1F
100
AcDbEntity
  8
0
  6
Continuous
 62
     7
370
    25
100
AcDbCircle
 10
141.8387536054
 20
90.9503031821
 30
0.0
 40
0.5
100
AcDbArc
 50
180.0
 51
270.0
  0
LINE
  5
82
330
1F
100
AcDbEntity
  8
0
  6
Continuous
 62
     7
370
    25
100
AcDbLine
 10
155.5387606709
 20
92.075304435
 30
0.0
 11
155.5387606709
 21
104.0753026767
 31
0.0
  0
LINE
  5
83
330
1F
100
AcDbEntity
  8
0
  6
Continuous
 62
     7
370
    25
100
AcDbLine
 10
141.3887595623
 20
104.0753026767
 30
0.0
 11
141.3887595623
 21
92.075304435
 31
0.0
  0
LINE
  5
84
330
1F
100
AcDbEntity
  8
0
  6
Continuous
 62
     7
370
    25
100
AcDbLine
 10
299.0387609094
 20
92.075304435
 30
0.0
 11
299.0387609094
 21
104.0753026767
 31
0.0
  0
LINE
  5
85
330
1F
100
AcDbEntity
  8
0
  6
Continuous
 62
     7
370
    25
100
AcDbLine
 10
284.8887598007
 20
104.0753026767
 30
0.0
 11
284.8887598007
 21
92.075304435
 31
0.0
  0
LINE
  5
86
330
1F
100
AcDbEntity
  8
0
  6
Continuous
 62
     7
370
    25
100
AcDbLine
 10
141.3887521117
 20
103.9503024234
 30
0.0
 11
141.3887521117
 21
92.075304435
 31
0.0
  0
ARC
  5
87
330
1F
100
AcDbEntity
  8
0
  6
Continuous
 62
     7
370
    25
100
AcDbCircle
 10
156.8137587558
 20
127.2003031821
 30
0.0
 40
0.3750000000000142
100
AcDbArc
 50
90.0
 51
180.0
  0
ARC
  5
88
330
1F
100
AcDbEntity
  8
0
  6
Continuous
 62
     7
370
    25
100
AcDbCircle
 10
140.1137587558
 20
127.2003031821
 30
0.0
 40
0.3750000000000142
100
AcDbArc
 50
0.0
 51
90.0
  0
LINE
  5
89
330
1F
100
AcDbEntity
  8
0
  6
Continuous
 62
     7
370
    25
100
AcDbLine
 10
156.4387610047
 20
105.5834454758
 30
0.0
 11
156.4387610047
 21
127.2003031784
 31
0.0
  0
LINE
  5
8A
330
1F
100
AcDbEntity
  8
0
  6
Continuous
 62
     7
370
    25
100
AcDbLine
 10
140.4887592285
 20
127.2003031784
 30
0.0
 11
140.4887592285
 21
105.5834454758
 31
0.0
  0
ARC
  5
8B
330
1F
100
AcDbEntity
  8
0
  6
Continuous
 62
     7
370
    25
100
AcDbCircle
 10
155.2637587558
 20
105.5834446685
 30
0.0
 40
1.174999999999983
100
AcDbArc
 50
350.5402980318
 51
0.0
  0
ARC
  5
8C
330
1F
100
AcDbEntity
  8
0
  6
Continuous
 62
     7
370
    25
100
AcDbCircle
 10
141.6637587558
 20
105.5834446685
 30
0.0
 40
1.174999999999977
100
AcDbArc
 50
180.0
 51
189.4597019682
  0
LINE
  5
8D
330
1F
100
AcDbEntity
  8
0
  6
Continuous
 62
     7
370
    25
100
AcDbLine
 10
140.5047407239
 20
105.3903282894
 30
0.0
 11
140.7238473981
 21
104.0753026767
 31
0.0
  0
LINE
  5
8E
330
1F
100
AcDbEntity
  8
0
  6
Continuous
 62
     7
370
    25
100
AcDbLine
 10
156.2036728352
 20
104.0753026767
 30
0.0
 11
156.4227795093
 21
105.3903282894
 31
0.0
  0
ARC
  5
8F
330
1F
100
AcDbEntity
  8
0
  6
Continuous
 62
     7
370
    25
100
AcDbCircle
 10
140.1137536054
 20
127.0753031821
 30
0.0
 40
0.3750000000000284
100
AcDbArc
 50
0.0
 51
90.0
  0
LINE
  5
90
330
1F
100
AcDbEntity
  8
0
  6
Continuous
 62
     7
370
    25
100
AcDbLine
 10
156.4387535541
 20
105.4584452225
 30
0.0
 11
156.4387535541
 21
105.5799660547
 31
0.0
  0
LINE
  5
91
330
1F
100
AcDbEntity
  8
0
  6
Continuous
 62
     7
370
    25
100
AcDbLine
 10
140.4887517779
 20
127.0753031871
 30
0.0
 11
140.4887517779
 21
105.4584452225
 31
0.0
  0
ARC
  5
92
330
1F
100
AcDbEntity
  8
0
  6
Continuous
 62
     7
370
    25
100
AcDbCircle
 10
155.2637536054
 20
105.4584446685
 30
0.0
 40
1.175000000000011
100
AcDbArc
 50
350.5402980318
 51
0.0
  0
ARC
  5
93
330
1F
100
AcDbEntity
  8
0
  6
Continuous
 62
     7
370
    25
100
AcDbCircle
 10
141.6637536054
 20
105.4584446685
 30
0.0
 40
1.174999999999983
100
AcDbArc
 50
180.0
 51
189.4597019682
  0
LINE
  5
94
330
1F
100
AcDbEntity
  8
0
  6
Continuous
 62
     7
370
    25
100
AcDbLine
 10
140.5047332733
 20
105.2653280361
 30
0.0
 11
140.7238399475
 21
103.9503024234
 31
0.0
  0
LINE
  5
95
330
1F
100
AcDbEntity
  8
0
  6
Continuous
 62
     7
370
    25
100
AcDbLine
 10
156.2036653846
 20
103.9503024234
 30
0.0
 11
156.4227720588
 21
105.2653280361
 31
0.0
  0
ARC
  5
96
330
1F
100
AcDbEntity
  8
0
  6
Continuous
 62
     7
370
    25
100
AcDbCircle
 10
300.3137587558
 20
127.2003031821
 30
0.0
 40
0.3750000000000142
100
AcDbArc
 50
90.0
 51
180.0
  0
ARC
  5
97
330
1F
100
AcDbEntity
  8
0
  6
Continuous
 62
     7
370
    25
100
AcDbCircle
 10
283.6137587558
 20
127.2003031821
 30
0.0
 40
0.3750000000000142
100
AcDbArc
 50
0.0
 51
90.0
  0
LINE
  5
98
330
1F
100
AcDbEntity
  8
0
  6
Continuous
 62
     7
370
    25
100
AcDbLine
 10
299.9387612431
 20
105.5834454758
 30
0.0
 11
299.9387612431
 21
127.2003031784
 31
0.0
  0
LINE
  5
99
330
1F
100
AcDbEntity
  8
0
  6
Continuous
 62
     7
370
    25
100
AcDbLine
 10
283.9887594669
 20
127.2003031784
 30
0.0
 11
283.9887594669
 21
105.5834454758
 31
0.0
  0
ARC
  5
9A
330
1F
100
AcDbEntity
  8
0
  6
Continuous
 62
     7
370
    25
100
AcDbCircle
 10
298.7637587558
 20
105.5834446685
 30
0.0
 40
1.175000000000011
100
AcDbArc
 50
350.5402980318
 51
0.0
  0
ARC
  5
9B
330
1F
100
AcDbEntity
  8
0
  6
Continuous
 62
     7
370
    25
100
AcDbCircle
 10
285.1637587558
 20
105.5834446685
 30
0.0
 40
1.174999999999955
100
AcDbArc
 50
180.0
 51
189.4597019682
  0
LINE
  5
9C
330
1F
100
AcDbEntity
  8
0
  6
Continuous
 62
     7
370
    25
100
AcDbLine
 10
284.0047335117
 20
105.3903282894
 30
0.0
 11
284.2238476365
 21
104.0753026767
 31
0.0
  0
LINE
  5
9D
330
1F
100
AcDbEntity
  8
0
  6
Continuous
 62
     7
370
    25
100
AcDbLine
 10
299.7036730736
 20
104.0753026767
 30
0.0
 11
299.9227797478
 21
105.3903282894
 31
0.0
  0
LINE
  5
9E
330
1F
100
AcDbEntity
  8
0
  6
Continuous
 62
     7
370
    25
100
AcDbLine
 10
320.9137623995
 20
134.9369691028
 30
0.0
 11
323.4137600153
 21
135.9369692667
 31
0.0
  0
LINE
  5
9F
330
1F
100
AcDbEntity
  8
0
  6
Continuous
 62
     7
370
    25
100
AcDbLine
 10
321.6227820008
 20
150.903358431
 30
0.0
 11
320.9137623995
 21
151.1869685067
 31
0.0
  0
LINE
  5
A0
330
1F
100
AcDbEntity
  8
0
  6
Continuous
 62
     7
370
    25
100
AcDbLine
 10
323.4137600153
 20
150.1869683428
 30
0.0
 11
322.7479463308
 21
150.4532930715
 31
0.0
  0
LINE
  5
A1
330
1F
100
AcDbEntity
  8
0
  6
Continuous
 62
     7
370
    25
100
AcDbLine
 10
324.275069484
 20
149.7993798269
 30
0.0
 11
323.4137600153
 21
150.1869683428
 31
0.0
  0
LINE
  5
A2
330
1F
100
AcDbEntity
  8
0
  6
Continuous
 62
     7
370
    25
100
AcDbLine
 10
323.4137600153
 20
135.9369692667
 30
0.0
 11
328.2663529604
 21
138.1206347881
 31
0.0
  0
ARC
  5
A3
330
1F
100
AcDbEntity
  8
0
  6
Continuous
 62
     7
370
    25
100
AcDbCircle
 10
328.1637587558
 20
138.348615278
 30
0.0
 40
0.2500000000000133
100
AcDbArc
 50
294.227745318
 51
0.0
  0
LINE
  5
A4
330
1F
100
AcDbEntity
  8
0
  6
Continuous
 62
     7
370
    25
100
AcDbLine
 10
322.7727716654
 20
150.4460566951
 30
0.0
 11
321.6109355777
 21
150.9107903851
 31
0.0
  0
ARC
  5
A5
330
1F
100
AcDbEntity
  8
0
  6
Continuous
 62
     7
370
    25
100
AcDbCircle
 10
121.9512587558
 20
153.7878031821
 30
0.0
 40
1.25
100
AcDbArc
 50
90.0
 51
180.0
  0
ARC
  5
A6
330
1F
100
AcDbEntity
  8
0
  6
Continuous
 62
     7
370
    25
100
AcDbCircle
 10
121.9512587558
 20
148.8628031821
 30
0.0
 40
1.25
100
AcDbArc
 50
180.0
 51
270.0
  0
LINE
  5
A7
330
1F
100
AcDbEntity
  8
0
  6
Continuous
 62
     7
370
    25
100
AcDbLine
 10
125.8262550323
 20
155.0378029509
 30
0.0
 11
125.2262597769
 21
155.0378029509
 31
0.0
  0
LINE
  5
A8
330
1F
100
AcDbEntity
  8
0
  6
Continuous
 62
     7
370
    25
100
AcDbLine
 10
125.2262597769
 20
147.6128039224
 30
0.0
 11
125.8262550323
 21
147.6128039224
 31
0.0
  0
LINE
  5
A9
330
1F
100
AcDbEntity
  8
0
  6
Continuous
 62
     7
370
    25
100
AcDbLine
 10
124.2512618988
 20
155.0378029509
 30
0.0
 11
121.9512602179
 21
155.0378029509
 31
0.0
  0
LINE
  5
AA
330
1F
100
AcDbEntity
  8
0
  6
Continuous
 62
     7
370
    25
100
AcDbLine
 10
121.9512602179
 20
147.6128039224
 30
0.0
 11
124.2512618988
 21
147.6128039224
 31
0.0
  0
LINE
  5
AB
330
1F
100
AcDbEntity
  8
0
  6
Continuous
 62
     7
370
    25
100
AcDbLine
 10
125.8262550323
 20
147.8253037943
 30
0.0
 11
127.2012596815
 21
147.8253037943
 31
0.0
  0
LINE
  5
AC
330
1F
100
AcDbEntity
  8
0
  6
Continuous
 62
     7
370
    25
100
AcDbLine
 10
127.2012596815
 20
154.825303079
 30
0.0
 11
125.8262550323
 21
154.825303079
 31
0.0
  0
LINE
  5
AD
330
1F
100
AcDbEntity
  8
0
  6
Continuous
 62
     7
370
    25
100
AcDbLine
 10
127.2012596815
 20
148.0753024383
 30
0.0
 11
127.7012606948
 21
148.0753024383
 31
0.0
  0
LINE
  5
AE
330
1F
100
AcDbEntity
  8
0
  6
Continuous
 62
     7
370
    25
100
AcDbLine
 10
127.7012606948
 20
154.5753025724
 30
0.0
 11
127.2012596815
 21
154.5753025724
 31
0.0
  0
LINE
  5
AF
330
1F
100
AcDbEntity
  8
0
  6
Continuous
 62
     7
370
    25
100
AcDbLine
 10
128.6137556522
 20
155.512803541
 30
0.0
 11
127.7012606948
 21
155.512803541
 31
0.0
  0
LINE
  5
B0
330
1F
100
AcDbEntity
  8
0
  6
Continuous
 62
     7
370
    25
100
AcDbLine
 10
127.7012606948
 20
147.1378033323
 30
0.0
 11
128.6137556522
 21
147.1378033323
 31
0.0
  0
LINE
  5
B1
330
1F
100
AcDbEntity
  8
0
  6
Continuous
 62
     7
370
    25
100
AcDbLine
 10
138.0306711286
 20
203.4003001912
 30
0.0
 11
138.0799343675
 21
203.3753034933
 31
0.0
  0
LINE
  5
B2
330
1F
100
AcDbEntity
  8
0
  6
Continuous
 62
     7
370
    25
100
AcDbLine
 10
139.8975854605
 20
203.3753034933
 30
0.0
 11
139.9468486994
 21
203.4003001912
 31
0.0
  0
LINE
  5
B3
330
1F
100
AcDbEntity
  8
0
  6
Continuous
 62
     7
370
    25
100
AcDbLine
 10
131.0306718438
 20
203.4003001912
 30
0.0
 11
131.0799350827
 21
203.3753034933
 31
0.0
  0
LINE
  5
B4
330
1F
100
AcDbEntity
  8
0
  6
Continuous
 62
     7
370
    25
100
AcDbLine
 10
132.8975787251
 20
203.3753034933
 30
0.0
 11
132.9468494146
 21
203.4003001912
 31
0.0
  0
LINE
  5
B5
330
1F
100
AcDbEntity
  8
0
  6
Continuous
 62
     7
370
    25
100
AcDbLine
 10
134.5306714862
 20
203.4003001912
 30
0.0
 11
134.5799347251
 21
203.3753034933
 31
0.0
  0
LINE
  5
B6
330
1F
100
AcDbEntity
  8
0
  6
Continuous
 62
     7
370
    25
100
AcDbLine
 10
136.3975858181
 20
203.3753034933
 30
0.0
 11
136.446849057
 21
203.4003001912
 31
0.0
  0
ARC
  5
B7
330
1F
100
AcDbEntity
  8
0
  6
Continuous
 62
     7
370
    25
100
AcDbCircle
 10
313.240482654
 20
191.0408599593
 30
0.0
 40
0.0625000000000155
100
AcDbArc
 50
293.5
 51
339.6679273206
  0
ARC
  5
B8
330
1F
100
AcDbEntity
  8
0
  6
Continuous
 62
     7
370
    25
100
AcDbCircle
 10
311.6585540256
 20
190.3530178154
 30
0.0
 40
0.0624999999999894
100
AcDbArc
 50
247.3320726793
 51
293.5000000001
  0
LINE
  5
B9
330
1F
100
AcDbEntity
  8
0
  6
Continuous
 62
     7
370
    25
100
AcDbLine
 10
313.4064605325
 20
190.6904814108
 30
0.0
 11
313.3566161483
 21
190.8051160438
 31
0.0
  0
LINE
  5
BA
330
1F
100
AcDbEntity
  8
0
  6
Continuous
 62
     7
370
    25
100
AcDbLine
 10
311.7517610877
 20
190.1073021157
 30
0.0
 11
311.8016054719
 21
189.9926749332
 31
0.0
  0
LINE
  5
BB
330
1F
100
AcDbEntity
  8
0
  6
Continuous
 62
     7
370
    25
100
AcDbLine
 10
313.0578776687
 20
191.2413922412
 30
0.0
 11
313.0494957655
 21
191.2606594427
 31
0.0
  0
LINE
  5
BC
330
1F
100
AcDbEntity
  8
0
  6
Continuous
 62
     7
370
    25
100
AcDbLine
 10
311.6280516475
 20
190.6425965293
 30
0.0
 11
311.6364335506
 21
190.6233293278
 31
0.0
  0
LINE
  5
BD
330
1F
100
AcDbEntity
  8
0
  6
Continuous
 62
     7
370
    25
100
AcDbLine
 10
304.6112587541
 20
200.4058075411
 30
0.0
 11
304.6921869605
 21
200.4058075411
 31
0.0
  0
LINE
  5
BE
330
1F
100
AcDbEntity
  8
0
  6
Continuous
 62
     7
370
    25
100
AcDbLine
 10
304.6921869605
 20
202.4058115943
 30
0.0
 11
304.6112587541
 21
202.4058115943
 31
0.0
  0
LINE
  5
BF
330
1F
100
AcDbEntity
  8
0
  6
Continuous
 62
     7
370
    25
100
AcDbLine
 10
320.4637622326
 20
157.1911082877
 30
0.0
 11
320.4387580841
 21
157.1911082877
 31
0.0
  0
SPLINE
  5
C0
330
1F
100
AcDbEntity
  8
0
  6
Continuous
 62
     7
370
    25
100
AcDbSpline
210
0.0
220
0.0
230
1.0
 70
     8
 71
     3
 72
    13
 73
     9
 74
     0
 42
0.000000001
 43
0.00000001
 40
0.0
 40
0.0
 40
0.0
 40
0.0
 40
0.1560212019236926
 40
0.4086745784893878
 40
0.5953532291509233
 40
0.7561492364018279
 40
0.9249507979401114
 40
1.0
 40
1.0
 40
1.0
 40
1.0
 10
125.8140211790003
 20
139.4643144024712
 30
0.0
 10
125.8139565121603
 20
139.4648693159685
 30
0.0
 10
125.8137871268892
 20
139.4663228302138
 30
0.0
 10
125.8163730408781
 20
139.4720846061348
 30
0.0
 10
125.827807895825
 20
139.4820248011778
 30
0.0
 10
125.8447552643167
 20
139.4896569982685
 30
0.0
 10
125.8619665456469
 20
139.4938070190253
 30
0.0
 10
125.8728930591558
 20
139.4935211233308
 30
0.0
 10
125.8762558787264
 20
139.4934331340892
 30
0.0
  0
LINE
  5
C1
330
1F
100
AcDbEntity
  8
0
  6
Continuous
 62
     7
370
    25
100
AcDbLine
 10
125.8762558787
 20
139.4939053146
 30
0.0
 11
127.1512588351
 21
139.4939053146
 31
0.0
  0
ARC
  5
C2
330
1F
100
AcDbEntity
  8
0
  6
Continuous
 62
     7
370
    25
100
AcDbCircle
 10
127.1512587558
 20
139.5564055161
 30
0.0
 40
0.0625000000000142
100
AcDbArc
 50
270.0
 51
0.0
  0
ARC
  5
C3
330
1F
100
AcDbEntity
  8
0
  6
Continuous
 62
     7
370
    25
100
AcDbCircle
 10
127.1512587558
 20
140.7629472591
 30
0.0
 40
0.0625000000000142
100
AcDbArc
 50
0.0
 51
90.0
  0
LINE
  5
C4
330
1F
100
AcDbEntity
  8
0
  6
Continuous
 62
     7
370
    25
100
AcDbLine
 10
127.1512588351
 20
140.8254470019
 30
0.0
 11
125.8762558787
 21
140.8254470019
 31
0.0
  0
ARC
  5
C5
330
1F
100
AcDbEntity
  8
0
  6
Continuous
 62
     7
370
    25
100
AcDbCircle
 10
125.5762587558
 20
140.6878031821
 30
0.0
 40
0.0624999999999858
100
AcDbArc
 50
90.0
 51
180.0
  0
LINE
  5
C6
330
1F
100
AcDbEntity
  8
0
  6
Continuous
 62
     7
370
    25
100
AcDbLine
 10
125.6420617788
 20
140.75030324
 30
0.0
 11
125.576258251
 21
140.75030324
 31
0.0
  0
LINE
  5
C7
330
1F
100
AcDbEntity
  8
0
  6
Continuous
 62
     7
370
    25
100
AcDbLine
 10
126.0191356628
 20
136.3251594169
 30
0.0
 11
127.1512588351
 21
136.3251594169
 31
0.0
  0
ARC
  5
C8
330
1F
100
AcDbEntity
  8
0
  6
Continuous
 62
     7
370
    25
100
AcDbCircle
 10
127.1512587558
 20
136.3876591051
 30
0.0
 40
0.0625
100
AcDbArc
 50
270.0
 51
0.0
  0
SPLINE
  5
C9
330
1F
100
AcDbEntity
  8
0
  6
Continuous
 62
     7
370
    25
100
AcDbSpline
210
0.0
220
0.0
230
1.0
 70
     8
 71
     3
 72
    13
 73
     9
 74
     0
 42
0.000000001
 43
0.00000001
 40
0.0
 40
0.0
 40
0.0
 40
0.0
 40
0.1537020451634011
 40
0.4677647093614734
 40
0.6522422437660211
 40
0.8142458859154883
 40
0.9817568412476462
 40
1.0
 40
1.0
 40
1.0
 40
1.0
 10
125.8131643622317
 20
137.4908167211515
 30
0.0
 10
125.8132528129258
 20
137.4890469764037
 30
0.0
 10
125.8135219968081
 20
137.4836610745002
 30
0.0
 10
125.8079687256392
 20
137.4735139966238
 30
0.0
 10
125.792430417687
 20
137.4614881578196
 30
0.0
 10
125.7745621330766
 20
137.4545849521033
 30
0.0
 10
125.7598835636243
 20
137.4517936000672
 30
0.0
 10
125.7520967474384
 20
137.4522623579963
 30
0.0
 10
125.7513319938578
 20
137.4523083953363
 30
0.0
  0
ARC
  5
CA
330
1F
100
AcDbEntity
  8
0
  6
Continuous
 62
     7
370
    25
100
AcDbCircle
 10
124.4762587558
 20
137.3896487083
 30
0.0
 40
0.0625
100
AcDbArc
 50
90.0
 51
180.0
  0
LINE
  5
CB
330
1F
100
AcDbEntity
  8
0
  6
Continuous
 62
     7
370
    25
100
AcDbLine
 10
125.7512574881
 20
137.4521491392
 30
0.0
 11
124.4762619822
 21
137.4521491392
 31
0.0
  0
ARC
  5
CC
330
1F
100
AcDbEntity
  8
0
  6
Continuous
 62
     7
370
    25
100
AcDbCircle
 10
124.4762587558
 20
136.2801934046
 30
0.0
 40
0.0625
100
AcDbArc
 50
180.0
 51
270.0
  0
LINE
  5
CD
330
1F
100
AcDbEntity
  8
0
  6
Continuous
 62
     7
370
    25
100
AcDbLine
 10
124.4762619822
 20
136.2176931737
 30
0.0
 11
125.7512574881
 21
136.2176931737
 31
0.0
  0
ARC
  5
CE
330
1F
100
AcDbEntity
  8
0
  6
Continuous
 62
     7
370
    25
100
AcDbCircle
 10
126.0512587558
 20
136.4628031821
 30
0.0
 40
0.0625
100
AcDbArc
 50
301.0756875725
 51
0.0
  0
LINE
  5
CF
330
1F
100
AcDbEntity
  8
0
  6
Continuous
 62
     7
370
    25
100
AcDbLine
 10
125.7512574881
 20
140.9329132451
 30
0.0
 11
124.4762619822
 21
140.9329132451
 31
0.0
  0
ARC
  5
D0
330
1F
100
AcDbEntity
  8
0
  6
Continuous
 62
     7
370
    25
100
AcDbCircle
 10
124.4762587558
 20
140.8704129596
 30
0.0
 40
0.0625000000000284
100
AcDbArc
 50
90.0
 51
180.0
  0
LINE
  5
D1
330
1F
100
AcDbEntity
  8
0
  6
Continuous
 62
     7
370
    25
100
AcDbLine
 10
127.4137576907
 20
139.8253034143
 30
0.0
 11
127.3917039721
 21
139.8634978844
 31
0.0
  0
LINE
  5
D2
330
1F
100
AcDbEntity
  8
0
  6
Continuous
 62
     7
370
    25
100
AcDbLine
 10
126.1137580364
 20
137.3253030045
 30
0.0
 11
126.135811755
 21
137.2871085344
 31
0.0
  0
LINE
  5
D3
330
1F
100
AcDbEntity
  8
0
  6
Continuous
 62
     7
370
    25
100
AcDbLine
 10
127.3917039721
 20
137.2871085344
 30
0.0
 11
127.4137576907
 21
137.3253030045
 31
0.0
  0
LINE
  5
D4
330
1F
100
AcDbEntity
  8
0
  6
Continuous
 62
     7
370
    25
100
AcDbLine
 10
127.4762606113
 20
137.3253030045
 30
0.0
 11
127.5253450363
 21
137.2402779101
 31
0.0
  0
LINE
  5
D5
330
1F
100
AcDbEntity
  8
0
  6
Continuous
 62
     7
370
    25
100
AcDbLine
 10
127.5253450363
 20
139.9103285087
 30
0.0
 11
127.4762606113
 21
139.8253034143
 31
0.0
  0
LINE
  5
D6
330
1F
100
AcDbEntity
  8
0
  6
Continuous
 62
     7
370
    25
100
AcDbLine
 10
127.4762606113
 20
139.3253033323
 30
0.0
 11
127.4137576907
 21
139.3253033323
 31
0.0
  0
LINE
  5
D7
330
1F
100
AcDbEntity
  8
0
  6
Continuous
 62
     7
370
    25
100
AcDbLine
 10
127.4137576907
 20
137.8253030865
 30
0.0
 11
127.4762606113
 21
137.8253030865
 31
0.0
  0
SPLINE
  5
D8
330
1F
100
AcDbEntity
  8
0
  6
Continuous
 62
     7
370
    25
100
AcDbSpline
210
0.0
220
0.0
230
1.0
 70
     8
 71
     3
 72
     9
 73
     5
 74
     0
 42
0.000000001
 43
0.00000001
 40
0.0
 40
0.0
 40
0.0
 40
0.0
 40
0.1704621858129317
 40
1.0
 40
1.0
 40
1.0
 40
1.0
 10
304.6112587540545
 20
197.6945487125022
 30
0.0
 10
304.6200651505326
 20
197.6913323457946
 30
0.0
 10
304.6717270275412
 20
197.6724638401946
 30
0.0
 10
304.706998294791
 20
197.6646415291183
 30
0.0
 10
304.7362571447291
 20
197.6581526262862
 30
0.0
  0
LINE
  5
D9
330
1F
100
AcDbEntity
  8
0
  6
Continuous
 62
     7
370
    25
100
AcDbLine
 10
304.7362571447
 20
197.4346650107
 30
0.0
 11
304.6112587541
 21
197.2493467195
 31
0.0
  0
LINE
  5
DA
330
1F
100
AcDbEntity
  8
0
  6
Continuous
 62
     7
370
    25
100
AcDbLine
 10
304.638758847
 20
197.826602803
 30
0.0
 11
304.7362571447
 21
197.7608365281
 31
0.0
  0
SPLINE
  5
DB
330
1F
100
AcDbEntity
  8
0
  6
Continuous
 62
     7
370
    25
100
AcDbSpline
210
0.0
220
0.0
230
1.0
 70
     8
 71
     3
 72
     9
 73
     5
 74
     0
 42
0.000000001
 43
0.00000001
 40
0.0
 40
0.0
 40
0.0
 40
0.0
 40
0.5541915995610732
 40
1.0
 40
1.0
 40
1.0
 40
1.0
 10
304.6112587540545
 20
197.8083712322814
 30
0.0
 10
304.6181530214743
 20
197.8105386292526
 30
0.0
 10
304.6305932450817
 20
197.8144495455728
 30
0.0
 10
304.6362410210619
 20
197.8228554017192
 30
0.0
 10
304.6387588470377
 20
197.8266028030021
 30
0.0
  0
LINE
  5
DC
330
1F
100
AcDbEntity
  8
0
  6
Continuous
 62
     7
370
    25
100
AcDbLine
 10
304.6921869605
 20
202.4058115943
 30
0.0
 11
304.6921869605
 21
198.0013487203
 31
0.0
  0
LINE
  5
DD
330
1F
100
AcDbEntity
  8
0
  6
Continuous
 62
     7
370
    25
100
AcDbLine
 10
304.7362571447
 20
202.905805157
 30
0.0
 11
304.6921869605
 21
202.905805157
 31
0.0
  0
LINE
  5
DE
330
1F
100
AcDbEntity
  8
0
  6
Continuous
 62
     7
370
    25
100
AcDbLine
 10
304.6921869605
 20
202.905805157
 30
0.0
 11
304.6921869605
 21
202.4058115943
 31
0.0
  0
ARC
  5
DF
330
1F
100
AcDbEntity
  8
0
  6
Continuous
 62
     7
370
    25
100
AcDbCircle
 10
304.3796845144
 20
198.0013490149
 30
0.0
 40
0.3125000000000322
100
AcDbArc
 50
326.0
 51
0.0
  0
LINE
  5
E0
330
1F
100
AcDbEntity
  8
0
  6
Continuous
 62
     7
370
    25
100
AcDbLine
 10
283.9887594669
 20
125.4628031323
 30
0.0
 11
156.4387610047
 21
125.4628031323
 31
0.0
  0
LINE
  5
E1
330
1F
100
AcDbEntity
  8
0
  6
Continuous
 62
     7
370
    25
100
AcDbLine
 10
148.4637563913
 20
92.075304435
 30
0.0
 11
141.3387587159
 21
92.075304435
 31
0.0
  0
LINE
  5
E2
330
1F
100
AcDbEntity
  8
0
  6
Continuous
 62
     7
370
    25
100
AcDbLine
 10
155.5887615173
 20
92.075304435
 30
0.0
 11
148.4637563913
 21
92.075304435
 31
0.0
  0
LINE
  5
E3
330
1F
100
AcDbEntity
  8
0
  6
Continuous
 62
     7
370
    25
100
AcDbLine
 10
148.4637563913
 20
90.5753013952
 30
0.0
 11
141.8387597292
 21
90.5753013952
 31
0.0
  0
LINE
  5
E4
330
1F
100
AcDbEntity
  8
0
  6
Continuous
 62
     7
370
    25
100
AcDbLine
 10
155.088760504
 20
90.5753013952
 30
0.0
 11
148.4637563913
 21
90.5753013952
 31
0.0
  0
LINE
  5
E5
330
1F
100
AcDbEntity
  8
0
  6
Continuous
 62
     7
370
    25
100
AcDbLine
 10
291.9637566297
 20
90.5753013952
 30
0.0
 11
285.3387599676
 21
90.5753013952
 31
0.0
  0
LINE
  5
E6
330
1F
100
AcDbEntity
  8
0
  6
Continuous
 62
     7
370
    25
100
AcDbLine
 10
298.5887607425
 20
90.5753013952
 30
0.0
 11
291.9637566297
 21
90.5753013952
 31
0.0
  0
LINE
  5
E7
330
1F
100
AcDbEntity
  8
0
  6
Continuous
 62
     7
370
    25
100
AcDbLine
 10
291.9637566297
 20
92.075304435
 30
0.0
 11
284.8387589543
 21
92.075304435
 31
0.0
  0
LINE
  5
E8
330
1F
100
AcDbEntity
  8
0
  6
Continuous
 62
     7
370
    25
100
AcDbLine
 10
299.0887617557
 20
92.075304435
 30
0.0
 11
291.9637566297
 21
92.075304435
 31
0.0
  0
LINE
  5
E9
330
1F
100
AcDbEntity
  8
0
  6
Continuous
 62
     7
370
    25
100
AcDbLine
 10
148.4637489407
 20
90.4503030045
 30
0.0
 11
141.8387522786
 21
90.4503030045
 31
0.0
  0
LINE
  5
EA
330
1F
100
AcDbEntity
  8
0
  6
Continuous
 62
     7
370
    25
100
AcDbLine
 10
155.0887530535
 20
90.4503030045
 30
0.0
 11
148.4637489407
 21
90.4503030045
 31
0.0
  0
LINE
  5
EB
330
1F
100
AcDbEntity
  8
0
  6
Continuous
 62
     7
370
    25
100
AcDbLine
 10
159.7137605637
 20
127.5753031817
 30
0.0
 11
159.7137605637
 21
127.8503031802
 31
0.0
  0
LINE
  5
EC
330
1F
100
AcDbEntity
  8
0
  6
Continuous
 62
     7
370
    25
100
AcDbLine
 10
137.2137596696
 20
127.5753031817
 30
0.0
 11
159.7137605637
 21
127.5753031817
 31
0.0
  0
LINE
  5
ED
330
1F
100
AcDbEntity
  8
0
  6
Continuous
 62
     7
370
    25
100
AcDbLine
 10
137.2137596696
 20
127.5753031817
 30
0.0
 11
137.2137596696
 21
127.8503031802
 31
0.0
  0
LINE
  5
EE
330
1F
100
AcDbEntity
  8
0
  6
Continuous
 62
     7
370
    25
100
AcDbLine
 10
148.4637563913
 20
104.0753026767
 30
0.0
 11
140.7238473981
 21
104.0753026767
 31
0.0
  0
LINE
  5
EF
330
1F
100
AcDbEntity
  8
0
  6
Continuous
 62
     7
370
    25
100
AcDbLine
 10
156.2036728352
 20
104.0753026767
 30
0.0
 11
148.4637563913
 21
104.0753026767
 31
0.0
  0
LINE
  5
F0
330
1F
100
AcDbEntity
  8
0
  6
Continuous
 62
     7
370
    25
100
AcDbLine
 10
137.2137447684
 20
127.4503031821
 30
0.0
 11
140.393265137
 21
127.4503031821
 31
0.0
  0
LINE
  5
F1
330
1F
100
AcDbEntity
  8
0
  6
Continuous
 62
     7
370
    25
100
AcDbLine
 10
137.2137447684
 20
127.4503031821
 30
0.0
 11
137.2137447684
 21
127.8503031802
 31
0.0
  0
LINE
  5
F2
330
1F
100
AcDbEntity
  8
0
  6
Continuous
 62
     7
370
    25
100
AcDbLine
 10
141.3887521117
 20
103.9503024234
 30
0.0
 11
140.7238399475
 21
103.9503024234
 31
0.0
  0
LINE
  5
F3
330
1F
100
AcDbEntity
  8
0
  6
Continuous
 62
     7
370
    25
100
AcDbLine
 10
156.2036653846
 20
103.9503024234
 30
0.0
 11
155.5387532204
 21
103.9503024234
 31
0.0
  0
LINE
  5
F4
330
1F
100
AcDbEntity
  8
0
  6
Continuous
 62
     7
370
    25
100
AcDbLine
 10
303.2137608021
 20
127.5753031817
 30
0.0
 11
303.2137608021
 21
127.8503031802
 31
0.0
  0
LINE
  5
F5
330
1F
100
AcDbEntity
  8
0
  6
Continuous
 62
     7
370
    25
100
AcDbLine
 10
280.713759908
 20
127.5753031817
 30
0.0
 11
280.713759908
 21
127.8503031802
 31
0.0
  0
LINE
  5
F6
330
1F
100
AcDbEntity
  8
0
  6
Continuous
 62
     7
370
    25
100
AcDbLine
 10
280.713759908
 20
127.5753031817
 30
0.0
 11
303.2137608021
 21
127.5753031817
 31
0.0
  0
LINE
  5
F7
330
1F
100
AcDbEntity
  8
0
  6
Continuous
 62
     7
370
    25
100
AcDbLine
 10
291.9637566297
 20
104.0753026767
 30
0.0
 11
284.2238476365
 21
104.0753026767
 31
0.0
  0
LINE
  5
F8
330
1F
100
AcDbEntity
  8
0
  6
Continuous
 62
     7
370
    25
100
AcDbLine
 10
299.7036730736
 20
104.0753026767
 30
0.0
 11
291.9637566297
 21
104.0753026767
 31
0.0
  0
LINE
  5
F9
330
1F
100
AcDbEntity
  8
0
  6
Continuous
 62
     7
370
    25
100
AcDbLine
 10
320.4637622326
 20
128.8753031561
 30
0.0
 11
320.4637622326
 21
128.6253032316
 31
0.0
  0
LINE
  5
FA
330
1F
100
AcDbEntity
  8
0
  6
Continuous
 62
     7
370
    25
100
AcDbLine
 10
320.4637622326
 20
128.6253032316
 30
0.0
 11
320.4137613862
 21
128.6253032316
 31
0.0
  0
LINE
  5
FB
330
1F
100
AcDbEntity
  8
0
  6
Continuous
 62
     7
370
    25
100
AcDbLine
 10
320.4637622326
 20
131.1253032921
 30
0.0
 11
320.4137613862
 21
131.1253032921
 31
0.0
  0
LINE
  5
FC
330
1F
100
AcDbEntity
  8
0
  6
Continuous
 62
     7
370
    25
100
AcDbLine
 10
320.4637622326
 20
131.1253032921
 30
0.0
 11
320.4637622326
 21
130.8753032511
 31
0.0
  0
LINE
  5
FD
330
1F
100
AcDbEntity
  8
0
  6
Continuous
 62
     7
370
    25
100
AcDbLine
 10
320.4637622326
 20
130.8753032511
 30
0.0
 11
320.4637622326
 21
128.8753031561
 31
0.0
  0
LINE
  5
FE
330
1F
100
AcDbEntity
  8
0
  6
Continuous
 62
     7
370
    25
100
AcDbLine
 10
320.9137623995
 20
151.1857726885
 30
0.0
 11
320.9137623995
 21
151.1869685067
 31
0.0
  0
LINE
  5
FF
330
1F
100
AcDbEntity
  8
0
  6
Continuous
 62
     7
370
    25
100
AcDbLine
 10
320.9137623995
 20
134.9369691028
 30
0.0
 11
320.9137623995
 21
135.7448979555
 31
0.0
  0
LINE
  5
100
330
1F
100
AcDbEntity
  8
0
  6
Continuous
 62
     7
370
    25
100
AcDbLine
 10
320.9137623995
 20
150.6095671369
 30
0.0
 11
320.9137623995
 21
151.1857726885
 31
0.0
  0
LINE
  5
101
330
1F
100
AcDbEntity
  8
0
  6
Continuous
 62
     7
370
    25
100
AcDbLine
 10
323.4137600153
 20
148.9181586815
 30
0.0
 11
323.4137600153
 21
150.1869683428
 31
0.0
  0
LINE
  5
102
330
1F
100
AcDbEntity
  8
0
  6
Continuous
 62
     7
370
    25
100
AcDbLine
 10
323.4137600153
 20
135.9369692667
 30
0.0
 11
323.4137600153
 21
137.070013517
 31
0.0
  0
LINE
  5
103
330
1F
100
AcDbEntity
  8
0
  6
Continuous
 62
     7
370
    25
100
AcDbLine
 10
321.7398380726
 20
147.7654979838
 30
0.0
 11
321.7400094359
 21
148.0149844004
 31
0.0
  0
LINE
  5
104
330
1F
100
AcDbEntity
  8
0
  6
Continuous
 62
     7
370
    25
100
AcDbLine
 10
321.9235991924
 20
147.6214801235
 30
0.0
 11
321.7398380726
 21
147.7654979838
 31
0.0
  0
LINE
  5
105
330
1F
100
AcDbEntity
  8
0
  6
Continuous
 62
     7
370
    25
100
AcDbLine
 10
322.7761765807
 20
147.5929611637
 30
0.0
 11
321.9254394858
 21
147.8044943227
 31
0.0
  0
SPLINE
  5
106
330
1F
100
AcDbEntity
  8
0
  6
Continuous
 62
     7
370
    25
100
AcDbSpline
210
0.0
220
0.0
230
1.0
 70
     8
 71
     3
 72
     9
 73
     5
 74
     0
 42
0.000000001
 43
0.00000001
 40
0.0
 40
0.0
 40
0.0
 40
0.0
 40
0.4633895942556621
 40
1.0
 40
1.0
 40
1.0
 40
1.0
 10
321.9563146918215
 20
141.0897787003023
 30
0.0
 10
321.9723880538202
 20
141.0810971741919
 30
0.0
 10
322.0070745513116
 20
141.0623623423829
 30
0.0
 10
322.0478334361795
 20
141.0633666864042
 30
0.0
 10
322.0697050779261
 20
141.0639056278569
 30
0.0
  0
SPLINE
  5
107
330
1F
100
AcDbEntity
  8
0
  6
Continuous
 62
     7
370
    25
100
AcDbSpline
210
0.0
220
0.0
230
1.0
 70
     8
 71
     3
 72
     9
 73
     5
 74
     0
 42
0.000000001
 43
0.00000001
 40
0.0
 40
0.0
 40
0.0
 40
0.0
 40
0.863578623115105
 40
1.0
 40
1.0
 40
1.0
 40
1.0
 10
322.3523055999674
 20
141.1954875378115
 30
0.0
 10
322.3076764805769
 20
141.239890700349
 30
0.0
 10
322.2559972029802
 20
141.2913083262015
 30
0.0
 10
322.1910011853507
 20
141.3223446260152
 30
0.0
 10
322.1821343391337
 20
141.3265786407692
 30
0.0
  0
LINE
  5
108
330
1F
100
AcDbEntity
  8
0
  6
Continuous
 62
     7
370
    25
100
AcDbLine
 10
322.6765250652
 20
140.8931392519
 30
0.0
 11
322.3523056
 21
141.1954875378
 31
0.0
  0
LINE
  5
109
330
1F
100
AcDbEntity
  8
0
  6
Continuous
 62
     7
370
    25
100
AcDbLine
 10
322.5887050717
 20
141.6372939287
 30
0.0
 11
322.7718477934
 21
141.6549406288
 31
0.0
  0
LINE
  5
10A
330
1F
100
AcDbEntity
  8
0
  6
Continuous
 62
     7
370
    25
100
AcDbLine
 10
322.5918939202
 20
141.2480793236
 30
0.0
 11
322.5887050717
 21
141.6372939287
 31
0.0
  0
SPLINE
  5
10B
330
1F
100
AcDbEntity
  8
0
  6
Continuous
 62
     7
370
    25
100
AcDbSpline
210
0.0
220
0.0
230
1.0
 70
     8
 71
     3
 72
     9
 73
     5
 74
     0
 42
0.000000001
 43
0.00000001
 40
0.0
 40
0.0
 40
0.0
 40
0.0
 40
0.5408399006787609
 40
1.0
 40
1.0
 40
1.0
 40
1.0
 10
322.0140268891253
 20
141.5732319740755
 30
0.0
 10
322.0581044632739
 20
141.5724852952495
 30
0.0
 10
322.1396028403229
 20
141.5711047040153
 30
0.0
 10
322.2116264819589
 20
141.536347741536
 30
0.0
 10
322.244696864406
 20
141.5203887311918
 30
0.0
  0
SPLINE
  5
10C
330
1F
100
AcDbEntity
  8
0
  6
Continuous
 62
     7
370
    25
100
AcDbSpline
210
0.0
220
0.0
230
1.0
 70
     8
 71
     3
 72
    12
 73
     8
 74
     0
 42
0.000000001
 43
0.00000001
 40
0.0
 40
0.0
 40
0.0
 40
0.0
 40
0.2500585560325536
 40
0.3754531659148525
 40
0.500859157797865
 40
0.7505790709413309
 40
1.0
 40
1.0
 40
1.0
 40
1.0
 10
321.7088213055529
 20
141.2006330950362
 30
0.0
 10
321.712030749055
 20
141.2447614604557
 30
0.0
 10
321.716849603258
 20
141.3110184794765
 30
0.0
 10
321.753430886987
 20
141.3938565378724
 30
0.0
 10
321.8032348823068
 20
141.4681247544254
 30
0.0
 10
321.8900502747538
 20
141.542956874349
 30
0.0
 10
321.9727178568914
 20
141.5631443049064
 30
0.0
 10
322.0140268891253
 20
141.5732319740755
 30
0.0
  0
SPLINE
  5
10D
330
1F
100
AcDbEntity
  8
0
  6
Continuous
 62
     7
370
    25
100
AcDbSpline
210
0.0
220
0.0
230
1.0
 70
     8
 71
     3
 72
    11
 73
     7
 74
     0
 42
0.000000001
 43
0.00000001
 40
0.0
 40
0.0
 40
0.0
 40
0.0
 40
0.2003215650664057
 40
0.4015612129849369
 40
0.6009084466508285
 40
0.9999999999999999
 40
0.9999999999999999
 40
0.9999999999999999
 40
0.9999999999999999
 10
321.8647470562853
 20
140.9029833315117
 30
0.0
 10
321.8455713973983
 20
140.9153639707753
 30
0.0
 10
321.8071321967067
 20
140.9401819903358
 30
0.0
 10
321.7624301758745
 20
140.9934668037392
 30
0.0
 10
321.7185377886422
 20
141.0771436295889
 30
0.0
 10
321.7127086723549
 20
141.1512274773889
 30
0.0
 10
321.7088213055529
 20
141.2006330950362
 30
0.0
  0
SPLINE
  5
10E
330
1F
100
AcDbEntity
  8
0
  6
Continuous
 62
     7
370
    25
100
AcDbSpline
210
0.0
220
0.0
230
1.0
 70
     8
 71
     3
 72
    12
 73
     8
 74
     0
 42
0.000000001
 43
0.00000001
 40
0.0
 40
0.0
 40
0.0
 40
0.0
 40
0.1253535361782879
 40
0.2505872236788097
 40
0.5003972106362697
 40
0.7501627612161151
 40
1.0
 40
1.0
 40
1.0
 40
1.0
 10
321.9001969187655
 20
136.042510466109
 30
0.0
 10
321.9005272731706
 20
136.0395142430005
 30
0.0
 10
321.9011876661337
 20
136.0335246614286
 30
0.0
 10
321.9077373869198
 20
136.0238346018641
 30
0.0
 10
321.9243524322418
 20
136.0162963751876
 30
0.0
 10
321.9535667674429
 20
136.0135223435452
 30
0.0
 10
321.9793386833393
 20
136.0183747736858
 30
0.0
 10
321.9922264902987
 20
136.0208013368947
 30
0.0
  0
LINE
  5
10F
330
1F
100
AcDbEntity
  8
0
  6
Continuous
 62
     7
370
    25
100
AcDbLine
 10
322.1275662868
 20
136.0925876809
 30
0.0
 11
322.1211960404
 21
136.1118660582
 31
0.0
  0
SPLINE
  5
110
330
1F
100
AcDbEntity
  8
0
  6
Continuous
 62
     7
370
    25
100
AcDbSpline
210
0.0
220
0.0
230
1.0
 70
     8
 71
     3
 72
    12
 73
     8
 74
     0
 42
0.000000001
 43
0.00000001
 40
0.0
 40
0.0
 40
0.0
 40
0.0
 40
0.2503920193588042
 40
0.4996828587378569
 40
0.6248601798833124
 40
0.7502039983088103
 40
1.0
 40
1.0
 40
1.0
 40
1.0
 10
322.4608456581034
 20
136.1754549009902
 30
0.0
 10
322.4816496416646
 20
136.1848639984233
 30
0.0
 10
322.5231661165331
 20
136.2036408137368
 30
0.0
 10
322.5697848722822
 20
136.2329430569978
 30
0.0
 10
322.596564105784
 20
136.2571222694733
 30
0.0
 10
322.6160622897802
 20
136.2810203285059
 30
0.0
 10
322.6186123889026
 20
136.2963189780378
 30
0.0
 10
322.6203104346193
 20
136.3065059570772
 30
0.0
  0
LINE
  5
111
330
1F
100
AcDbEntity
  8
0
  6
Continuous
 62
     7
370
    25
100
AcDbLine
 10
322.4581634491
 20
136.093277791
 30
0.0
 11
322.4608456581
 21
136.175454901
 31
0.0
  0
SPLINE
  5
112
330
1F
100
AcDbEntity
  8
0
  6
Continuous
 62
     7
370
    25
100
AcDbSpline
210
0.0
220
0.0
230
1.0
 70
     8
 71
     3
 72
    15
 73
    11
 74
     0
 42
0.000000001
 43
0.00000001
 40
0.0
 40
0.0
 40
0.0
 40
0.0
 40
0.0728943209353775
 40
0.145778284636283
 40
0.291281342265201
 40
0.436770468309464
 40
0.5823691380966473
 40
0.7279301164487866
 40
0.8735226583491468
 40
1.0
 40
1.0
 40
1.0
 40
1.0
 10
322.464235672275
 20
136.4193477941853
 30
0.0
 10
322.4757824646184
 20
136.4234070892684
 30
0.0
 10
322.498874408672
 20
136.4315251026672
 30
0.0
 10
322.5446364602108
 20
136.4445834537753
 30
0.0
 10
322.6003619094739
 20
136.456076530355
 30
0.0
 10
322.6603897195459
 20
136.4598756321108
 30
0.0
 10
322.7121788143164
 20
136.4554633509195
 30
0.0
 10
322.7527637332389
 20
136.4429305259339
 30
0.0
 10
322.7837391453738
 20
136.4255175639547
 30
0.0
 10
322.7879350810661
 20
136.4072920780315
 30
0.0
 10
322.7898856490053
 20
136.3988195819957
 30
0.0
  0
SPLINE
  5
113
330
1F
100
AcDbEntity
  8
0
  6
Continuous
 62
     7
370
    25
100
AcDbSpline
210
0.0
220
0.0
230
1.0
 70
     8
 71
     3
 72
    11
 73
     7
 74
     0
 42
0.000000001
 43
0.00000001
 40
0.0
 40
0.0
 40
0.0
 40
0.0
 40
0.2502108051620086
 40
0.5001025895532237
 40
0.749902353407416
 40
1.0
 40
1.0
 40
1.0
 40
1.0
 10
322.2027649968065
 20
136.2261123297912
 30
0.0
 10
322.2129762073451
 20
136.2432378232145
 30
0.0
 10
322.2333856090472
 20
136.2774669749202
 30
0.0
 10
322.2949380040498
 20
136.3325142188318
 30
0.0
 10
322.3745288722824
 20
136.3832929882513
 30
0.0
 10
322.4343215290404
 20
136.4073247521295
 30
0.0
 10
322.464235672275
 20
136.4193477941853
 30
0.0
  0
SPLINE
  5
114
330
1F
100
AcDbEntity
  8
0
  6
Continuous
 62
     7
370
    25
100
AcDbSpline
210
0.0
220
0.0
230
1.0
 70
     8
 71
     3
 72
    12
 73
     8
 74
     0
 42
0.000000001
 43
0.00000001
 40
0.0
 40
0.0
 40
0.0
 40
0.0
 40
0.1252676383683631
 40
0.2504443195147127
 40
0.5000735978356223
 40
0.7498624179816611
 40
1.0
 40
1.0
 40
1.0
 40
1.0
 10
321.9818254797854
 20
136.2173551036221
 30
0.0
 10
321.9934856852653
 20
136.2213259177216
 30
0.0
 10
322.0167976297138
 20
136.2292646626999
 30
0.0
 10
322.062512028629
 20
136.2407167832849
 30
0.0
 10
322.1156482892003
 20
136.247128830431
 30
0.0
 10
322.1680213383802
 20
136.2425794960676
 30
0.0
 10
322.1911783923401
 20
136.2316039374966
 30
0.0
 10
322.2027649968065
 20
136.2261123297912
 30
0.0
  0
SPLINE
  5
115
330
1F
100
AcDbEntity
  8
0
  6
Continuous
 62
     7
370
    25
100
AcDbSpline
210
0.0
220
0.0
230
1.0
 70
     8
 71
     3
 72
    13
 73
     9
 74
     0
 42
0.000000001
 43
0.00000001
 40
0.0
 40
0.0
 40
0.0
 40
0.0
 40
0.2497377805319819
 40
0.4991045554013239
 40
0.6243783590364015
 40
0.7495712848481364
 40
0.8747487504264619
 40
0.9999999999999999
 40
0.9999999999999999
 40
0.9999999999999999
 40
0.9999999999999999
 10
321.7100655525126
 20
135.9762301011187
 30
0.0
 10
321.7130791776441
 20
135.9946312287135
 30
0.0
 10
321.7191019509233
 20
136.0314061475403
 30
0.0
 10
321.7697289883266
 20
136.0892628498583
 30
0.0
 10
321.823778020415
 20
136.1339865931358
 30
0.0
 10
321.871526836559
 20
136.1661603865764
 30
0.0
 10
321.9252083573314
 20
136.1950993859408
 30
0.0
 10
321.9629493990772
 20
136.2099350740452
 30
0.0
 10
321.9818254797854
 20
136.2173551036221
 30
0.0
  0
LINE
  5
116
330
1F
100
AcDbEntity
  8
0
  6
Continuous
 62
     7
370
    25
100
AcDbLine
 10
321.7213531821
 20
135.9525139718
 30
0.0
 11
321.7100655525
 21
135.9762301011
 31
0.0
  0
LINE
  5
117
330
1F
100
AcDbEntity
  8
0
  6
Continuous
 62
     7
370
    25
100
AcDbLine
 10
322.771214494
 20
150.4429479404
 30
0.0
 11
322.7568572252
 21
150.4487351788
 31
0.0
  0
SPLINE
  5
118
330
1F
100
AcDbEntity
  8
0
  6
Continuous
 62
     7
370
    25
100
AcDbSpline
210
0.0
220
0.0
230
1.0
 70
     8
 71
     3
 72
    16
 73
    12
 74
     0
 42
0.000000001
 43
0.00000001
 40
0.0
 40
0.0
 40
0.0
 40
0.0
 40
0.0018383873377051
 40
0.1265937483192811
 40
0.2514186095345262
 40
0.3761623080607573
 40
0.5009084736946882
 40
0.6256528755371171
 40
0.7503977400982155
 40
0.8751330840268098
 40
1.0
 40
1.0
 40
1.0
 40
1.0
 10
321.6112708537974
 20
150.9068639291627
 30
0.0
 10
321.6110569442605
 20
150.9069478796494
 30
0.0
 10
321.5963268547322
 20
150.9127288195923
 30
0.0
 10
321.6464550546875
 20
150.8854130670697
 30
0.0
 10
321.7639558696537
 20
150.8258183803628
 30
0.0
 10
321.9558981337515
 20
150.7364966304186
 30
0.0
 10
322.1814650247813
 20
150.6410576431981
 30
0.0
 10
322.4110867676916
 20
150.5539096626897
 30
0.0
 10
322.6062613945685
 20
150.4880629629472
 30
0.0
 10
322.7440392418953
 20
150.4472123800869
 30
0.0
 10
322.7621528939209
 20
150.4443699197145
 30
0.0
 10
322.7712144940294
 20
150.4429479403598
 30
0.0
  0
LINE
  5
119
330
1F
100
AcDbEntity
  8
0
  6
Continuous
 62
     7
370
    25
100
AcDbLine
 10
322.0706364005
 20
141.0633002682
 30
0.0
 11
322.0679839938
 21
140.8631720854
 31
0.0
  0
SPLINE
  5
11A
330
1F
100
AcDbEntity
  8
0
  6
Continuous
 62
     7
370
    25
100
AcDbSpline
210
0.0
220
0.0
230
1.0
 70
     8
 71
     3
 72
    13
 73
     9
 74
     0
 42
0.000000001
 43
0.00000001
 40
0.0
 40
0.0
 40
0.0
 40
0.0
 40
0.2498440581621118
 40
0.3750340872088496
 40
0.5002169429546911
 40
0.6259685504842318
 40
0.7505677613104955
 40
1.0
 40
1.0
 40
1.0
 40
1.0
 10
322.0679839938082
 20
140.8631720854146
 30
0.0
 10
322.0206967615654
 20
140.8640366008003
 30
0.0
 10
321.9497151896549
 20
140.8653343012177
 30
0.0
 10
321.8642738322198
 20
140.8999810793473
 30
0.0
 10
321.8084306051329
 20
140.9401801447111
 30
0.0
 10
321.7632635597869
 20
140.9926901369892
 30
0.0
 10
321.7195107583777
 20
141.076641121683
 30
0.0
 10
321.7136566121441
 20
141.1506934475318
 30
0.0
 10
321.7097526281275
 20
141.2000770954592
 30
0.0
  0
SPLINE
  5
11B
330
1F
100
AcDbEntity
  8
0
  6
Continuous
 62
     7
370
    25
100
AcDbSpline
210
0.0
220
0.0
230
1.0
 70
     8
 71
     3
 72
    12
 73
     8
 74
     0
 42
0.000000001
 43
0.00000001
 40
0.0
 40
0.0
 40
0.0
 40
0.0
 40
0.2500908833671394
 40
0.375490479122553
 40
0.500906833836507
 40
0.7506023372644798
 40
1.0
 40
1.0
 40
1.0
 40
1.0
 10
321.7097526281275
 20
141.2000798894269
 30
0.0
 10
321.7129640418769
 20
141.2442196496973
 30
0.0
 10
321.7177857101888
 20
141.3104917964831
 30
0.0
 10
321.7543510171737
 20
141.393362047635
 30
0.0
 10
321.8041674261652
 20
141.4676378295462
 30
0.0
 10
321.8909687666097
 20
141.5425033336539
 30
0.0
 10
321.9736448426972
 20
141.562693224264
 30
0.0
 10
322.0149582116999
 20
141.572782145272
 30
0.0
  0
SPLINE
  5
11C
330
1F
100
AcDbEntity
  8
0
  6
Continuous
 62
     7
370
    25
100
AcDbSpline
210
0.0
220
0.0
230
1.0
 70
     8
 71
     3
 72
    10
 73
     6
 74
     0
 42
0.000000001
 43
0.00000001
 40
0.0
 40
0.0
 40
0.0
 40
0.0
 40
0.2494631664655637
 40
0.4995780446694573
 40
1.0
 40
1.0
 40
1.0
 40
1.0
 10
322.0149582116999
 20
141.572782145272
 30
0.0
 10
322.0587592347566
 20
141.5714959207383
 30
0.0
 10
322.1464757091492
 20
141.568920111465
 30
0.0
 10
322.3064090120992
 20
141.4983326166744
 30
0.0
 10
322.4043856962362
 20
141.4140996826837
 30
0.0
 10
322.4697118490137
 20
141.3579372031791
 30
0.0
  0
LINE
  5
11D
330
1F
100
AcDbEntity
  8
0
  6
Continuous
 62
     7
370
    25
100
AcDbLine
 10
322.469711849
 20
141.3579372032
 30
0.0
 11
322.5928252428
 21
141.2475140108
 31
0.0
  0
LINE
  5
11E
330
1F
100
AcDbEntity
  8
0
  6
Continuous
 62
     7
370
    25
100
AcDbLine
 10
322.5928252428
 20
141.2475140108
 30
0.0
 11
322.5896289437
 21
141.6368506191
 31
0.0
  0
LINE
  5
11F
330
1F
100
AcDbEntity
  8
0
  6
Continuous
 62
     7
370
    25
100
AcDbLine
 10
322.5896289437
 20
141.6368506191
 30
0.0
 11
322.772779116
 21
141.6544982506
 31
0.0
  0
LINE
  5
120
330
1F
100
AcDbEntity
  8
0
  6
Continuous
 62
     7
370
    25
100
AcDbLine
 10
322.772779116
 20
141.6544982506
 30
0.0
 11
322.7721607178
 21
140.9015127732
 31
0.0
  0
LINE
  5
121
330
1F
100
AcDbEntity
  8
0
  6
Continuous
 62
     7
370
    25
100
AcDbLine
 10
322.7721607178
 20
140.9015127732
 30
0.0
 11
322.6774489372
 21
140.8924612491
 31
0.0
  0
LINE
  5
122
330
1F
100
AcDbEntity
  8
0
  6
Continuous
 62
     7
370
    25
100
AcDbLine
 10
322.6774489372
 20
140.8924612491
 30
0.0
 11
322.3532369225
 21
141.1949138431
 31
0.0
  0
SPLINE
  5
123
330
1F
100
AcDbEntity
  8
0
  6
Continuous
 62
     7
370
    25
100
AcDbSpline
210
0.0
220
0.0
230
1.0
 70
     8
 71
     3
 72
    10
 73
     6
 74
     0
 42
0.000000001
 43
0.00000001
 40
0.0
 40
0.0
 40
0.0
 40
0.0
 40
0.5008572120249287
 40
0.7508962069358279
 40
1.0
 40
1.0
 40
1.0
 40
1.0
 10
322.353236922542
 20
141.1949138431055
 30
0.0
 10
322.3073869935616
 20
141.2366989754237
 30
0.0
 10
322.2386477662267
 20
141.299344169724
 30
0.0
 10
322.1283404636045
 20
141.3609034495149
 30
0.0
 10
322.0648769748562
 20
141.3651467324416
 30
0.0
 10
322.0332046835817
 20
141.3672643987639
 30
0.0
  0
SPLINE
  5
124
330
1F
100
AcDbEntity
  8
0
  6
Continuous
 62
     7
370
    25
100
AcDbSpline
210
0.0
220
0.0
230
1.0
 70
     8
 71
     3
 72
    14
 73
    10
 74
     0
 42
0.000000001
 43
0.00000001
 40
0.0
 40
0.0
 40
0.0
 40
0.0
 40
0.2492018190294408
 40
0.3735775795634952
 40
0.4993839223810011
 40
0.6238272040201236
 40
0.7495927927052021
 40
0.8747108951050723
 40
0.9999999999999999
 40
0.9999999999999999
 40
0.9999999999999999
 40
0.9999999999999999
 10
322.0332046835817
 20
141.3672643987638
 30
0.0
 10
322.0145252417635
 20
141.3637361288575
 30
0.0
 10
321.9865229555472
 20
141.358446911721
 30
0.0
 10
321.9536193366802
 20
141.3364513405324
 30
0.0
 10
321.9323716957937
 20
141.3154965825187
 30
0.0
 10
321.9151625680183
 20
141.2905944735471
 30
0.0
 10
321.9030552837707
 20
141.2629800496119
 30
0.0
 10
321.8960846792818
 20
141.233767557734
 30
0.0
 10
321.8953990612653
 20
141.2142391521444
 30
0.0
 10
321.8950560181536
 20
141.2044682813985
 30
0.0
  0
SPLINE
  5
125
330
1F
100
AcDbEntity
  8
0
  6
Continuous
 62
     7
370
    25
100
AcDbSpline
210
0.0
220
0.0
230
1.0
 70
     8
 71
     3
 72
    13
 73
     9
 74
     0
 42
0.000000001
 43
0.00000001
 40
0.0
 40
0.0
 40
0.0
 40
0.0
 40
0.1251976171073781
 40
0.2503095978354357
 40
0.3721993733704436
 40
0.5005737683279634
 40
0.7498352647109441
 40
1.0
 40
1.0
 40
1.0
 40
1.0
 10
321.8950560181536
 20
141.2044664187533
 30
0.0
 10
321.8956058470068
 20
141.1932038414053
 30
0.0
 10
321.8967051286249
 20
141.1706863904209
 30
0.0
 10
321.9076664424526
 20
141.1397962361989
 30
0.0
 10
321.925240617507
 20
141.1129024473423
 30
0.0
 10
321.9564912031418
 20
141.0848032761641
 30
0.0
 10
322.0058811714775
 20
141.0629501836137
 30
0.0
 10
322.049025314667
 20
141.0631834327124
 30
0.0
 10
322.0706364005007
 20
141.0633002681834
 30
0.0
  0
SPLINE
  5
126
330
1F
100
AcDbEntity
  8
0
  6
Continuous
 62
     7
370
    25
100
AcDbSpline
210
0.0
220
0.0
230
1.0
 70
     8
 71
     3
 72
     9
 73
     5
 74
     0
 42
0.000000001
 43
0.00000001
 40
0.0
 40
0.0
 40
0.0
 40
0.0
 40
0.5005211907575281
 40
0.9999999999999999
 40
0.9999999999999999
 40
0.9999999999999999
 40
0.9999999999999999
 10
322.0149582116999
 20
141.572782145272
 30
0.0
 10
322.0148012083981
 20
141.5728568445906
 30
0.0
 10
322.0144875287686
 20
141.5730060876598
 30
0.0
 10
322.0141803289333
 20
141.5731567309462
 30
0.0
 10
322.0140268891253
 20
141.5732319740755
 30
0.0
  0
SPLINE
  5
127
330
1F
100
AcDbEntity
  8
0
  6
Continuous
 62
     7
370
    25
100
AcDbSpline
210
0.0
220
0.0
230
1.0
 70
     8
 71
     3
 72
     9
 73
     5
 74
     0
 42
0.000000001
 43
0.00000001
 40
0.0
 40
0.0
 40
0.0
 40
0.0
 40
0.4995292554655684
 40
1.0
 40
1.0
 40
1.0
 40
1.0
 10
321.7097526281275
 20
141.2000798894269
 30
0.0
 10
321.7095991962439
 20
141.2001721336833
 30
0.0
 10
321.7092920432954
 20
141.2003567960535
 30
0.0
 10
321.7089783165904
 20
141.2005409375863
 30
0.0
 10
321.7088213055529
 20
141.2006330950362
 30
0.0
  0
SPLINE
  5
128
330
1F
100
AcDbEntity
  8
0
  6
Continuous
 62
     7
370
    25
100
AcDbSpline
210
0.0
220
0.0
230
1.0
 70
     8
 71
     3
 72
     9
 73
     5
 74
     0
 42
0.000000001
 43
0.00000001
 40
0.0
 40
0.0
 40
0.0
 40
0.0
 40
0.4994453220009037
 40
1.0
 40
1.0
 40
1.0
 40
1.0
 10
322.0706364005007
 20
141.0633002681834
 30
0.0
 10
322.0704829554342
 20
141.0634012173016
 30
0.0
 10
322.0701757244726
 20
141.0636033397637
 30
0.0
 10
322.0698620760908
 20
141.0638047906656
 30
0.0
 10
322.0697050779261
 20
141.0639056278569
 30
0.0
  0
LINE
  5
129
330
1F
100
AcDbEntity
  8
0
  6
Continuous
 62
     7
370
    25
100
AcDbLine
 10
322.772779116
 20
141.6544982506
 30
0.0
 11
322.7718477934
 21
141.6549406288
 31
0.0
  0
LINE
  5
12A
330
1F
100
AcDbEntity
  8
0
  6
Continuous
 62
     7
370
    25
100
AcDbLine
 10
322.5896289437
 20
141.6368506191
 30
0.0
 11
322.5887050717
 21
141.6372939287
 31
0.0
  0
LINE
  5
12B
330
1F
100
AcDbEntity
  8
0
  6
Continuous
 62
     7
370
    25
100
AcDbLine
 10
322.6774489372
 20
140.8924612491
 30
0.0
 11
322.6765250652
 21
140.8931392519
 31
0.0
  0
LINE
  5
12C
330
1F
100
AcDbEntity
  8
0
  6
Continuous
 62
     7
370
    25
100
AcDbLine
 10
323.4137600153
 20
148.4537323279
 30
0.0
 11
323.4137600153
 21
137.5226409448
 31
0.0
  0
LINE
  5
12D
330
1F
100
AcDbEntity
  8
0
  6
Continuous
 62
     7
370
    25
100
AcDbLine
 10
321.7407619446
 20
147.766898693
 30
0.0
 11
321.7409407585
 21
148.0164596154
 31
0.0
  0
LINE
  5
12E
330
1F
100
AcDbEntity
  8
0
  6
Continuous
 62
     7
370
    25
100
AcDbLine
 10
321.7409407585
 20
148.0164596154
 30
0.0
 11
322.776847133
 21
147.7590103908
 31
0.0
  0
LINE
  5
12F
330
1F
100
AcDbEntity
  8
0
  6
Continuous
 62
     7
370
    25
100
AcDbLine
 10
322.776847133
 20
147.7590103908
 30
0.0
 11
322.7771004527
 21
147.5943879498
 31
0.0
  0
LINE
  5
130
330
1F
100
AcDbEntity
  8
0
  6
Continuous
 62
     7
370
    25
100
AcDbLine
 10
322.7771004527
 20
147.5943879498
 30
0.0
 11
321.9263633578
 21
147.8059192462
 31
0.0
  0
LINE
  5
131
330
1F
100
AcDbEntity
  8
0
  6
Continuous
 62
     7
370
    25
100
AcDbLine
 10
321.9263633578
 20
147.8059192462
 30
0.0
 11
321.924530515
 21
147.6228510304
 31
0.0
  0
LINE
  5
132
330
1F
100
AcDbEntity
  8
0
  6
Continuous
 62
     7
370
    25
100
AcDbLine
 10
321.924530515
 20
147.6228510304
 30
0.0
 11
321.7407619446
 21
147.766898693
 31
0.0
  0
LINE
  5
133
330
1F
100
AcDbEntity
  8
0
  6
Continuous
 62
     7
370
    25
100
AcDbLine
 10
321.7407619446
 20
147.766898693
 30
0.0
 11
321.7398380726
 21
147.7654979838
 31
0.0
  0
LINE
  5
134
330
1F
100
AcDbEntity
  8
0
  6
Continuous
 62
     7
370
    25
100
AcDbLine
 10
321.924530515
 20
147.6228510304
 30
0.0
 11
321.9235991924
 21
147.6214801235
 31
0.0
  0
LINE
  5
135
330
1F
100
AcDbEntity
  8
0
  6
Continuous
 62
     7
370
    25
100
AcDbLine
 10
321.7409407585
 20
148.0164596154
 30
0.0
 11
321.7400094359
 21
148.0149844004
 31
0.0
  0
LINE
  5
136
330
1F
100
AcDbEntity
  8
0
  6
Continuous
 62
     7
370
    25
100
AcDbLine
 10
322.7771004527
 20
147.5943879498
 30
0.0
 11
322.7761765807
 21
147.5929611637
 31
0.0
  0
SPLINE
  5
137
330
1F
100
AcDbEntity
  8
0
  6
Continuous
 62
     7
370
    25
100
AcDbSpline
210
0.0
220
0.0
230
1.0
 70
     8
 71
     3
 72
    12
 73
     8
 74
     0
 42
0.000000001
 43
0.00000001
 40
0.0
 40
0.0
 40
0.0
 40
0.0
 40
0.0304741767226201
 40
0.0888164449764095
 40
0.3925555569658086
 40
0.696275511891144
 40
1.0
 40
1.0
 40
1.0
 40
1.0
 10
323.527932712356
 20
148.6722653074367
 30
0.0
 10
323.5279957804138
 20
148.6749000698942
 30
0.0
 10
323.5281795911443
 20
148.6825790381224
 30
0.0
 10
323.5272033344181
 20
148.7168978228248
 30
0.0
 10
323.5149856856638
 20
148.7766751089677
 30
0.0
 10
323.4765751151443
 20
148.8539629884254
 30
0.0
 10
323.4368740502009
 20
148.8920462884306
 30
0.0
 10
323.4170233695902
 20
148.9110880805356
 30
0.0
  0
SPLINE
  5
138
330
1F
100
AcDbEntity
  8
0
  6
Continuous
 62
     7
370
    25
100
AcDbSpline
210
0.0
220
0.0
230
1.0
 70
     8
 71
     3
 72
    11
 73
     7
 74
     0
 42
0.000000001
 43
0.00000001
 40
0.0
 40
0.0
 40
0.0
 40
0.0
 40
0.3704485065829563
 40
0.7443433564925093
 40
0.9444753290458855
 40
1.0
 40
1.0
 40
1.0
 40
1.0
 10
323.4137600152887
 20
148.9181586815221
 30
0.0
 10
323.4138028457025
 20
148.9173506613448
 30
0.0
 10
323.4138889049885
 20
148.9157271038458
 30
0.0
 10
323.4148284152839
 20
148.9133941914933
 30
0.0
 10
323.4161750232294
 20
148.911807110989
 30
0.0
 10
323.4168719975432
 20
148.9112163785004
 30
0.0
 10
323.4170233695902
 20
148.9110880805356
 30
0.0
  0
SPLINE
  5
139
330
1F
100
AcDbEntity
  8
0
  6
Continuous
 62
     7
370
    25
100
AcDbSpline
210
0.0
220
0.0
230
1.0
 70
     8
 71
     3
 72
    12
 73
     8
 74
     0
 42
0.000000001
 43
0.00000001
 40
0.0
 40
0.0
 40
0.0
 40
0.0
 40
0.03047176104521
 40
0.0888116077003248
 40
0.3925529069253487
 40
0.696271923212082
 40
1.0
 40
1.0
 40
1.0
 40
1.0
 10
323.527932712356
 20
137.3158687068326
 30
0.0
 10
323.5279957803205
 20
137.3132026032031
 30
0.0
 10
323.5281795953389
 20
137.3054320989226
 30
0.0
 10
323.5272032327429
 20
137.270740526658
 30
0.0
 10
323.5149859549915
 20
137.2105546582358
 30
0.0
 10
323.4765746548632
 20
137.1332503502703
 30
0.0
 10
323.4368739954023
 20
137.0956300520332
 30
0.0
 10
323.4170233695902
 20
137.076819622348
 30
0.0
  0
SPLINE
  5
13A
330
1F
100
AcDbEntity
  8
0
  6
Continuous
 62
     7
370
    25
100
AcDbSpline
210
0.0
220
0.0
230
1.0
 70
     8
 71
     3
 72
    10
 73
     6
 74
     0
 42
0.000000001
 43
0.00000001
 40
0.0
 40
0.0
 40
0.0
 40
0.0
 40
0.2116578783902545
 40
0.487949280711918
 40
1.0
 40
1.0
 40
1.0
 40
1.0
 10
323.4170233695902
 20
137.076819622348
 30
0.0
 10
323.4164824254423
 20
137.0763219266379
 30
0.0
 10
323.4152353501626
 20
137.075174554919
 30
0.0
 10
323.4139628397637
 20
137.0727337720154
 30
0.0
 10
323.4138398807071
 20
137.071084661405
 30
0.0
 10
323.4137600152887
 20
137.0700135169727
 30
0.0
  0
LINE
  5
13B
330
1F
100
AcDbEntity
  8
0
  6
Continuous
 62
     7
370
    25
100
AcDbLine
 10
323.5809510439
 20
150.111521901
 30
0.0
 11
327.9293855517
 21
148.1467982097
 31
0.0
  0
SPLINE
  5
13C
330
1F
100
AcDbEntity
  8
0
  6
Continuous
 62
     7
370
    25
100
AcDbSpline
210
0.0
220
0.0
230
1.0
 70
     8
 71
     3
 72
    12
 73
     8
 74
     0
 42
0.000000001
 43
0.00000001
 40
0.0
 40
0.0
 40
0.0
 40
0.0
 40
0.223886515215563
 40
0.4477891294813068
 40
0.6717051346079158
 40
0.8955848471843696
 40
1.0
 40
1.0
 40
1.0
 40
1.0
 10
323.5277464478411
 20
150.1346987946135
 30
0.0
 10
323.5283721411518
 20
150.134527580578
 30
0.0
 10
323.5296235727652
 20
150.1341851401953
 30
0.0
 10
323.5394169168235
 20
150.1300027089532
 30
0.0
 10
323.5538434097489
 20
150.1236538101651
 30
0.0
 10
323.5686880841353
 20
150.1170280102725
 30
0.0
 10
323.5779919286282
 20
150.1128505535018
 30
0.0
 10
323.5809510438837
 20
150.1115219010217
 30
0.0
  0
ELLIPSE
  5
13D
330
1F
100
AcDbEntity
  8
0
  6
Continuous
 62
     7
370
    25
100
AcDbEllipse
 10
319.5363169854
 20
141.2660887651
 30
0.0
 11
3.99104245977486
 21
8.86975980016274
 31
0.0
210
0.0
220
0.0
230
1.0
 40
0.0062865146
 41
6.268764683147661
 42
6.269665237907257
  0
SPLINE
  5
13E
330
1F
100
AcDbEntity
  8
0
  6
Continuous
 62
     7
370
    25
100
AcDbSpline
210
0.0
220
0.0
230
1.0
 70
     8
 71
     3
 72
    12
 73
     8
 74
     0
 42
0.000000001
 43
0.00000001
 40
0.0
 40
0.0
 40
0.0
 40
0.0
 40
0.2239045007401687
 40
0.4477811663778263
 40
0.6716913631670269
 40
0.8955865788225201
 40
0.9999999999999999
 40
0.9999999999999999
 40
0.9999999999999999
 40
0.9999999999999999
 10
323.5809510438837
 20
150.1092476112944
 30
0.0
 10
323.5746006778634
 20
150.112135276118
 30
0.0
 10
323.5619007352802
 20
150.1179102467796
 30
0.0
 10
323.5455319998901
 20
150.1255794064382
 30
0.0
 10
323.5336235191084
 20
150.13132747974
 30
0.0
 10
323.5283247910799
 20
150.1340586059818
 30
0.0
 10
323.5278859988417
 20
150.1344425703179
 30
0.0
 10
323.5277464478411
 20
150.1345646841628
 30
0.0
  0
LINE
  5
13F
330
1F
100
AcDbEntity
  8
0
  6
Continuous
 62
     7
370
    25
100
AcDbLine
 10
323.5809510439
 20
150.1092476113
 30
0.0
 11
327.9293855517
 21
148.1339329196
 31
0.0
  0
LINE
  5
140
330
1F
100
AcDbEntity
  8
0
  6
Continuous
 62
     7
370
    25
100
AcDbLine
 10
327.9293855517
 20
148.1339329196
 30
0.0
 11
328.2663529604
 21
147.9818945093
 31
0.0
  0
LINE
  5
141
330
1F
100
AcDbEntity
  8
0
  6
Continuous
 62
     7
370
    25
100
AcDbLine
 10
321.9931578129
 20
136.0186769901
 30
0.0
 11
321.9910492986
 21
135.9378642677
 31
0.0
  0
SPLINE
  5
142
330
1F
100
AcDbEntity
  8
0
  6
Continuous
 62
     7
370
    25
100
AcDbSpline
210
0.0
220
0.0
230
1.0
 70
     8
 71
     3
 72
     9
 73
     5
 74
     0
 42
0.000000001
 43
0.00000001
 40
0.0
 40
0.0
 40
0.0
 40
0.0
 40
0.5006093641422991
 40
1.0
 40
1.0
 40
1.0
 40
1.0
 10
321.9910492985643
 20
135.9378642676575
 30
0.0
 10
321.9568638671049
 20
135.9279406222145
 30
0.0
 10
321.8885762282629
 20
135.9081174903402
 30
0.0
 10
321.8342578206472
 20
135.9061928188732
 30
0.0
 10
321.8071317165293
 20
135.9052316559655
 30
0.0
  0
SPLINE
  5
143
330
1F
100
AcDbEntity
  8
0
  6
Continuous
 62
     7
370
    25
100
AcDbSpline
210
0.0
220
0.0
230
1.0
 70
     8
 71
     3
 72
     9
 73
     5
 74
     0
 42
0.000000001
 43
0.00000001
 40
0.0
 40
0.0
 40
0.0
 40
0.0
 40
0.4996460688491722
 40
1.0
 40
1.0
 40
1.0
 40
1.0
 10
321.8071317165293
 20
135.9052316559655
 30
0.0
 10
321.7787135222483
 20
135.90947548432
 30
0.0
 10
321.7218368728503
 20
135.9179691533769
 30
0.0
 10
321.714611912434
 20
135.9553958988865
 30
0.0
 10
321.7109968750872
 20
135.9741225181324
 30
0.0
  0
SPLINE
  5
144
330
1F
100
AcDbEntity
  8
0
  6
Continuous
 62
     7
370
    25
100
AcDbSpline
210
0.0
220
0.0
230
1.0
 70
     8
 71
     3
 72
    14
 73
    10
 74
     0
 42
0.000000001
 43
0.00000001
 40
0.0
 40
0.0
 40
0.0
 40
0.0
 40
0.2497259765035612
 40
0.4990563695567518
 40
0.6243158392087855
 40
0.7494652586253908
 40
0.8746169244316689
 40
0.9372909434773256
 40
1.0
 40
1.0
 40
1.0
 40
1.0
 10
321.7109968750872
 20
135.9741225181324
 30
0.0
 10
321.7140114569872
 20
135.9925270156781
 30
0.0
 10
321.7200358454782
 20
136.0293068567554
 30
0.0
 10
321.7706461345261
 20
136.0871969317002
 30
0.0
 10
321.8247103698185
 20
136.1318903386573
 30
0.0
 10
321.872442525505
 20
136.1641691157261
 30
0.0
 10
321.9172202219893
 20
136.1880001078094
 30
0.0
 10
321.9544396219413
 20
136.2045434023846
 30
0.0
 10
321.9733159839286
 20
136.2117079952932
 30
0.0
 10
321.98275680236
 20
136.2152912927968
 30
0.0
  0
SPLINE
  5
145
330
1F
100
AcDbEntity
  8
0
  6
Continuous
 62
     7
370
    25
100
AcDbSpline
210
0.0
220
0.0
230
1.0
 70
     8
 71
     3
 72
    11
 73
     7
 74
     0
 42
0.000000001
 43
0.00000001
 40
0.0
 40
0.0
 40
0.0
 40
0.0
 40
0.2498951042190157
 40
0.4997011648246347
 40
0.7496672024688366
 40
1.0
 40
1.0
 40
1.0
 40
1.0
 10
321.98275680236
 20
136.2152912927968
 30
0.0
 10
322.0061226757206
 20
136.2228124091296
 30
0.0
 10
322.0528460966215
 20
136.2378519618412
 30
0.0
 10
322.1165800691033
 20
136.2449325476658
 30
0.0
 10
322.1689543544538
 20
136.2405342212554
 30
0.0
 10
322.1921100060777
 20
136.2295321612523
 30
0.0
 10
322.2036963193812
 20
136.2240270985467
 30
0.0
  0
SPLINE
  5
146
330
1F
100
AcDbEntity
  8
0
  6
Continuous
 62
     7
370
    25
100
AcDbSpline
210
0.0
220
0.0
230
1.0
 70
     8
 71
     3
 72
    11
 73
     7
 74
     0
 42
0.000000001
 43
0.00000001
 40
0.0
 40
0.0
 40
0.0
 40
0.0
 40
0.2502379179746483
 40
0.5001429850439688
 40
0.7499294736424004
 40
1.0
 40
1.0
 40
1.0
 40
1.0
 10
322.2036963193812
 20
136.2240270985467
 30
0.0
 10
322.2139042405433
 20
136.2411565421541
 30
0.0
 10
322.2343065049262
 20
136.2753926448492
 30
0.0
 10
322.2958582257477
 20
136.3304491878285
 30
0.0
 10
322.3754502218777
 20
136.3812350852894
 30
0.0
 10
322.4352451108955
 20
136.4052693404278
 30
0.0
 10
322.465159544269
 20
136.4172932965857
 30
0.0
  0
SPLINE
  5
147
330
1F
100
AcDbEntity
  8
0
  6
Continuous
 62
     7
370
    25
100
AcDbSpline
210
0.0
220
0.0
230
1.0
 70
     8
 71
     3
 72
    14
 73
    10
 74
     0
 42
0.000000001
 43
0.00000001
 40
0.0
 40
0.0
 40
0.0
 40
0.0
 40
0.1250795295514155
 40
0.2500962548675438
 40
0.3751177047343736
 40
0.5002309860511801
 40
0.6253192036276365
 40
0.7504365871050409
 40
1.0
 40
1.0
 40
1.0
 40
1.0
 10
322.465159544269
 20
136.4172932965857
 30
0.0
 10
322.4882618387595
 20
136.4250697233921
 30
0.0
 10
322.5344548277451
 20
136.4406186723486
 30
0.0
 10
322.6012726102944
 20
136.4539123562516
 30
0.0
 10
322.6613588273743
 20
136.4578545991062
 30
0.0
 10
322.7129808205754
 20
136.4533289232267
 30
0.0
 10
322.7541806524816
 20
136.4410604598977
 30
0.0
 10
322.7942558517879
 20
136.4154888320588
 30
0.0
 10
322.7994318725366
 20
136.3856058746962
 30
0.0
 10
322.8028794615664
 20
136.3657017512423
 30
0.0
  0
SPLINE
  5
148
330
1F
100
AcDbEntity
  8
0
  6
Continuous
 62
     7
370
    25
100
AcDbSpline
210
0.0
220
0.0
230
1.0
 70
     8
 71
     3
 72
    13
 73
     9
 74
     0
 42
0.000000001
 43
0.00000001
 40
0.0
 40
0.0
 40
0.0
 40
0.0
 40
0.2495865924257696
 40
0.3747598904154729
 40
0.4999162466198689
 40
0.6240432240548264
 40
0.7502525159661989
 40
1.0
 40
1.0
 40
1.0
 40
1.0
 10
322.8028794615664
 20
136.3657017512423
 30
0.0
 10
322.7992851602658
 20
136.3440190404798
 30
0.0
 10
322.7938882359018
 20
136.311461961871
 30
0.0
 10
322.752298814301
 20
136.2612421638858
 30
0.0
 10
322.7092904605204
 20
136.2230988117791
 30
0.0
 10
322.6556189393923
 20
136.1856309003798
 30
0.0
 10
322.5734251683429
 20
136.1384512826526
 30
0.0
 10
322.5047293162007
 20
136.1100137307274
 30
0.0
 10
322.4590947716631
 20
136.0911227105362
 30
0.0
  0
LINE
  5
149
330
1F
100
AcDbEntity
  8
0
  6
Continuous
 62
     7
370
    25
100
AcDbLine
 10
322.4590947717
 20
136.0911227105
 30
0.0
 11
322.4617695301
 21
136.1733258976
 31
0.0
  0
SPLINE
  5
14A
330
1F
100
AcDbEntity
  8
0
  6
Continuous
 62
     7
370
    25
100
AcDbSpline
210
0.0
220
0.0
230
1.0
 70
     8
 71
     3
 72
    12
 73
     8
 74
     0
 42
0.000000001
 43
0.00000001
 40
0.0
 40
0.0
 40
0.0
 40
0.0
 40
0.2503571831549782
 40
0.4996524722231591
 40
0.6248039657222723
 40
0.7501747601038864
 40
1.0
 40
1.0
 40
1.0
 40
1.0
 10
322.4617695300974
 20
136.1733258975846
 30
0.0
 10
322.4825731723286
 20
136.1827359758034
 30
0.0
 10
322.5240922178019
 20
136.2015162192402
 30
0.0
 10
322.5707170991882
 20
136.2308174292772
 30
0.0
 10
322.5974901624978
 20
136.2550023579163
 30
0.0
 10
322.6169851378721
 20
136.2789070659791
 30
0.0
 10
322.6195358850651
 20
136.2942093254497
 30
0.0
 10
322.6212343066134
 20
136.3043983740909
 30
0.0
  0
SPLINE
  5
14B
330
1F
100
AcDbEntity
  8
0
  6
Continuous
 62
     7
370
    25
100
AcDbSpline
210
0.0
220
0.0
230
1.0
 70
     8
 71
     3
 72
    12
 73
     8
 74
     0
 42
0.000000001
 43
0.00000001
 40
0.0
 40
0.0
 40
0.0
 40
0.0
 40
0.2501445323880033
 40
0.4997710530296021
 40
0.6263113232863778
 40
0.7505462382937804
 40
1.0
 40
1.0
 40
1.0
 40
1.0
 10
322.6212343066134
 20
136.3043993054134
 30
0.0
 10
322.6194798167855
 20
136.3131969024786
 30
0.0
 10
322.6159744704148
 20
136.3307738781072
 30
0.0
 10
322.5864032852812
 20
136.340976896886
 30
0.0
 10
322.5553485526985
 20
136.3424783532747
 30
0.0
 10
322.5190068469185
 20
136.3391456135489
 30
0.0
 10
322.4879307649035
 20
136.3293559202849
 30
0.0
 10
322.4671861021914
 20
136.3228208659393
 30
0.0
  0
SPLINE
  5
14C
330
1F
100
AcDbEntity
  8
0
  6
Continuous
 62
     7
370
    25
100
AcDbSpline
210
0.0
220
0.0
230
1.0
 70
     8
 71
     3
 72
    13
 73
     9
 74
     0
 42
0.000000001
 43
0.00000001
 40
0.0
 40
0.0
 40
0.0
 40
0.0
 40
0.1244581718308046
 40
0.2497251613412292
 40
0.373858227065542
 40
0.5000495232284539
 40
0.7495832159508415
 40
1.0
 40
1.0
 40
1.0
 40
1.0
 10
322.4671861021914
 20
136.3228208659393
 30
0.0
 10
322.4536144886621
 20
136.3173989500515
 30
0.0
 10
322.4263830636108
 20
136.3065198828118
 30
0.0
 10
322.3889230180803
 20
136.2845535458079
 30
0.0
 10
322.3580293847569
 20
136.2606660718335
 30
0.0
 10
322.32520575136
 20
136.2284415334217
 30
0.0
 10
322.3026033885992
 20
136.1899485824622
 30
0.0
 10
322.2997386774351
 20
136.1647472584532
 30
0.0
 10
322.2983037918009
 20
136.1521243391735
 30
0.0
  0
LINE
  5
14D
330
1F
100
AcDbEntity
  8
0
  6
Continuous
 62
     7
370
    25
100
AcDbLine
 10
322.2983037918
 20
136.1521243392
 30
0.0
 11
322.1284901588
 21
136.0904698534
 31
0.0
  0
SPLINE
  5
14E
330
1F
100
AcDbEntity
  8
0
  6
Continuous
 62
     7
370
    25
100
AcDbSpline
210
0.0
220
0.0
230
1.0
 70
     8
 71
     3
 72
    14
 73
    10
 74
     0
 42
0.000000001
 43
0.00000001
 40
0.0
 40
0.0
 40
0.0
 40
0.0
 40
0.2504758617235543
 40
0.4998677896627123
 40
0.6270718332264482
 40
0.749862916740541
 40
0.874798390550498
 40
0.9373673107824737
 40
1.0
 40
1.0
 40
1.0
 40
1.0
 10
322.1284901588358
 20
136.0904698534114
 30
0.0
 10
322.1265298261637
 20
136.0988111878763
 30
0.0
 10
322.1226176441552
 20
136.1154577596979
 30
0.0
 10
322.1070760940003
 20
136.132639788438
 30
0.0
 10
322.0820740812525
 20
136.138746454126
 30
0.0
 10
322.0580166691343
 20
136.1390933007823
 30
0.0
 10
322.0347002859201
 20
136.1357960621259
 30
0.0
 10
322.0145445067112
 20
136.130535340349
 30
0.0
 10
322.0042720319396
 20
136.127016786964
 30
0.0
 10
321.999133178512
 20
136.1252566142184
 30
0.0
  0
SPLINE
  5
14F
330
1F
100
AcDbEntity
  8
0
  6
Continuous
 62
     7
370
    25
100
AcDbSpline
210
0.0
220
0.0
230
1.0
 70
     8
 71
     3
 72
    13
 73
     9
 74
     0
 42
0.000000001
 43
0.00000001
 40
0.0
 40
0.0
 40
0.0
 40
0.0
 40
0.2491850664147295
 40
0.3727569970420925
 40
0.4995094451807197
 40
0.6251708551141866
 40
0.7499911824235399
 40
1.0
 40
1.0
 40
1.0
 40
1.0
 10
321.999133178512
 20
136.1252566142184
 30
0.0
 10
321.9854454155275
 20
136.1196658264501
 30
0.0
 10
321.9649698328623
 20
136.1113025433305
 30
0.0
 10
321.9413168799184
 20
136.0962001023556
 30
0.0
 10
321.9263491598341
 20
136.0842924064714
 30
0.0
 10
321.9144552093618
 20
136.0722462887984
 30
0.0
 10
321.9033387203376
 20
136.0567022836966
 30
0.0
 10
321.9020082239575
 20
136.0469245641175
 30
0.0
 10
321.9011207907595
 20
136.0404028831226
 30
0.0
  0
SPLINE
  5
150
330
1F
100
AcDbEntity
  8
0
  6
Continuous
 62
     7
370
    25
100
AcDbSpline
210
0.0
220
0.0
230
1.0
 70
     8
 71
     3
 72
    12
 73
     8
 74
     0
 42
0.000000001
 43
0.00000001
 40
0.0
 40
0.0
 40
0.0
 40
0.0
 40
0.2498501165915321
 40
0.4996780820540096
 40
0.74943971320102
 40
0.8746684504825576
 40
1.0
 40
1.0
 40
1.0
 40
1.0
 10
321.9011207907595
 20
136.0404028831226
 30
0.0
 10
321.9023383439409
 20
136.0346081078166
 30
0.0
 10
321.9047733423582
 20
136.0230190709557
 30
0.0
 10
321.9253982780531
 20
136.0141588292161
 30
0.0
 10
321.9497586761373
 20
136.0120966809907
 30
0.0
 10
321.9736408353971
 20
136.0146269980325
 30
0.0
 10
321.9866503743161
 20
136.0173266235004
 30
0.0
 10
321.9931578128733
 20
136.018676990102
 30
0.0
  0
SPLINE
  5
151
330
1F
100
AcDbEntity
  8
0
  6
Continuous
 62
     7
370
    25
100
AcDbSpline
210
0.0
220
0.0
230
1.0
 70
     8
 71
     3
 72
     9
 73
     5
 74
     0
 42
0.000000001
 43
0.00000001
 40
0.0
 40
0.0
 40
0.0
 40
0.0
 40
0.4994453266351152
 40
1.0
 40
1.0
 40
1.0
 40
1.0
 10
321.98275680236
 20
136.2152912927968
 30
0.0
 10
321.9826033572942
 20
136.215635451635
 30
0.0
 10
321.982296126337
 20
136.2163245337424
 30
0.0
 10
321.9819824779509
 20
136.2170113263652
 30
0.0
 10
321.9818254797854
 20
136.2173551036221
 30
0.0
  0
SPLINE
  5
152
330
1F
100
AcDbEntity
  8
0
  6
Continuous
 62
     7
370
    25
100
AcDbSpline
210
0.0
220
0.0
230
1.0
 70
     8
 71
     3
 72
     9
 73
     5
 74
     0
 42
0.000000001
 43
0.00000001
 40
0.0
 40
0.0
 40
0.0
 40
0.0
 40
0.4992888064498639
 40
1.0
 40
1.0
 40
1.0
 40
1.0
 10
321.7109968750872
 20
135.9741225181324
 30
0.0
 10
321.7108434054613
 20
135.9744737984602
 30
0.0
 10
321.7105360290012
 20
135.9751773598525
 30
0.0
 10
321.7102225266494
 20
135.9758788547642
 30
0.0
 10
321.7100655525126
 20
135.9762301011187
 30
0.0
  0
LINE
  5
153
330
1F
100
AcDbEntity
  8
0
  6
Continuous
 62
     7
370
    25
100
AcDbLine
 10
322.4651595443
 20
136.4172932966
 30
0.0
 11
322.4642356723
 21
136.4193477942
 31
0.0
  0
SPLINE
  5
154
330
1F
100
AcDbEntity
  8
0
  6
Continuous
 62
     7
370
    25
100
AcDbSpline
210
0.0
220
0.0
230
1.0
 70
     8
 71
     3
 72
     9
 73
     5
 74
     0
 42
0.000000001
 43
0.00000001
 40
0.0
 40
0.0
 40
0.0
 40
0.0
 40
0.5004183980312626
 40
1.0
 40
1.0
 40
1.0
 40
1.0
 10
322.2036963193812
 20
136.2240270985467
 30
0.0
 10
322.2035393003196
 20
136.2243742584738
 30
0.0
 10
322.2032255247628
 20
136.2250679978097
 30
0.0
 10
322.2029184204641
 20
136.2257644133834
 30
0.0
 10
322.2027649968065
 20
136.2261123297912
 30
0.0
  0
LINE
  5
155
330
1F
100
AcDbEntity
  8
0
  6
Continuous
 62
     7
370
    25
100
AcDbLine
 10
322.1284901588
 20
136.0904698534
 30
0.0
 11
322.1275662868
 21
136.0925876809
 31
0.0
  0
LINE
  5
156
330
1F
100
AcDbEntity
  8
0
  6
Continuous
 62
     7
370
    25
100
AcDbLine
 10
322.6212343066
 20
136.3043993054
 30
0.0
 11
322.6203104346
 21
136.3065059571
 31
0.0
  0
SPLINE
  5
157
330
1F
100
AcDbEntity
  8
0
  6
Continuous
 62
     7
370
    25
100
AcDbSpline
210
0.0
220
0.0
230
1.0
 70
     8
 71
     3
 72
     9
 73
     5
 74
     0
 42
0.000000001
 43
0.00000001
 40
0.0
 40
0.0
 40
0.0
 40
0.0
 40
0.4996035103354891
 40
1.0
 40
1.0
 40
1.0
 40
1.0
 10
321.9931578128733
 20
136.018676990102
 30
0.0
 10
321.9930043926597
 20
136.0190314207663
 30
0.0
 10
321.9926973087212
 20
136.0197408446532
 30
0.0
 10
321.9923835127174
 20
136.0204476526528
 30
0.0
 10
321.9922264902987
 20
136.0208013368947
 30
0.0
  0
LINE
  5
158
330
1F
100
AcDbEntity
  8
0
  6
Continuous
 62
     7
370
    25
100
AcDbLine
 10
322.4617695301
 20
136.1733258976
 30
0.0
 11
322.4608456581
 21
136.175454901
 31
0.0
  0
SPLINE
  5
159
330
1F
100
AcDbEntity
  8
0
  6
Continuous
 62
     7
370
    25
100
AcDbSpline
210
0.0
220
0.0
230
1.0
 70
     8
 71
     3
 72
     9
 73
     5
 74
     0
 42
0.000000001
 43
0.00000001
 40
0.0
 40
0.0
 40
0.0
 40
0.0
 40
0.4994455210675882
 40
0.9999999999999999
 40
0.9999999999999999
 40
0.9999999999999999
 40
0.9999999999999999
 10
322.4590947716631
 20
136.0911227105362
 30
0.0
 10
322.4589413266278
 20
136.0914820893257
 30
0.0
 10
322.4586340958513
 20
136.0922016448615
 30
0.0
 10
322.4583204472837
 20
136.0929188105009
 30
0.0
 10
322.4581634490885
 20
136.0932777909738
 30
0.0
  0
LINE
  5
15A
330
1F
100
AcDbEntity
  8
0
  6
Continuous
 62
     7
370
    25
100
AcDbLine
 10
328.4137552469
 20
146.9077070518
 30
0.0
 11
328.4137552469
 21
139.1250196187
 31
0.0
  0
LINE
  5
15B
330
1F
100
AcDbEntity
  8
0
  6
Continuous
 62
     7
370
    25
100
AcDbLine
 10
328.4137552469
 20
147.7532566799
 30
0.0
 11
328.4137552469
 21
146.9077070518
 31
0.0
  0
SPLINE
  5
15C
330
1F
100
AcDbEntity
  8
0
  6
Continuous
 62
     7
370
    25
100
AcDbSpline
210
0.0
220
0.0
230
1.0
 70
     8
 71
     3
 72
    11
 73
     7
 74
     0
 42
0.000000001
 43
0.00000001
 40
0.0
 40
0.0
 40
0.0
 40
0.0
 40
0.2933078610600864
 40
0.5865968129675714
 40
0.8805025665990895
 40
1.0
 40
1.0
 40
1.0
 40
1.0
 10
328.2663529603876
 20
147.9818945093257
 30
0.0
 10
328.2908661734286
 20
147.9677984836709
 30
0.0
 10
328.3398910191774
 20
147.9396073411125
 30
0.0
 10
328.3901594973361
 20
147.869504688236
 30
0.0
 10
328.4116600384916
 20
147.8041508702401
 30
0.0
 10
328.413285418173
 20
147.7646691738784
 30
0.0
 10
328.4137552469172
 20
147.7532566799028
 30
0.0
  0
LINE
  5
15D
330
1F
100
AcDbEntity
  8
0
  6
Continuous
 62
     7
370
    25
100
AcDbLine
 10
328.4137552469
 20
139.1250196187
 30
0.0
 11
328.4137552469
 21
138.3486151038
 31
0.0
  0
LINE
  5
15E
330
1F
100
AcDbEntity
  8
0
  6
Continuous
 62
     7
370
    25
100
AcDbLine
 10
322.7721458166
 20
150.4452687962
 30
0.0
 11
322.7485349267
 21
150.4547869129
 31
0.0
  0
SPLINE
  5
15F
330
1F
100
AcDbEntity
  8
0
  6
Continuous
 62
     7
370
    25
100
AcDbSpline
210
0.0
220
0.0
230
1.0
 70
     8
 71
     3
 72
    16
 73
    12
 74
     0
 42
0.000000001
 43
0.00000001
 40
0.0
 40
0.0
 40
0.0
 40
0.0
 40
0.0645208555417669
 40
0.1815109729691576
 40
0.2984932951981344
 40
0.4154647419525593
 40
0.5324220510575575
 40
0.6493816147135737
 40
0.7663363371455084
 40
0.8833839059799561
 40
1.0
 40
1.0
 40
1.0
 40
1.0
 10
321.6351574151911
 20
150.9001975221736
 30
0.0
 10
321.6248489528213
 20
150.9044685049364
 30
0.0
 10
321.5958490423448
 20
150.9164836933636
 30
0.0
 10
321.643549524006
 20
150.8896035233962
 30
0.0
 10
321.7661640785491
 20
150.8275042436564
 30
0.0
 10
321.9568884221932
 20
150.738793132817
 30
0.0
 10
322.1829544788486
 20
150.6431288323587
 30
0.0
 10
322.4125466266179
 20
150.5560340399431
 30
0.0
 10
322.6077311970428
 20
150.4902003905825
 30
0.0
 10
322.7451322994646
 20
150.4494930836468
 30
0.0
 10
322.7631524026464
 20
150.4466751575328
 30
0.0
 10
322.7721458166041
 20
150.4452687962157
 30
0.0
  0
LINE
  5
160
330
1F
100
AcDbEntity
  8
0
  6
Continuous
 62
     7
370
    25
100
AcDbLine
 10
328.4137552469
 20
147.7532566799
 30
0.0
 11
328.4137552469
 21
147.7661219699
 31
0.0
  0
LINE
  5
161
330
1F
100
AcDbEntity
  8
0
  6
Continuous
 62
     7
370
    25
100
AcDbLine
 10
125.2262597769
 20
151.0641475482
 30
0.0
 11
124.2512618988
 21
151.0641475482
 31
0.0
  0
LINE
  5
162
330
1F
100
AcDbEntity
  8
0
  6
Continuous
 62
     7
370
    25
100
AcDbLine
 10
124.2512618988
 20
151.5864593251
 30
0.0
 11
125.2262597769
 21
151.5864593251
 31
0.0
  0
LINE
  5
163
330
1F
100
AcDbEntity
  8
0
  6
Continuous
 62
     7
370
    25
100
AcDbLine
 10
124.2512618988
 20
151.5864593251
 30
0.0
 11
124.2512618988
 21
151.0641475482
 31
0.0
  0
LINE
  5
164
330
1F
100
AcDbEntity
  8
0
  6
Continuous
 62
     7
370
    25
100
AcDbLine
 10
125.2262597769
 20
151.5864593251
 30
0.0
 11
125.2262597769
 21
151.0641475482
 31
0.0
  0
LINE
  5
165
330
1F
100
AcDbEntity
  8
0
  6
Continuous
 62
     7
370
    25
100
AcDbLine
 10
125.2262597769
 20
154.8141476972
 30
0.0
 11
124.2512618988
 21
154.8141476972
 31
0.0
  0
LINE
  5
166
330
1F
100
AcDbEntity
  8
0
  6
Continuous
 62
     7
370
    25
100
AcDbLine
 10
124.2512618988
 20
154.8141476972
 30
0.0
 11
124.2512618988
 21
151.5864593251
 31
0.0
  0
LINE
  5
167
330
1F
100
AcDbEntity
  8
0
  6
Continuous
 62
     7
370
    25
100
AcDbLine
 10
125.2262597769
 20
154.8141476972
 30
0.0
 11
125.2262597769
 21
151.5864593251
 31
0.0
  0
LINE
  5
168
330
1F
100
AcDbEntity
  8
0
  6
Continuous
 62
     7
370
    25
100
AcDbLine
 10
124.2512618988
 20
147.8364591761
 30
0.0
 11
125.2262597769
 21
147.8364591761
 31
0.0
  0
LINE
  5
169
330
1F
100
AcDbEntity
  8
0
  6
Continuous
 62
     7
370
    25
100
AcDbLine
 10
124.2512618988
 20
151.0641475482
 30
0.0
 11
124.2512618988
 21
147.8364591761
 31
0.0
  0
LINE
  5
16A
330
1F
100
AcDbEntity
  8
0
  6
Continuous
 62
     7
370
    25
100
AcDbLine
 10
125.2262597769
 20
151.0641475482
 30
0.0
 11
125.2262597769
 21
147.8364591761
 31
0.0
  0
LINE
  5
16B
330
1F
100
AcDbEntity
  8
0
  6
Continuous
 62
     7
370
    25
100
AcDbLine
 10
127.7012606948
 20
153.1888091279
 30
0.0
 11
128.6137556522
 21
153.1888091279
 31
0.0
  0
LINE
  5
16C
330
1F
100
AcDbEntity
  8
0
  6
Continuous
 62
     7
370
    25
100
AcDbLine
 10
128.6137556522
 20
153.6411450518
 30
0.0
 11
127.7012606948
 21
153.6411450518
 31
0.0
  0
LINE
  5
16D
330
1F
100
AcDbEntity
  8
0
  6
Continuous
 62
     7
370
    25
100
AcDbLine
 10
127.7012606948
 20
153.6411450518
 30
0.0
 11
127.7012606948
 21
153.1888091279
 31
0.0
  0
LINE
  5
16E
330
1F
100
AcDbEntity
  8
0
  6
Continuous
 62
     7
370
    25
100
AcDbLine
 10
128.6137556522
 20
149.4617958827
 30
0.0
 11
127.7012606948
 21
149.4617958827
 31
0.0
  0
LINE
  5
16F
330
1F
100
AcDbEntity
  8
0
  6
Continuous
 62
     7
370
    25
100
AcDbLine
 10
127.7012606948
 20
153.1888091279
 30
0.0
 11
127.7012606948
 21
149.4617958827
 31
0.0
  0
LINE
  5
170
330
1F
100
AcDbEntity
  8
0
  6
Continuous
 62
     7
370
    25
100
AcDbLine
 10
127.7012606948
 20
149.0094618214
 30
0.0
 11
128.6137556522
 21
149.0094618214
 31
0.0
  0
LINE
  5
171
330
1F
100
AcDbEntity
  8
0
  6
Continuous
 62
     7
370
    25
100
AcDbLine
 10
127.7012606948
 20
149.4617958827
 30
0.0
 11
127.7012606948
 21
149.0094618214
 31
0.0
  0
LINE
  5
172
330
1F
100
AcDbEntity
  8
0
  6
Continuous
 62
     7
370
    25
100
AcDbLine
 10
120.70126141
 20
148.8628027303
 30
0.0
 11
120.70126141
 21
153.7878022803
 31
0.0
  0
LINE
  5
173
330
1F
100
AcDbEntity
  8
0
  6
Continuous
 62
     7
370
    25
100
AcDbLine
 10
125.8262550323
 20
155.0378029509
 30
0.0
 11
125.8262550323
 21
147.6128039224
 31
0.0
  0
LINE
  5
174
330
1F
100
AcDbEntity
  8
0
  6
Continuous
 62
     7
370
    25
100
AcDbLine
 10
127.2012596815
 20
154.825303079
 30
0.0
 11
127.2012596815
 21
147.8253037943
 31
0.0
  0
LINE
  5
175
330
1F
100
AcDbEntity
  8
0
  6
Continuous
 62
     7
370
    25
100
AcDbLine
 10
127.7012606948
 20
155.5046507431
 30
0.0
 11
128.6137556522
 21
155.5046507431
 31
0.0
  0
LINE
  5
176
330
1F
100
AcDbEntity
  8
0
  6
Continuous
 62
     7
370
    25
100
AcDbLine
 10
127.7012606948
 20
155.5046507431
 30
0.0
 11
127.7012606948
 21
153.6411450518
 31
0.0
  0
LINE
  5
177
330
1F
100
AcDbEntity
  8
0
  6
Continuous
 62
     7
370
    25
100
AcDbLine
 10
128.6137556522
 20
147.1459542675
 30
0.0
 11
127.7012606948
 21
147.1459542675
 31
0.0
  0
LINE
  5
178
330
1F
100
AcDbEntity
  8
0
  6
Continuous
 62
     7
370
    25
100
AcDbLine
 10
127.7012606948
 20
149.0094618214
 30
0.0
 11
127.7012606948
 21
147.1459542675
 31
0.0
  0
LINE
  5
179
330
1F
100
AcDbEntity
  8
0
  6
Continuous
 62
     7
370
    25
100
AcDbLine
 10
124.2512618988
 20
155.0753035857
 30
0.0
 11
125.2262597769
 21
155.0753035857
 31
0.0
  0
LINE
  5
17A
330
1F
100
AcDbEntity
  8
0
  6
Continuous
 62
     7
370
    25
100
AcDbLine
 10
124.2512618988
 20
155.0753035857
 30
0.0
 11
124.2512618988
 21
154.8141476972
 31
0.0
  0
LINE
  5
17B
330
1F
100
AcDbEntity
  8
0
  6
Continuous
 62
     7
370
    25
100
AcDbLine
 10
125.2262597769
 20
155.0753035857
 30
0.0
 11
125.2262597769
 21
154.8141476972
 31
0.0
  0
LINE
  5
17C
330
1F
100
AcDbEntity
  8
0
  6
Continuous
 62
     7
370
    25
100
AcDbLine
 10
125.2262597769
 20
147.5753032876
 30
0.0
 11
124.2512618988
 21
147.5753032876
 31
0.0
  0
LINE
  5
17D
330
1F
100
AcDbEntity
  8
0
  6
Continuous
 62
     7
370
    25
100
AcDbLine
 10
124.2512618988
 20
147.8364591761
 30
0.0
 11
124.2512618988
 21
147.5753032876
 31
0.0
  0
LINE
  5
17E
330
1F
100
AcDbEntity
  8
0
  6
Continuous
 62
     7
370
    25
100
AcDbLine
 10
125.2262597769
 20
147.8364591761
 30
0.0
 11
125.2262597769
 21
147.5753032876
 31
0.0
  0
LINE
  5
17F
330
1F
100
AcDbEntity
  8
0
  6
Continuous
 62
     7
370
    25
100
AcDbLine
 10
127.7012606948
 20
155.512803541
 30
0.0
 11
127.7012606948
 21
155.5046507431
 31
0.0
  0
LINE
  5
180
330
1F
100
AcDbEntity
  8
0
  6
Continuous
 62
     7
370
    25
100
AcDbLine
 10
127.7012606948
 20
147.1459542675
 30
0.0
 11
127.7012606948
 21
147.1378033323
 31
0.0
  0
LINE
  5
181
330
1F
100
AcDbEntity
  8
0
  6
Continuous
 62
     7
370
    25
100
AcDbLine
 10
139.7061725943
 20
203.3753034933
 30
0.0
 11
139.7452732413
 21
203.4003001912
 31
0.0
  0
LINE
  5
182
330
1F
100
AcDbEntity
  8
0
  6
Continuous
 62
     7
370
    25
100
AcDbLine
 10
139.3615161865
 20
203.4003001912
 30
0.0
 11
139.3426438659
 21
203.3753034933
 31
0.0
  0
LINE
  5
183
330
1F
100
AcDbEntity
  8
0
  6
Continuous
 62
     7
370
    25
100
AcDbLine
 10
139.3311029165
 20
203.3753034933
 30
0.0
 11
139.3499752372
 21
203.4003001912
 31
0.0
  0
LINE
  5
184
330
1F
100
AcDbEntity
  8
0
  6
Continuous
 62
     7
370
    25
100
AcDbLine
 10
138.870277056
 20
203.4003001912
 30
0.0
 11
138.8766920059
 21
203.3753034933
 31
0.0
  0
LINE
  5
185
330
1F
100
AcDbEntity
  8
0
  6
Continuous
 62
     7
370
    25
100
AcDbLine
 10
135.8311032741
 20
203.3753034933
 30
0.0
 11
135.8499755948
 21
203.4003001912
 31
0.0
  0
LINE
  5
186
330
1F
100
AcDbEntity
  8
0
  6
Continuous
 62
     7
370
    25
100
AcDbLine
 10
135.3702774136
 20
203.4003001912
 30
0.0
 11
135.3766923635
 21
203.3753034933
 31
0.0
  0
LINE
  5
187
330
1F
100
AcDbEntity
  8
0
  6
Continuous
 62
     7
370
    25
100
AcDbLine
 10
140.7387560099
 20
203.7003052695
 30
0.0
 11
140.7387560099
 21
204.0753004415
 31
0.0
  0
ARC
  5
188
330
1F
100
AcDbEntity
  8
0
  6
Continuous
 62
     7
370
    25
100
AcDbCircle
 10
148.6137587558
 20
220.4503031821
 30
0.0
 40
0.875
100
AcDbArc
 50
29.2612249231
 51
90.0
  0
LINE
  5
189
330
1F
100
AcDbEntity
  8
0
  6
Continuous
 62
     7
370
    25
100
AcDbLine
 10
148.6137589305
 20
221.325301872
 30
0.0
 11
141.8294837563
 21
221.325301872
 31
0.0
  0
LINE
  5
18A
330
1F
100
AcDbEntity
  8
0
  6
Continuous
 62
     7
370
    25
100
AcDbLine
 10
130.2387570827
 20
204.0753004415
 30
0.0
 11
130.2387570827
 21
203.7003052695
 31
0.0
  0
LINE
  5
18B
330
1F
100
AcDbEntity
  8
0
  6
Continuous
 62
     7
370
    25
100
AcDbLine
 10
138.1468778341
 20
203.3753034933
 30
0.0
 11
138.1013696878
 21
203.4003001912
 31
0.0
  0
LINE
  5
18C
330
1F
100
AcDbEntity
  8
0
  6
Continuous
 62
     7
370
    25
100
AcDbLine
 10
138.4107848494
 20
203.4003001912
 30
0.0
 11
138.4407585352
 21
203.3753034933
 31
0.0
  0
LINE
  5
18D
330
1F
100
AcDbEntity
  8
0
  6
Continuous
 62
     7
370
    25
100
AcDbLine
 10
138.8642942398
 20
203.3753034933
 30
0.0
 11
138.8578867405
 21
203.4003001912
 31
0.0
  0
LINE
  5
18E
330
1F
100
AcDbEntity
  8
0
  6
Continuous
 62
     7
370
    25
100
AcDbLine
 10
138.1061604112
 20
203.4003001912
 30
0.0
 11
138.1516685574
 21
203.3753034933
 31
0.0
  0
LINE
  5
18F
330
1F
100
AcDbEntity
  8
0
  6
Continuous
 62
     7
370
    25
100
AcDbLine
 10
138.4308418124
 20
203.3753034933
 30
0.0
 11
138.4008681267
 21
203.4003001912
 31
0.0
  0
LINE
  5
190
330
1F
100
AcDbEntity
  8
0
  6
Continuous
 62
     7
370
    25
100
AcDbLine
 10
139.9394875257
 20
203.4003001912
 30
0.0
 11
139.8906415193
 21
203.3753034933
 31
0.0
  0
LINE
  5
191
330
1F
100
AcDbEntity
  8
0
  6
Continuous
 62
     7
370
    25
100
AcDbLine
 10
139.7528802841
 20
203.4003001912
 30
0.0
 11
139.7137796371
 21
203.3753034933
 31
0.0
  0
LINE
  5
192
330
1F
100
AcDbEntity
  8
0
  6
Continuous
 62
     7
370
    25
100
AcDbLine
 10
139.8890172928
 20
203.3753034933
 30
0.0
 11
139.9378632992
 21
203.4003001912
 31
0.0
  0
LINE
  5
193
330
1F
100
AcDbEntity
  8
0
  6
Continuous
 62
     7
370
    25
100
AcDbLine
 10
131.1468785494
 20
203.3753034933
 30
0.0
 11
131.1013704031
 21
203.4003001912
 31
0.0
  0
LINE
  5
194
330
1F
100
AcDbEntity
  8
0
  6
Continuous
 62
     7
370
    25
100
AcDbLine
 10
131.4107855647
 20
203.4003001912
 30
0.0
 11
131.4407592504
 21
203.3753034933
 31
0.0
  0
LINE
  5
195
330
1F
100
AcDbEntity
  8
0
  6
Continuous
 62
     7
370
    25
100
AcDbLine
 10
131.8642949551
 20
203.3753034933
 30
0.0
 11
131.8578874557
 21
203.4003001912
 31
0.0
  0
LINE
  5
196
330
1F
100
AcDbEntity
  8
0
  6
Continuous
 62
     7
370
    25
100
AcDbLine
 10
131.1061611264
 20
203.4003001912
 30
0.0
 11
131.1516692727
 21
203.3753034933
 31
0.0
  0
LINE
  5
197
330
1F
100
AcDbEntity
  8
0
  6
Continuous
 62
     7
370
    25
100
AcDbLine
 10
131.4308425277
 20
203.3753034933
 30
0.0
 11
131.4008688419
 21
203.4003001912
 31
0.0
  0
LINE
  5
198
330
1F
100
AcDbEntity
  8
0
  6
Continuous
 62
     7
370
    25
100
AcDbLine
 10
132.939488241
 20
203.4003001912
 30
0.0
 11
132.8906422346
 21
203.3753034933
 31
0.0
  0
LINE
  5
199
330
1F
100
AcDbEntity
  8
0
  6
Continuous
 62
     7
370
    25
100
AcDbLine
 10
132.7528735488
 20
203.4003001912
 30
0.0
 11
132.7137803524
 21
203.3753034933
 31
0.0
  0
LINE
  5
19A
330
1F
100
AcDbEntity
  8
0
  6
Continuous
 62
     7
370
    25
100
AcDbLine
 10
132.889018008
 20
203.3753034933
 30
0.0
 11
132.9378640144
 21
203.4003001912
 31
0.0
  0
LINE
  5
19B
330
1F
100
AcDbEntity
  8
0
  6
Continuous
 62
     7
370
    25
100
AcDbLine
 10
132.3311036318
 20
203.3753034933
 30
0.0
 11
132.3499685018
 21
203.4003001912
 31
0.0
  0
LINE
  5
19C
330
1F
100
AcDbEntity
  8
0
  6
Continuous
 62
     7
370
    25
100
AcDbLine
 10
131.8702777713
 20
203.4003001912
 30
0.0
 11
131.8766927212
 21
203.3753034933
 31
0.0
  0
LINE
  5
19D
330
1F
100
AcDbEntity
  8
0
  6
Continuous
 62
     7
370
    25
100
AcDbLine
 10
132.3615169018
 20
203.4003001912
 30
0.0
 11
132.3426445811
 21
203.3753034933
 31
0.0
  0
LINE
  5
19E
330
1F
100
AcDbEntity
  8
0
  6
Continuous
 62
     7
370
    25
100
AcDbLine
 10
132.7061733096
 20
203.3753034933
 30
0.0
 11
132.7452739566
 21
203.4003001912
 31
0.0
  0
LINE
  5
19F
330
1F
100
AcDbEntity
  8
0
  6
Continuous
 62
     7
370
    25
100
AcDbLine
 10
134.6061607688
 20
203.4003001912
 30
0.0
 11
134.6516689151
 21
203.3753034933
 31
0.0
  0
LINE
  5
1A0
330
1F
100
AcDbEntity
  8
0
  6
Continuous
 62
     7
370
    25
100
AcDbLine
 10
134.93084217
 20
203.3753034933
 30
0.0
 11
134.9008684843
 21
203.4003001912
 31
0.0
  0
LINE
  5
1A1
330
1F
100
AcDbEntity
  8
0
  6
Continuous
 62
     7
370
    25
100
AcDbLine
 10
134.6468781917
 20
203.3753034933
 30
0.0
 11
134.6013700455
 21
203.4003001912
 31
0.0
  0
LINE
  5
1A2
330
1F
100
AcDbEntity
  8
0
  6
Continuous
 62
     7
370
    25
100
AcDbLine
 10
134.9107852071
 20
203.4003001912
 30
0.0
 11
134.9407588928
 21
203.3753034933
 31
0.0
  0
LINE
  5
1A3
330
1F
100
AcDbEntity
  8
0
  6
Continuous
 62
     7
370
    25
100
AcDbLine
 10
135.3642945974
 20
203.3753034933
 30
0.0
 11
135.3578870981
 21
203.4003001912
 31
0.0
  0
LINE
  5
1A4
330
1F
100
AcDbEntity
  8
0
  6
Continuous
 62
     7
370
    25
100
AcDbLine
 10
136.4394878834
 20
203.4003001912
 30
0.0
 11
136.390641877
 21
203.3753034933
 31
0.0
  0
LINE
  5
1A5
330
1F
100
AcDbEntity
  8
0
  6
Continuous
 62
     7
370
    25
100
AcDbLine
 10
136.2528731912
 20
203.4003001912
 30
0.0
 11
136.2137799948
 21
203.3753034933
 31
0.0
  0
LINE
  5
1A6
330
1F
100
AcDbEntity
  8
0
  6
Continuous
 62
     7
370
    25
100
AcDbLine
 10
136.3890176504
 20
203.3753034933
 30
0.0
 11
136.4378636568
 21
203.4003001912
 31
0.0
  0
LINE
  5
1A7
330
1F
100
AcDbEntity
  8
0
  6
Continuous
 62
     7
370
    25
100
AcDbLine
 10
136.206172952
 20
203.3753034933
 30
0.0
 11
136.2452735989
 21
203.4003001912
 31
0.0
  0
LINE
  5
1A8
330
1F
100
AcDbEntity
  8
0
  6
Continuous
 62
     7
370
    25
100
AcDbLine
 10
135.8615165441
 20
203.4003001912
 30
0.0
 11
135.8426442235
 21
203.3753034933
 31
0.0
  0
LINE
  5
1A9
330
1F
100
AcDbEntity
  8
0
  6
Continuous
 62
     7
370
    25
100
AcDbLine
 10
129.8637619107
 20
204.0753004415
 30
0.0
 11
129.8637619107
 21
203.7003052695
 31
0.0
  0
LINE
  5
1AA
330
1F
100
AcDbEntity
  8
0
  6
Continuous
 62
     7
370
    25
100
AcDbLine
 10
135.6591215222
 20
221.7003044946
 30
0.0
 11
148.6137589305
 21
221.7003044946
 31
0.0
  0
ARC
  5
1AB
330
1F
100
AcDbEntity
  8
0
  6
Continuous
 62
     7
370
    25
100
AcDbCircle
 10
148.6137587558
 20
220.4503031821
 30
0.0
 40
1.250000000000028
100
AcDbArc
 50
18.7672794539
 51
90.0
  0
LINE
  5
1AC
330
1F
100
AcDbEntity
  8
0
  6
Continuous
 62
     7
370
    25
100
AcDbLine
 10
141.1137586325
 20
203.7003052695
 30
0.0
 11
141.1137586325
 21
204.0753004415
 31
0.0
  0
LWPOLYLINE
  5
1AD
330
1F
100
AcDbEntity
  8
0
  6
Continuous
 62
     7
370
    25
100
AcDbPolyline
 90
       11
 70
   128
 43
0.0
 10
313.4064605325
 20
190.6904814108
 10
313.3955156296
 20
190.6857279403
 10
313.3097445457
 20
190.6484303339
 10
313.1475007027
 20
190.5778882368
 10
312.9263674705
 20
190.4817310436
 10
312.670298466
 20
190.3703895671
 10
312.4070471018
 20
190.2559262974
 10
312.1651491015
 20
190.1507464511
 10
311.9708081572
 20
190.066241966
 10
311.8450870603
 20
190.0115770562
 10
311.8016054719
 20
189.9926749332
  0
ARC
  5
1AE
330
1F
100
AcDbEntity
  8
0
  6
Continuous
 62
     7
370
    25
100
AcDbCircle
 10
305.7637587558
 20
159.5753031821
 30
0.0
 40
0.25
100
AcDbArc
 50
180.0
 51
270.0
  0
ARC
  5
1AF
330
1F
100
AcDbEntity
  8
0
  6
Continuous
 62
     7
370
    25
100
AcDbCircle
 10
305.7637587558
 20
189.2472218139
 30
0.0
 40
0.2499999999999716
100
AcDbArc
 50
90.0
 51
180.0
  0
LINE
  5
1B0
330
1F
100
AcDbEntity
  8
0
  6
Continuous
 62
     7
370
    25
100
AcDbLine
 10
305.5137550323
 20
159.5753033919
 30
0.0
 11
305.5137550323
 21
189.2472219927
 31
0.0
  0
LINE
  5
1B1
330
1F
100
AcDbEntity
  8
0
  6
Continuous
 62
     7
370
    25
100
AcDbLine
 10
316.4517810433
 20
170.5658075674
 30
0.0
 11
310.3707512706
 21
189.2812897725
 31
0.0
  0
LINE
  5
1B2
330
1F
100
AcDbEntity
  8
0
  6
Continuous
 62
     7
370
    25
100
AcDbLine
 10
316.641994366
 20
170.6276101334
 30
0.0
 11
310.5609645932
 21
189.3430923386
 31
0.0
  0
LINE
  5
1B3
330
1F
100
AcDbEntity
  8
0
  6
Continuous
 62
     7
370
    25
100
AcDbLine
 10
305.5137550323
 20
189.4972224994
 30
0.0
 11
310.0735476106
 21
189.4972224994
 31
0.0
  0
LINE
  5
1B4
330
1F
100
AcDbEntity
  8
0
  6
Continuous
 62
     7
370
    25
100
AcDbLine
 10
305.5137550323
 20
189.6972221596
 30
0.0
 11
305.5137550323
 21
189.4972224994
 31
0.0
  0
LINE
  5
1B5
330
1F
100
AcDbEntity
  8
0
  6
Continuous
 62
     7
370
    25
100
AcDbLine
 10
305.5137550323
 20
189.6972221596
 30
0.0
 11
310.0735476106
 21
189.6972221596
 31
0.0
  0
ARC
  5
1B6
330
1F
100
AcDbEntity
  8
0
  6
Continuous
 62
     7
370
    25
100
AcDbCircle
 10
310.0735489598
 20
189.1847218139
 30
0.0
 40
0.512499999999996
100
AcDbArc
 50
18.0
 51
90.0
  0
ARC
  5
1B7
330
1F
100
AcDbEntity
  8
0
  6
Continuous
 62
     7
370
    25
100
AcDbCircle
 10
310.0735489598
 20
189.1847218139
 30
0.0
 40
0.3124999999999808
100
AcDbArc
 50
18.0
 51
90.0
  0
LINE
  5
1B8
330
1F
100
AcDbEntity
  8
0
  6
Continuous
 62
     7
370
    25
100
AcDbLine
 10
322.9587828606
 20
167.0931403799
 30
0.0
 11
318.0961837857
 21
168.8629810972
 31
0.0
  0
LINE
  5
1B9
330
1F
100
AcDbEntity
  8
0
  6
Continuous
 62
     7
370
    25
100
AcDbLine
 10
323.027186641
 20
167.2810775502
 30
0.0
 11
318.1645875662
 21
169.0509219928
 31
0.0
  0
ARC
  5
1BA
330
1F
100
AcDbEntity
  8
0
  6
Continuous
 62
     7
370
    25
100
AcDbCircle
 10
319.0196359535
 20
171.4001519334
 30
0.0
 40
2.699999999999987
100
AcDbArc
 50
198.0
 51
250.0
  0
ARC
  5
1BB
330
1F
100
AcDbEntity
  8
0
  6
Continuous
 62
     7
370
    25
100
AcDbCircle
 10
319.0196359535
 20
171.4001519334
 30
0.0
 40
2.500000000000031
100
AcDbArc
 50
198.0
 51
250.0
  0
LINE
  5
1BC
330
1F
100
AcDbEntity
  8
0
  6
Continuous
 62
     7
370
    25
100
AcDbLine
 10
320.9141647308
 20
159.4369312091
 30
0.0
 11
324.0188440173
 21
163.1369416876
 31
0.0
  0
LINE
  5
1BD
330
1F
100
AcDbEntity
  8
0
  6
Continuous
 62
     7
370
    25
100
AcDbLine
 10
321.0673710196
 20
159.3083751662
 30
0.0
 11
324.1720503061
 21
163.0083819194
 31
0.0
  0
ARC
  5
1BE
330
1F
100
AcDbEntity
  8
0
  6
Continuous
 62
     7
370
    25
100
AcDbCircle
 10
322.1037293983
 20
164.7439093029
 30
0.0
 40
2.700000000000025
100
AcDbArc
 50
320.0
 51
70.0
  0
ARC
  5
1BF
330
1F
100
AcDbEntity
  8
0
  6
Continuous
 62
     7
370
    25
100
AcDbCircle
 10
322.1037293983
 20
164.7439093029
 30
0.0
 40
2.500000000000043
100
AcDbArc
 50
320.0
 51
70.0
  0
LINE
  5
1C0
330
1F
100
AcDbEntity
  8
0
  6
Continuous
 62
     7
370
    25
100
AcDbLine
 10
305.5137550323
 20
159.3253028853
 30
0.0
 11
305.5137550323
 21
159.1253032251
 31
0.0
  0
LINE
  5
1C1
330
1F
100
AcDbEntity
  8
0
  6
Continuous
 62
     7
370
    25
100
AcDbLine
 10
305.5137550323
 20
159.1253032251
 30
0.0
 11
320.6747775762
 21
159.1253032251
 31
0.0
  0
LINE
  5
1C2
330
1F
100
AcDbEntity
  8
0
  6
Continuous
 62
     7
370
    25
100
AcDbLine
 10
305.5137550323
 20
159.3253028853
 30
0.0
 11
320.6747775762
 21
159.3253028853
 31
0.0
  0
ARC
  5
1C3
330
1F
100
AcDbEntity
  8
0
  6
Continuous
 62
     7
370
    25
100
AcDbCircle
 10
320.674776081
 20
159.6378031821
 30
0.0
 40
0.512500000000017
100
AcDbArc
 50
270.0
 51
320.0
  0
ARC
  5
1C4
330
1F
100
AcDbEntity
  8
0
  6
Continuous
 62
     7
370
    25
100
AcDbCircle
 10
320.674776081
 20
159.6378031821
 30
0.0
 40
0.3125000000000284
100
AcDbArc
 50
270.0
 51
320.0
  0
LINE
  5
1C5
330
1F
100
AcDbEntity
  8
0
  6
Continuous
 62
     7
370
    25
100
AcDbLine
 10
310.4403620451
 20
189.5426375134
 30
0.0
 11
310.4908024757
 21
189.5590250654
 31
0.0
  0
LINE
  5
1C6
330
1F
100
AcDbEntity
  8
0
  6
Continuous
 62
     7
370
    25
100
AcDbLine
 10
310.4908024757
 20
189.5590250654
 30
0.0
 11
310.5609645932
 21
189.3430923386
 31
0.0
  0
LINE
  5
1C7
330
1F
100
AcDbEntity
  8
0
  6
Continuous
 62
     7
370
    25
100
AcDbLine
 10
310.6713672965
 20
189.8556252284
 30
0.0
 11
312.7037068694
 21
190.739312516
 31
0.0
  0
LINE
  5
1C8
330
1F
100
AcDbEntity
  8
0
  6
Continuous
 62
     7
370
    25
100
AcDbLine
 10
310.7511183112
 20
189.6722105606
 30
0.0
 11
312.7834578841
 21
190.5559015734
 31
0.0
  0
ARC
  5
1C9
330
1F
100
AcDbEntity
  8
0
  6
Continuous
 62
     7
370
    25
100
AcDbCircle
 10
310.8757259878
 20
189.3856308623
 30
0.0
 40
0.3125000000000261
100
AcDbArc
 50
113.5
 51
198.0
  0
ARC
  5
1CA
330
1F
100
AcDbEntity
  8
0
  6
Continuous
 62
     7
370
    25
100
AcDbCircle
 10
310.8757259878
 20
189.3856308623
 30
0.0
 40
0.5125000000000416
100
AcDbArc
 50
113.5
 51
157.8436744422
  0
LINE
  5
1CB
330
1F
100
AcDbEntity
  8
0
  6
Continuous
 62
     7
370
    25
100
AcDbLine
 10
313.8500308483
 20
191.2377489073
 30
0.0
 11
313.929781863
 21
191.0543305142
 31
0.0
  0
LWPOLYLINE
  5
1CC
330
1F
100
AcDbEntity
  8
0
  6
Continuous
 62
     7
370
    25
100
AcDbPolyline
 90
        9
 70
   128
 43
0.0
 10
312.7834578841
 20
190.5559015734
 10
313.0070945113
 20
190.6531391008
 10
313.2221331685
 20
190.7466438873
 10
313.4203186124
 20
190.8328173025
 10
313.594028899
 20
190.908343838
 10
313.7365883081
 20
190.9703326686
 10
313.8425206631
 20
191.0163921578
 10
313.9077504962
 20
191.0447565181
 10
313.929781863
 20
191.0543305142
  0
LWPOLYLINE
  5
1CD
330
1F
100
AcDbEntity
  8
0
  6
Continuous
 62
     7
370
    25
100
AcDbPolyline
 90
        9
 70
   128
 43
0.0
 10
312.7037068694
 20
190.739312516
 10
312.9273434966
 20
190.8365500434
 10
313.1423821538
 20
190.9300548298
 10
313.3405675977
 20
191.016228245
 10
313.5142778843
 20
191.0917547805
 10
313.6568372934
 20
191.1537436111
 10
313.7627696484
 20
191.1998031004
 10
313.8280069321
 20
191.2281674607
 10
313.8500308483
 20
191.2377489073
  0
LINE
  5
1CE
330
1F
100
AcDbEntity
  8
0
  6
Continuous
 62
     7
370
    25
100
AcDbLine
 10
310.3713696688
 20
189.7651565535
 30
0.0
 11
310.5622982471
 21
190.1398760541
 31
0.0
  0
LINE
  5
1CF
330
1F
100
AcDbEntity
  8
0
  6
Continuous
 62
     7
370
    25
100
AcDbLine
 10
310.6322293966
 20
189.8365927203
 30
0.0
 11
310.7405012339
 21
190.0490758283
 31
0.0
  0
LINE
  5
1D0
330
1F
100
AcDbEntity
  8
0
  6
Continuous
 62
     7
370
    25
100
AcDbLine
 10
310.5622982471
 20
190.1398760541
 30
0.0
 11
310.5880325525
 21
190.1903909905
 31
0.0
  0
LWPOLYLINE
  5
1D1
330
1F
100
AcDbEntity
  8
0
  6
Continuous
 62
     7
370
    25
100
AcDbPolyline
 90
        3
 70
   128
 43
0.0
 10
310.7405012339
 20
190.0490758283
 10
310.8512094109
 20
190.2663645609
 10
310.8763849228
 20
190.3157619102
  0
ARC
  5
1D2
330
1F
100
AcDbEntity
  8
0
  6
Continuous
 62
     7
370
    25
100
AcDbCircle
 10
310.8280096613
 20
189.5324866149
 30
0.0
 40
0.5125000000000111
100
AcDbArc
 50
153.0
 51
168.8910479619
  0
SPLINE
  5
1D3
330
1F
100
AcDbEntity
  8
0
  6
Continuous
 62
     7
370
    25
100
AcDbSpline
210
0.0
220
0.0
230
1.0
 70
     8
 71
     3
 72
    12
 73
     8
 74
     0
 42
0.000000001
 43
0.00000001
 40
0.0
 40
0.0
 40
0.0
 40
0.0
 40
0.2905035839403265
 40
0.5021688513683868
 40
0.7241744663544513
 40
0.8552152358172279
 40
1.0
 40
1.0
 40
1.0
 40
1.0
 10
306.026258119861
 20
158.6128038628203
 30
0.0
 10
305.9539689839949
 20
158.6568060500291
 30
0.0
 10
305.829008899744
 20
158.7328688906613
 30
0.0
 10
305.6704262725902
 20
158.8314141198144
 30
0.0
 10
305.5734403135829
 20
158.8796895145482
 30
0.0
 10
305.5223746768161
 20
158.9077008919157
 30
0.0
 10
305.5167221332393
 20
158.918083875466
 30
0.0
 10
305.5137550323404
 20
158.9235340519053
 30
0.0
  0
LINE
  5
1D4
330
1F
100
AcDbEntity
  8
0
  6
Continuous
 62
     7
370
    25
100
AcDbLine
 10
305.5137550323
 20
158.9235340519
 30
0.0
 11
305.7137584179
 21
158.9235340519
 31
0.0
  0
SPLINE
  5
1D5
330
1F
100
AcDbEntity
  8
0
  6
Continuous
 62
     7
370
    25
100
AcDbSpline
210
0.0
220
0.0
230
1.0
 70
     8
 71
     3
 72
    13
 73
     9
 74
     0
 42
0.000000001
 43
0.00000001
 40
0.0
 40
0.0
 40
0.0
 40
0.0
 40
0.3126728197966112
 40
0.5321592841213538
 40
0.635484775161501
 40
0.7470223119621907
 40
0.8681590711463141
 40
1.0
 40
1.0
 40
1.0
 40
1.0
 10
306.026258119861
 20
158.6128038628203
 30
0.0
 10
305.9824508953079
 20
158.6565280414667
 30
0.0
 10
305.9078923798836
 20
158.7309452153752
 30
0.0
 10
305.8266179577648
 20
158.8137502582387
 30
0.0
 10
305.7765368917263
 20
158.8583964001877
 30
0.0
 10
305.7440899318292
 20
158.8850949495573
 30
0.0
 10
305.7190763038628
 20
158.9076127768805
 30
0.0
 10
305.7155803542361
 20
158.9180793374096
 30
0.0
 10
305.7137584178843
 20
158.9235340519053
 30
0.0
  0
SPLINE
  5
1D6
330
1F
100
AcDbEntity
  8
0
  6
Continuous
 62
     7
370
    25
100
AcDbSpline
210
0.0
220
0.0
230
1.0
 70
     8
 71
     3
 72
    12
 73
     8
 74
     0
 42
0.000000001
 43
0.00000001
 40
0.0
 40
0.0
 40
0.0
 40
0.0
 40
0.2301699161926374
 40
0.4604230447978924
 40
0.6906754992603114
 40
0.920928809313401
 40
1.0
 40
1.0
 40
1.0
 40
1.0
 10
305.7155242054857
 20
159.1253032250506
 30
0.0
 10
305.7393730986093
 20
159.1187836393047
 30
0.0
 10
305.7870795068517
 20
159.1057421108129
 30
0.0
 10
305.8586508401185
 20
159.0045663682845
 30
0.0
 10
305.9301798043682
 20
158.857559220315
 30
0.0
 10
305.9862082093977
 20
158.7165531572543
 30
0.0
 10
306.0181045945333
 20
158.6339255704625
 30
0.0
 10
306.026258119861
 20
158.6128038628203
 30
0.0
  0
SPLINE
  5
1D7
330
1F
100
AcDbEntity
  8
0
  6
Continuous
 62
     7
370
    25
100
AcDbSpline
210
0.0
220
0.0
230
1.0
 70
     8
 71
     3
 72
    11
 73
     7
 74
     0
 42
0.000000001
 43
0.00000001
 40
0.0
 40
0.0
 40
0.0
 40
0.0
 40
0.2543089019819654
 40
0.5087866509979223
 40
0.7632549280100116
 40
1.0
 40
1.0
 40
1.0
 40
1.0
 10
305.7155242054857
 20
158.9253035647971
 30
0.0
 10
305.7418696644215
 20
158.9204393939565
 30
0.0
 10
305.7945780742194
 20
158.910707822735
 30
0.0
 10
305.8736447437785
 20
158.8359626847547
 30
0.0
 10
305.9509045656756
 20
158.7319692318799
 30
0.0
 10
306.0017517990385
 20
158.6515585678463
 30
0.0
 10
306.026258119861
 20
158.6128038628203
 30
0.0
  0
LINE
  5
1D8
330
1F
100
AcDbEntity
  8
0
  6
Continuous
 62
     7
370
    25
100
AcDbLine
 10
305.7155242055
 20
158.9253035648
 30
0.0
 11
305.7155242055
 21
159.1253032251
 31
0.0
  0
SPLINE
  5
1D9
330
1F
100
AcDbEntity
  8
0
  6
Continuous
 62
     7
370
    25
100
AcDbSpline
210
0.0
220
0.0
230
1.0
 70
     8
 71
     3
 72
    12
 73
     8
 74
     0
 42
0.000000001
 43
0.00000001
 40
0.0
 40
0.0
 40
0.0
 40
0.0
 40
0.1888378710199235
 40
0.3778469820750694
 40
0.569822270916021
 40
0.7755837835731133
 40
1.0
 40
1.0
 40
1.0
 40
1.0
 10
305.5137550323404
 20
128.0770709430044
 30
0.0
 10
305.5189056047068
 20
128.082488900287
 30
0.0
 10
305.5292114200292
 20
128.0933297279089
 30
0.0
 10
305.6080969516871
 20
128.1342556405654
 30
0.0
 10
305.7205501048979
 20
128.2015768978221
 30
0.0
 10
305.863004429631
 20
128.2897105698702
 30
0.0
 10
305.9702894147877
 20
128.3541738176237
 30
0.0
 10
306.026258119861
 20
128.3878031693575
 30
0.0
  0
LWPOLYLINE
  5
1DA
330
1F
100
AcDbEntity
  8
0
  6
Continuous
 62
     7
370
    25
100
AcDbPolyline
 90
        2
 70
   128
 43
0.0
 10
306.0262581199
 20
128.3878031694
 10
306.0262581199
 20
128.3878031694
  0
SPLINE
  5
1DB
330
1F
100
AcDbEntity
  8
0
  6
Continuous
 62
     7
370
    25
100
AcDbSpline
210
0.0
220
0.0
230
1.0
 70
     8
 71
     3
 72
    12
 73
     8
 74
     0
 42
0.000000001
 43
0.00000001
 40
0.0
 40
0.0
 40
0.0
 40
0.0
 40
0.1759377912028868
 40
0.3356081901448575
 40
0.5051378534126725
 40
0.7914149156209458
 40
0.9999999999999999
 40
0.9999999999999999
 40
0.9999999999999999
 40
0.9999999999999999
 10
305.7137584178843
 20
128.0770709430044
 30
0.0
 10
305.7171463013608
 20
128.0827365161293
 30
0.0
 10
305.7236088210628
 20
128.09354381756
 30
0.0
 10
305.768871262325
 20
128.1324299305937
 30
0.0
 10
305.8389688229384
 20
128.2000612056337
 30
0.0
 10
305.927368963268
 20
128.2903147968186
 30
0.0
 10
305.9969356601737
 20
128.3588960679904
 30
0.0
 10
306.026258119861
 20
128.3878031693575
 30
0.0
  0
LINE
  5
1DC
330
1F
100
AcDbEntity
  8
0
  6
Continuous
 62
     7
370
    25
100
AcDbLine
 10
305.5137550323
 20
128.077070943
 30
0.0
 11
305.7137584179
 21
128.077070943
 31
0.0
  0
SPLINE
  5
1DD
330
1F
100
AcDbEntity
  8
0
  6
Continuous
 62
     7
370
    25
100
AcDbSpline
210
0.0
220
0.0
230
1.0
 70
     8
 71
     3
 72
    11
 73
     7
 74
     0
 42
0.000000001
 43
0.00000001
 40
0.0
 40
0.0
 40
0.0
 40
0.0
 40
0.2499994987921918
 40
0.5000040710612429
 40
0.7499957296902817
 40
0.9999999999999999
 40
0.9999999999999999
 40
0.9999999999999999
 40
0.9999999999999999
 10
319.901258298675
 20
158.6128038628203
 30
0.0
 10
319.899785596825
 20
158.6799608035735
 30
0.0
 10
319.8968401632382
 20
158.8142760479592
 30
0.0
 10
319.8924215415184
 20
158.9836731363843
 30
0.0
 10
319.8880055594697
 20
159.1021954609307
 30
0.0
 10
319.8850539252525
 20
159.1176005074873
 30
0.0
 10
319.8835780709185
 20
159.1253032250506
 30
0.0
  0
LINE
  5
1DE
330
1F
100
AcDbEntity
  8
0
  6
Continuous
 62
     7
370
    25
100
AcDbLine
 10
305.5137550323
 20
158.9235340519
 30
0.0
 11
305.5137550323
 21
128.077070943
 31
0.0
  0
SPLINE
  5
1DF
330
1F
100
AcDbEntity
  8
0
  6
Continuous
 62
     7
370
    25
100
AcDbSpline
210
0.0
220
0.0
230
1.0
 70
     8
 71
     3
 72
    11
 73
     7
 74
     0
 42
0.000000001
 43
0.00000001
 40
0.0
 40
0.0
 40
0.0
 40
0.0
 40
0.2499978957351528
 40
0.5000033122091198
 40
0.7499947624193671
 40
1.0
 40
1.0
 40
1.0
 40
1.0
 10
306.026258119861
 20
128.3878031693575
 30
0.0
 10
306.0003654182365
 20
128.3206460913408
 30
0.0
 10
305.948579236052
 20
128.1863299150071
 30
0.0
 10
305.8708911290736
 20
128.0169348733151
 30
0.0
 10
305.7932111429355
 20
127.898411152342
 30
0.0
 10
305.741420327345
 20
127.8830059896773
 30
0.0
 10
305.7155242054857
 20
127.8753031959468
 30
0.0
  0
LINE
  5
1E0
330
1F
100
AcDbEntity
  8
0
  6
Continuous
 62
     7
370
    25
100
AcDbLine
 10
305.7155242055
 20
128.0753031763
 30
0.0
 11
305.7155242055
 21
127.8753031959
 31
0.0
  0
SPLINE
  5
1E1
330
1F
100
AcDbEntity
  8
0
  6
Continuous
 62
     7
370
    25
100
AcDbSpline
210
0.0
220
0.0
230
1.0
 70
     8
 71
     3
 72
    11
 73
     7
 74
     0
 42
0.000000001
 43
0.00000001
 40
0.0
 40
0.0
 40
0.0
 40
0.0
 40
0.2499975780514823
 40
0.5000008012432593
 40
0.7499950798985898
 40
1.0
 40
1.0
 40
1.0
 40
1.0
 10
306.026258119861
 20
128.3878031693575
 30
0.0
 10
306.0003655132454
 20
128.3468538242961
 30
0.0
 10
305.9485797153387
 20
128.2649542095049
 30
0.0
 10
305.8708900516336
 20
128.1616628591533
 30
0.0
 10
305.793211852511
 20
128.0893938988167
 30
0.0
 10
305.7414204552517
 20
128.0800001504761
 30
0.0
 10
305.7155242054857
 20
128.0753031763425
 30
0.0
  0
LINE
  5
1E2
330
1F
100
AcDbEntity
  8
0
  6
Continuous
 62
     7
370
    25
100
AcDbLine
 10
305.7155242055
 20
127.8753031959
 30
0.0
 11
319.8659052937
 21
127.8753031959
 31
0.0
  0
SPLINE
  5
1E3
330
1F
100
AcDbEntity
  8
0
  6
Continuous
 62
     7
370
    25
100
AcDbSpline
210
0.0
220
0.0
230
1.0
 70
     8
 71
     3
 72
    11
 73
     7
 74
     0
 42
0.000000001
 43
0.00000001
 40
0.0
 40
0.0
 40
0.0
 40
0.0
 40
0.2500041077634403
 40
0.4999959898837152
 40
0.7500007141094769
 40
1.0
 40
1.0
 40
1.0
 40
1.0
 10
319.8659052937426
 20
127.8753031959468
 30
0.0
 10
319.8688509278119
 20
127.8830060887713
 30
0.0
 10
319.8747420519037
 20
127.8984114977352
 30
0.0
 10
319.883575735732
 20
128.0169343463262
 30
0.0
 10
319.8924242822159
 20
128.186330884302
 30
0.0
 10
319.898313647874
 20
128.3206462279697
 30
0.0
 10
319.901258298675
 20
128.3878031693575
 30
0.0
  0
LINE
  5
1E4
330
1F
100
AcDbEntity
  8
0
  6
Continuous
 62
     7
370
    25
100
AcDbLine
 10
320.4137613862
 20
158.6128038628
 30
0.0
 11
320.4137613862
 21
128.3878031694
 31
0.0
  0
LINE
  5
1E5
330
1F
100
AcDbEntity
  8
0
  6
Continuous
 62
     7
370
    25
100
AcDbLine
 10
320.4137613862
 20
128.3878031694
 30
0.0
 11
319.9012582987
 21
128.3878031694
 31
0.0
  0
LINE
  5
1E6
330
1F
100
AcDbEntity
  8
0
  6
Continuous
 62
     7
370
    25
100
AcDbLine
 10
319.9012582987
 20
158.6128038628
 30
0.0
 11
320.4137613862
 21
158.6128038628
 31
0.0
  0
ARC
  5
1E7
330
1F
100
AcDbEntity
  8
0
  6
Continuous
 62
     7
370
    25
100
AcDbCircle
 10
319.9012587558
 20
158.6128031821
 30
0.0
 40
0.5125000000000455
100
AcDbArc
 50
0.0
 51
90.0
  0
ARC
  5
1E8
330
1F
100
AcDbEntity
  8
0
  6
Continuous
 62
     7
370
    25
100
AcDbCircle
 10
319.9012587558
 20
158.6128031821
 30
0.0
 40
0.3125
100
AcDbArc
 50
360.0
 51
90.0
  0
LINE
  5
1E9
330
1F
100
AcDbEntity
  8
0
  6
Continuous
 62
     7
370
    25
100
AcDbLine
 10
319.9012582987
 20
158.9253035648
 30
0.0
 11
319.9012582987
 21
159.1253032251
 31
0.0
  0
LINE
  5
1EA
330
1F
100
AcDbEntity
  8
0
  6
Continuous
 62
     7
370
    25
100
AcDbLine
 10
319.9012582987
 20
127.8753031959
 30
0.0
 11
319.8659052937
 21
127.8753031959
 31
0.0
  0
LINE
  5
1EB
330
1F
100
AcDbEntity
  8
0
  6
Continuous
 62
     7
370
    25
100
AcDbLine
 10
319.9012582987
 20
128.0753031763
 30
0.0
 11
319.9012582987
 21
127.8753031959
 31
0.0
  0
ARC
  5
1EC
330
1F
100
AcDbEntity
  8
0
  6
Continuous
 62
     7
370
    25
100
AcDbCircle
 10
319.9012587558
 20
128.3878031821
 30
0.0
 40
0.5125000000000455
100
AcDbArc
 50
270.0
 51
360.0
  0
ARC
  5
1ED
330
1F
100
AcDbEntity
  8
0
  6
Continuous
 62
     7
370
    25
100
AcDbCircle
 10
319.9012587558
 20
128.3878031821
 30
0.0
 40
0.3125000000000284
100
AcDbArc
 50
270.0
 51
360.0
  0
LINE
  5
1EE
330
1F
100
AcDbEntity
  8
0
  6
Continuous
 62
     7
370
    25
100
AcDbLine
 10
128.713757345
 20
194.2003009184
 30
0.0
 11
128.713757345
 21
194.0485325916
 31
0.0
  0
LWPOLYLINE
  5
1EF
330
1F
100
AcDbEntity
  8
0
  6
Continuous
 62
     7
370
    25
100
AcDbPolyline
 90
        3
 70
   128
 43
0.0
 10
319.9046706646
 20
128.2829466084
 10
319.9574803799
 20
128.3315847553
 10
320.0089936941
 20
128.3878031694
  0
LINE
  5
1F0
330
1F
100
AcDbEntity
  8
0
  6
Continuous
 62
     7
370
    25
100
AcDbLine
 10
307.6387574761
 20
126.0628031608
 30
0.0
 11
308.888756284
 21
126.0628031608
 31
0.0
  0
LINE
  5
1F1
330
1F
100
AcDbEntity
  8
0
  6
Continuous
 62
     7
370
    25
100
AcDbLine
 10
308.888756284
 20
126.0628031608
 30
0.0
 11
308.888756284
 21
125.7628032047
 31
0.0
  0
LINE
  5
1F2
330
1F
100
AcDbEntity
  8
0
  6
Continuous
 62
     7
370
    25
100
AcDbLine
 10
308.888756284
 20
125.7628032047
 30
0.0
 11
307.6387574761
 21
125.7628032047
 31
0.0
  0
LINE
  5
1F3
330
1F
100
AcDbEntity
  8
0
  6
Continuous
 62
     7
370
    25
100
AcDbLine
 10
307.6387574761
 20
125.7628032047
 30
0.0
 11
299.9387612431
 21
125.7628032047
 31
0.0
  0
LINE
  5
1F4
330
1F
100
AcDbEntity
  8
0
  6
Continuous
 62
     7
370
    25
100
AcDbLine
 10
307.6387574761
 20
126.0628031608
 30
0.0
 11
299.9387612431
 21
126.0628031608
 31
0.0
  0
LINE
  5
1F5
330
1F
100
AcDbEntity
  8
0
  6
Continuous
 62
     7
370
    25
100
AcDbLine
 10
308.888756284
 20
125.4503031535
 30
0.0
 11
308.888756284
 21
125.7628032047
 31
0.0
  0
LINE
  5
1F6
330
1F
100
AcDbEntity
  8
0
  6
Continuous
 62
     7
370
    25
100
AcDbLine
 10
204.4887585431
 20
125.4503031535
 30
0.0
 11
204.4887585431
 21
125.4628031323
 31
0.0
  0
LINE
  5
1F7
330
1F
100
AcDbEntity
  8
0
  6
Continuous
 62
     7
370
    25
100
AcDbLine
 10
308.888756284
 20
113.6378034292
 30
0.0
 11
308.888756284
 21
125.4503031535
 31
0.0
  0
LINE
  5
1F8
330
1F
100
AcDbEntity
  8
0
  6
Continuous
 62
     7
370
    25
100
AcDbLine
 10
204.4887585431
 20
113.6378034292
 30
0.0
 11
204.4887585431
 21
125.4503031535
 31
0.0
  0
LINE
  5
1F9
330
1F
100
AcDbEntity
  8
0
  6
Continuous
 62
     7
370
    25
100
AcDbLine
 10
307.1387564629
 20
124.5753032429
 30
0.0
 11
299.9387612431
 21
124.5753032429
 31
0.0
  0
LINE
  5
1FA
330
1F
100
AcDbEntity
  8
0
  6
Continuous
 62
     7
370
    25
100
AcDbLine
 10
299.9387612431
 20
122.0753032988
 30
0.0
 11
307.1387564629
 21
122.0753032988
 31
0.0
  0
ARC
  5
1FB
330
1F
100
AcDbEntity
  8
0
  6
Continuous
 62
     7
370
    25
100
AcDbCircle
 10
307.1387587558
 20
122.5753031821
 30
0.0
 40
0.5
100
AcDbArc
 50
270.0
 51
0.0
  0
LINE
  5
1FC
330
1F
100
AcDbEntity
  8
0
  6
Continuous
 62
     7
370
    25
100
AcDbLine
 10
307.6387574761
 20
122.5753033808
 30
0.0
 11
307.6387574761
 21
124.075303161
 31
0.0
  0
ARC
  5
1FD
330
1F
100
AcDbEntity
  8
0
  6
Continuous
 62
     7
370
    25
100
AcDbCircle
 10
307.1387587558
 20
124.0753031821
 30
0.0
 40
0.5
100
AcDbArc
 50
0.0
 51
90.0
  0
LINE
  5
1FE
330
1F
100
AcDbEntity
  8
0
  6
Continuous
 62
     7
370
    25
100
AcDbLine
 10
308.888756284
 20
113.2628036006
 30
0.0
 11
308.5762565821
 21
113.2628036006
 31
0.0
  0
LINE
  5
1FF
330
1F
100
AcDbEntity
  8
0
  6
Continuous
 62
     7
370
    25
100
AcDbLine
 10
308.5762565821
 20
113.2628036006
 30
0.0
 11
299.9387612431
 21
113.2628036006
 31
0.0
  0
LINE
  5
200
330
1F
100
AcDbEntity
  8
0
  6
Continuous
 62
     7
370
    25
100
AcDbLine
 10
283.9887594669
 20
113.2628036006
 30
0.0
 11
204.801258245
 21
113.2628036006
 31
0.0
  0
LINE
  5
201
330
1F
100
AcDbEntity
  8
0
  6
Continuous
 62
     7
370
    25
100
AcDbLine
 10
204.4887585431
 20
113.2628036006
 30
0.0
 11
204.801258245
 21
113.2628036006
 31
0.0
  0
LINE
  5
202
330
1F
100
AcDbEntity
  8
0
  6
Continuous
 62
     7
370
    25
100
AcDbLine
 10
308.888756284
 20
113.2628036006
 30
0.0
 11
308.888756284
 21
113.6378034292
 31
0.0
  0
LINE
  5
203
330
1F
100
AcDbEntity
  8
0
  6
Continuous
 62
     7
370
    25
100
AcDbLine
 10
204.4887585431
 20
113.2628036006
 30
0.0
 11
204.4887585431
 21
113.6378034292
 31
0.0
  0
ARC
  5
204
330
1F
100
AcDbEntity
  8
0
  6
Continuous
 62
     7
370
    25
100
AcDbCircle
 10
308.5762587558
 20
113.8753031821
 30
0.0
 40
0.6124999999999999
100
AcDbArc
 50
300.6774244726
 51
0.0
  0
LINE
  5
205
330
1F
100
AcDbEntity
  8
0
  6
Continuous
 62
     7
370
    25
100
AcDbLine
 10
309.1887613624
 20
125.4503031535
 30
0.0
 11
308.888756284
 21
125.4503031535
 31
0.0
  0
LINE
  5
206
330
1F
100
AcDbEntity
  8
0
  6
Continuous
 62
     7
370
    25
100
AcDbLine
 10
309.1887613624
 20
125.4503031535
 30
0.0
 11
309.1887613624
 21
113.8753027929
 31
0.0
  0
LINE
  5
207
330
1F
100
AcDbEntity
  8
0
  6
Continuous
 62
     7
370
    25
100
AcDbLine
 10
204.1887590527
 20
113.8753027929
 30
0.0
 11
204.1887590527
 21
125.4503031535
 31
0.0
  0
LINE
  5
208
330
1F
100
AcDbEntity
  8
0
  6
Continuous
 62
     7
370
    25
100
AcDbLine
 10
204.1887590527
 20
125.4503031535
 30
0.0
 11
204.4887585431
 21
125.4503031535
 31
0.0
  0
ARC
  5
209
330
1F
100
AcDbEntity
  8
0
  6
Continuous
 62
     7
370
    25
100
AcDbCircle
 10
204.8012587558
 20
113.8753031821
 30
0.0
 40
0.6125000000000398
100
AcDbArc
 50
180.0
 51
239.3225755274
  0
ARC
  5
20A
330
1F
100
AcDbEntity
  8
0
  6
Continuous
 62
     7
370
    25
100
AcDbCircle
 10
309.5012587558
 20
125.4378031821
 30
0.0
 40
0.612500000000023
100
AcDbArc
 50
90.0
 51
178.8306171944
  0
ARC
  5
20B
330
1F
100
AcDbEntity
  8
0
  6
Continuous
 62
     7
370
    25
100
AcDbCircle
 10
309.5012587558
 20
125.4378031821
 30
0.0
 40
0.3125
100
AcDbArc
 50
90.0
 51
180.0
  0
LINE
  5
20C
330
1F
100
AcDbEntity
  8
0
  6
Continuous
 62
     7
370
    25
100
AcDbLine
 10
314.188756594
 20
124.3878030958
 30
0.0
 11
314.188756594
 21
121.8878033845
 31
0.0
  0
LINE
  5
20D
330
1F
100
AcDbEntity
  8
0
  6
Continuous
 62
     7
370
    25
100
AcDbLine
 10
314.188756594
 20
121.8878033845
 30
0.0
 11
313.8887589662
 21
121.8878033845
 31
0.0
  0
LINE
  5
20E
330
1F
100
AcDbEntity
  8
0
  6
Continuous
 62
     7
370
    25
100
AcDbLine
 10
313.8887589662
 20
124.3878030958
 30
0.0
 11
313.8887589662
 21
121.8878033845
 31
0.0
  0
ARC
  5
20F
330
1F
100
AcDbEntity
  8
0
  6
Continuous
 62
     7
370
    25
100
AcDbCircle
 10
313.5762587558
 20
125.4378031821
 30
0.0
 40
0.6125000000000114
100
AcDbArc
 50
0.0
 51
90.0
  0
ARC
  5
210
330
1F
100
AcDbEntity
  8
0
  6
Continuous
 62
     7
370
    25
100
AcDbCircle
 10
313.5762587558
 20
125.4378031821
 30
0.0
 40
0.3125
100
AcDbArc
 50
0.0
 51
90.0
  0
LINE
  5
211
330
1F
100
AcDbEntity
  8
0
  6
Continuous
 62
     7
370
    25
100
AcDbLine
 10
309.5012610643
 20
125.750303226
 30
0.0
 11
313.5762592643
 21
125.750303226
 31
0.0
  0
LINE
  5
212
330
1F
100
AcDbEntity
  8
0
  6
Continuous
 62
     7
370
    25
100
AcDbLine
 10
309.5012610643
 20
126.050303182
 30
0.0
 11
313.5762592643
 21
126.050303182
 31
0.0
  0
LINE
  5
213
330
1F
100
AcDbEntity
  8
0
  6
Continuous
 62
     7
370
    25
100
AcDbLine
 10
313.8887589662
 20
125.4378031748
 30
0.0
 11
313.8887589662
 21
124.3878030958
 31
0.0
  0
LINE
  5
214
330
1F
100
AcDbEntity
  8
0
  6
Continuous
 62
     7
370
    25
100
AcDbLine
 10
314.188756594
 20
125.4378031748
 30
0.0
 11
314.188756594
 21
124.3878030958
 31
0.0
  0
LINE
  5
215
330
1F
100
AcDbEntity
  8
0
  6
Continuous
 62
     7
370
    25
100
AcDbLine
 10
199.4887595861
 20
124.3878030958
 30
0.0
 11
199.4887595861
 21
125.4378031748
 31
0.0
  0
LINE
  5
216
330
1F
100
AcDbEntity
  8
0
  6
Continuous
 62
     7
370
    25
100
AcDbLine
 10
199.1887582331
 20
124.3878030958
 30
0.0
 11
199.1887582331
 21
125.4378031748
 31
0.0
  0
LINE
  5
217
330
1F
100
AcDbEntity
  8
0
  6
Continuous
 62
     7
370
    25
100
AcDbLine
 10
199.1892685979
 20
125.4628031323
 30
0.0
 11
199.1887582331
 21
125.4378031748
 31
0.0
  0
LINE
  5
218
330
1F
100
AcDbEntity
  8
0
  6
Continuous
 62
     7
370
    25
100
AcDbLine
 10
199.4897598266
 20
125.4628031323
 30
0.0
 11
199.4887595861
 21
125.4378031748
 31
0.0
  0
LINE
  5
219
330
1F
100
AcDbEntity
  8
0
  6
Continuous
 62
     7
370
    25
100
AcDbLine
 10
199.1887582331
 20
121.8878033845
 30
0.0
 11
199.4887595861
 21
121.8878033845
 31
0.0
  0
LINE
  5
21A
330
1F
100
AcDbEntity
  8
0
  6
Continuous
 62
     7
370
    25
100
AcDbLine
 10
199.1887582331
 20
121.8878033845
 30
0.0
 11
199.1887582331
 21
124.3878030958
 31
0.0
  0
LINE
  5
21B
330
1F
100
AcDbEntity
  8
0
  6
Continuous
 62
     7
370
    25
100
AcDbLine
 10
199.4887595861
 20
121.8878033845
 30
0.0
 11
199.4887595861
 21
124.3878030958
 31
0.0
  0
LINE
  5
21C
330
1F
100
AcDbEntity
  8
0
  6
Continuous
 62
     7
370
    25
100
AcDbLine
 10
204.1887590527
 20
125.4378031748
 30
0.0
 11
204.1877569496
 21
125.4628031323
 31
0.0
  0
LINE
  5
21D
330
1F
100
AcDbEntity
  8
0
  6
Continuous
 62
     7
370
    25
100
AcDbLine
 10
204.4886318832
 20
125.4503031535
 30
0.0
 11
204.4882481783
 21
125.4628031323
 31
0.0
  0
LINE
  5
21E
330
1F
100
AcDbEntity
  8
0
  6
Continuous
 62
     7
370
    25
100
AcDbLine
 10
128.9137607305
 20
194.0085974796
 30
0.0
 11
128.9137607305
 21
193.9482552273
 31
0.0
  0
LINE
  5
21F
330
1F
100
AcDbEntity
  8
0
  6
Continuous
 62
     7
370
    25
100
AcDbLine
 10
128.9137607305
 20
198.7753001316
 30
0.0
 11
128.9387574284
 21
198.7753001316
 31
0.0
  0
LINE
  5
220
330
1F
100
AcDbEntity
  8
0
  6
Continuous
 62
     7
370
    25
100
AcDbLine
 10
304.1762566059
 20
204.0753004415
 30
0.0
 11
304.1762566059
 21
203.7003052695
 31
0.0
  0
LINE
  5
221
330
1F
100
AcDbEntity
  8
0
  6
Continuous
 62
     7
370
    25
100
AcDbLine
 10
142.3012619703
 20
203.7003052695
 30
0.0
 11
142.3012619703
 21
204.0753004415
 31
0.0
  0
LINE
  5
222
330
1F
100
AcDbEntity
  8
0
  6
Continuous
 62
     7
370
    25
100
AcDbLine
 10
142.3012619703
 20
204.0753004415
 30
0.0
 11
142.488755831
 21
204.0753004415
 31
0.0
  0
LINE
  5
223
330
1F
100
AcDbEntity
  8
0
  6
Continuous
 62
     7
370
    25
100
AcDbLine
 10
303.9887552946
 20
204.0753004415
 30
0.0
 11
304.1762566059
 21
204.0753004415
 31
0.0
  0
SPLINE
  5
224
330
1F
100
AcDbEntity
  8
0
  6
Continuous
 62
     7
370
    25
100
AcDbSpline
210
0.0
220
0.0
230
1.0
 70
     8
 71
     3
 72
    11
 73
     7
 74
     0
 42
0.000000001
 43
0.00000001
 40
0.0
 40
0.0
 40
0.0
 40
0.0
 40
0.2500037304724063
 40
0.5000010488794331
 40
0.7500100498545709
 40
1.0
 40
1.0
 40
1.0
 40
1.0
 10
304.1762566059031
 20
204.0753004415137
 30
0.0
 10
304.1642513759231
 20
204.0799986130465
 30
0.0
 10
304.1402412238718
 20
204.0893948356138
 30
0.0
 10
304.1042230887923
 20
204.1616596297239
 30
0.0
 10
304.0682100727917
 20
204.2649579200756
 30
0.0
 10
304.0441978389486
 20
204.3468537758104
 30
0.0
 10
304.0321921794809
 20
204.3878001434905
 30
0.0
  0
LINE
  5
225
330
1F
100
AcDbEntity
  8
0
  6
Continuous
 62
     7
370
    25
100
AcDbLine
 10
299.1762613743
 20
211.774044977
 30
0.0
 11
149.7972985595
 21
220.852458225
 31
0.0
  0
LINE
  5
226
330
1F
100
AcDbEntity
  8
0
  6
Continuous
 62
     7
370
    25
100
AcDbLine
 10
135.8466228335
 20
221.7003044946
 30
0.0
 11
129.9887603014
 21
222.0563081367
 31
0.0
  0
ARC
  5
227
330
1F
100
AcDbEntity
  8
0
  6
Continuous
 62
     7
370
    25
100
AcDbCircle
 10
299.0246026334
 20
209.2786508063
 30
0.0
 40
2.500000000000064
100
AcDbArc
 50
24.7500765152
 51
86.5221624375
  0
LINE
  5
228
330
1F
100
AcDbEntity
  8
0
  6
Continuous
 62
     7
370
    25
100
AcDbLine
 10
304.0321921795
 20
204.3878001435
 30
0.0
 11
301.2949606269
 21
210.3253019316
 31
0.0
  0
SPLINE
  5
229
330
1F
100
AcDbEntity
  8
0
  6
Continuous
 62
     7
370
    25
100
AcDbSpline
210
0.0
220
0.0
230
1.0
 70
     8
 71
     3
 72
    12
 73
     8
 74
     0
 42
0.000000001
 43
0.00000001
 40
0.0
 40
0.0
 40
0.0
 40
0.0
 40
0.2165977000892761
 40
0.4332051645834573
 40
0.6498115331427181
 40
0.8664174527198854
 40
1.0
 40
1.0
 40
1.0
 40
1.0
 10
303.8446908681788
 20
204.3878001434905
 30
0.0
 10
303.8550967806921
 20
204.3098226149443
 30
0.0
 10
303.875909074826
 20
204.1538640425598
 30
0.0
 10
303.9071288689549
 20
203.9464755780585
 30
0.0
 10
303.938335929906
 20
203.7908788309849
 30
0.0
 10
303.9656013954023
 20
203.7111324674595
 30
0.0
 10
303.9823618631136
 20
203.7032949580873
 30
0.0
 10
303.9887552946009
 20
203.7003052694899
 30
0.0
  0
LINE
  5
22A
330
1F
100
AcDbEntity
  8
0
  6
Continuous
 62
     7
370
    25
100
AcDbLine
 10
142.488755831
 20
203.7003052695
 30
0.0
 11
142.488755831
 21
204.3878001435
 31
0.0
  0
SPLINE
  5
22B
330
1F
100
AcDbEntity
  8
0
  6
Continuous
 62
     7
370
    25
100
AcDbSpline
210
0.0
220
0.0
230
1.0
 70
     8
 71
     3
 72
    11
 73
     7
 74
     0
 42
0.000000001
 43
0.00000001
 40
0.0
 40
0.0
 40
0.0
 40
0.0
 40
0.2499899501454291
 40
0.4999989511205669
 40
0.7499962695275937
 40
1.0
 40
1.0
 40
1.0
 40
1.0
 10
303.8446908681788
 20
204.3878001434905
 30
0.0
 10
303.8566965276464
 20
204.3468537758104
 30
0.0
 10
303.8807087614895
 20
204.2649579200756
 30
0.0
 10
303.9167217774901
 20
204.1616596297238
 30
0.0
 10
303.9527399125697
 20
204.0893948356139
 30
0.0
 10
303.9767500646209
 20
204.0799986130465
 30
0.0
 10
303.9887552946009
 20
204.0753004415137
 30
0.0
  0
LINE
  5
22C
330
1F
100
AcDbEntity
  8
0
  6
Continuous
 62
     7
370
    25
100
AcDbLine
 10
303.9887552946
 20
204.0753004415
 30
0.0
 11
303.9887552946
 21
203.7003052695
 31
0.0
  0
LINE
  5
22D
330
1F
100
AcDbEntity
  8
0
  6
Continuous
 62
     7
370
    25
100
AcDbLine
 10
298.988760063
 20
211.774044977
 30
0.0
 11
129.8012589901
 21
222.0563081367
 31
0.0
  0
LINE
  5
22E
330
1F
100
AcDbEntity
  8
0
  6
Continuous
 62
     7
370
    25
100
AcDbLine
 10
142.488755831
 20
204.5753014548
 30
0.0
 11
142.488755831
 21
204.3878001435
 31
0.0
  0
LINE
  5
22F
330
1F
100
AcDbEntity
  8
0
  6
Continuous
 62
     7
370
    25
100
AcDbLine
 10
142.3012619703
 20
204.5753014548
 30
0.0
 11
142.488755831
 21
204.5753014548
 31
0.0
  0
LINE
  5
230
330
1F
100
AcDbEntity
  8
0
  6
Continuous
 62
     7
370
    25
100
AcDbLine
 10
142.3012619703
 20
204.0753004415
 30
0.0
 11
142.3012619703
 21
204.5753014548
 31
0.0
  0
LINE
  5
231
330
1F
100
AcDbEntity
  8
0
  6
Continuous
 62
     7
370
    25
100
AcDbLine
 10
129.8012589901
 20
204.0753004415
 30
0.0
 11
142.3012619703
 21
204.0753004415
 31
0.0
  0
ARC
  5
232
330
1F
100
AcDbEntity
  8
0
  6
Continuous
 62
     7
370
    25
100
AcDbCircle
 10
298.8371026334
 20
209.2786508063
 30
0.0
 40
2.500000000000088
100
AcDbArc
 50
24.7500765152
 51
86.5221624375
  0
LINE
  5
233
330
1F
100
AcDbEntity
  8
0
  6
Continuous
 62
     7
370
    25
100
AcDbLine
 10
303.8446908682
 20
204.3878001435
 30
0.0
 11
301.1074593156
 21
210.3253019316
 31
0.0
  0
SPLINE
  5
234
330
1F
100
AcDbEntity
  8
0
  6
Continuous
 62
     7
370
    25
100
AcDbSpline
210
0.0
220
0.0
230
1.0
 70
     8
 71
     3
 72
    11
 73
     7
 74
     0
 42
0.000000001
 43
0.00000001
 40
0.0
 40
0.0
 40
0.0
 40
0.0
 40
0.2499994783572345
 40
0.499999938545105
 40
0.7500003987329754
 40
1.0
 40
1.0
 40
1.0
 40
1.0
 10
129.1137566655077
 20
222.0752996666533
 30
0.0
 10
129.1240906300137
 20
222.0737177028215
 30
0.0
 10
129.1447585996106
 20
222.0705537689448
 30
0.0
 10
129.3037470682848
 20
222.0658070949523
 30
0.0
 10
129.5309941189381
 20
222.0610636123016
 30
0.0
 10
129.7111708028769
 20
222.0578932934263
 30
0.0
 10
129.8012589900889
 20
222.0563081367118
 30
0.0
  0
LINE
  5
235
330
1F
100
AcDbEntity
  8
0
  6
Continuous
 62
     7
370
    25
100
AcDbLine
 10
129.4887592881
 20
222.0752996667
 30
0.0
 11
129.1137566655
 21
222.0752996667
 31
0.0
  0
LINE
  5
236
330
1F
100
AcDbEntity
  8
0
  6
Continuous
 62
     7
370
    25
100
AcDbLine
 10
129.8012589901
 20
204.0753004415
 30
0.0
 11
129.1137566655
 21
204.0753004415
 31
0.0
  0
LINE
  5
237
330
1F
100
AcDbEntity
  8
0
  6
Continuous
 62
     7
370
    25
100
AcDbLine
 10
129.1137566655
 20
204.0753004415
 30
0.0
 11
129.1137566655
 21
222.0752996667
 31
0.0
  0
LINE
  5
238
330
1F
100
AcDbEntity
  8
0
  6
Continuous
 62
     7
370
    25
100
AcDbLine
 10
304.6112587541
 20
194.862806545
 30
0.0
 11
304.6112587541
 21
194.2503017647
 31
0.0
  0
LINE
  5
239
330
1F
100
AcDbEntity
  8
0
  6
Continuous
 62
     7
370
    25
100
AcDbLine
 10
128.9387574284
 20
194.2503017647
 30
0.0
 11
128.9387574284
 21
194.862806545
 31
0.0
  0
ARC
  5
23A
330
1F
100
AcDbEntity
  8
0
  6
Continuous
 62
     7
370
    25
100
AcDbCircle
 10
129.4387587558
 20
202.8753031821
 30
0.0
 40
0.5
100
AcDbArc
 50
90.0
 51
180.0
  0
LINE
  5
23B
330
1F
100
AcDbEntity
  8
0
  6
Continuous
 62
     7
370
    25
100
AcDbLine
 10
141.2412604182
 20
203.3753034933
 30
0.0
 11
129.4387584417
 21
203.3753034933
 31
0.0
  0
ARC
  5
23C
330
1F
100
AcDbEntity
  8
0
  6
Continuous
 62
     7
370
    25
100
AcDbCircle
 10
141.2412587558
 20
202.8753031821
 30
0.0
 40
0.5
100
AcDbArc
 50
0.0
 51
90.0
  0
LINE
  5
23D
330
1F
100
AcDbEntity
  8
0
  6
Continuous
 62
     7
370
    25
100
AcDbLine
 10
141.7412614315
 20
202.7753007872
 30
0.0
 11
141.7412614315
 21
202.87530248
 31
0.0
  0
LINE
  5
23E
330
1F
100
AcDbEntity
  8
0
  6
Continuous
 62
     7
370
    25
100
AcDbLine
 10
141.8662598222
 20
202.7753007872
 30
0.0
 11
141.7412614315
 21
202.7753007872
 31
0.0
  0
LINE
  5
23F
330
1F
100
AcDbEntity
  8
0
  6
Continuous
 62
     7
370
    25
100
AcDbLine
 10
141.8662598222
 20
203.0878004892
 30
0.0
 11
141.8662598222
 21
202.7753007872
 31
0.0
  0
LINE
  5
240
330
1F
100
AcDbEntity
  8
0
  6
Continuous
 62
     7
370
    25
100
AcDbLine
 10
304.6112587541
 20
194.862806545
 30
0.0
 11
304.6112587541
 21
203.0878004892
 31
0.0
  0
LINE
  5
241
330
1F
100
AcDbEntity
  8
0
  6
Continuous
 62
     7
370
    25
100
AcDbLine
 10
128.9387574284
 20
202.87530248
 30
0.0
 11
128.9387574284
 21
194.862806545
 31
0.0
  0
LINE
  5
242
330
1F
100
AcDbEntity
  8
0
  6
Continuous
 62
     7
370
    25
100
AcDbLine
 10
314.3804227798
 20
203.0503017171
 30
0.0
 11
314.4554203241
 21
203.0503017171
 31
0.0
  0
LINE
  5
243
330
1F
100
AcDbEntity
  8
0
  6
Continuous
 62
     7
370
    25
100
AcDbLine
 10
314.4554203241
 20
203.0503017171
 30
0.0
 11
314.4554203241
 21
203.3753034933
 31
0.0
  0
ARC
  5
244
330
1F
100
AcDbEntity
  8
0
  6
Continuous
 62
     7
370
    25
100
AcDbCircle
 10
314.4689913381
 20
197.8753031821
 30
0.0
 40
5.500016741342483
100
AcDbArc
 50
293.4904921589
 51
90.1413679245
  0
ARC
  5
245
330
1F
100
AcDbEntity
  8
0
  6
Continuous
 62
     7
370
    25
100
AcDbCircle
 10
306.1112587558
 20
190.4003031821
 30
0.0
 40
0.5000000000009663
100
AcDbArc
 50
180.0
 51
270.0
  0
LINE
  5
246
330
1F
100
AcDbEntity
  8
0
  6
Continuous
 62
     7
370
    25
100
AcDbLine
 10
305.6112607806
 20
194.3003026111
 30
0.0
 11
304.7362571447
 21
194.3003026111
 31
0.0
  0
LINE
  5
247
330
1F
100
AcDbEntity
  8
0
  6
Continuous
 62
     7
370
    25
100
AcDbLine
 10
304.7362571447
 20
194.3003026111
 30
0.0
 11
304.7362571447
 21
203.0878004892
 31
0.0
  0
LINE
  5
248
330
1F
100
AcDbEntity
  8
0
  6
Continuous
 62
     7
370
    25
100
AcDbLine
 10
314.3804227798
 20
203.0878004892
 30
0.0
 11
314.3804227798
 21
203.0503017171
 31
0.0
  0
ARC
  5
249
330
1F
100
AcDbEntity
  8
0
  6
Continuous
 62
     7
370
    25
100
AcDbCircle
 10
311.3339913381
 20
194.7503031821
 30
0.0
 40
0.7750000000000193
100
AcDbArc
 50
280.1054407084
 51
79.8945592916
  0
ARC
  5
24A
330
1F
100
AcDbEntity
  8
0
  6
Continuous
 62
     7
370
    25
100
AcDbCircle
 10
311.4589913381
 20
195.4516634162
 30
0.0
 40
0.0625877752733279
100
AcDbArc
 50
79.8945592916
 51
255.7948950782
  0
ARC
  5
24B
330
1F
100
AcDbEntity
  8
0
  6
Continuous
 62
     7
370
    25
100
AcDbCircle
 10
311.3339913381
 20
194.7503031821
 30
0.0
 40
0.6500000000000056
100
AcDbArc
 50
279.7110222516
 51
80.2889777484
  0
ARC
  5
24C
330
1F
100
AcDbEntity
  8
0
  6
Continuous
 62
     7
370
    25
100
AcDbCircle
 10
311.4589913381
 20
194.048942948
 30
0.0
 40
0.0625877752733276
100
AcDbArc
 50
104.2051049218
 51
280.1054407084
  0
ARC
  5
24D
330
1F
100
AcDbEntity
  8
0
  6
Continuous
 62
     7
370
    25
100
AcDbCircle
 10
311.2089913381
 20
194.048942948
 30
0.0
 40
0.0625877752732996
100
AcDbArc
 50
259.8945592916
 51
83.9942235051
  0
ARC
  5
24E
330
1F
100
AcDbEntity
  8
0
  6
Continuous
 62
     7
370
    25
100
AcDbCircle
 10
311.3339913381
 20
194.7503031821
 30
0.0
 40
0.6500000000000339
100
AcDbArc
 50
100.4998591652
 51
259.5001408348
  0
ARC
  5
24F
330
1F
100
AcDbEntity
  8
0
  6
Continuous
 62
     7
370
    25
100
AcDbCircle
 10
311.2089913381
 20
195.4516634162
 30
0.0
 40
0.0625877752733268
100
AcDbArc
 50
276.0057764949
 51
100.1054407084
  0
ARC
  5
250
330
1F
100
AcDbEntity
  8
0
  6
Continuous
 62
     7
370
    25
100
AcDbCircle
 10
311.3339913381
 20
194.7503031821
 30
0.0
 40
0.7750000000000093
100
AcDbArc
 50
100.1054407084
 51
259.8945592916
  0
LINE
  5
251
330
1F
100
AcDbEntity
  8
0
  6
Continuous
 62
     7
370
    25
100
AcDbLine
 10
309.8168825596
 20
189.900302635
 30
0.0
 11
306.1112617939
 21
189.900302635
 31
0.0
  0
LINE
  5
252
330
1F
100
AcDbEntity
  8
0
  6
Continuous
 62
     7
370
    25
100
AcDbLine
 10
305.6112607806
 20
190.4003036482
 30
0.0
 11
305.6112607806
 21
194.3003026111
 31
0.0
  0
ARC
  5
253
330
1F
100
AcDbEntity
  8
0
  6
Continuous
 62
     7
370
    25
100
AcDbCircle
 10
309.8168831207
 20
190.4003031821
 30
0.0
 40
0.5000000000000198
100
AcDbArc
 50
270.0
 51
293.4998700858
  0
LINE
  5
254
330
1F
100
AcDbEntity
  8
0
  6
Continuous
 62
     7
370
    25
100
AcDbLine
 10
316.6612839191
 20
192.8310928209
 30
0.0
 11
310.0162600964
 21
189.9417725666
 31
0.0
  0
LINE
  5
255
330
1F
100
AcDbEntity
  8
0
  6
Continuous
 62
     7
370
    25
100
AcDbLine
 10
304.7362571447
 20
203.0878004892
 30
0.0
 11
304.7362571447
 21
203.6145863397
 31
0.0
  0
LINE
  5
256
330
1F
100
AcDbEntity
  8
0
  6
Continuous
 62
     7
370
    25
100
AcDbLine
 10
304.7362571447
 20
203.7003052695
 30
0.0
 11
314.3804227798
 21
203.7003052695
 31
0.0
  0
LINE
  5
257
330
1F
100
AcDbEntity
  8
0
  6
Continuous
 62
     7
370
    25
100
AcDbLine
 10
314.3804227798
 20
203.6145863397
 30
0.0
 11
314.3804227798
 21
203.0878004892
 31
0.0
  0
LINE
  5
258
330
1F
100
AcDbEntity
  8
0
  6
Continuous
 62
     7
370
    25
100
AcDbLine
 10
141.8662598222
 20
203.7003052695
 30
0.0
 11
304.6112587541
 21
203.7003052695
 31
0.0
  0
LINE
  5
259
330
1F
100
AcDbEntity
  8
0
  6
Continuous
 62
     7
370
    25
100
AcDbLine
 10
304.6112587541
 20
203.7003052695
 30
0.0
 11
304.6112587541
 21
203.0878004892
 31
0.0
  0
LINE
  5
25A
330
1F
100
AcDbEntity
  8
0
  6
Continuous
 62
     7
370
    25
100
AcDbLine
 10
141.8662598222
 20
203.0878004892
 30
0.0
 11
141.8662598222
 21
203.7003052695
 31
0.0
  0
LINE
  5
25B
330
1F
100
AcDbEntity
  8
0
  6
Continuous
 62
     7
370
    25
100
AcDbLine
 10
141.7512601107
 20
203.4003001912
 30
0.0
 11
141.7512601107
 21
203.7003052695
 31
0.0
  0
LINE
  5
25C
330
1F
100
AcDbEntity
  8
0
  6
Continuous
 62
     7
370
    25
100
AcDbLine
 10
141.7512601107
 20
203.7003052695
 30
0.0
 11
129.2262604325
 21
203.7003052695
 31
0.0
  0
LINE
  5
25D
330
1F
100
AcDbEntity
  8
0
  6
Continuous
 62
     7
370
    25
100
AcDbLine
 10
141.7512601107
 20
203.4003001912
 30
0.0
 11
129.2262604325
 21
203.4003001912
 31
0.0
  0
ARC
  5
25E
330
1F
100
AcDbEntity
  8
0
  6
Continuous
 62
     7
370
    25
100
AcDbCircle
 10
129.2262587558
 20
203.0878031821
 30
0.0
 40
0.3125
100
AcDbArc
 50
90.0
 51
180.0
  0
ARC
  5
25F
330
1F
100
AcDbEntity
  8
0
  6
Continuous
 62
     7
370
    25
100
AcDbCircle
 10
129.2262587558
 20
203.0878031821
 30
0.0
 40
0.612499999999983
100
AcDbArc
 50
90.0
 51
180.0
  0
LINE
  5
260
330
1F
100
AcDbEntity
  8
0
  6
Continuous
 62
     7
370
    25
100
AcDbLine
 10
310.8693068712
 20
190.2897742851
 30
0.0
 11
310.9889259427
 21
190.014654146
 31
0.0
  0
LINE
  5
261
330
1F
100
AcDbEntity
  8
0
  6
Continuous
 62
     7
370
    25
100
AcDbLine
 10
310.8693068712
 20
190.2897742851
 30
0.0
 11
316.6620811313
 21
192.808547364
 31
0.0
  0
LINE
  5
262
330
1F
100
AcDbEntity
  8
0
  6
Continuous
 62
     7
370
    25
100
AcDbLine
 10
310.9889259427
 20
190.014654146
 30
0.0
 11
316.7817076533
 21
192.5334272249
 31
0.0
  0
LINE
  5
263
330
1F
100
AcDbEntity
  8
0
  6
Continuous
 62
     7
370
    25
100
AcDbLine
 10
128.9137607305
 20
194.7003019316
 30
0.0
 11
128.9137607305
 21
194.2503017647
 31
0.0
  0
LINE
  5
264
330
1F
100
AcDbEntity
  8
0
  6
Continuous
 62
     7
370
    25
100
AcDbLine
 10
128.8155248254
 20
194.2003009184
 30
0.0
 11
128.6137556522
 21
194.2003009184
 31
0.0
  0
LINE
  5
265
330
1F
100
AcDbEntity
  8
0
  6
Continuous
 62
     7
370
    25
100
AcDbLine
 10
128.6137556522
 20
194.2003009184
 30
0.0
 11
128.6137556522
 21
194.7003019316
 31
0.0
  0
ARC
  5
266
330
1F
100
AcDbEntity
  8
0
  6
Continuous
 62
     7
370
    25
100
AcDbCircle
 10
314.4589913381
 20
197.8753031821
 30
0.0
 40
5.825000000000014
100
AcDbArc
 50
293.5
 51
90.0
  0
LWPOLYLINE
  5
267
330
1F
100
AcDbEntity
  8
0
  6
Continuous
 62
     7
370
    25
100
AcDbPolyline
 90
        3
 70
   128
 43
0.0
 10
316.6620811313
 20
192.808547364
 10
317.3006405919
 20
193.137088166
 10
317.4936106294
 20
193.2583016617
  0
LWPOLYLINE
  5
268
330
1F
100
AcDbEntity
  8
0
  6
Continuous
 62
     7
370
    25
100
AcDbPolyline
 90
        3
 70
   128
 43
0.0
 10
315.8345823973
 20
203.2263216837
 10
315.1755934446
 20
203.3536372049
 10
314.4589891522
 20
203.4003001912
  0
LINE
  5
269
330
1F
100
AcDbEntity
  8
0
  6
Continuous
 62
     7
370
    25
100
AcDbLine
 10
128.9137607305
 20
203.0878004892
 30
0.0
 11
128.9137607305
 21
194.7003019316
 31
0.0
  0
LINE
  5
26A
330
1F
100
AcDbEntity
  8
0
  6
Continuous
 62
     7
370
    25
100
AcDbLine
 10
128.6137556522
 20
203.0878004892
 30
0.0
 11
128.6137556522
 21
194.7003019316
 31
0.0
  0
LINE
  5
26B
330
1F
100
AcDbEntity
  8
0
  6
Continuous
 62
     7
370
    25
100
AcDbLine
 10
314.4589891522
 20
203.4003001912
 30
0.0
 11
314.3804227798
 21
203.4003001912
 31
0.0
  0
LINE
  5
26C
330
1F
100
AcDbEntity
  8
0
  6
Continuous
 62
     7
370
    25
100
AcDbLine
 10
314.4589891522
 20
203.7003052695
 30
0.0
 11
314.3804227798
 21
203.7003052695
 31
0.0
  0
LINE
  5
26D
330
1F
100
AcDbEntity
  8
0
  6
Continuous
 62
     7
370
    25
100
AcDbLine
 10
314.3804227798
 20
203.6145863397
 30
0.0
 11
314.3804227798
 21
203.7003052695
 31
0.0
  0
LINE
  5
26E
330
1F
100
AcDbEntity
  8
0
  6
Continuous
 62
     7
370
    25
100
AcDbLine
 10
304.7362571447
 20
203.4003001912
 30
0.0
 11
304.7262584656
 21
203.4003001912
 31
0.0
  0
LINE
  5
26F
330
1F
100
AcDbEntity
  8
0
  6
Continuous
 62
     7
370
    25
100
AcDbLine
 10
304.7362571447
 20
203.7003052695
 30
0.0
 11
304.7262584656
 21
203.7003052695
 31
0.0
  0
LINE
  5
270
330
1F
100
AcDbEntity
  8
0
  6
Continuous
 62
     7
370
    25
100
AcDbLine
 10
304.7262584656
 20
203.7003052695
 30
0.0
 11
304.7262584656
 21
203.4003001912
 31
0.0
  0
LINE
  5
271
330
1F
100
AcDbEntity
  8
0
  6
Continuous
 62
     7
370
    25
100
AcDbLine
 10
304.7362571447
 20
203.6145863397
 30
0.0
 11
304.7362571447
 21
203.7003052695
 31
0.0
  0
LINE
  5
272
330
1F
100
AcDbEntity
  8
0
  6
Continuous
 62
     7
370
    25
100
AcDbLine
 10
304.7262584656
 20
203.7003052695
 30
0.0
 11
304.6112587541
 21
203.6894125207
 31
0.0
  0
LWPOLYLINE
  5
273
330
1F
100
AcDbEntity
  8
0
  6
Continuous
 62
     7
370
    25
100
AcDbPolyline
 90
        3
 70
   128
 43
0.0
 10
304.7262584656
 20
203.4003001912
 10
304.6652903645
 20
203.3942950232
 10
304.6112587541
 20
203.3783731325
  0
LWPOLYLINE
  5
274
330
1F
100
AcDbEntity
  8
0
  6
Continuous
 62
     7
370
    25
100
AcDbPolyline
 90
        3
 70
   128
 43
0.0
 10
141.8662598222
 20
203.3783731325
 10
141.8122207611
 20
203.3942950232
 10
141.7512601107
 20
203.4003001912
  0
LINE
  5
275
330
1F
100
AcDbEntity
  8
0
  6
Continuous
 62
     7
370
    25
100
AcDbLine
 10
141.8662598222
 20
203.6894125207
 30
0.0
 11
141.7512601107
 21
203.7003052695
 31
0.0
  0
SPLINE
  5
276
330
1F
100
AcDbEntity
  8
0
  6
Continuous
 62
     7
370
    25
100
AcDbSpline
210
0.0
220
0.0
230
1.0
 70
     8
 71
     3
 72
    11
 73
     7
 74
     0
 42
0.000000001
 43
0.00000001
 40
0.0
 40
0.0
 40
0.0
 40
0.0
 40
0.2500045763302701
 40
0.4999983682819353
 40
0.750003386073375
 40
1.0
 40
1.0
 40
1.0
 40
1.0
 10
305.5137550323404
 20
128.052070927265
 30
0.0
 10
305.506052198892
 20
128.0779648868449
 30
0.0
 10
305.49064686427
 20
128.1297516890239
 30
0.0
 10
305.3721256184074
 20
128.2074396506583
 30
0.0
 10
305.2027282915266
 20
128.2851182773611
 30
0.0
 10
305.0684149416107
 20
128.3369084850235
 30
0.0
 10
305.0012593954004
 20
128.3628031536182
 30
0.0
  0
SPLINE
  5
277
330
1F
100
AcDbEntity
  8
0
  6
Continuous
 62
     7
370
    25
100
AcDbSpline
210
0.0
220
0.0
230
1.0
 70
     8
 71
     3
 72
    11
 73
     7
 74
     0
 42
0.000000001
 43
0.00000001
 40
0.0
 40
0.0
 40
0.0
 40
0.0
 40
0.2499958462728228
 40
0.5000000719141765
 40
0.7499962158233617
 40
1.0
 40
1.0
 40
1.0
 40
1.0
 10
305.0012593954004
 20
193.7378061277968
 30
0.0
 10
305.0684149053931
 20
193.7636999070185
 30
0.0
 10
305.2027281762986
 20
193.8154883333703
 30
0.0
 10
305.3721267471153
 20
193.8931610633342
 30
0.0
 10
305.4906461867824
 20
193.9708570193153
 30
0.0
 10
305.5060520053514
 20
194.0226404704065
 30
0.0
 10
305.5137550323404
 20
194.0485325915915
 30
0.0
  0
LINE
  5
278
330
1F
100
AcDbEntity
  8
0
  6
Continuous
 62
     7
370
    25
100
AcDbLine
 10
305.5137550323
 20
128.0520709273
 30
0.0
 11
305.5137550323
 21
159.1253032251
 31
0.0
  0
LINE
  5
279
330
1F
100
AcDbEntity
  8
0
  6
Continuous
 62
     7
370
    25
100
AcDbLine
 10
305.5137550323
 20
159.3253028853
 30
0.0
 11
305.5137550323
 21
159.5753033919
 31
0.0
  0
LINE
  5
27A
330
1F
100
AcDbEntity
  8
0
  6
Continuous
 62
     7
370
    25
100
AcDbLine
 10
305.5137550323
 20
189.2472219927
 30
0.0
 11
305.5137550323
 21
189.4972224994
 31
0.0
  0
LINE
  5
27B
330
1F
100
AcDbEntity
  8
0
  6
Continuous
 62
     7
370
    25
100
AcDbLine
 10
305.5137550323
 20
189.6972221596
 30
0.0
 11
305.5137550323
 21
194.0485325916
 31
0.0
  0
LINE
  5
27C
330
1F
100
AcDbEntity
  8
0
  6
Continuous
 62
     7
370
    25
100
AcDbLine
 10
305.5137550323
 20
128.0520709273
 30
0.0
 11
305.3137590974
 21
128.0520709273
 31
0.0
  0
SPLINE
  5
27D
330
1F
100
AcDbEntity
  8
0
  6
Continuous
 62
     7
370
    25
100
AcDbSpline
210
0.0
220
0.0
230
1.0
 70
     8
 71
     3
 72
    11
 73
     7
 74
     0
 42
0.000000001
 43
0.00000001
 40
0.0
 40
0.0
 40
0.0
 40
0.0
 40
0.2500024928842343
 40
0.5000000270413708
 40
0.7499975611985074
 40
1.0
 40
1.0
 40
1.0
 40
1.0
 10
305.3137590973772
 20
128.052070927265
 30
0.0
 10
305.3090609623465
 20
128.0779651561527
 30
0.0
 10
305.2996647854712
 20
128.1297531003233
 30
0.0
 10
305.227400120345
 20
128.2074370665882
 30
0.0
 10
305.1241068239104
 20
128.2851210449949
 30
0.0
 10
305.0422088060242
 20
128.3369089480763
 30
0.0
 10
305.0012593954004
 20
128.3628031536182
 30
0.0
  0
SPLINE
  5
27E
330
1F
100
AcDbEntity
  8
0
  6
Continuous
 62
     7
370
    25
100
AcDbSpline
210
0.0
220
0.0
230
1.0
 70
     8
 71
     3
 72
    12
 73
     8
 74
     0
 42
0.000000001
 43
0.00000001
 40
0.0
 40
0.0
 40
0.0
 40
0.0
 40
0.3486232722639344
 40
0.5715628748847573
 40
0.7575608240810359
 40
0.9445149048050423
 40
0.9999999999999999
 40
0.9999999999999999
 40
0.9999999999999999
 40
0.9999999999999999
 10
305.0012593954004
 20
128.3628031536182
 30
0.0
 10
305.0502425997021
 20
128.3140315852735
 30
0.0
 10
305.1305498634425
 20
128.2340712956616
 30
0.0
 10
305.2247211396588
 20
128.1376170798605
 30
0.0
 10
305.279366513753
 20
128.0762845643535
 30
0.0
 10
305.304025758999
 20
128.0521796728551
 30
0.0
 10
305.3105094417053
 20
128.0506526402227
 30
0.0
 10
305.3119933097757
 20
128.0503031606031
 30
0.0
  0
LINE
  5
27F
330
1F
100
AcDbEntity
  8
0
  6
Continuous
 62
     7
370
    25
100
AcDbLine
 10
305.3119933098
 20
127.8503031802
 30
0.0
 11
305.3119933098
 21
128.0503031606
 31
0.0
  0
SPLINE
  5
280
330
1F
100
AcDbEntity
  8
0
  6
Continuous
 62
     7
370
    25
100
AcDbSpline
210
0.0
220
0.0
230
1.0
 70
     8
 71
     3
 72
    12
 73
     8
 74
     0
 42
0.000000001
 43
0.00000001
 40
0.0
 40
0.0
 40
0.0
 40
0.0
 40
0.2353727261746596
 40
0.5035757294218756
 40
0.7398177166975793
 40
0.9425264034723695
 40
1.0
 40
1.0
 40
1.0
 40
1.0
 10
305.0012593954004
 20
128.3628031536182
 30
0.0
 10
305.0366777061134
 20
128.3043770137567
 30
0.0
 10
305.1124545471352
 20
128.1793753346061
 30
0.0
 10
305.215147905544
 20
128.0119919905594
 30
0.0
 10
305.2790533500298
 20
127.8929372948901
 30
0.0
 10
305.3044071813754
 20
127.8530722746707
 30
0.0
 10
305.3106207487417
 20
127.850804193499
 30
0.0
 10
305.3119933097757
 20
127.8503031802075
 30
0.0
  0
LINE
  5
281
330
1F
100
AcDbEntity
  8
0
  6
Continuous
 62
     7
370
    25
100
AcDbLine
 10
305.3119933098
 20
127.8503031802
 30
0.0
 11
128.8155248254
 21
127.8503031802
 31
0.0
  0
SPLINE
  5
282
330
1F
100
AcDbEntity
  8
0
  6
Continuous
 62
     7
370
    25
100
AcDbSpline
210
0.0
220
0.0
230
1.0
 70
     8
 71
     3
 72
    12
 73
     8
 74
     0
 42
0.000000001
 43
0.00000001
 40
0.0
 40
0.0
 40
0.0
 40
0.0
 40
0.2301698246537744
 40
0.4604234778701233
 40
0.6906764819929497
 40
0.9209292036386398
 40
1.0
 40
1.0
 40
1.0
 40
1.0
 10
128.8155248253741
 20
127.8503031802075
 30
0.0
 10
128.8393737334964
 20
127.8568225962449
 30
0.0
 10
128.8870802355874
 20
127.8698638027112
 30
0.0
 10
128.9586514740776
 20
127.9710409878822
 30
0.0
 10
129.0301802232672
 20
128.1180484675727
 30
0.0
 10
129.0862087649516
 20
128.2590542786515
 30
0.0
 10
129.1181052130772
 20
128.341681561819
 30
0.0
 10
129.1262587397494
 20
128.3628031536182
 30
0.0
  0
SPLINE
  5
283
330
1F
100
AcDbEntity
  8
0
  6
Continuous
 62
     7
370
    25
100
AcDbSpline
210
0.0
220
0.0
230
1.0
 70
     8
 71
     3
 72
    13
 73
     9
 74
     0
 42
0.000000001
 43
0.00000001
 40
0.0
 40
0.0
 40
0.0
 40
0.0
 40
0.2855711442954467
 40
0.4687856066465086
 40
0.5798983070656708
 40
0.7049765259990453
 40
0.8448196447707278
 40
1.0
 40
1.0
 40
1.0
 40
1.0
 10
129.1262587397494
 20
128.3628031536182
 30
0.0
 10
129.0545983123169
 20
128.3204395623073
 30
0.0
 10
128.9369625580834
 20
128.2508966751874
 30
0.0
 10
128.8099798342407
 20
128.1695682941147
 30
0.0
 10
128.7289449425197
 20
128.1252352133826
 30
0.0
 10
128.6698178048848
 20
128.0955116543903
 30
0.0
 10
128.6235772949638
 20
128.0701908098837
 30
0.0
 10
128.6171410654785
 20
128.0583166533982
 30
0.0
 10
128.6137556522288
 20
128.052070927265
 30
0.0
  0
LINE
  5
284
330
1F
100
AcDbEntity
  8
0
  6
Continuous
 62
     7
370
    25
100
AcDbLine
 10
128.6137556522
 20
194.0485325916
 30
0.0
 11
128.6137556522
 21
128.0520709273
 31
0.0
  0
SPLINE
  5
285
330
1F
100
AcDbEntity
  8
0
  6
Continuous
 62
     7
370
    25
100
AcDbSpline
210
0.0
220
0.0
230
1.0
 70
     8
 71
     3
 72
    12
 73
     8
 74
     0
 42
0.000000001
 43
0.00000001
 40
0.0
 40
0.0
 40
0.0
 40
0.0
 40
0.1873961453950768
 40
0.37544066661233
 40
0.5704465771960541
 40
0.7798259760358166
 40
1.0
 40
1.0
 40
1.0
 40
1.0
 10
128.6137556522288
 20
194.0485325915915
 30
0.0
 10
128.618840306616
 20
194.0427907584113
 30
0.0
 10
128.6290272078919
 20
194.0312872257628
 30
0.0
 10
128.7068310157035
 20
193.9884070286541
 30
0.0
 10
128.8213459656364
 20
193.9246376581705
 30
0.0
 10
128.9646165038567
 20
193.8354508521054
 30
0.0
 10
129.0714828153274
 20
193.7708951283875
 30
0.0
 10
129.1262587397494
 20
193.7378061277968
 30
0.0
  0
SPLINE
  5
286
330
1F
100
AcDbEntity
  8
0
  6
Continuous
 62
     7
370
    25
100
AcDbSpline
210
0.0
220
0.0
230
1.0
 70
     8
 71
     3
 72
    13
 73
     9
 74
     0
 42
0.000000001
 43
0.00000001
 40
0.0
 40
0.0
 40
0.0
 40
0.0
 40
0.3066602598377235
 40
0.4984636799153969
 40
0.6088141697171492
 40
0.7281596801691467
 40
0.8581361675486511
 40
1.0
 40
1.0
 40
1.0
 40
1.0
 10
129.1262587397494
 20
128.3628031536182
 30
0.0
 10
129.0827103771958
 20
128.3206216286894
 30
0.0
 10
129.01192429926
 20
128.2520572892749
 30
0.0
 10
128.9349859251697
 20
128.1710992128477
 30
0.0
 10
128.8847571679647
 20
128.1258777906745
 30
0.0
 10
128.8483623665819
 20
128.0958524428903
 30
0.0
 10
128.8198617280507
 20
128.0703682206631
 30
0.0
 10
128.815851719285
 20
128.0583452760977
 30
0.0
 10
128.8137590377726
 20
128.052070927265
 30
0.0
  0
LINE
  5
287
330
1F
100
AcDbEntity
  8
0
  6
Continuous
 62
     7
370
    25
100
AcDbLine
 10
128.6137556522
 20
128.0520709273
 30
0.0
 11
128.8137590378
 21
128.0520709273
 31
0.0
  0
SPLINE
  5
288
330
1F
100
AcDbEntity
  8
0
  6
Continuous
 62
     7
370
    25
100
AcDbSpline
210
0.0
220
0.0
230
1.0
 70
     8
 71
     3
 72
    11
 73
     7
 74
     0
 42
0.000000001
 43
0.00000001
 40
0.0
 40
0.0
 40
0.0
 40
0.0
 40
0.2543083858920593
 40
0.5087765424210083
 40
0.7632537759925664
 40
1.0
 40
1.0
 40
1.0
 40
1.0
 10
128.8155248253741
 20
128.0503031606031
 30
0.0
 10
128.8418709464793
 20
128.0551671479945
 30
0.0
 10
128.8945797407848
 20
128.0648981786041
 30
0.0
 10
128.9736365109607
 20
128.1396439879668
 30
0.0
 10
129.0509063111068
 20
128.2436348139036
 30
0.0
 10
129.1017530447978
 20
128.3240478933892
 30
0.0
 10
129.1262587397493
 20
128.3628031536182
 30
0.0
  0
LINE
  5
289
330
1F
100
AcDbEntity
  8
0
  6
Continuous
 62
     7
370
    25
100
AcDbLine
 10
128.8155248254
 20
127.8503031802
 30
0.0
 11
128.8155248254
 21
128.0503031606
 31
0.0
  0
LINE
  5
28A
330
1F
100
AcDbEntity
  8
0
  6
Continuous
 62
     7
370
    25
100
AcDbLine
 10
305.3119933098
 20
194.2503017647
 30
0.0
 11
305.3119933098
 21
194.0503058298
 31
0.0
  0
SPLINE
  5
28B
330
1F
100
AcDbEntity
  8
0
  6
Continuous
 62
     7
370
    25
100
AcDbSpline
210
0.0
220
0.0
230
1.0
 70
     8
 71
     3
 72
    12
 73
     8
 74
     0
 42
0.000000001
 43
0.00000001
 40
0.0
 40
0.0
 40
0.0
 40
0.0
 40
0.1739953862613653
 40
0.3321032325718449
 40
0.5068923953045733
 40
0.7762328912085422
 40
1.0
 40
1.0
 40
1.0
 40
1.0
 10
305.3119933097757
 20
194.0503058297736
 30
0.0
 10
305.3060098250102
 20
194.046989024638
 30
0.0
 10
305.2945892082032
 20
194.0406582722483
 30
0.0
 10
305.2543830602499
 20
193.9963826446821
 30
0.0
 10
305.191121886371
 20
193.9268020143697
 30
0.0
 10
305.1007833040809
 20
193.8382189373509
 30
0.0
 10
305.03232504311
 20
193.7691492393013
 30
0.0
 10
305.0012593954004
 20
193.7378061277969
 30
0.0
  0
LWPOLYLINE
  5
28C
330
1F
100
AcDbEntity
  8
0
  6
Continuous
 62
     7
370
    25
100
AcDbPolyline
 90
        2
 70
   128
 43
0.0
 10
305.0012593954
 20
193.7378061278
 10
305.0012593954
 20
193.7378061278
  0
SPLINE
  5
28D
330
1F
100
AcDbEntity
  8
0
  6
Continuous
 62
     7
370
    25
100
AcDbSpline
210
0.0
220
0.0
230
1.0
 70
     8
 71
     3
 72
    12
 73
     8
 74
     0
 42
0.000000001
 43
0.00000001
 40
0.0
 40
0.0
 40
0.0
 40
0.0
 40
0.1873948038470672
 40
0.3754430887099012
 40
0.570446583714914
 40
0.7798259793771556
 40
1.0
 40
1.0
 40
1.0
 40
1.0
 10
305.3119933097757
 20
194.2503017647368
 30
0.0
 10
305.3062511058715
 20
194.2452210112778
 30
0.0
 10
305.2947466739153
 20
194.2350417868143
 30
0.0
 10
305.2518714780042
 20
194.1572225142976
 30
0.0
 10
305.1880872874205
 20
194.0427216180503
 30
0.0
 10
305.0989050184565
 20
193.8994474715589
 30
0.0
 10
305.0343487005509
 20
193.7925817499013
 30
0.0
 10
305.0012593954004
 20
193.7378061277968
 30
0.0
  0
SPLINE
  5
28E
330
1F
100
AcDbEntity
  8
0
  6
Continuous
 62
     7
370
    25
100
AcDbSpline
210
0.0
220
0.0
230
1.0
 70
     8
 71
     3
 72
    11
 73
     7
 74
     0
 42
0.000000001
 43
0.00000001
 40
0.0
 40
0.0
 40
0.0
 40
0.0
 40
0.2499950603081129
 40
0.5000016440051178
 40
0.7499938577607708
 40
1.0
 40
1.0
 40
1.0
 40
1.0
 10
129.1262587397494
 20
193.7378061277968
 30
0.0
 10
129.1003659238232
 20
193.8049618947085
 30
0.0
 10
129.0485790984555
 20
193.9392765240411
 30
0.0
 10
128.9708919185663
 20
194.1086710392265
 30
0.0
 10
128.893211705303
 20
194.2271943198741
 30
0.0
 10
128.8414209329299
 20
194.2425991400716
 30
0.0
 10
128.8155248253741
 20
194.2503017647368
 30
0.0
  0
LINE
  5
28F
330
1F
100
AcDbEntity
  8
0
  6
Continuous
 62
     7
370
    25
100
AcDbLine
 10
128.8155248254
 20
194.2503017647
 30
0.0
 11
305.3119933098
 21
194.2503017647
 31
0.0
  0
SPLINE
  5
290
330
1F
100
AcDbEntity
  8
0
  6
Continuous
 62
     7
370
    25
100
AcDbSpline
210
0.0
220
0.0
230
1.0
 70
     8
 71
     3
 72
    11
 73
     7
 74
     0
 42
0.000000001
 43
0.00000001
 40
0.0
 40
0.0
 40
0.0
 40
0.0
 40
0.2500007487091522
 40
0.4999965386035115
 40
0.7499992512908479
 40
1.0
 40
1.0
 40
1.0
 40
1.0
 10
305.0012593954004
 20
193.7378061277968
 30
0.0
 10
305.0422087573888
 20
193.7636994082163
 30
0.0
 10
305.1241066691268
 20
193.8154854554569
 30
0.0
 10
305.2274016357175
 20
193.8931644588097
 30
0.0
 10
305.2996638759042
 20
193.9708548181146
 30
0.0
 10
305.309060702523
 20
194.0226400682355
 30
0.0
 10
305.3137590973772
 20
194.0485325915915
 30
0.0
  0
LINE
  5
291
330
1F
100
AcDbEntity
  8
0
  6
Continuous
 62
     7
370
    25
100
AcDbLine
 10
305.3137590974
 20
194.0485325916
 30
0.0
 11
305.5137550323
 21
194.0485325916
 31
0.0
  0
SPLINE
  5
292
330
1F
100
AcDbEntity
  8
0
  6
Continuous
 62
     7
370
    25
100
AcDbSpline
210
0.0
220
0.0
230
1.0
 70
     8
 71
     3
 72
    11
 73
     7
 74
     0
 42
0.000000001
 43
0.00000001
 40
0.0
 40
0.0
 40
0.0
 40
0.0
 40
0.2499990180520333
 40
0.5000000000686551
 40
0.7499940593402235
 40
1.0
 40
1.0
 40
1.0
 40
1.0
 10
129.1262587397494
 20
193.7378061277968
 30
0.0
 10
129.1003662479371
 20
193.7787558347408
 30
0.0
 10
129.048581060904
 20
193.8606555703252
 30
0.0
 10
128.9708902284421
 20
193.9639450918582
 30
0.0
 10
128.893212306075
 20
194.0362124888259
 30
0.0
 10
128.8414210625089
 20
194.0456079750367
 30
0.0
 10
128.8155248253741
 20
194.0503058297736
 30
0.0
  0
LINE
  5
293
330
1F
100
AcDbEntity
  8
0
  6
Continuous
 62
     7
370
    25
100
AcDbLine
 10
128.8155248254
 20
194.2503017647
 30
0.0
 11
128.8155248254
 21
194.0503058298
 31
0.0
  0
LWPOLYLINE
  5
294
330
1F
100
AcDbEntity
  8
0
  6
Continuous
 62
     7
370
    25
100
AcDbPolyline
 90
        2
 70
   128
 43
0.0
 10
129.1262587397
 20
193.7378061278
 10
129.1262587397
 20
193.7378061278
  0
SPLINE
  5
295
330
1F
100
AcDbEntity
  8
0
  6
Continuous
 62
     7
370
    25
100
AcDbSpline
210
0.0
220
0.0
230
1.0
 70
     8
 71
     3
 72
    12
 73
     8
 74
     0
 42
0.000000001
 43
0.00000001
 40
0.0
 40
0.0
 40
0.0
 40
0.0
 40
0.1739906240980286
 40
0.3321035652096163
 40
0.506892641781701
 40
0.7762329589755528
 40
0.9999999999999999
 40
0.9999999999999999
 40
0.9999999999999999
 40
0.9999999999999999
 10
128.8137590377726
 20
194.0485325915915
 30
0.0
 10
128.8170720679288
 20
194.0425520387813
 30
0.0
 10
128.8233957944641
 20
194.0311366943022
 30
0.0
 10
128.8676841842398
 20
193.9909298410571
 30
0.0
 10
128.9372636739869
 20
193.9276708368939
 30
0.0
 10
129.0258341649363
 20
193.8373178992799
 30
0.0
 10
129.0949119515591
 20
193.7688679911796
 30
0.0
 10
129.1262587397494
 20
193.7378061277968
 30
0.0
  0
LINE
  5
296
330
1F
100
AcDbEntity
  8
0
  6
Continuous
 62
     7
370
    25
100
AcDbLine
 10
128.6137556522
 20
194.0485325916
 30
0.0
 11
128.8137590378
 21
194.0485325916
 31
0.0
  0
LINE
  5
297
330
1F
100
AcDbEntity
  8
0
  6
Continuous
 62
     7
370
    25
100
AcDbLine
 10
305.3137590974
 20
128.0520709273
 30
0.0
 11
305.3137590974
 21
128.0753031763
 31
0.0
  0
LINE
  5
298
330
1F
100
AcDbEntity
  8
0
  6
Continuous
 62
     7
370
    25
100
AcDbLine
 10
320.4387580841
 20
157.6253039105
 30
0.0
 11
320.4137613862
 21
157.6253039105
 31
0.0
  0
LINE
  5
299
330
1F
100
AcDbEntity
  8
0
  6
Continuous
 62
     7
370
    25
100
AcDbLine
 10
320.4387580841
 20
157.6253039105
 30
0.0
 11
320.4387580841
 21
151.625302927
 31
0.0
  0
LINE
  5
29A
330
1F
100
AcDbEntity
  8
0
  6
Continuous
 62
     7
370
    25
100
AcDbLine
 10
320.4387580841
 20
151.625302927
 30
0.0
 11
320.4137613862
 21
151.625302927
 31
0.0
  0
LINE
  5
29B
330
1F
100
AcDbEntity
  8
0
  6
Continuous
 62
     7
370
    25
100
AcDbLine
 10
320.4637622326
 20
152.2536066635
 30
0.0
 11
320.4637622326
 21
152.0661072148
 31
0.0
  0
LINE
  5
29C
330
1F
100
AcDbEntity
  8
0
  6
Continuous
 62
     7
370
    25
100
AcDbLine
 10
320.4637622326
 20
152.0661072148
 30
0.0
 11
320.4387580841
 21
152.0661072148
 31
0.0
  0
LINE
  5
29D
330
1F
100
AcDbEntity
  8
0
  6
Continuous
 62
     7
370
    25
100
AcDbLine
 10
320.4637622326
 20
157.1286072297
 30
0.0
 11
320.4637622326
 21
152.2536066635
 31
0.0
  0
LINE
  5
29E
330
1F
100
AcDbEntity
  8
0
  6
Continuous
 62
     7
370
    25
100
AcDbLine
 10
320.4637622326
 20
157.1911082877
 30
0.0
 11
320.4637622326
 21
157.1286072297
 31
0.0
  0
SPLINE
  5
29F
330
1F
100
AcDbEntity
  8
0
  6
Continuous
 62
     7
370
    25
100
AcDbSpline
210
0.0
220
0.0
230
1.0
 70
    24
 71
     3
 72
    11
 73
     7
 74
     0
 42
0.000000001
 43
0.00000001
 40
0.0
 40
0.0
 40
0.0
 40
0.0
 40
0.283271365534185
 40
0.5580001613464234
 40
0.7754001789821588
 40
1.0
 40
1.0
 40
1.0
 40
1.0
 10
320.8137607067026
 20
135.7003034366471
 30
0.0
 10
320.8137607067026
 20
135.7098746370982
 30
0.0
 10
320.8137607067026
 20
135.7287284008237
 30
0.0
 10
320.8137607067026
 20
135.86196128173
 30
0.0
 10
320.8137607067026
 20
136.0245685185481
 30
0.0
 10
320.8137607067026
 20
136.1400951840695
 30
0.0
 10
320.8137607067026
 20
136.1987994326455
 30
0.0
  0
LINE
  5
2A0
330
1F
100
AcDbEntity
  8
0
  6
Continuous
 62
     7
370
    25
100
AcDbLine
 10
320.4137613862
 20
135.7003034366
 30
0.0
 11
320.8137607067
 21
135.7003034366
 31
0.0
  0
LINE
  5
2A1
330
1F
100
AcDbEntity
  8
0
  6
Continuous
 62
     7
370
    25
100
AcDbLine
 10
320.4137613862
 20
150.7003040327
 30
0.0
 11
320.8137607067
 21
150.7003040327
 31
0.0
  0
SPLINE
  5
2A2
330
1F
100
AcDbEntity
  8
0
  6
Continuous
 62
     7
370
    25
100
AcDbSpline
210
0.0
220
0.0
230
1.0
 70
    24
 71
     3
 72
    11
 73
     7
 74
     0
 42
0.000000001
 43
0.00000001
 40
0.0
 40
0.0
 40
0.0
 40
0.0
 40
0.2833564397002662
 40
0.5581121644452676
 40
0.7754832379936829
 40
1.0
 40
1.0
 40
1.0
 40
1.0
 10
320.8137607067026
 20
150.2017093165023
 30
0.0
 10
320.8137607067026
 20
150.2759714346476
 30
0.0
 10
320.8137607067026
 20
150.4222415936679
 30
0.0
 10
320.8137607067026
 20
150.5842688072683
 30
0.0
 10
320.8137607067026
 20
150.6827474697249
 30
0.0
 10
320.8137607067026
 20
150.6943890935048
 30
0.0
 10
320.8137607067026
 20
150.7003040326936
 30
0.0
  0
LINE
  5
2A3
330
1F
100
AcDbEntity
  8
0
  6
Continuous
 62
     7
370
    25
100
AcDbLine
 10
320.8137607067
 20
136.1987994326
 30
0.0
 11
320.8137607067
 21
150.2017093165
 31
0.0
  0
LINE
  5
2A4
330
1F
100
AcDbEntity
  8
0
  6
Continuous
 62
     7
370
    25
100
AcDbLine
 10
321.1637591808
 20
150.0658740563
 30
0.0
 11
321.1637591808
 21
136.3347324817
 31
0.0
  0
SPLINE
  5
2A5
330
1F
100
AcDbEntity
  8
0
  6
Continuous
 62
     7
370
    25
100
AcDbSpline
210
0.0
220
0.0
230
1.0
 70
     8
 71
     3
 72
    11
 73
     7
 74
     0
 42
0.000000001
 43
0.00000001
 40
0.0
 40
0.0
 40
0.0
 40
0.0
 40
0.2371939653777024
 40
0.497861161430987
 40
0.7485801615085483
 40
1.0
 40
1.0
 40
1.0
 40
1.0
 10
320.8137607067026
 20
150.7003040326936
 30
0.0
 10
320.8625042210929
 20
150.6645737034014
 30
0.0
 10
320.9648150140673
 20
150.5895770937219
 30
0.0
 10
321.0757233109871
 20
150.4337349605867
 30
0.0
 10
321.1500351791285
 20
150.2548067672079
 30
0.0
 10
321.1591802589763
 20
150.1289101981866
 30
0.0
 10
321.1637591808237
 20
150.0658740563495
 30
0.0
  0
SPLINE
  5
2A6
330
1F
100
AcDbEntity
  8
0
  6
Continuous
 62
     7
370
    25
100
AcDbSpline
210
0.0
220
0.0
230
1.0
 70
    24
 71
     3
 72
    13
 73
     9
 74
     0
 42
0.000000001
 43
0.00000001
 40
0.0
 40
0.0
 40
0.0
 40
0.0
 40
0.1275388008176146
 40
0.2545834128861152
 40
0.4999432881626906
 40
0.745328427773526
 40
0.8725057155511715
 40
0.9999999999999999
 40
0.9999999999999999
 40
0.9999999999999999
 40
0.9999999999999999
 10
320.8137607067026
 20
150.7003040326936
 30
0.0
 10
320.8137607067026
 20
150.698486886341
 30
0.0
 10
320.8137607067026
 20
150.6948596347346
 30
0.0
 10
320.8137607067026
 20
150.6547355826813
 30
0.0
 10
320.8137607067026
 20
150.5632948987899
 30
0.0
 10
320.8137607067026
 20
150.426397713231
 30
0.0
 10
320.8137607067026
 20
150.3014362467354
 30
0.0
 10
320.8137607067026
 20
150.2349792002145
 30
0.0
 10
320.8137607067026
 20
150.2017093165023
 30
0.0
  0
SPLINE
  5
2A7
330
1F
100
AcDbEntity
  8
0
  6
Continuous
 62
     7
370
    25
100
AcDbSpline
210
0.0
220
0.0
230
1.0
 70
     8
 71
     3
 72
    11
 73
     7
 74
     0
 42
0.000000001
 43
0.00000001
 40
0.0
 40
0.0
 40
0.0
 40
0.0
 40
0.2514197350060309
 40
0.5021386318866393
 40
0.7627971355077232
 40
1.0
 40
1.0
 40
1.0
 40
1.0
 10
321.1637591808237
 20
136.3347324816687
 30
0.0
 10
321.1591803610065
 20
136.2716962652043
 30
0.0
 10
321.1500354849346
 20
136.1457995471364
 30
0.0
 10
321.0757229079616
 20
135.9668744977258
 30
0.0
 10
320.9648210963392
 20
135.81102762564
 30
0.0
 10
320.8625074087509
 20
135.7360337764361
 30
0.0
 10
320.8137607067026
 20
135.7003034366471
 30
0.0
  0
SPLINE
  5
2A8
330
1F
100
AcDbEntity
  8
0
  6
Continuous
 62
     7
370
    25
100
AcDbSpline
210
0.0
220
0.0
230
1.0
 70
    24
 71
     3
 72
    13
 73
     9
 74
     0
 42
0.000000001
 43
0.00000001
 40
0.0
 40
0.0
 40
0.0
 40
0.0
 40
0.1275890486917231
 40
0.2546779263957972
 40
0.5000478929310903
 40
0.7454034835463158
 40
0.8725367459645864
 40
0.9999999999999999
 40
0.9999999999999999
 40
0.9999999999999999
 40
0.9999999999999999
 10
320.8137607067026
 20
136.1987994326455
 30
0.0
 10
320.8137607067026
 20
136.1655064181516
 30
0.0
 10
320.8137607067026
 20
136.0990509034996
 30
0.0
 10
320.8137607067026
 20
135.9741154007744
 30
0.0
 10
320.8137607067026
 20
135.8372604090462
 30
0.0
 10
320.8137607067026
 20
135.7458288662749
 30
0.0
 10
320.8137607067026
 20
135.7057587276796
 30
0.0
 10
320.8137607067026
 20
135.702123437601
 30
0.0
 10
320.8137607067026
 20
135.7003034366471
 30
0.0
  0
SPLINE
  5
2A9
330
1F
100
AcDbEntity
  8
0
  6
Continuous
 62
     7
370
    25
100
AcDbSpline
210
0.0
220
0.0
230
1.0
 70
     8
 71
     3
 72
    13
 73
     9
 74
     0
 42
0.000000001
 43
0.00000001
 40
0.0
 40
0.0
 40
0.0
 40
0.0
 40
0.007542047792438
 40
0.2722868288873911
 40
0.481527025212627
 40
0.6613512799821933
 40
0.8304773552483812
 40
1.0
 40
1.0
 40
1.0
 40
1.0
 10
125.5137553303637
 20
139.4086324883801
 30
0.0
 10
125.5137574227354
 20
139.408578475183
 30
0.0
 10
125.5138329625978
 20
139.4066284633835
 30
0.0
 10
125.516671375789
 20
139.4031556689782
 30
0.0
 10
125.5273674579217
 20
139.3988130683067
 30
0.0
 10
125.541282344123
 20
139.3957722380919
 30
0.0
 10
125.5578167539817
 20
139.3937458739616
 30
0.0
 10
125.5701062881634
 20
139.393477993883
 30
0.0
 10
125.5762582509913
 20
139.3933438969952
 30
0.0
  0
LINE
  5
2AA
330
1F
100
AcDbEntity
  8
0
  6
Continuous
 62
     7
370
    25
100
AcDbLine
 10
125.5137553304
 20
137.4521491392
 30
0.0
 11
125.5137553304
 21
139.4086324884
 31
0.0
  0
SPLINE
  5
2AB
330
1F
100
AcDbEntity
  8
0
  6
Continuous
 62
     7
370
    25
100
AcDbSpline
210
0.0
220
0.0
230
1.0
 70
     8
 71
     3
 72
    13
 73
     9
 74
     0
 42
0.000000001
 43
0.00000001
 40
0.0
 40
0.0
 40
0.0
 40
0.0
 40
0.1695226447516189
 40
0.3386487200178067
 40
0.518472974787373
 40
0.7277131711126089
 40
0.9924579522075619
 40
1.0
 40
1.0
 40
1.0
 40
1.0
 10
125.7512574880518
 20
139.3933438969952
 30
0.0
 10
125.7574094508797
 20
139.393477993883
 30
0.0
 10
125.7696989850614
 20
139.3937458739616
 30
0.0
 10
125.78623339492
 20
139.3957722380919
 30
0.0
 10
125.8001482811214
 20
139.3988130683067
 30
0.0
 10
125.8108443632542
 20
139.4031556689783
 30
0.0
 10
125.813682776445
 20
139.4066284633834
 30
0.0
 10
125.8137583163077
 20
139.408578475183
 30
0.0
 10
125.8137604086794
 20
139.4086324883801
 30
0.0
  0
LINE
  5
2AC
330
1F
100
AcDbEntity
  8
0
  6
Continuous
 62
     7
370
    25
100
AcDbLine
 10
125.8137604087
 20
139.4086324884
 30
0.0
 11
125.8137604087
 21
137.5328379957
 31
0.0
  0
LINE
  5
2AD
330
1F
100
AcDbEntity
  8
0
  6
Continuous
 62
     7
370
    25
100
AcDbLine
 10
125.7512574881
 20
139.393343897
 30
0.0
 11
125.576258251
 21
139.393343897
 31
0.0
  0
SPLINE
  5
2AE
330
1F
100
AcDbEntity
  8
0
  6
Continuous
 62
     7
370
    25
100
AcDbSpline
210
0.0
220
0.0
230
1.0
 70
     8
 71
     3
 72
    12
 73
     8
 74
     0
 42
0.000000001
 43
0.00000001
 40
0.0
 40
0.0
 40
0.0
 40
0.0
 40
0.2028182422622125
 40
0.4049472419517106
 40
0.6098297892068723
 40
0.8226946021795957
 40
1.0
 40
1.0
 40
1.0
 40
1.0
 10
125.8762558787264
 20
140.8179135335786
 30
0.0
 10
125.8369711562055
 20
140.8151092447656
 30
0.0
 10
125.7585352134706
 20
140.8095101970282
 30
0.0
 10
125.6534359678596
 20
140.765995873611
 30
0.0
 10
125.5716659782485
 20
140.7012341960858
 30
0.0
 10
125.5221158521148
 20
140.6232321145126
 30
0.0
 10
125.5163675406729
 20
140.5678928411616
 30
0.0
 10
125.5137553303637
 20
140.5427449656827
 30
0.0
  0
SPLINE
  5
2AF
330
1F
100
AcDbEntity
  8
0
  6
Continuous
 62
     7
370
    25
100
AcDbSpline
210
0.0
220
0.0
230
1.0
 70
     8
 71
     3
 72
    12
 73
     8
 74
     0
 42
0.000000001
 43
0.00000001
 40
0.0
 40
0.0
 40
0.0
 40
0.0
 40
0.2289476116952792
 40
0.4594263637621755
 40
0.6825360511756223
 40
0.8947193487650612
 40
1.0
 40
1.0
 40
1.0
 40
1.0
 10
125.5137553303637
 20
139.4642538665039
 30
0.0
 10
125.5180914295361
 20
139.493265648521
 30
0.0
 10
125.526792626552
 20
139.5514832355911
 30
0.0
 10
125.5952582093839
 20
139.6287047515674
 30
0.0
 10
125.6945146755867
 20
139.6844239841745
 30
0.0
 10
125.7947325873641
 20
139.7094853065324
 30
0.0
 10
125.8559532534433
 20
139.7116175547443
 30
0.0
 10
125.8762558787264
 20
139.7123246727688
 30
0.0
  0
LINE
  5
2B0
330
1F
100
AcDbEntity
  8
0
  6
Continuous
 62
     7
370
    25
100
AcDbLine
 10
125.5137553304
 20
139.4642538665
 30
0.0
 11
125.5137553304
 21
140.5427449657
 31
0.0
  0
LINE
  5
2B1
330
1F
100
AcDbEntity
  8
0
  6
Continuous
 62
     7
370
    25
100
AcDbLine
 10
127.2137617557
 20
140.7629468752
 30
0.0
 11
127.2137617557
 21
139.684455776
 31
0.0
  0
LINE
  5
2B2
330
1F
100
AcDbEntity
  8
0
  6
Continuous
 62
     7
370
    25
100
AcDbLine
 10
127.2137617557
 20
139.684455776
 30
0.0
 11
127.2137617557
 21
139.5564054413
 31
0.0
  0
LINE
  5
2B3
330
1F
100
AcDbEntity
  8
0
  6
Continuous
 62
     7
370
    25
100
AcDbLine
 10
125.5137553304
 20
139.4086324884
 30
0.0
 11
125.5137553304
 21
139.4642538665
 31
0.0
  0
LINE
  5
2B4
330
1F
100
AcDbEntity
  8
0
  6
Continuous
 62
     7
370
    25
100
AcDbLine
 10
125.8137604087
 20
139.4642538665
 30
0.0
 11
125.8137604087
 21
139.4086324884
 31
0.0
  0
LINE
  5
2B5
330
1F
100
AcDbEntity
  8
0
  6
Continuous
 62
     7
370
    25
100
AcDbLine
 10
125.8762558787
 20
140.8254470019
 30
0.0
 11
125.8762558787
 21
140.8179135336
 31
0.0
  0
LINE
  5
2B6
330
1F
100
AcDbEntity
  8
0
  6
Continuous
 62
     7
370
    25
100
AcDbLine
 10
125.5137553304
 20
140.5427449657
 30
0.0
 11
125.5137553304
 21
140.6878031133
 31
0.0
  0
LINE
  5
2B7
330
1F
100
AcDbEntity
  8
0
  6
Continuous
 62
     7
370
    25
100
AcDbLine
 10
127.2137617557
 20
136.5157098783
 30
0.0
 11
127.2137617557
 21
136.3876595436
 31
0.0
  0
LINE
  5
2B8
330
1F
100
AcDbEntity
  8
0
  6
Continuous
 62
     7
370
    25
100
AcDbLine
 10
127.2137617557
 20
137.1999739943
 30
0.0
 11
127.2137617557
 21
136.5157098783
 31
0.0
  0
SPLINE
  5
2B9
330
1F
100
AcDbEntity
  8
0
  6
Continuous
 62
     7
370
    25
100
AcDbSpline
210
0.0
220
0.0
230
1.0
 70
     8
 71
     3
 72
    13
 73
     9
 74
     0
 42
0.000000001
 43
0.00000001
 40
0.0
 40
0.0
 40
0.0
 40
0.0
 40
0.007548040649594
 40
0.272261936824367
 40
0.4814997288381769
 40
0.661309104508095
 40
0.8304193431289963
 40
1.0
 40
1.0
 40
1.0
 40
1.0
 10
126.1137580364146
 20
137.5519729493362
 30
0.0
 10
126.1137584686521
 20
137.551999639399
 30
0.0
 10
126.1137740596979
 20
137.5529623644952
 30
0.0
 10
126.1108179109894
 20
137.5547191557272
 30
0.0
 10
126.1001601690846
 20
137.5569354000599
 30
0.0
 10
126.0862371242017
 20
137.5585064611425
 30
0.0
 10
126.0697018641649
 20
137.5595612852518
 30
0.0
 10
126.0574097228912
 20
137.5597015931753
 30
0.0
 10
126.051255115787
 20
137.5597718445761
 30
0.0
  0
LINE
  5
2BA
330
1F
100
AcDbEntity
  8
0
  6
Continuous
 62
     7
370
    25
100
AcDbLine
 10
126.1137580364
 20
139.4939053146
 30
0.0
 11
126.1137580364
 21
137.5519729493
 31
0.0
  0
SPLINE
  5
2BB
330
1F
100
AcDbEntity
  8
0
  6
Continuous
 62
     7
370
    25
100
AcDbSpline
210
0.0
220
0.0
230
1.0
 70
     8
 71
     3
 72
    13
 73
     9
 74
     0
 42
0.000000001
 43
0.00000001
 40
0.0
 40
0.0
 40
0.0
 40
0.0
 40
0.1695244437974605
 40
0.3386461298953012
 40
0.5184676772923617
 40
0.7277196331132743
 40
0.9924514484054626
 40
0.9999999999999999
 40
0.9999999999999999
 40
0.9999999999999999
 40
0.9999999999999999
 10
125.8762558787264
 20
137.5597718445761
 30
0.0
 10
125.8701038485071
 20
137.5597015539681
 30
0.0
 10
125.8578144041172
 20
137.5595611397492
 30
0.0
 10
125.8412813260847
 20
137.5585064633667
 30
0.0
 10
125.8273582743257
 20
137.5569353993387
 30
0.0
 10
125.8167005347598
 20
137.5547191560079
 30
0.0
 10
125.8137443853927
 20
137.5529623644937
 30
0.0
 10
125.8137599764417
 20
137.5519996393989
 30
0.0
 10
125.8137604086794
 20
137.5519729493362
 30
0.0
  0
LINE
  5
2BC
330
1F
100
AcDbEntity
  8
0
  6
Continuous
 62
     7
370
    25
100
AcDbLine
 10
125.8137604087
 20
137.5519729493
 30
0.0
 11
125.8137604087
 21
139.4086324884
 31
0.0
  0
LINE
  5
2BD
330
1F
100
AcDbEntity
  8
0
  6
Continuous
 62
     7
370
    25
100
AcDbLine
 10
125.8762558787
 20
137.5597718446
 30
0.0
 11
126.0512551158
 21
137.5597718446
 31
0.0
  0
SPLINE
  5
2BE
330
1F
100
AcDbEntity
  8
0
  6
Continuous
 62
     7
370
    25
100
AcDbSpline
210
0.0
220
0.0
230
1.0
 70
     8
 71
     3
 72
    12
 73
     8
 74
     0
 42
0.000000001
 43
0.00000001
 40
0.0
 40
0.0
 40
0.0
 40
0.0
 40
0.2028179780381207
 40
0.4049470652429262
 40
0.6098305918206068
 40
0.8226927037846008
 40
1.0
 40
1.0
 40
1.0
 40
1.0
 10
125.7512574880518
 20
136.2225276692016
 30
0.0
 10
125.7905422131926
 20
136.225583463217
 30
0.0
 10
125.8689782291146
 20
136.2316846719487
 30
0.0
 10
125.9740776993801
 20
136.2790966756833
 30
0.0
 10
126.0558466132818
 20
136.3496294949689
 30
0.0
 10
126.1053979747921
 20
136.4345409252981
 30
0.0
 10
126.1111459469473
 20
136.4947279849659
 30
0.0
 10
126.1137580364146
 20
136.5220791934235
 30
0.0
  0
SPLINE
  5
2BF
330
1F
100
AcDbEntity
  8
0
  6
Continuous
 62
     7
370
    25
100
AcDbSpline
210
0.0
220
0.0
230
1.0
 70
     8
 71
     3
 72
    12
 73
     8
 74
     0
 42
0.000000001
 43
0.00000001
 40
0.0
 40
0.0
 40
0.0
 40
0.0
 40
0.2289423188723423
 40
0.4594204143591584
 40
0.6825388747122172
 40
0.8947203692662763
 40
1.0
 40
1.0
 40
1.0
 40
1.0
 10
126.1137580364146
 20
137.4908744631512
 30
0.0
 10
126.1094248639333
 20
137.4586548023675
 30
0.0
 10
126.1007294514529
 20
137.3939993468768
 30
0.0
 10
126.0322622092993
 20
137.3083449932384
 30
0.0
 10
125.9329996669279
 20
137.2465828132463
 30
0.0
 10
125.8327809515333
 20
137.2188097826393
 30
0.0
 10
125.7715601440158
 20
137.2164481164152
 30
0.0
 10
125.7512574880518
 20
137.215664917062
 30
0.0
  0
LINE
  5
2C0
330
1F
100
AcDbEntity
  8
0
  6
Continuous
 62
     7
370
    25
100
AcDbLine
 10
126.1137580364
 20
137.4908744632
 30
0.0
 11
126.1137580364
 21
136.5220791934
 31
0.0
  0
LINE
  5
2C1
330
1F
100
AcDbEntity
  8
0
  6
Continuous
 62
     7
370
    25
100
AcDbLine
 10
124.4137590616
 20
136.2801933004
 30
0.0
 11
124.4137590616
 21
137.2489895014
 31
0.0
  0
LINE
  5
2C2
330
1F
100
AcDbEntity
  8
0
  6
Continuous
 62
     7
370
    25
100
AcDbLine
 10
124.4137590616
 20
137.2489895014
 30
0.0
 11
124.4137590616
 21
137.3896490125
 31
0.0
  0
LINE
  5
2C3
330
1F
100
AcDbEntity
  8
0
  6
Continuous
 62
     7
370
    25
100
AcDbLine
 10
126.1137580364
 20
137.5519729493
 30
0.0
 11
126.1137580364
 21
137.4908744632
 31
0.0
  0
LINE
  5
2C4
330
1F
100
AcDbEntity
  8
0
  6
Continuous
 62
     7
370
    25
100
AcDbLine
 10
125.8137604087
 20
137.4908744632
 30
0.0
 11
125.8137604087
 21
137.5519729493
 31
0.0
  0
LINE
  5
2C5
330
1F
100
AcDbEntity
  8
0
  6
Continuous
 62
     7
370
    25
100
AcDbLine
 10
125.7512574881
 20
136.2176931737
 30
0.0
 11
125.7512574881
 21
136.2225276692
 31
0.0
  0
LINE
  5
2C6
330
1F
100
AcDbEntity
  8
0
  6
Continuous
 62
     7
370
    25
100
AcDbLine
 10
126.1137580364
 20
136.5220791934
 30
0.0
 11
126.1137580364
 21
136.4628033055
 31
0.0
  0
SPLINE
  5
2C7
330
1F
100
AcDbEntity
  8
0
  6
Continuous
 62
     7
370
    25
100
AcDbSpline
210
0.0
220
0.0
230
1.0
 70
     8
 71
     3
 72
    10
 73
     6
 74
     0
 42
0.000000001
 43
0.00000001
 40
0.0
 40
0.0
 40
0.0
 40
0.0
 40
0.3816802194693152
 40
0.762064025242993
 40
1.0
 40
1.0
 40
1.0
 40
1.0
 10
125.7512574880518
 20
140.9280787496073
 30
0.0
 10
125.7903197059116
 20
140.9248645748866
 30
0.0
 10
125.8683114630389
 20
140.9184471426998
 30
0.0
 10
125.9627998296595
 20
140.8792047764695
 30
0.0
 10
126.0034810861522
 20
140.8403851887729
 30
0.0
 10
126.0191356628336
 20
140.8254470018846
 30
0.0
  0
LINE
  5
2C8
330
1F
100
AcDbEntity
  8
0
  6
Continuous
 62
     7
370
    25
100
AcDbLine
 10
124.4137590616
 20
140.7297536073
 30
0.0
 11
124.4137590616
 21
140.8704131184
 31
0.0
  0
LINE
  5
2C9
330
1F
100
AcDbEntity
  8
0
  6
Continuous
 62
     7
370
    25
100
AcDbLine
 10
124.4137590616
 20
139.904479803
 30
0.0
 11
124.4137590616
 21
140.7297536073
 31
0.0
  0
LINE
  5
2CA
330
1F
100
AcDbEntity
  8
0
  6
Continuous
 62
     7
370
    25
100
AcDbLine
 10
125.4021158307
 20
139.7271978943
 30
0.0
 11
125.5137553304
 21
139.0626098303
 31
0.0
  0
SPLINE
  5
2CB
330
1F
100
AcDbEntity
  8
0
  6
Continuous
 62
     7
370
    25
100
AcDbSpline
210
0.0
220
0.0
230
1.0
 70
     8
 71
     3
 72
     9
 73
     5
 74
     0
 42
0.000000001
 43
0.00000001
 40
0.0
 40
0.0
 40
0.0
 40
0.0
 40
0.0702009296018785
 40
1.0
 40
1.0
 40
1.0
 40
1.0
 10
125.5137553303637
 20
139.0626098303301
 30
0.0
 10
125.5136451901673
 20
139.0468550144867
 30
0.0
 10
125.5120762622762
 20
138.822430410244
 30
0.0
 10
125.4550960132629
 20
138.6025061799436
 30
0.0
 10
125.4021158306994
 20
138.3980208350522
 30
0.0
  0
LINE
  5
2CC
330
1F
100
AcDbEntity
  8
0
  6
Continuous
 62
     7
370
    25
100
AcDbLine
 10
125.4021158307
 20
138.3980208351
 30
0.0
 11
124.3254026263
 21
138.3980208351
 31
0.0
  0
SPLINE
  5
2CD
330
1F
100
AcDbEntity
  8
0
  6
Continuous
 62
     7
370
    25
100
AcDbSpline
210
0.0
220
0.0
230
1.0
 70
     8
 71
     3
 72
     9
 73
     5
 74
     0
 42
0.000000001
 43
0.00000001
 40
0.0
 40
0.0
 40
0.0
 40
0.0
 40
0.0702010417924278
 40
1.0
 40
1.0
 40
1.0
 40
1.0
 10
124.2137556760706
 20
139.0626098303301
 30
0.0
 10
124.2138683866529
 20
139.0468550154123
 30
0.0
 10
124.2154739266768
 20
138.8224307830137
 30
0.0
 10
124.2724377358711
 20
138.6025063467627
 30
0.0
 10
124.3254026263155
 20
138.3980208350522
 30
0.0
  0
LINE
  5
2CE
330
1F
100
AcDbEntity
  8
0
  6
Continuous
 62
     7
370
    25
100
AcDbLine
 10
124.3254026263
 20
139.7271978943
 30
0.0
 11
124.2137556761
 21
139.0626098303
 31
0.0
  0
LINE
  5
2CF
330
1F
100
AcDbEntity
  8
0
  6
Continuous
 62
     7
370
    25
100
AcDbLine
 10
125.4021158307
 20
139.7271978943
 30
0.0
 11
124.3254026263
 21
139.7271978943
 31
0.0
  0
SPLINE
  5
2D0
330
1F
100
AcDbEntity
  8
0
  6
Continuous
 62
     7
370
    25
100
AcDbSpline
210
0.0
220
0.0
230
1.0
 70
     8
 71
     3
 72
     9
 73
     5
 74
     0
 42
0.000000001
 43
0.00000001
 40
0.0
 40
0.0
 40
0.0
 40
0.0
 40
0.2686329506590988
 40
1.0
 40
1.0
 40
1.0
 40
1.0
 10
125.5137553303637
 20
137.8220741911036
 30
0.0
 10
125.5120989536094
 20
137.8744437808793
 30
0.0
 10
125.5059330057978
 20
138.0693922771347
 30
0.0
 10
125.4459704605143
 20
138.2592009939187
 30
0.0
 10
125.4021158306994
 20
138.3980208350522
 30
0.0
  0
SPLINE
  5
2D1
330
1F
100
AcDbEntity
  8
0
  6
Continuous
 62
     7
370
    25
100
AcDbSpline
210
0.0
220
0.0
230
1.0
 70
     8
 71
     3
 72
     9
 73
     5
 74
     0
 42
0.000000001
 43
0.00000001
 40
0.0
 40
0.0
 40
0.0
 40
0.0
 40
0.2686332860195101
 40
1.0
 40
1.0
 40
1.0
 40
1.0
 10
124.2137556760706
 20
137.8220741911036
 30
0.0
 10
124.2154148654299
 20
137.8744437692663
 30
0.0
 10
124.2215912755982
 20
138.0693919789189
 30
0.0
 10
124.2815504684595
 20
138.2592009047113
 30
0.0
 10
124.3254026263155
 20
138.3980208350522
 30
0.0
  0
LINE
  5
2D2
330
1F
100
AcDbEntity
  8
0
  6
Continuous
 62
     7
370
    25
100
AcDbLine
 10
124.2137556761
 20
137.8220741911
 30
0.0
 11
124.2137556761
 21
139.0626098303
 31
0.0
  0
LINE
  5
2D3
330
1F
100
AcDbEntity
  8
0
  6
Continuous
 62
     7
370
    25
100
AcDbLine
 10
125.4584869235
 20
137.4521491392
 30
0.0
 11
125.5137553304
 21
137.8220741911
 31
0.0
  0
LINE
  5
2D4
330
1F
100
AcDbEntity
  8
0
  6
Continuous
 62
     7
370
    25
100
AcDbLine
 10
124.4137590616
 20
137.2461266158
 30
0.0
 11
124.3254026263
 21
137.2461266158
 31
0.0
  0
SPLINE
  5
2D5
330
1F
100
AcDbEntity
  8
0
  6
Continuous
 62
     7
370
    25
100
AcDbSpline
210
0.0
220
0.0
230
1.0
 70
     8
 71
     3
 72
     9
 73
     5
 74
     0
 42
0.000000001
 43
0.00000001
 40
0.0
 40
0.0
 40
0.0
 40
0.0
 40
0.2575502456659197
 40
0.9999999999999999
 40
0.9999999999999999
 40
0.9999999999999999
 40
0.9999999999999999
 10
124.3254026263155
 20
137.2461266158325
 30
0.0
 10
124.3085506368401
 20
137.2944785536819
 30
0.0
 10
124.2431187851567
 20
137.4822164365341
 30
0.0
 10
124.2262671605902
 20
137.6772623790207
 30
0.0
 10
124.2137556760706
 20
137.8220741911036
 30
0.0
  0
SPLINE
  5
2D6
330
1F
100
AcDbEntity
  8
0
  6
Continuous
 62
     7
370
    25
100
AcDbSpline
210
0.0
220
0.0
230
1.0
 70
     8
 71
     3
 72
     9
 73
     5
 74
     0
 42
0.000000001
 43
0.00000001
 40
0.0
 40
0.0
 40
0.0
 40
0.0
 40
0.0701998119168678
 40
1.0
 40
1.0
 40
1.0
 40
1.0
 10
124.2137556760706
 20
139.8158383829696
 30
0.0
 10
124.2138683900942
 20
139.8137372709328
 30
0.0
 10
124.2154740072683
 20
139.7838068198478
 30
0.0
 10
124.2724377383976
 20
139.7544727333906
 30
0.0
 10
124.3254026263155
 20
139.7271978942854
 30
0.0
  0
LINE
  5
2D7
330
1F
100
AcDbEntity
  8
0
  6
Continuous
 62
     7
370
    25
100
AcDbLine
 10
124.2137556761
 20
139.0626098303
 30
0.0
 11
124.2137556761
 21
139.815838383
 31
0.0
  0
SPLINE
  5
2D8
330
1F
100
AcDbEntity
  8
0
  6
Continuous
 62
     7
370
    25
100
AcDbSpline
210
0.0
220
0.0
230
1.0
 70
     8
 71
     3
 72
     9
 73
     5
 74
     0
 42
0.000000001
 43
0.00000001
 40
0.0
 40
0.0
 40
0.0
 40
0.0
 40
0.0701996997235893
 40
1.0
 40
1.0
 40
1.0
 40
1.0
 10
125.5137553303637
 20
139.8158383829696
 30
0.0
 10
125.5136451867244
 20
139.8137372708094
 30
0.0
 10
125.5120761823026
 20
139.7838067701309
 30
0.0
 10
125.4550960110448
 20
139.7544727111418
 30
0.0
 10
125.4021158306993
 20
139.7271978942854
 30
0.0
  0
LINE
  5
2D9
330
1F
100
AcDbEntity
  8
0
  6
Continuous
 62
     7
370
    25
100
AcDbLine
 10
124.3254026263
 20
137.2461266158
 30
0.0
 11
124.2137556761
 21
137.3347680358
 31
0.0
  0
LINE
  5
2DA
330
1F
100
AcDbEntity
  8
0
  6
Continuous
 62
     7
370
    25
100
AcDbLine
 10
124.2137556761
 20
137.8220741911
 30
0.0
 11
124.2137556761
 21
137.3253411887
 31
0.0
  0
LINE
  5
2DB
330
1F
100
AcDbEntity
  8
0
  6
Continuous
 62
     7
370
    25
100
AcDbLine
 10
125.4021158307
 20
139.904479803
 30
0.0
 11
125.5137553304
 21
139.815838383
 31
0.0
  0
LINE
  5
2DC
330
1F
100
AcDbEntity
  8
0
  6
Continuous
 62
     7
370
    25
100
AcDbLine
 10
124.3254026263
 20
139.904479803
 30
0.0
 11
124.2137556761
 21
139.815838383
 31
0.0
  0
LINE
  5
2DD
330
1F
100
AcDbEntity
  8
0
  6
Continuous
 62
     7
370
    25
100
AcDbLine
 10
125.4021158307
 20
139.904479803
 30
0.0
 11
124.3254026263
 21
139.904479803
 31
0.0
  0
LINE
  5
2DE
330
1F
100
AcDbEntity
  8
0
  6
Continuous
 62
     7
370
    25
100
AcDbLine
 10
127.3021107405
 20
139.9506324245
 30
0.0
 11
127.4137576907
 21
139.4171615405
 31
0.0
  0
SPLINE
  5
2DF
330
1F
100
AcDbEntity
  8
0
  6
Continuous
 62
     7
370
    25
100
AcDbSpline
210
0.0
220
0.0
230
1.0
 70
     8
 71
     3
 72
     9
 73
     5
 74
     0
 42
0.000000001
 43
0.00000001
 40
0.0
 40
0.0
 40
0.0
 40
0.0
 40
0.0702004956515168
 40
0.9999999999999999
 40
0.9999999999999999
 40
0.9999999999999999
 40
0.9999999999999999
 10
127.4137576907076
 20
139.4171615405185
 30
0.0
 10
127.413647555878
 20
139.404515074393
 30
0.0
 10
127.4120786947381
 20
139.2243672562316
 30
0.0
 10
127.3550945603616
 20
139.0478325442519
 30
0.0
 10
127.3021107404627
 20
138.883690656553
 30
0.0
  0
LINE
  5
2E0
330
1F
100
AcDbEntity
  8
0
  6
Continuous
 62
     7
370
    25
100
AcDbLine
 10
127.3021107405
 20
138.8836906566
 30
0.0
 11
126.2254049867
 21
138.8836906566
 31
0.0
  0
SPLINE
  5
2E1
330
1F
100
AcDbEntity
  8
0
  6
Continuous
 62
     7
370
    25
100
AcDbSpline
210
0.0
220
0.0
230
1.0
 70
     8
 71
     3
 72
     9
 73
     5
 74
     0
 42
0.000000001
 43
0.00000001
 40
0.0
 40
0.0
 40
0.0
 40
0.0
 40
0.0702007247914513
 40
1.0
 40
1.0
 40
1.0
 40
1.0
 10
126.1137580364146
 20
139.4171615405185
 30
0.0
 10
126.1138707478839
 20
139.4045150759104
 30
0.0
 10
126.1154763077931
 20
139.2243678673783
 30
0.0
 10
126.1724400968662
 20
139.0478328177481
 30
0.0
 10
126.2254049866594
 20
138.883690656553
 30
0.0
  0
LINE
  5
2E2
330
1F
100
AcDbEntity
  8
0
  6
Continuous
 62
     7
370
    25
100
AcDbLine
 10
126.1298214882
 20
139.4939053146
 30
0.0
 11
126.1137580364
 21
139.4171615405
 31
0.0
  0
LINE
  5
2E3
330
1F
100
AcDbEntity
  8
0
  6
Continuous
 62
     7
370
    25
100
AcDbLine
 10
127.3021107405
 20
139.9506324245
 30
0.0
 11
127.2137617557
 21
139.9506324245
 31
0.0
  0
SPLINE
  5
2E4
330
1F
100
AcDbEntity
  8
0
  6
Continuous
 62
     7
370
    25
100
AcDbSpline
210
0.0
220
0.0
230
1.0
 70
     8
 71
     3
 72
     9
 73
     5
 74
     0
 42
0.000000001
 43
0.00000001
 40
0.0
 40
0.0
 40
0.0
 40
0.0
 40
0.2686339456448456
 40
0.9999999999999999
 40
0.9999999999999999
 40
0.9999999999999999
 40
0.9999999999999999
 10
127.4137576907076
 20
138.1960253505213
 30
0.0
 10
127.4121014498322
 20
138.2585535878713
 30
0.0
 10
127.4059360306726
 20
138.491317311011
 30
0.0
 10
127.3459687638149
 20
138.7179437627397
 30
0.0
 10
127.3021107404627
 20
138.883690656553
 30
0.0
  0
LINE
  5
2E5
330
1F
100
AcDbEntity
  8
0
  6
Continuous
 62
     7
370
    25
100
AcDbLine
 10
127.4137576907
 20
138.1960253505
 30
0.0
 11
127.4137576907
 21
139.4171615405
 31
0.0
  0
SPLINE
  5
2E6
330
1F
100
AcDbEntity
  8
0
  6
Continuous
 62
     7
370
    25
100
AcDbSpline
210
0.0
220
0.0
230
1.0
 70
     8
 71
     3
 72
     9
 73
     5
 74
     0
 42
0.000000001
 43
0.00000001
 40
0.0
 40
0.0
 40
0.0
 40
0.0
 40
0.2686339456448456
 40
0.9999999999999999
 40
0.9999999999999999
 40
0.9999999999999999
 40
0.9999999999999999
 10
126.1137580364146
 20
138.1960253505213
 30
0.0
 10
126.1154142772899
 20
138.2585535878713
 30
0.0
 10
126.1215796964496
 20
138.491317311011
 30
0.0
 10
126.1815469633072
 20
138.7179437627397
 30
0.0
 10
126.2254049866594
 20
138.883690656553
 30
0.0
  0
SPLINE
  5
2E7
330
1F
100
AcDbEntity
  8
0
  6
Continuous
 62
     7
370
    25
100
AcDbSpline
210
0.0
220
0.0
230
1.0
 70
     8
 71
     3
 72
     9
 73
     5
 74
     0
 42
0.000000001
 43
0.00000001
 40
0.0
 40
0.0
 40
0.0
 40
0.0
 40
0.2575516847509375
 40
1.0
 40
1.0
 40
1.0
 40
1.0
 10
127.3021107404627
 20
137.5083609758121
 30
0.0
 10
127.3189656430213
 20
137.5660915769373
 30
0.0
 10
127.3844084397745
 20
137.7902430950335
 30
0.0
 10
127.4012521249939
 20
138.0231236068608
 30
0.0
 10
127.4137576907076
 20
138.1960253505213
 30
0.0
  0
LINE
  5
2E8
330
1F
100
AcDbEntity
  8
0
  6
Continuous
 62
     7
370
    25
100
AcDbLine
 10
127.3021107405
 20
137.5083609758
 30
0.0
 11
126.2254049867
 21
137.5083609758
 31
0.0
  0
SPLINE
  5
2E9
330
1F
100
AcDbEntity
  8
0
  6
Continuous
 62
     7
370
    25
100
AcDbSpline
210
0.0
220
0.0
230
1.0
 70
     8
 71
     3
 72
     9
 73
     5
 74
     0
 42
0.000000001
 43
0.00000001
 40
0.0
 40
0.0
 40
0.0
 40
0.0
 40
0.2575516847509375
 40
1.0
 40
1.0
 40
1.0
 40
1.0
 10
126.2254049866595
 20
137.5083609758121
 30
0.0
 10
126.2085500841008
 20
137.5660915769373
 30
0.0
 10
126.1431072873477
 20
137.7902430950335
 30
0.0
 10
126.1262636021283
 20
138.0231236068608
 30
0.0
 10
126.1137580364145
 20
138.1960253505213
 30
0.0
  0
LINE
  5
2EA
330
1F
100
AcDbEntity
  8
0
  6
Continuous
 62
     7
370
    25
100
AcDbLine
 10
126.2254049867
 20
137.5083609758
 30
0.0
 11
126.1137580364
 21
137.3541674851
 31
0.0
  0
LINE
  5
2EB
330
1F
100
AcDbEntity
  8
0
  6
Continuous
 62
     7
370
    25
100
AcDbLine
 10
127.3021107405
 20
137.5083609758
 30
0.0
 11
127.4137576907
 21
137.3541674851
 31
0.0
  0
LINE
  5
2EC
330
1F
100
AcDbEntity
  8
0
  6
Continuous
 62
     7
370
    25
100
AcDbLine
 10
127.4137576907
 20
138.1960253505
 30
0.0
 11
127.4137576907
 21
137.3541674851
 31
0.0
  0
LINE
  5
2ED
330
1F
100
AcDbEntity
  8
0
  6
Continuous
 62
     7
370
    25
100
AcDbLine
 10
127.376482436
 20
139.854705268
 30
0.0
 11
127.3021107405
 21
139.9506324245
 31
0.0
  0
LINE
  5
2EE
330
1F
100
AcDbEntity
  8
0
  6
Continuous
 62
     7
370
    25
100
AcDbLine
 10
127.4137576907
 20
139.8253034143
 30
0.0
 11
127.4137576907
 21
139.4171615405
 31
0.0
  0
SPLINE
  5
2EF
330
1F
100
AcDbEntity
  8
0
  6
Continuous
 62
     7
370
    25
100
AcDbSpline
210
0.0
220
0.0
230
1.0
 70
     8
 71
     3
 72
     9
 73
     5
 74
     0
 42
0.000000001
 43
0.00000001
 40
0.0
 40
0.0
 40
0.0
 40
0.0
 40
0.0702007552522052
 40
1.0
 40
1.0
 40
1.0
 40
1.0
 10
127.4137576907076
 20
137.3541674850685
 30
0.0
 10
127.4136475566047
 20
137.3505121922846
 30
0.0
 10
127.4120787116191
 20
137.2984430546977
 30
0.0
 10
127.3550945608295
 20
137.2474175085738
 30
0.0
 10
127.3021107404627
 20
137.1999739943249
 30
0.0
  0
LINE
  5
2F0
330
1F
100
AcDbEntity
  8
0
  6
Continuous
 62
     7
370
    25
100
AcDbLine
 10
127.3021107405
 20
137.1999739943
 30
0.0
 11
126.2254049867
 21
137.1999739943
 31
0.0
  0
LINE
  5
2F1
330
1F
100
AcDbEntity
  8
0
  6
Continuous
 62
     7
370
    25
100
AcDbLine
 10
126.1510407417
 20
137.2959011508
 30
0.0
 11
126.2254049867
 21
137.1999739943
 31
0.0
  0
LINE
  5
2F2
330
1F
100
AcDbEntity
  8
0
  6
Continuous
 62
     7
370
    25
100
AcDbLine
 10
127.4137576907
 20
137.3541674851
 30
0.0
 11
127.4137576907
 21
137.3253030045
 31
0.0
  0
LINE
  5
2F3
330
1F
100
AcDbEntity
  8
0
  6
Continuous
 62
     7
370
    25
100
AcDbLine
 10
128.6137556522
 20
137.157240258
 30
0.0
 11
127.5879075616
 21
137.157240258
 31
0.0
  0
SPLINE
  5
2F4
330
1F
100
AcDbEntity
  8
0
  6
Continuous
 62
     7
370
    25
100
AcDbSpline
210
0.0
220
0.0
230
1.0
 70
     8
 71
     3
 72
     9
 73
     5
 74
     0
 42
0.000000001
 43
0.00000001
 40
0.0
 40
0.0
 40
0.0
 40
0.0
 40
0.0702008740550461
 40
1.0
 40
1.0
 40
1.0
 40
1.0
 10
127.4762606113352
 20
137.6282929716808
 30
0.0
 10
127.4763707451055
 20
137.6171261405371
 30
0.0
 10
127.4779395826984
 20
137.4580564523874
 30
0.0
 10
127.5349237409993
 20
137.3021769153131
 30
0.0
 10
127.5879075615801
 20
137.1572402579886
 30
0.0
  0
LINE
  5
2F5
330
1F
100
AcDbEntity
  8
0
  6
Continuous
 62
     7
370
    25
100
AcDbLine
 10
127.5879075616
 20
138.0993447541
 30
0.0
 11
127.4762606113
 21
137.6282929717
 31
0.0
  0
LINE
  5
2F6
330
1F
100
AcDbEntity
  8
0
  6
Continuous
 62
     7
370
    25
100
AcDbLine
 10
128.6137556522
 20
138.0993447541
 30
0.0
 11
127.5879075616
 21
138.0993447541
 31
0.0
  0
SPLINE
  5
2F7
330
1F
100
AcDbEntity
  8
0
  6
Continuous
 62
     7
370
    25
100
AcDbSpline
210
0.0
220
0.0
230
1.0
 70
     8
 71
     3
 72
     9
 73
     5
 74
     0
 42
0.000000001
 43
0.00000001
 40
0.0
 40
0.0
 40
0.0
 40
0.0
 40
0.2575526339922936
 40
1.0
 40
1.0
 40
1.0
 40
1.0
 10
127.5879075615801
 20
138.0993447540504
 30
0.0
 10
127.5710526598145
 20
138.1588692741059
 30
0.0
 10
127.5056101073376
 20
138.389985217798
 30
0.0
 10
127.4887662722956
 20
138.6301022238856
 30
0.0
 10
127.4762606113352
 20
138.808376462589
 30
0.0
  0
LINE
  5
2F8
330
1F
100
AcDbEntity
  8
0
  6
Continuous
 62
     7
370
    25
100
AcDbLine
 10
127.4762606113
 20
137.6282929717
 30
0.0
 11
127.4762606113
 21
138.8083764626
 31
0.0
  0
SPLINE
  5
2F9
330
1F
100
AcDbEntity
  8
0
  6
Continuous
 62
     7
370
    25
100
AcDbSpline
210
0.0
220
0.0
230
1.0
 70
     8
 71
     3
 72
     9
 73
     5
 74
     0
 42
0.000000001
 43
0.00000001
 40
0.0
 40
0.0
 40
0.0
 40
0.0
 40
0.2686332406911227
 40
1.0
 40
1.0
 40
1.0
 40
1.0
 10
127.4762606113352
 20
138.808376462589
 30
0.0
 10
127.4779168616724
 20
138.8728473733215
 30
0.0
 10
127.4840823322336
 20
139.1128434012394
 30
0.0
 10
127.5440495395213
 20
139.3465112637607
 30
0.0
 10
127.5879075615801
 20
139.5174081711275
 30
0.0
  0
LINE
  5
2FA
330
1F
100
AcDbEntity
  8
0
  6
Continuous
 62
     7
370
    25
100
AcDbLine
 10
128.6137556522
 20
139.5174081711
 30
0.0
 11
127.5879075616
 21
139.5174081711
 31
0.0
  0
SPLINE
  5
2FB
330
1F
100
AcDbEntity
  8
0
  6
Continuous
 62
     7
370
    25
100
AcDbSpline
210
0.0
220
0.0
230
1.0
 70
     8
 71
     3
 72
     9
 73
     5
 74
     0
 42
0.000000001
 43
0.00000001
 40
0.0
 40
0.0
 40
0.0
 40
0.0
 40
0.0702018778233921
 40
1.0
 40
1.0
 40
1.0
 40
1.0
 10
127.4762606113352
 20
139.7553871659738
 30
0.0
 10
127.4763707422953
 20
139.7497456760115
 30
0.0
 10
127.4779395174274
 20
139.6693847207598
 30
0.0
 10
127.5349237391908
 20
139.5906321570145
 30
0.0
 10
127.5879075615801
 20
139.5174081711275
 30
0.0
  0
LINE
  5
2FC
330
1F
100
AcDbEntity
  8
0
  6
Continuous
 62
     7
370
    25
100
AcDbLine
 10
127.4762606113
 20
138.8083764626
 30
0.0
 11
127.4762606113
 21
139.755387166
 31
0.0
  0
LINE
  5
2FD
330
1F
100
AcDbEntity
  8
0
  6
Continuous
 62
     7
370
    25
100
AcDbLine
 10
127.5879075616
 20
139.9933661608
 30
0.0
 11
127.4762606113
 21
139.755387166
 31
0.0
  0
LINE
  5
2FE
330
1F
100
AcDbEntity
  8
0
  6
Continuous
 62
     7
370
    25
100
AcDbLine
 10
128.6137556522
 20
139.9933661608
 30
0.0
 11
127.5879075616
 21
139.9933661608
 31
0.0
  0
LINE
  5
2FF
330
1F
100
AcDbEntity
  8
0
  6
Continuous
 62
     7
370
    25
100
AcDbLine
 10
127.5879075616
 20
137.157240258
 30
0.0
 11
127.5439193337
 21
137.2509992955
 31
0.0
  0
LINE
  5
300
330
1F
100
AcDbEntity
  8
0
  6
Continuous
 62
     7
370
    25
100
AcDbLine
 10
127.4762606113
 20
137.3253030045
 30
0.0
 11
127.4762606113
 21
137.6282929717
 31
0.0
  0
LINE
  5
301
330
1F
100
AcDbEntity
  8
0
  6
Continuous
 62
     7
370
    25
100
AcDbLine
 10
127.4762606113
 20
139.755387166
 30
0.0
 11
127.4762606113
 21
139.8253034143
 31
0.0
  0
ENDSEC
  0
SECTION
  2
OBJECTS
  0
DICTIONARY
  5
C
330
0
100
AcDbDictionary
281
     1
  3
ACAD_GROUP
350
D
  3
ACAD_LAYOUT
350
1A
  3
ACAD_MLINESTYLE
350
17
  3
ACAD_PLOTSETTINGS
350
19
  3
ACAD_PLOTSTYLENAME
350
E
  3
ACAD_SCALELIST
350
47
  0
DICTIONARY
  5
D
102
{ACAD_REACTORS
330
C
102
}
330
C
100
AcDbDictionary
281
     1
  0
DICTIONARY
  5
1A
102
{ACAD_REACTORS
330
C
102
}
330
C
100
AcDbDictionary
281
     1
  3
Layout1
350
1E
  3
Layout2
350
26
  3
Model
350
22
  0
DICTIONARY
  5
17
102
{ACAD_REACTORS
330
C
102
}
330
C
100
AcDbDictionary
281
     1
  3
Standard
350
18
  0
DICTIONARY
  5
19
102
{ACAD_REACTORS
330
C
102
}
330
C
100
AcDbDictionary
281
     1
  0
ACDBDICTIONARYWDFLT
  5
E
102
{ACAD_REACTORS
330
C
102
}
330
C
100
AcDbDictionary
281
     1
  3
Normal
350
F
100
AcDbDictionaryWithDefault
340
F
  0
DICTIONARY
  5
47
102
{ACAD_REACTORS
330
C
102
}
330
C
100
AcDbDictionary
281
     1
  3
A0
350
48
  3
A1
350
49
  3
A2
350
4A
  3
A3
350
4B
  3
A4
350
4C
  3
A5
350
4D
  3
A6
350
4E
  3
A7
350
4F
  3
A8
350
50
  3
A9
350
51
  3
B0
350
52
  3
B1
350
53
  3
B2
350
54
  3
B3
350
55
  3
B4
350
56
  3
B5
350
57
  3
B6
350
58
  3
B7
350
59
  3
B8
350
5A
  3
B9
350
5B
  3
C0
350
5C
  3
C1
350
5D
  3
C2
350
5E
  3
C3
350
5F
  3
C4
350
60
  3
C5
350
61
  3
C6
350
62
  3
C7
350
63
  3
C8
350
64
  3
C9
350
65
  3
D0
350
66
  3
D1
350
67
  3
D2
350
68
  0
LAYOUT
  5
1E
102
{ACAD_REACTORS
330
1A
102
}
330
1A
100
AcDbPlotSettings
  1

  2
none_device
  4

  6

 40
0.0
 41
0.0
 42
0.0
 43
0.0
 44
0.0
 45
0.0
 46
0.0
 47
0.0
 48
0.0
 49
0.0
140
0.0
141
0.0
142
1.0
143
1.0
 70
   688
 72
     1
 73
     0
 74
     5
  7

 75
    16
147
1.0
148
0.0
149
0.0
100
AcDbLayout
  1
Layout1
 70
     1
 71
     1
 10
0.0
 20
0.0
 11
420.0
 21
297.0
 12
0.0
 22
0.0
 32
0.0
 14
1.0000000000E+20
 24
1.0000000000E+20
 34
1.0000000000E+20
 15
-1.0000000000E+20
 25
-1.0000000000E+20
 35
-1.0000000000E+20
146
0.0
 13
0.0
 23
0.0
 33
0.0
 16
1.0
 26
0.0
 36
0.0
 17
0.0
 27
1.0
 37
0.0
 76
     0
330
1B
  0
LAYOUT
  5
26
102
{ACAD_REACTORS
330
1A
102
}
330
1A
100
AcDbPlotSettings
  1

  2
none_device
  4

  6

 40
0.0
 41
0.0
 42
0.0
 43
0.0
 44
0.0
 45
0.0
 46
0.0
 47
0.0
 48
0.0
 49
0.0
140
0.0
141
0.0
142
1.0
143
1.0
 70
   688
 72
     1
 73
     0
 74
     5
  7

 75
    16
147
1.0
148
0.0
149
0.0
100
AcDbLayout
  1
Layout2
 70
     1
 71
     2
 10
0.0
 20
0.0
 11
0.0
 21
0.0
 12
0.0
 22
0.0
 32
0.0
 14
0.0
 24
0.0
 34
0.0
 15
0.0
 25
0.0
 35
0.0
146
0.0
 13
0.0
 23
0.0
 33
0.0
 16
1.0
 26
0.0
 36
0.0
 17
0.0
 27
1.0
 37
0.0
 76
     0
330
23
  0
LAYOUT
  5
22
102
{ACAD_REACTORS
330
1A
102
}
330
1A
100
AcDbPlotSettings
  1

  2
none_device
  4
Letter_(8.50_x_11.00_Inches)
  6

 40
6.35
 41
6.35
 42
6.35000508
 43
6.35000508
 44
215.9
 45
279.4
 46
0.0
 47
0.0
 48
0.0
 49
0.0
140
0.0
141
0.0
142
1.0
143
1.0
 70
  1712
 72
     1
 73
     0
 74
     0
  7

 75
     0
147
1.0
148
0.0
149
0.0
100
AcDbLayout
  1
Model
 70
     1
 71
     0
 10
0.0
 20
0.0
 11
420.0
 21
297.0
 12
0.0
 22
0.0
 32
0.0
 14
0.0
 24
0.0
 34
0.0
 15
420.0
 25
297.0
 35
0.0
146
0.0
 13
0.0
 23
0.0
 33
0.0
 16
1.0
 26
0.0
 36
0.0
 17
0.0
 27
1.0
 37
0.0
 76
     0
330
1F
331
29
  0
MLINESTYLE
  5
18
102
{ACAD_REACTORS
330
17
102
}
330
17
100
AcDbMlineStyle
  2
Standard
 70
     0
  3

 62
   256
 51
90.0
 52
90.0
 71
     2
 49
0.5
 62
   256
  6
BYLAYER
 49
-0.5
 62
   256
  6
BYLAYER
  0
ACDBPLACEHOLDER
  5
F
102
{ACAD_REACTORS
330
E
102
}
330
E
  0
SCALE
  5
48
102
{ACAD_REACTORS
330
47
102
}
330
47
100
AcDbScale
 70
     0
300
1:1
140
1.0
141
1.0
290
     1
  0
SCALE
  5
49
102
{ACAD_REACTORS
330
47
102
}
330
47
100
AcDbScale
 70
     0
300
1:2
140
1.0
141
2.0
290
     0
  0
SCALE
  5
4A
102
{ACAD_REACTORS
330
47
102
}
330
47
100
AcDbScale
 70
     0
300
1:4
140
1.0
141
4.0
290
     0
  0
SCALE
  5
4B
102
{ACAD_REACTORS
330
47
102
}
330
47
100
AcDbScale
 70
     0
300
1:5
140
1.0
141
5.0
290
     0
  0
SCALE
  5
4C
102
{ACAD_REACTORS
330
47
102
}
330
47
100
AcDbScale
 70
     0
300
1:8
140
1.0
141
8.0
290
     0
  0
SCALE
  5
4D
102
{ACAD_REACTORS
330
47
102
}
330
47
100
AcDbScale
 70
     0
300
1:10
140
1.0
141
10.0
290
     0
  0
SCALE
  5
4E
102
{ACAD_REACTORS
330
47
102
}
330
47
100
AcDbScale
 70
     0
300
1:16
140
1.0
141
16.0
290
     0
  0
SCALE
  5
4F
102
{ACAD_REACTORS
330
47
102
}
330
47
100
AcDbScale
 70
     0
300
1:20
140
1.0
141
20.0
290
     0
  0
SCALE
  5
50
102
{ACAD_REACTORS
330
47
102
}
330
47
100
AcDbScale
 70
     0
300
1:30
140
1.0
141
30.0
290
     0
  0
SCALE
  5
51
102
{ACAD_REACTORS
330
47
102
}
330
47
100
AcDbScale
 70
     0
300
1:40
140
1.0
141
40.0
290
     0
  0
SCALE
  5
52
102
{ACAD_REACTORS
330
47
102
}
330
47
100
AcDbScale
 70
     0
300
1:50
140
1.0
141
50.0
290
     0
  0
SCALE
  5
53
102
{ACAD_REACTORS
330
47
102
}
330
47
100
AcDbScale
 70
     0
300
1:100
140
1.0
141
100.0
290
     0
  0
SCALE
  5
54
102
{ACAD_REACTORS
330
47
102
}
330
47
100
AcDbScale
 70
     0
300
2:1
140
2.0
141
1.0
290
     0
  0
SCALE
  5
55
102
{ACAD_REACTORS
330
47
102
}
330
47
100
AcDbScale
 70
     0
300
4:1
140
4.0
141
1.0
290
     0
  0
SCALE
  5
56
102
{ACAD_REACTORS
330
47
102
}
330
47
100
AcDbScale
 70
     0
300
8:1
140
8.0
141
1.0
290
     0
  0
SCALE
  5
57
102
{ACAD_REACTORS
330
47
102
}
330
47
100
AcDbScale
 70
     0
300
10:1
140
10.0
141
1.0
290
     0
  0
SCALE
  5
58
102
{ACAD_REACTORS
330
47
102
}
330
47
100
AcDbScale
 70
     0
300
100:1
140
100.0
141
1.0
290
     0
  0
SCALE
  5
59
102
{ACAD_REACTORS
330
47
102
}
330
47
100
AcDbScale
 70
     0
300
1/128" = 1'-0"
140
0.0078125
141
12.0
290
     0
  0
SCALE
  5
5A
102
{ACAD_REACTORS
330
47
102
}
330
47
100
AcDbScale
 70
     0
300
1/64" = 1'-0"
140
0.015625
141
12.0
290
     0
  0
SCALE
  5
5B
102
{ACAD_REACTORS
330
47
102
}
330
47
100
AcDbScale
 70
     0
300
1/32" = 1'-0"
140
0.03125
141
12.0
290
     0
  0
SCALE
  5
5C
102
{ACAD_REACTORS
330
47
102
}
330
47
100
AcDbScale
 70
     0
300
1/16" = 1'-0"
140
0.0625
141
12.0
290
     0
  0
SCALE
  5
5D
102
{ACAD_REACTORS
330
47
102
}
330
47
100
AcDbScale
 70
     0
300
3/32" = 1'-0"
140
0.09375
141
12.0
290
     0
  0
SCALE
  5
5E
102
{ACAD_REACTORS
330
47
102
}
330
47
100
AcDbScale
 70
     0
300
1/8" = 1'-0"
140
0.125
141
12.0
290
     0
  0
SCALE
  5
5F
102
{ACAD_REACTORS
330
47
102
}
330
47
100
AcDbScale
 70
     0
300
3/16" = 1'-0"
140
0.1875
141
12.0
290
     0
  0
SCALE
  5
60
102
{ACAD_REACTORS
330
47
102
}
330
47
100
AcDbScale
 70
     0
300
1/4" = 1'-0"
140
0.25
141
12.0
290
     0
  0
SCALE
  5
61
102
{ACAD_REACTORS
330
47
102
}
330
47
100
AcDbScale
 70
     0
300
3/8" = 1'-0"
140
0.375
141
12.0
290
     0
  0
SCALE
  5
62
102
{ACAD_REACTORS
330
47
102
}
330
47
100
AcDbScale
 70
     0
300
1/2" = 1'-0"
140
0.5
141
12.0
290
     0
  0
SCALE
  5
63
102
{ACAD_REACTORS
330
47
102
}
330
47
100
AcDbScale
 70
     0
300
3/4" = 1'-0"
140
0.75
141
12.0
290
     0
  0
SCALE
  5
64
102
{ACAD_REACTORS
330
47
102
}
330
47
100
AcDbScale
 70
     0
300
1" = 1'-0"
140
1.0
141
12.0
290
     0
  0
SCALE
  5
65
102
{ACAD_REACTORS
330
47
102
}
330
47
100
AcDbScale
 70
     0
300
1-1/2" = 1'-0"
140
1.5
141
12.0
290
     0
  0
SCALE
  5
66
102
{ACAD_REACTORS
330
47
102
}
330
47
100
AcDbScale
 70
     0
300
3" = 1'-0"
140
3.0
141
12.0
290
     0
  0
SCALE
  5
67
102
{ACAD_REACTORS
330
47
102
}
330
47
100
AcDbScale
 70
     0
300
6" = 1'-0"
140
6.0
141
12.0
290
     0
  0
SCALE
  5
68
102
{ACAD_REACTORS
330
47
102
}
330
47
100
AcDbScale
 70
     0
300
1'-0" = 1'-0"
140
12.0
141
12.0
290
     0
  0
ENDSEC
  0
EOF
