  0
SECTION
  2
HEADER
  9
$ACADVER
  1
AC1015
  9
$ACADMAINTVER
 70
     6
  9
$DWGCODEPAGE
  3
ANSI_1252
  9
$INSBASE
 10
0.0
 20
0.0
 30
0.0
  9
$EXTMIN
 10
0.0
 20
0.0
 30
0.0
  9
$EXTMAX
 10
420.0
 20
297.0
 30
0.0
  9
$LIMMIN
 10
0.0
 20
0.0
  9
$LIMMAX
 10
420.0
 20
297.0
  9
$ORTHOMODE
 70
     0
  9
$REGENMODE
 70
     1
  9
$FILLMODE
 70
     1
  9
$QTEXTMODE
 70
     0
  9
$MIRRTEXT
 70
     1
  9
$LTSCALE
 40
1.0
  9
$ATTMODE
 70
     1
  9
$TEXTSIZE
 40
3.5
  9
$TRACEWID
 40
1.0
  9
$TEXTSTYLE
  7
Standard
  9
$CLAYER
  8
0
  9
$CELTYPE
  6
ByLayer
  9
$CECOLOR
 62
   256
  9
$CELTSCALE
 40
1.0
  9
$DISPSILH
 70
     0
  9
$DIMSCALE
 40
1.0
  9
$DIMASZ
 40
3.302
  9
$DIMEXO
 40
1.0
  9
$DIMDLI
 40
3.75
  9
$DIMRND
 40
0.0
  9
$DIMDLE
 40
0.0
  9
$DIMEXE
 40
1.0
  9
$DIMTP
 40
0.0
  9
$DIMTM
 40
0.0
  9
$DIMTXT
 40
3.5
  9
$DIMCEN
 40
2.5
  9
$DIMTSZ
 40
0.0
  9
$DIMTOL
 70
     0
  9
$DIMLIM
 70
     0
  9
$DIMTIH
 70
     1
  9
$DIMTOH
 70
     1
  9
$DIMSE1
 70
     0
  9
$DIMSE2
 70
     0
  9
$DIMTAD
 70
     1
  9
$DIMZIN
 70
     0
  9
$DIMBLK
  1

  9
$DIMASO
 70
     1
  9
$DIMSHO
 70
     1
  9
$DIMPOST
  1

  9
$DIMAPOST
  1

  9
$DIMALT
 70
     0
  9
$DIMALTD
 70
     3
  9
$DIMALTF
 40
0.0393700787
  9
$DIMLFAC
 40
4.0
  9
$DIMTOFL
 70
     1
  9
$DIMTVP
 40
0.0
  9
$DIMTIX
 70
     0
  9
$DIMSOXD
 70
     0
  9
$DIMSAH
 70
     0
  9
$DIMBLK1
  1

  9
$DIMBLK2
  1

  9
$DIMSTYLE
  2
ISO-25
  9
$DIMCLRD
 70
     0
  9
$DIMCLRE
 70
     0
  9
$DIMCLRT
 70
     0
  9
$DIMTFAC
 40
1.0
  9
$DIMGAP
 40
1.524
  9
$DIMJUST
 70
     0
  9
$DIMSD1
 70
     0
  9
$DIMSD2
 70
     0
  9
$DIMTOLJ
 70
     0
  9
$DIMTZIN
 70
     0
  9
$DIMALTZ
 70
     0
  9
$DIMALTTZ
 70
     0
  9
$DIMUPT
 70
     0
  9
$DIMDEC
 70
     1
  9
$DIMTDEC
 70
     1
  9
$DIMALTU
 70
     2
  9
$DIMALTTD
 70
     3
  9
$DIMTXSTY
  7
Standard
  9
$DIMAUNIT
 70
     0
  9
$DIMADEC
 70
     1
  9
$DIMALTRND
 40
0.0
  9
$DIMAZIN
 70
     0
  9
$DIMDSEP
 70
    44
  9
$DIMATFIT
 70
     3
  9
$DIMFRAC
 70
     0
  9
$DIMLDRBLK
  1

  9
$DIMLUNIT
 70
     2
  9
$DIMLWD
 70
    -2
  9
$DIMLWE
 70
    -2
  9
$DIMTMOVE
 70
     0
  9
$LUNITS
 70
     2
  9
$LUPREC
 70
     1
  9
$SKETCHINC
 40
1.0
  9
$FILLETRAD
 40
10.0
  9
$AUNITS
 70
     0
  9
$AUPREC
 70
     1
  9
$MENU
  1
.
  9
$ELEVATION
 40
0.0
  9
$PELEVATION
 40
0.0
  9
$THICKNESS
 40
0.0
  9
$LIMCHECK
 70
     0
  9
$CHAMFERA
 40
0.0
  9
$CHAMFERB
 40
0.0
  9
$CHAMFERC
 40
0.0
  9
$CHAMFERD
 40
0.0
  9
$SKPOLY
 70
     0
  9
$TDCREATE
 40
2457847.364916505
  9
$TDUCREATE
 40
2457847.323249838
  9
$TDUPDATE
 40
2457847.364918739
  9
$TDUUPDATE
 40
2457847.323252072
  9
$TDINDWG
 40
0.0000000116
  9
$TDUSRTIMER
 40
0.0000000116
  9
$USRTIMER
 70
     1
  9
$ANGBASE
 50
0.0
  9
$ANGDIR
 70
     0
  9
$PDMODE
 70
     0
  9
$PDSIZE
 40
-1.0
  9
$PLINEWID
 40
0.0
  9
$SPLFRAME
 70
     0
  9
$SPLINETYPE
 70
     6
  9
$SPLINESEGS
 70
     8
  9
$HANDSEED
  5
33C
  9
$SURFTAB1
 70
     6
  9
$SURFTAB2
 70
     6
  9
$SURFTYPE
 70
     6
  9
$SURFU
 70
     6
  9
$SURFV
 70
     6
  9
$UCSBASE
  2

  9
$UCSNAME
  2

  9
$UCSORG
 10
0.0
 20
0.0
 30
0.0
  9
$UCSXDIR
 10
1.0
 20
0.0
 30
0.0
  9
$UCSYDIR
 10
0.0
 20
1.0
 30
0.0
  9
$UCSORTHOREF
  2

  9
$UCSORTHOVIEW
 70
     0
  9
$UCSORGTOP
 10
0.0
 20
0.0
 30
0.0
  9
$UCSORGBOTTOM
 10
0.0
 20
0.0
 30
0.0
  9
$UCSORGLEFT
 10
0.0
 20
0.0
 30
0.0
  9
$UCSORGRIGHT
 10
0.0
 20
0.0
 30
0.0
  9
$UCSORGFRONT
 10
0.0
 20
0.0
 30
0.0
  9
$UCSORGBACK
 10
0.0
 20
0.0
 30
0.0
  9
$PUCSBASE
  2

  9
$PUCSNAME
  2

  9
$PUCSORG
 10
0.0
 20
0.0
 30
0.0
  9
$PUCSXDIR
 10
1.0
 20
0.0
 30
0.0
  9
$PUCSYDIR
 10
0.0
 20
1.0
 30
0.0
  9
$PUCSORTHOREF
  2

  9
$PUCSORTHOVIEW
 70
     0
  9
$PUCSORGTOP
 10
0.0
 20
0.0
 30
0.0
  9
$PUCSORGBOTTOM
 10
0.0
 20
0.0
 30
0.0
  9
$PUCSORGLEFT
 10
0.0
 20
0.0
 30
0.0
  9
$PUCSORGRIGHT
 10
0.0
 20
0.0
 30
0.0
  9
$PUCSORGFRONT
 10
0.0
 20
0.0
 30
0.0
  9
$PUCSORGBACK
 10
0.0
 20
0.0
 30
0.0
  9
$USERI1
 70
     0
  9
$USERI2
 70
     0
  9
$USERI3
 70
     0
  9
$USERI4
 70
     0
  9
$USERI5
 70
     0
  9
$USERR1
 40
0.0
  9
$USERR2
 40
0.0
  9
$USERR3
 40
0.0
  9
$USERR4
 40
0.0
  9
$USERR5
 40
0.0
  9
$WORLDVIEW
 70
     1
  9
$SHADEDGE
 70
     3
  9
$SHADEDIF
 70
    70
  9
$TILEMODE
 70
     1
  9
$MAXACTVP
 70
    64
  9
$PINSBASE
 10
0.0
 20
0.0
 30
0.0
  9
$PLIMCHECK
 70
     0
  9
$PEXTMIN
 10
1.0000000000E+20
 20
1.0000000000E+20
 30
1.0000000000E+20
  9
$PEXTMAX
 10
-1.0000000000E+20
 20
-1.0000000000E+20
 30
-1.0000000000E+20
  9
$PLIMMIN
 10
0.0
 20
0.0
  9
$PLIMMAX
 10
420.0
 20
297.0
  9
$UNITMODE
 70
     0
  9
$VISRETAIN
 70
     1
  9
$PLINEGEN
 70
     0
  9
$PSLTSCALE
 70
     1
  9
$TREEDEPTH
 70
  3020
  9
$CMLSTYLE
  2
Standard
  9
$CMLJUST
 70
     0
  9
$CMLSCALE
 40
20.0
  9
$PROXYGRAPHICS
 70
     1
  9
$MEASUREMENT
 70
     1
  9
$CELWEIGHT
370
    -1
  9
$ENDCAPS
280
     0
  9
$JOINSTYLE
280
     0
  9
$LWDISPLAY
290
     1
  9
$INSUNITS
 70
     4
  9
$HYPERLINKBASE
  1

  9
$STYLESHEET
  1

  9
$XEDIT
290
     1
  9
$CEPSNTYPE
380
     0
  9
$PSTYLEMODE
290
     1
  9
$FINGERPRINTGUID
  2
{6CF716BB-B1A1-4910-8441-197710E23B12}
  9
$VERSIONGUID
  2
{FAEB1C32-E019-11D5-929B-00C0DF256EC4}
  9
$EXTNAMES
290
     1
  9
$PSVPSCALE
 40
0.0
  9
$OLESTARTUP
290
     0
  0
ENDSEC
  0
SECTION
  2
CLASSES
  0
CLASS
  1
ACDBDICTIONARYWDFLT
  2
AcDbDictionaryWithDefault
  3
ObjectDBX Classes
 90
        0
280
     0
281
     0
  0
CLASS
  1
VISUALSTYLE
  2
AcDbVisualStyle
  3
ObjectDBX Classes
 90
     4095
280
     0
281
     0
  0
CLASS
  1
MATERIAL
  2
AcDbMaterial
  3
ObjectDBX Classes
 90
     1153
280
     0
281
     0
  0
CLASS
  1
SCALE
  2
AcDbScale
  3
ObjectDBX Classes
 90
     1153
280
     0
281
     0
  0
CLASS
  1
TABLESTYLE
  2
AcDbTableStyle
  3
ObjectDBX Classes
 90
     4095
280
     0
281
     0
  0
CLASS
  1
MLEADERSTYLE
  2
AcDbMLeaderStyle
  3
ACDB_MLEADERSTYLE_CLASS
 90
     4095
280
     0
281
     0
  0
CLASS
  1
SUN
  2
AcDbSun
  3
SCENEOE
 90
     1153
280
     0
281
     0
  0
CLASS
  1
ACDBPLACEHOLDER
  2
AcDbPlaceHolder
  3
ObjectDBX Classes
 90
        0
280
     0
281
     0
  0
CLASS
  1
LAYOUT
  2
AcDbLayout
  3
ObjectDBX Classes
 90
        0
280
     0
281
     0
  0
ENDSEC
  0
SECTION
  2
TABLES
  0
TABLE
  2
VPORT
  5
8
330
0
100
AcDbSymbolTable
 70
     1
  0
VPORT
  5
29
330
8
100
AcDbSymbolTableRecord
100
AcDbViewportTableRecord
  2
*Active
 70
     0
 10
0.0
 20
0.0
 11
1.0
 21
1.0
 12
210.0
 22
148.5
 13
0.0
 23
0.0
 14
10.0
 24
10.0
 15
10.0
 25
10.0
 16
0.0
 26
0.0
 36
1.0
 17
0.0
 27
0.0
 37
0.0
 40
297.0
 41
1.4141414141
 42
50.0
 43
0.0
 44
0.0
 50
0.0
 51
0.0
 71
     0
 72
  2000
 73
     1
 74
     3
 75
     0
 76
     0
 77
     0
 78
     0
281
     0
 65
     1
110
0.0
120
0.0
130
0.0
111
1.0
121
0.0
131
0.0
112
0.0
122
1.0
132
0.0
 79
     0
146
0.0
  0
ENDTAB
  0
TABLE
  2
LTYPE
  5
5
330
0
100
AcDbSymbolTable
 70
     6
  0
LTYPE
  5
14
330
5
100
AcDbSymbolTableRecord
100
AcDbLinetypeTableRecord
  2
ByBlock
 70
     0
  3

 72
    65
 73
     0
 40
0.0
  0
LTYPE
  5
15
330
5
100
AcDbSymbolTableRecord
100
AcDbLinetypeTableRecord
  2
ByLayer
 70
     0
  3

 72
    65
 73
     0
 40
0.0
  0
LTYPE
  5
16
330
5
100
AcDbSymbolTableRecord
100
AcDbLinetypeTableRecord
  2
Continuous
 70
     0
  3
Solid line
 72
    65
 73
     0
 40
0.0
  0
LTYPE
  5
6E
330
5
100
AcDbSymbolTableRecord
100
AcDbLinetypeTableRecord
  2
HIDDEN
 70
     0
  3
Hidden __ __ __ __ __ __ __ __ __ __ __ __ __ __
 72
    65
 73
     2
 40
1.905
 49
1.27
 74
     0
 49
-0.635
 74
     0
  0
LTYPE
  5
6F
330
5
100
AcDbSymbolTableRecord
100
AcDbLinetypeTableRecord
  2
PHANTOM
 70
     0
  3
Phantom ______  __  __  ______  __  __  ______
 72
    65
 73
     6
 40
12.7
 49
6.35
 74
     0
 49
-1.27
 74
     0
 49
1.27
 74
     0
 49
-1.27
 74
     0
 49
1.27
 74
     0
 49
-1.27
 74
     0
  0
LTYPE
  5
70
330
5
100
AcDbSymbolTableRecord
100
AcDbLinetypeTableRecord
  2
CENTER
 70
     0
  3
Center ____ _ ____ _ ____ _ ____ _ ____ _ ____
 72
    65
 73
     4
 40
10.16
 49
6.35
 74
     0
 49
-1.27
 74
     0
 49
1.27
 74
     0
 49
-1.27
 74
     0
  0
LTYPE
  5
71
330
5
100
AcDbSymbolTableRecord
100
AcDbLinetypeTableRecord
  2
CENTERX2
 70
     0
  3
Center (2x) ________  __  ________  __  _____
 72
    65
 73
     4
 40
20.32
 49
12.7
 74
     0
 49
-2.54
 74
     0
 49
2.54
 74
     0
 49
-2.54
 74
     0
  0
LTYPE
  5
72
330
5
100
AcDbSymbolTableRecord
100
AcDbLinetypeTableRecord
  2
DOT2
 70
     0
  3
Dot (.5x) ........................................
 72
    65
 73
     2
 40
0.635
 49
0.0
 74
     0
 49
-0.635
 74
     0
  0
ENDTAB
  0
TABLE
  2
LAYER
  5
2
330
0
100
AcDbSymbolTable
 70
     4
  0
LAYER
  5
10
330
2
100
AcDbSymbolTableRecord
100
AcDbLayerTableRecord
  2
0
 70
     0
 62
     7
  6
Continuous
370
    -3
390
F
  0
LAYER
  5
73
330
2
100
AcDbSymbolTableRecord
100
AcDbLayerTableRecord
  2
FORMAT
 70
     0
 62
     7
  6
Continuous
370
    -3
390
F
  0
LAYER
  5
74
330
2
100
AcDbSymbolTableRecord
100
AcDbLayerTableRecord
  2
SLD-0
 70
     0
 62
     1
  6
Continuous
370
    -3
390
F
  0
LAYER
  5
75
330
2
100
AcDbSymbolTableRecord
100
AcDbLayerTableRecord
  2
WATERMARK
 70
     0
 62
    20
  6
Continuous
370
    -3
390
F
  0
ENDTAB
  0
TABLE
  2
STYLE
  5
3
330
0
100
AcDbSymbolTable
 70
     1
  0
STYLE
  5
11
330
3
100
AcDbSymbolTableRecord
100
AcDbTextStyleTableRecord
  2
Standard
 70
     0
 40
0.0
 41
1.0
 50
0.0
 71
     0
 42
3.5
  3
txt
  4

  0
ENDTAB
  0
TABLE
  2
VIEW
  5
6
330
0
100
AcDbSymbolTable
 70
     0
  0
ENDTAB
  0
TABLE
  2
UCS
  5
7
330
0
100
AcDbSymbolTable
 70
     0
  0
ENDTAB
  0
TABLE
  2
APPID
  5
9
330
0
100
AcDbSymbolTable
 70
     1
  0
APPID
  5
12
330
9
100
AcDbSymbolTableRecord
100
AcDbRegAppTableRecord
  2
ACAD
 70
     0
  0
ENDTAB
  0
TABLE
  2
DIMSTYLE
  5
A
330
0
100
AcDbSymbolTable
 70
     1
100
AcDbDimStyleTable
  0
DIMSTYLE
105
27
330
A
100
AcDbSymbolTableRecord
100
AcDbDimStyleTableRecord
  2
ISO-25
 70
     0
 41
2.5
 42
0.625
 43
3.75
 44
1.25
 73
     0
 74
     0
 77
     1
 78
     8
140
2.5
141
2.5
143
0.0393700787
147
0.625
171
     3
172
     1
178
     0
271
     2
272
     2
274
     3
278
    44
283
     0
284
     8
340
11
  0
ENDTAB
  0
TABLE
  2
BLOCK_RECORD
  5
1
330
0
100
AcDbSymbolTable
 70
     1
  0
BLOCK_RECORD
  5
1F
330
1
100
AcDbSymbolTableRecord
100
AcDbBlockTableRecord
  2
*Model_Space
340
22
  0
BLOCK_RECORD
  5
1B
330
1
100
AcDbSymbolTableRecord
100
AcDbBlockTableRecord
  2
*Paper_Space
340
1E
  0
BLOCK_RECORD
  5
23
330
1
100
AcDbSymbolTableRecord
100
AcDbBlockTableRecord
  2
*Paper_Space0
340
26
  0
ENDTAB
  0
ENDSEC
  0
SECTION
  2
BLOCKS
  0
BLOCK
  5
20
330
1F
100
AcDbEntity
  8
0
100
AcDbBlockBegin
  2
*Model_Space
 70
     0
 10
0.0
 20
0.0
 30
0.0
  3
*Model_Space
  1

  0
ENDBLK
  5
21
330
1F
100
AcDbEntity
  8
0
100
AcDbBlockEnd
  0
BLOCK
  5
1C
330
1B
100
AcDbEntity
 67
     1
  8
0
100
AcDbBlockBegin
  2
*Paper_Space
 70
     0
 10
0.0
 20
0.0
 30
0.0
  3
*Paper_Space
  1

  0
ENDBLK
  5
1D
330
1B
100
AcDbEntity
 67
     1
  8
0
100
AcDbBlockEnd
  0
BLOCK
  5
24
330
23
100
AcDbEntity
  8
0
100
AcDbBlockBegin
  2
*Paper_Space0
 70
     0
 10
0.0
 20
0.0
 30
0.0
  3
*Paper_Space0
  1

  0
ENDBLK
  5
25
330
23
100
AcDbEntity
  8
0
100
AcDbBlockEnd
  0
ENDSEC
  0
SECTION
  2
ENTITIES
  0
LINE
  5
76
330
1F
100
AcDbEntity
  8
0
  6
Continuous
 62
     7
370
    25
100
AcDbLine
 10
311.4103278849
 20
182.0886249637
 30
0.0
 11
313.9103255007
 21
183.0886251276
 31
0.0
  0
LINE
  5
77
330
1F
100
AcDbEntity
  8
0
  6
Continuous
 62
     7
370
    25
100
AcDbLine
 10
312.1193474862
 20
198.055014292
 30
0.0
 11
311.4103278849
 21
198.3386243677
 31
0.0
  0
LINE
  5
78
330
1F
100
AcDbEntity
  8
0
  6
Continuous
 62
     7
370
    25
100
AcDbLine
 10
313.9103255007
 20
197.3386242038
 30
0.0
 11
313.2445118162
 21
197.6049489325
 31
0.0
  0
LINE
  5
79
330
1F
100
AcDbEntity
  8
0
  6
Continuous
 62
     7
370
    25
100
AcDbLine
 10
314.7716349694
 20
196.9510356879
 30
0.0
 11
313.9103255007
 21
197.3386242038
 31
0.0
  0
LINE
  5
7A
330
1F
100
AcDbEntity
  8
0
  6
Continuous
 62
     7
370
    25
100
AcDbLine
 10
313.9103255007
 20
183.0886251276
 30
0.0
 11
318.7629184458
 21
185.2722906491
 31
0.0
  0
ARC
  5
7B
330
1F
100
AcDbEntity
  8
0
  6
Continuous
 62
     7
370
    25
100
AcDbCircle
 10
318.6603242412
 20
185.500271139
 30
0.0
 40
0.24999999999999
100
AcDbArc
 50
294.227745318
 51
0.0
  0
LINE
  5
7C
330
1F
100
AcDbEntity
  8
0
  6
Continuous
 62
     7
370
    25
100
AcDbLine
 10
313.2693371508
 20
197.5977125561
 30
0.0
 11
312.1075010631
 21
198.0624462461
 31
0.0
  0
LINE
  5
7D
330
1F
100
AcDbEntity
  8
0
  6
Continuous
 62
     7
370
    25
100
AcDbLine
 10
114.7478273842
 20
202.1894588118
 30
0.0
 11
112.4478257033
 21
202.1894588118
 31
0.0
  0
LINE
  5
7E
330
1F
100
AcDbEntity
  8
0
  6
Continuous
 62
     7
370
    25
100
AcDbLine
 10
112.4478257033
 20
194.7644597834
 30
0.0
 11
114.7478273842
 21
194.7644597834
 31
0.0
  0
LINE
  5
7F
330
1F
100
AcDbEntity
  8
0
  6
Continuous
 62
     7
370
    25
100
AcDbLine
 10
116.3228205177
 20
202.1894588118
 30
0.0
 11
115.7228252623
 21
202.1894588118
 31
0.0
  0
LINE
  5
80
330
1F
100
AcDbEntity
  8
0
  6
Continuous
 62
     7
370
    25
100
AcDbLine
 10
115.7228252623
 20
194.7644597834
 30
0.0
 11
116.3228205177
 21
194.7644597834
 31
0.0
  0
ARC
  5
81
330
1F
100
AcDbEntity
  8
0
  6
Continuous
 62
     7
370
    25
100
AcDbCircle
 10
112.4478242412
 20
200.9394590431
 30
0.0
 40
1.25
100
AcDbArc
 50
90.0
 51
180.0
  0
ARC
  5
82
330
1F
100
AcDbEntity
  8
0
  6
Continuous
 62
     7
370
    25
100
AcDbCircle
 10
112.4478242412
 20
196.0144590431
 30
0.0
 40
1.25
100
AcDbArc
 50
180.0
 51
270.0
  0
LINE
  5
83
330
1F
100
AcDbEntity
  8
0
  6
Continuous
 62
     7
370
    25
100
AcDbLine
 10
116.3228205177
 20
194.9769596553
 30
0.0
 11
117.6978251669
 21
194.9769596553
 31
0.0
  0
LINE
  5
84
330
1F
100
AcDbEntity
  8
0
  6
Continuous
 62
     7
370
    25
100
AcDbLine
 10
117.6978251669
 20
201.97695894
 30
0.0
 11
116.3228205177
 21
201.97695894
 31
0.0
  0
LINE
  5
85
330
1F
100
AcDbEntity
  8
0
  6
Continuous
 62
     7
370
    25
100
AcDbLine
 10
117.6978251669
 20
195.2269582992
 30
0.0
 11
118.1978261802
 21
195.2269582992
 31
0.0
  0
LINE
  5
86
330
1F
100
AcDbEntity
  8
0
  6
Continuous
 62
     7
370
    25
100
AcDbLine
 10
118.1978261802
 20
201.7269584334
 30
0.0
 11
117.6978251669
 21
201.7269584334
 31
0.0
  0
LINE
  5
87
330
1F
100
AcDbEntity
  8
0
  6
Continuous
 62
     7
370
    25
100
AcDbLine
 10
119.1103211376
 20
202.6644594019
 30
0.0
 11
118.1978261802
 21
202.6644594019
 31
0.0
  0
LINE
  5
88
330
1F
100
AcDbEntity
  8
0
  6
Continuous
 62
     7
370
    25
100
AcDbLine
 10
118.1978261802
 20
194.2894591933
 30
0.0
 11
119.1103211376
 21
194.2894591933
 31
0.0
  0
LINE
  5
89
330
1F
100
AcDbEntity
  8
0
  6
Continuous
 62
     7
370
    25
100
AcDbLine
 10
128.5272366139
 20
250.5519560522
 30
0.0
 11
128.5764998528
 21
250.5269593543
 31
0.0
  0
LINE
  5
8A
330
1F
100
AcDbEntity
  8
0
  6
Continuous
 62
     7
370
    25
100
AcDbLine
 10
130.3941509458
 20
250.5269593543
 30
0.0
 11
130.4434141848
 21
250.5519560522
 31
0.0
  0
LINE
  5
8B
330
1F
100
AcDbEntity
  8
0
  6
Continuous
 62
     7
370
    25
100
AcDbLine
 10
121.5272373292
 20
250.5519560522
 30
0.0
 11
121.5765005681
 21
250.5269593543
 31
0.0
  0
LINE
  5
8C
330
1F
100
AcDbEntity
  8
0
  6
Continuous
 62
     7
370
    25
100
AcDbLine
 10
123.3941442105
 20
250.5269593543
 30
0.0
 11
123.4434149
 21
250.5519560522
 31
0.0
  0
LINE
  5
8D
330
1F
100
AcDbEntity
  8
0
  6
Continuous
 62
     7
370
    25
100
AcDbLine
 10
125.0272369716
 20
250.5519560522
 30
0.0
 11
125.0765002105
 21
250.5269593543
 31
0.0
  0
LINE
  5
8E
330
1F
100
AcDbEntity
  8
0
  6
Continuous
 62
     7
370
    25
100
AcDbLine
 10
126.8941513035
 20
250.5269593543
 30
0.0
 11
126.9434145424
 21
250.5519560522
 31
0.0
  0
ARC
  5
8F
330
1F
100
AcDbEntity
  8
0
  6
Continuous
 62
     7
370
    25
100
AcDbCircle
 10
303.7370481393
 20
238.1925158203
 30
0.0
 40
0.0625000000000335
100
AcDbArc
 50
293.5
 51
339.6679273206
  0
ARC
  5
90
330
1F
100
AcDbEntity
  8
0
  6
Continuous
 62
     7
370
    25
100
AcDbCircle
 10
302.155119511
 20
237.5046736764
 30
0.0
 40
0.0625000000000282
100
AcDbArc
 50
247.3320726793
 51
293.5
  0
LINE
  5
91
330
1F
100
AcDbEntity
  8
0
  6
Continuous
 62
     7
370
    25
100
AcDbLine
 10
303.9030260179
 20
237.8421372717
 30
0.0
 11
303.8531816337
 21
237.9567719048
 31
0.0
  0
LINE
  5
92
330
1F
100
AcDbEntity
  8
0
  6
Continuous
 62
     7
370
    25
100
AcDbLine
 10
302.2483265731
 20
237.2589579767
 30
0.0
 11
302.2981709573
 21
237.1443307942
 31
0.0
  0
LINE
  5
93
330
1F
100
AcDbEntity
  8
0
  6
Continuous
 62
     7
370
    25
100
AcDbLine
 10
303.554443154
 20
238.3930481022
 30
0.0
 11
303.5460612509
 21
238.4123153037
 31
0.0
  0
LINE
  5
94
330
1F
100
AcDbEntity
  8
0
  6
Continuous
 62
     7
370
    25
100
AcDbLine
 10
302.1246171328
 20
237.7942523902
 30
0.0
 11
302.132999036
 21
237.7749851888
 31
0.0
  0
LINE
  5
95
330
1F
100
AcDbEntity
  8
0
  6
Continuous
 62
     7
370
    25
100
AcDbLine
 10
295.1078242394
 20
247.5574634021
 30
0.0
 11
295.1887524459
 21
247.5574634021
 31
0.0
  0
LINE
  5
96
330
1F
100
AcDbEntity
  8
0
  6
Continuous
 62
     7
370
    25
100
AcDbLine
 10
295.1887524459
 20
249.5574674552
 30
0.0
 11
295.1078242394
 21
249.5574674552
 31
0.0
  0
LINE
  5
97
330
1F
100
AcDbEntity
  8
0
  6
Continuous
 62
     7
370
    25
100
AcDbLine
 10
310.960327718
 20
204.3427641487
 30
0.0
 11
310.9353235695
 21
204.3427641487
 31
0.0
  0
SPLINE
  5
98
330
1F
100
AcDbEntity
  8
0
  6
Continuous
 62
     7
370
    25
100
AcDbSpline
210
0.0
220
0.0
230
1.0
 70
     8
 71
     3
 72
    13
 73
     9
 74
     0
 42
0.000000001
 43
0.00000001
 40
0.0
 40
0.0
 40
0.0
 40
0.0
 40
0.1537020451634011
 40
0.4677647093614734
 40
0.6522422437660211
 40
0.8142458859154883
 40
0.9817568412476462
 40
1.0
 40
1.0
 40
1.0
 40
1.0
 10
116.3097298476156
 20
184.6424725821314
 30
0.0
 10
116.3098182983098
 20
184.6407028373835
 30
0.0
 10
116.310087482192
 20
184.63531693548
 30
0.0
 10
116.3045342110231
 20
184.6251698576037
 30
0.0
 10
116.288995903071
 20
184.6131440187994
 30
0.0
 10
116.2711276184606
 20
184.6062408130832
 30
0.0
 10
116.2564490490082
 20
184.603449461047
 30
0.0
 10
116.2486622328223
 20
184.6039182189761
 30
0.0
 10
116.2478974792417
 20
184.6039642563162
 30
0.0
  0
ARC
  5
99
330
1F
100
AcDbEntity
  8
0
  6
Continuous
 62
     7
370
    25
100
AcDbCircle
 10
114.9728242412
 20
184.5413045692
 30
0.0
 40
0.0625
100
AcDbArc
 50
90.0
 51
180.0
  0
LINE
  5
9A
330
1F
100
AcDbEntity
  8
0
  6
Continuous
 62
     7
370
    25
100
AcDbLine
 10
116.2478229734
 20
184.6038050002
 30
0.0
 11
114.9728274676
 21
184.6038050002
 31
0.0
  0
ARC
  5
9B
330
1F
100
AcDbEntity
  8
0
  6
Continuous
 62
     7
370
    25
100
AcDbCircle
 10
114.9728242412
 20
183.4318492656
 30
0.0
 40
0.0625
100
AcDbArc
 50
180.0
 51
270.0
  0
LINE
  5
9C
330
1F
100
AcDbEntity
  8
0
  6
Continuous
 62
     7
370
    25
100
AcDbLine
 10
114.9728274676
 20
183.3693490347
 30
0.0
 11
116.2478229734
 21
183.3693490347
 31
0.0
  0
ARC
  5
9D
330
1F
100
AcDbEntity
  8
0
  6
Continuous
 62
     7
370
    25
100
AcDbCircle
 10
116.5478242412
 20
183.6144590431
 30
0.0
 40
0.0625
100
AcDbArc
 50
301.0756875726
 51
0.0
  0
LINE
  5
9E
330
1F
100
AcDbEntity
  8
0
  6
Continuous
 62
     7
370
    25
100
AcDbLine
 10
116.2478229734
 20
188.0845691061
 30
0.0
 11
114.9728274676
 21
188.0845691061
 31
0.0
  0
ARC
  5
9F
330
1F
100
AcDbEntity
  8
0
  6
Continuous
 62
     7
370
    25
100
AcDbCircle
 10
114.9728242412
 20
188.0220688206
 30
0.0
 40
0.0625000000000284
100
AcDbArc
 50
90.0
 51
180.0
  0
SPLINE
  5
A0
330
1F
100
AcDbEntity
  8
0
  6
Continuous
 62
     7
370
    25
100
AcDbSpline
210
0.0
220
0.0
230
1.0
 70
     8
 71
     3
 72
    13
 73
     9
 74
     0
 42
0.000000001
 43
0.00000001
 40
0.0
 40
0.0
 40
0.0
 40
0.0
 40
0.1560212019236926
 40
0.4086745784893878
 40
0.5953532291509233
 40
0.7561492364018279
 40
0.9249507979401114
 40
1.0
 40
1.0
 40
1.0
 40
1.0
 10
116.3105866643842
 20
186.6159702634511
 30
0.0
 10
116.3105219975442
 20
186.6165251769483
 30
0.0
 10
116.3103526122731
 20
186.6179786911937
 30
0.0
 10
116.3129385262621
 20
186.6237404671146
 30
0.0
 10
116.324373381209
 20
186.6336806621576
 30
0.0
 10
116.3413207497006
 20
186.6413128592483
 30
0.0
 10
116.3585320310308
 20
186.6454628800052
 30
0.0
 10
116.3694585445397
 20
186.6451769843106
 30
0.0
 10
116.3728213641104
 20
186.645088995069
 30
0.0
  0
LINE
  5
A1
330
1F
100
AcDbEntity
  8
0
  6
Continuous
 62
     7
370
    25
100
AcDbLine
 10
116.3728213641
 20
186.6455611756
 30
0.0
 11
117.6478243205
 21
186.6455611756
 31
0.0
  0
ARC
  5
A2
330
1F
100
AcDbEntity
  8
0
  6
Continuous
 62
     7
370
    25
100
AcDbCircle
 10
117.6478242412
 20
186.7080613771
 30
0.0
 40
0.0625000000000284
100
AcDbArc
 50
270.0
 51
0.0
  0
ARC
  5
A3
330
1F
100
AcDbEntity
  8
0
  6
Continuous
 62
     7
370
    25
100
AcDbCircle
 10
117.6478242412
 20
187.9146031201
 30
0.0
 40
0.0625
100
AcDbArc
 50
0.0
 51
90.0
  0
LINE
  5
A4
330
1F
100
AcDbEntity
  8
0
  6
Continuous
 62
     7
370
    25
100
AcDbLine
 10
117.6478243205
 20
187.9771028629
 30
0.0
 11
116.3728213641
 21
187.9771028629
 31
0.0
  0
ARC
  5
A5
330
1F
100
AcDbEntity
  8
0
  6
Continuous
 62
     7
370
    25
100
AcDbCircle
 10
116.0728242412
 20
187.8394590431
 30
0.0
 40
0.0625
100
AcDbArc
 50
90.0
 51
180.0
  0
LINE
  5
A6
330
1F
100
AcDbEntity
  8
0
  6
Continuous
 62
     7
370
    25
100
AcDbLine
 10
116.1386272642
 20
187.9019591009
 30
0.0
 11
116.0728237364
 21
187.9019591009
 31
0.0
  0
LINE
  5
A7
330
1F
100
AcDbEntity
  8
0
  6
Continuous
 62
     7
370
    25
100
AcDbLine
 10
116.5157011482
 20
183.4768152779
 30
0.0
 11
117.6478243205
 21
183.4768152779
 31
0.0
  0
ARC
  5
A8
330
1F
100
AcDbEntity
  8
0
  6
Continuous
 62
     7
370
    25
100
AcDbCircle
 10
117.6478242412
 20
183.5393149661
 30
0.0
 40
0.0625000000000142
100
AcDbArc
 50
270.0
 51
0.0
  0
LINE
  5
A9
330
1F
100
AcDbEntity
  8
0
  6
Continuous
 62
     7
370
    25
100
AcDbLine
 10
117.9103231761
 20
186.9769592753
 30
0.0
 11
117.8882694575
 21
187.0151537454
 31
0.0
  0
LINE
  5
AA
330
1F
100
AcDbEntity
  8
0
  6
Continuous
 62
     7
370
    25
100
AcDbLine
 10
116.6103235218
 20
184.4769588655
 30
0.0
 11
116.6323772404
 21
184.4387643954
 31
0.0
  0
LINE
  5
AB
330
1F
100
AcDbEntity
  8
0
  6
Continuous
 62
     7
370
    25
100
AcDbLine
 10
117.8882694575
 20
184.4387643954
 30
0.0
 11
117.9103231761
 21
184.4769588655
 31
0.0
  0
LINE
  5
AC
330
1F
100
AcDbEntity
  8
0
  6
Continuous
 62
     7
370
    25
100
AcDbLine
 10
117.9728260967
 20
184.4769588655
 30
0.0
 11
118.0219105217
 21
184.391933771
 31
0.0
  0
LINE
  5
AD
330
1F
100
AcDbEntity
  8
0
  6
Continuous
 62
     7
370
    25
100
AcDbLine
 10
118.0219105217
 20
187.0619843697
 30
0.0
 11
117.9728260967
 21
186.9769592753
 31
0.0
  0
LINE
  5
AE
330
1F
100
AcDbEntity
  8
0
  6
Continuous
 62
     7
370
    25
100
AcDbLine
 10
117.9728260967
 20
186.4769591933
 30
0.0
 11
117.9103231761
 21
186.4769591933
 31
0.0
  0
LINE
  5
AF
330
1F
100
AcDbEntity
  8
0
  6
Continuous
 62
     7
370
    25
100
AcDbLine
 10
117.9103231761
 20
184.9769589474
 30
0.0
 11
117.9728260967
 21
184.9769589474
 31
0.0
  0
ARC
  5
B0
330
1F
100
AcDbEntity
  8
0
  6
Continuous
 62
     7
370
    25
100
AcDbCircle
 10
143.6853242412
 20
29.1519590431
 30
0.0
 40
0.5
100
AcDbArc
 50
270.0
 51
0.0
  0
ARC
  5
B1
330
1F
100
AcDbEntity
  8
0
  6
Continuous
 62
     7
370
    25
100
AcDbCircle
 10
130.4353242412
 20
29.1519590431
 30
0.0
 40
0.5
100
AcDbArc
 50
180.0
 51
270.0
  0
LINE
  5
B2
330
1F
100
AcDbEntity
  8
0
  6
Continuous
 62
     7
370
    25
100
AcDbLine
 10
144.1853246424
 20
29.1519558972
 30
0.0
 11
144.1853246424
 21
30.1519579237
 31
0.0
  0
LINE
  5
B3
330
1F
100
AcDbEntity
  8
0
  6
Continuous
 62
     7
370
    25
100
AcDbLine
 10
129.9353218409
 20
30.1519579237
 30
0.0
 11
129.9353218409
 21
29.1519558972
 31
0.0
  0
ARC
  5
B4
330
1F
100
AcDbEntity
  8
0
  6
Continuous
 62
     7
370
    25
100
AcDbCircle
 10
290.9353242412
 20
29.1519590431
 30
0.0
 40
0.5
100
AcDbArc
 50
270.0
 51
0.0
  0
ARC
  5
B5
330
1F
100
AcDbEntity
  8
0
  6
Continuous
 62
     7
370
    25
100
AcDbCircle
 10
277.6853242412
 20
29.1519590431
 30
0.0
 40
0.5000000000000568
100
AcDbArc
 50
180.0
 51
270.0
  0
LINE
  5
B6
330
1F
100
AcDbEntity
  8
0
  6
Continuous
 62
     7
370
    25
100
AcDbLine
 10
291.4353213045
 20
29.1519558972
 30
0.0
 11
291.4353213045
 21
30.1519579237
 31
0.0
  0
LINE
  5
B7
330
1F
100
AcDbEntity
  8
0
  6
Continuous
 62
     7
370
    25
100
AcDbLine
 10
277.1853259537
 20
30.1519579237
 30
0.0
 11
277.1853259537
 21
29.1519558972
 31
0.0
  0
LINE
  5
B8
330
1F
100
AcDbEntity
  8
0
  6
Continuous
 62
     7
370
    25
100
AcDbLine
 10
291.3853279087
 20
30.1519579237
 30
0.0
 11
291.3853279087
 21
47.1519625729
 31
0.0
  0
LINE
  5
B9
330
1F
100
AcDbEntity
  8
0
  6
Continuous
 62
     7
370
    25
100
AcDbLine
 10
277.2353268001
 20
47.1519625729
 30
0.0
 11
277.2353268001
 21
30.1519579237
 31
0.0
  0
LINE
  5
BA
330
1F
100
AcDbEntity
  8
0
  6
Continuous
 62
     7
370
    25
100
AcDbLine
 10
144.135323796
 20
30.1519579237
 30
0.0
 11
144.135323796
 21
47.1519625729
 31
0.0
  0
LINE
  5
BB
330
1F
100
AcDbEntity
  8
0
  6
Continuous
 62
     7
370
    25
100
AcDbLine
 10
129.9853226873
 20
47.1519625729
 30
0.0
 11
129.9853226873
 21
30.1519579237
 31
0.0
  0
ARC
  5
BC
330
1F
100
AcDbEntity
  8
0
  6
Continuous
 62
     7
370
    25
100
AcDbCircle
 10
292.6603242412
 20
70.2769590431
 30
0.0
 40
0.375
100
AcDbArc
 50
90.0
 51
180.0
  0
ARC
  5
BD
330
1F
100
AcDbEntity
  8
0
  6
Continuous
 62
     7
370
    25
100
AcDbCircle
 10
275.9603242412
 20
70.2769590431
 30
0.0
 40
0.3750000000000568
100
AcDbArc
 50
0.0
 51
90.0
  0
LINE
  5
BE
330
1F
100
AcDbEntity
  8
0
  6
Continuous
 62
     7
370
    25
100
AcDbLine
 10
292.2853207919
 20
48.6600941962
 30
0.0
 11
292.2853207919
 21
70.2769554203
 31
0.0
  0
LINE
  5
BF
330
1F
100
AcDbEntity
  8
0
  6
Continuous
 62
     7
370
    25
100
AcDbLine
 10
276.3353264663
 20
70.2769554203
 30
0.0
 11
276.3353264663
 21
48.6600941962
 31
0.0
  0
ARC
  5
C0
330
1F
100
AcDbEntity
  8
0
  6
Continuous
 62
     7
370
    25
100
AcDbCircle
 10
291.1103242412
 20
48.6601005295
 30
0.0
 40
1.174999999999955
100
AcDbArc
 50
350.5402980318
 51
0.0
  0
ARC
  5
C1
330
1F
100
AcDbEntity
  8
0
  6
Continuous
 62
     7
370
    25
100
AcDbCircle
 10
277.5103242412
 20
48.6601005295
 30
0.0
 40
1.175000000000001
100
AcDbArc
 50
180.0
 51
189.4597019682
  0
LINE
  5
C2
330
1F
100
AcDbEntity
  8
0
  6
Continuous
 62
     7
370
    25
100
AcDbLine
 10
276.3513005111
 20
48.4669900483
 30
0.0
 11
276.5704146358
 21
47.1519625729
 31
0.0
  0
LINE
  5
C3
330
1F
100
AcDbEntity
  8
0
  6
Continuous
 62
     7
370
    25
100
AcDbLine
 10
292.0502400729
 20
47.1519625729
 30
0.0
 11
292.2693467471
 21
48.4669900483
 31
0.0
  0
ARC
  5
C4
330
1F
100
AcDbEntity
  8
0
  6
Continuous
 62
     7
370
    25
100
AcDbCircle
 10
145.4103242412
 20
70.2769590431
 30
0.0
 40
0.375
100
AcDbArc
 50
90.0
 51
180.0
  0
ARC
  5
C5
330
1F
100
AcDbEntity
  8
0
  6
Continuous
 62
     7
370
    25
100
AcDbCircle
 10
128.7103242412
 20
70.2769590431
 30
0.0
 40
0.375
100
AcDbArc
 50
0.0
 51
90.0
  0
LINE
  5
C6
330
1F
100
AcDbEntity
  8
0
  6
Continuous
 62
     7
370
    25
100
AcDbLine
 10
145.0353241298
 20
48.6600941962
 30
0.0
 11
145.0353241298
 21
70.2769554203
 31
0.0
  0
LINE
  5
C7
330
1F
100
AcDbEntity
  8
0
  6
Continuous
 62
     7
370
    25
100
AcDbLine
 10
129.0853223535
 20
70.2769554203
 30
0.0
 11
129.0853223535
 21
48.6600941962
 31
0.0
  0
ARC
  5
C8
330
1F
100
AcDbEntity
  8
0
  6
Continuous
 62
     7
370
    25
100
AcDbCircle
 10
143.8603242412
 20
48.6601005295
 30
0.0
 40
1.174999999999983
100
AcDbArc
 50
350.5402980318
 51
0.0
  0
ARC
  5
C9
330
1F
100
AcDbEntity
  8
0
  6
Continuous
 62
     7
370
    25
100
AcDbCircle
 10
130.2603242412
 20
48.6601005295
 30
0.0
 40
1.174999999999983
100
AcDbArc
 50
180.0
 51
189.4597019682
  0
LINE
  5
CA
330
1F
100
AcDbEntity
  8
0
  6
Continuous
 62
     7
370
    25
100
AcDbLine
 10
129.1013038489
 20
48.4669900483
 30
0.0
 11
129.3204105231
 21
47.1519625729
 31
0.0
  0
LINE
  5
CB
330
1F
100
AcDbEntity
  8
0
  6
Continuous
 62
     7
370
    25
100
AcDbLine
 10
144.8002359602
 20
47.1519625729
 30
0.0
 11
145.0193426344
 21
48.4669900483
 31
0.0
  0
LINE
  5
CC
330
1F
100
AcDbEntity
  8
0
  6
Continuous
 62
     7
370
    25
100
AcDbLine
 10
132.4353269073
 20
174.6019590431
 30
0.0
 11
141.6853270266
 21
174.6019590431
 31
0.0
  0
LINE
  5
CD
330
1F
100
AcDbEntity
  8
0
  6
Continuous
 62
     7
370
    25
100
AcDbLine
 10
141.6853270266
 20
174.6019590431
 30
0.0
 11
142.0388794276
 21
174.6019590431
 31
0.0
  0
LINE
  5
CE
330
1F
100
AcDbEntity
  8
0
  6
Continuous
 62
     7
370
    25
100
AcDbLine
 10
142.0603221986
 20
174.6019590431
 30
0.0
 11
142.0603221986
 21
81.3519603556
 31
0.0
  0
LINE
  5
CF
330
1F
100
AcDbEntity
  8
0
  6
Continuous
 62
     7
370
    25
100
AcDbLine
 10
132.0603242847
 20
174.6019590431
 30
0.0
 11
132.0603242847
 21
81.3519603556
 31
0.0
  0
LINE
  5
D0
330
1F
100
AcDbEntity
  8
0
  6
Continuous
 62
     7
370
    25
100
AcDbLine
 10
132.0817745063
 20
174.6019590431
 30
0.0
 11
132.4353269073
 21
174.6019590431
 31
0.0
  0
LINE
  5
D1
330
1F
100
AcDbEntity
  8
0
  6
Continuous
 62
     7
370
    25
100
AcDbLine
 10
279.6853235695
 20
174.6019590431
 30
0.0
 11
288.9353236887
 21
174.6019590431
 31
0.0
  0
LINE
  5
D2
330
1F
100
AcDbEntity
  8
0
  6
Continuous
 62
     7
370
    25
100
AcDbLine
 10
288.9353236887
 20
174.6019590431
 30
0.0
 11
289.2888760898
 21
174.6019590431
 31
0.0
  0
LINE
  5
D3
330
1F
100
AcDbEntity
  8
0
  6
Continuous
 62
     7
370
    25
100
AcDbLine
 10
289.3103263113
 20
174.6019590431
 30
0.0
 11
289.3103263113
 21
81.3519603556
 31
0.0
  0
LINE
  5
D4
330
1F
100
AcDbEntity
  8
0
  6
Continuous
 62
     7
370
    25
100
AcDbLine
 10
279.3103209469
 20
174.6019590431
 30
0.0
 11
279.3103209469
 21
81.3519603556
 31
0.0
  0
LINE
  5
D5
330
1F
100
AcDbEntity
  8
0
  6
Continuous
 62
     7
370
    25
100
AcDbLine
 10
279.3317711684
 20
174.6019590431
 30
0.0
 11
279.6853235695
 21
174.6019590431
 31
0.0
  0
LINE
  5
D6
330
1F
100
AcDbEntity
  8
0
  6
Continuous
 62
     7
370
    25
100
AcDbLine
 10
122.6853257749
 20
174.6019590431
 30
0.0
 11
126.6103214356
 21
174.6019590431
 31
0.0
  0
LINE
  5
D7
330
1F
100
AcDbEntity
  8
0
  6
Continuous
 62
     7
370
    25
100
AcDbLine
 10
122.0603263709
 20
174.6019590431
 30
0.0
 11
122.0603263709
 21
175.0019590412
 31
0.0
  0
LINE
  5
D8
330
1F
100
AcDbEntity
  8
0
  6
Continuous
 62
     7
370
    25
100
AcDbLine
 10
122.0603263709
 20
174.6019590431
 30
0.0
 11
122.6853257749
 21
174.6019590431
 31
0.0
  0
LINE
  5
D9
330
1F
100
AcDbEntity
  8
0
  6
Continuous
 62
     7
370
    25
100
AcDbLine
 10
127.2353208396
 20
174.6019590431
 30
0.0
 11
127.2353208396
 21
175.0019590412
 31
0.0
  0
LINE
  5
DA
330
1F
100
AcDbEntity
  8
0
  6
Continuous
 62
     7
370
    25
100
AcDbLine
 10
126.6103214356
 20
174.6019590431
 30
0.0
 11
127.2353208396
 21
174.6019590431
 31
0.0
  0
LINE
  5
DB
330
1F
100
AcDbEntity
  8
0
  6
Continuous
 62
     7
370
    25
100
AcDbLine
 10
128.1103244755
 20
174.6019590431
 30
0.0
 11
132.0817745063
 21
174.6019590431
 31
0.0
  0
LINE
  5
DC
330
1F
100
AcDbEntity
  8
0
  6
Continuous
 62
     7
370
    25
100
AcDbLine
 10
142.0388794276
 20
174.6019590431
 30
0.0
 11
146.0103220078
 21
174.6019590431
 31
0.0
  0
LINE
  5
DD
330
1F
100
AcDbEntity
  8
0
  6
Continuous
 62
     7
370
    25
100
AcDbLine
 10
127.4853250715
 20
174.6019590431
 30
0.0
 11
127.4853250715
 21
175.0019590412
 31
0.0
  0
LINE
  5
DE
330
1F
100
AcDbEntity
  8
0
  6
Continuous
 62
     7
370
    25
100
AcDbLine
 10
127.4853250715
 20
174.6019590431
 30
0.0
 11
128.1103244755
 21
174.6019590431
 31
0.0
  0
LINE
  5
DF
330
1F
100
AcDbEntity
  8
0
  6
Continuous
 62
     7
370
    25
100
AcDbLine
 10
146.8853256437
 20
174.6019590431
 30
0.0
 11
146.8853256437
 21
175.0019590412
 31
0.0
  0
LINE
  5
E0
330
1F
100
AcDbEntity
  8
0
  6
Continuous
 62
     7
370
    25
100
AcDbLine
 10
146.8853256437
 20
174.6019590431
 30
0.0
 11
147.5103250477
 21
174.6019590431
 31
0.0
  0
LINE
  5
E1
330
1F
100
AcDbEntity
  8
0
  6
Continuous
 62
     7
370
    25
100
AcDbLine
 10
146.6353214118
 20
174.6019590431
 30
0.0
 11
146.6353214118
 21
175.0019590412
 31
0.0
  0
LINE
  5
E2
330
1F
100
AcDbEntity
  8
0
  6
Continuous
 62
     7
370
    25
100
AcDbLine
 10
146.0103220078
 20
174.6019590431
 30
0.0
 11
146.6353214118
 21
174.6019590431
 31
0.0
  0
LINE
  5
E3
330
1F
100
AcDbEntity
  8
0
  6
Continuous
 62
     7
370
    25
100
AcDbLine
 10
152.0603238377
 20
174.6019590431
 30
0.0
 11
152.0603238377
 21
175.0019590412
 31
0.0
  0
LINE
  5
E4
330
1F
100
AcDbEntity
  8
0
  6
Continuous
 62
     7
370
    25
100
AcDbLine
 10
151.4353244337
 20
174.6019590431
 30
0.0
 11
152.0603238377
 21
174.6019590431
 31
0.0
  0
LINE
  5
E5
330
1F
100
AcDbEntity
  8
0
  6
Continuous
 62
     7
370
    25
100
AcDbLine
 10
147.5103250477
 20
174.6019590431
 30
0.0
 11
151.4353244337
 21
174.6019590431
 31
0.0
  0
LINE
  5
E6
330
1F
100
AcDbEntity
  8
0
  6
Continuous
 62
     7
370
    25
100
AcDbLine
 10
127.2353208396
 20
174.6019590431
 30
0.0
 11
127.4853250715
 21
174.6019590431
 31
0.0
  0
LINE
  5
E7
330
1F
100
AcDbEntity
  8
0
  6
Continuous
 62
     7
370
    25
100
AcDbLine
 10
146.6353214118
 20
174.6019590431
 30
0.0
 11
146.8853256437
 21
174.6019590431
 31
0.0
  0
LINE
  5
E8
330
1F
100
AcDbEntity
  8
0
  6
Continuous
 62
     7
370
    25
100
AcDbLine
 10
269.935322437
 20
174.6019590431
 30
0.0
 11
273.8603255484
 21
174.6019590431
 31
0.0
  0
LINE
  5
E9
330
1F
100
AcDbEntity
  8
0
  6
Continuous
 62
     7
370
    25
100
AcDbLine
 10
269.310323033
 20
174.6019590431
 30
0.0
 11
269.310323033
 21
175.0019590412
 31
0.0
  0
LINE
  5
EA
330
1F
100
AcDbEntity
  8
0
  6
Continuous
 62
     7
370
    25
100
AcDbLine
 10
269.310323033
 20
174.6019590431
 30
0.0
 11
269.935322437
 21
174.6019590431
 31
0.0
  0
LINE
  5
EB
330
1F
100
AcDbEntity
  8
0
  6
Continuous
 62
     7
370
    25
100
AcDbLine
 10
274.4853249523
 20
174.6019590431
 30
0.0
 11
274.4853249523
 21
175.0019590412
 31
0.0
  0
LINE
  5
EC
330
1F
100
AcDbEntity
  8
0
  6
Continuous
 62
     7
370
    25
100
AcDbLine
 10
273.8603255484
 20
174.6019590431
 30
0.0
 11
274.4853249523
 21
174.6019590431
 31
0.0
  0
LINE
  5
ED
330
1F
100
AcDbEntity
  8
0
  6
Continuous
 62
     7
370
    25
100
AcDbLine
 10
275.3603211376
 20
174.6019590431
 30
0.0
 11
279.3317711684
 21
174.6019590431
 31
0.0
  0
LINE
  5
EE
330
1F
100
AcDbEntity
  8
0
  6
Continuous
 62
     7
370
    25
100
AcDbLine
 10
289.2888760898
 20
174.6019590431
 30
0.0
 11
293.2603261206
 21
174.6019590431
 31
0.0
  0
LINE
  5
EF
330
1F
100
AcDbEntity
  8
0
  6
Continuous
 62
     7
370
    25
100
AcDbLine
 10
274.7353217337
 20
174.6019590431
 30
0.0
 11
274.7353217337
 21
175.0019590412
 31
0.0
  0
LINE
  5
F0
330
1F
100
AcDbEntity
  8
0
  6
Continuous
 62
     7
370
    25
100
AcDbLine
 10
274.7353217337
 20
174.6019590431
 30
0.0
 11
275.3603211376
 21
174.6019590431
 31
0.0
  0
LINE
  5
F1
330
1F
100
AcDbEntity
  8
0
  6
Continuous
 62
     7
370
    25
100
AcDbLine
 10
293.8853255245
 20
174.6019590431
 30
0.0
 11
293.8853255245
 21
175.0019590412
 31
0.0
  0
LINE
  5
F2
330
1F
100
AcDbEntity
  8
0
  6
Continuous
 62
     7
370
    25
100
AcDbLine
 10
293.2603261206
 20
174.6019590431
 30
0.0
 11
293.8853255245
 21
174.6019590431
 31
0.0
  0
LINE
  5
F3
330
1F
100
AcDbEntity
  8
0
  6
Continuous
 62
     7
370
    25
100
AcDbLine
 10
294.1353223059
 20
174.6019590431
 30
0.0
 11
294.1353223059
 21
175.0019590412
 31
0.0
  0
LINE
  5
F4
330
1F
100
AcDbEntity
  8
0
  6
Continuous
 62
     7
370
    25
100
AcDbLine
 10
294.1353223059
 20
174.6019590431
 30
0.0
 11
294.7603217098
 21
174.6019590431
 31
0.0
  0
LINE
  5
F5
330
1F
100
AcDbEntity
  8
0
  6
Continuous
 62
     7
370
    25
100
AcDbLine
 10
294.7603217098
 20
174.6019590431
 30
0.0
 11
298.6853248212
 21
174.6019590431
 31
0.0
  0
LINE
  5
F6
330
1F
100
AcDbEntity
  8
0
  6
Continuous
 62
     7
370
    25
100
AcDbLine
 10
299.3103242251
 20
174.6019590431
 30
0.0
 11
299.3103242251
 21
175.0269590569
 31
0.0
  0
LINE
  5
F7
330
1F
100
AcDbEntity
  8
0
  6
Continuous
 62
     7
370
    25
100
AcDbLine
 10
298.6853248212
 20
174.6019590431
 30
0.0
 11
299.3103242251
 21
174.6019590431
 31
0.0
  0
LINE
  5
F8
330
1F
100
AcDbEntity
  8
0
  6
Continuous
 62
     7
370
    25
100
AcDbLine
 10
274.4853249523
 20
174.6019590431
 30
0.0
 11
274.7353217337
 21
174.6019590431
 31
0.0
  0
LINE
  5
F9
330
1F
100
AcDbEntity
  8
0
  6
Continuous
 62
     7
370
    25
100
AcDbLine
 10
293.8853255245
 20
174.6019590431
 30
0.0
 11
294.1353223059
 21
174.6019590431
 31
0.0
  0
LINE
  5
FA
330
1F
100
AcDbEntity
  8
0
  6
Continuous
 62
     7
370
    25
100
AcDbLine
 10
119.5120936963
 20
72.3519570177
 30
0.0
 11
309.1085529658
 21
72.3519570177
 31
0.0
  0
LINE
  5
FB
330
1F
100
AcDbEntity
  8
0
  6
Continuous
 62
     7
370
    25
100
AcDbLine
 10
119.5120936963
 20
80.8394572681
 30
0.0
 11
119.5120936963
 21
72.3519570177
 31
0.0
  0
LINE
  5
FC
330
1F
100
AcDbEntity
  8
0
  6
Continuous
 62
     7
370
    25
100
AcDbLine
 10
309.1085529658
 20
80.8394572681
 30
0.0
 11
309.1085529658
 21
72.3519570177
 31
0.0
  0
SPLINE
  5
FD
330
1F
100
AcDbEntity
  8
0
  6
Continuous
 62
     7
370
    25
100
AcDbSpline
210
0.0
220
0.0
230
1.0
 70
     8
 71
     3
 72
    12
 73
     8
 74
     0
 42
0.000000001
 43
0.00000001
 40
0.0
 40
0.0
 40
0.0
 40
0.0
 40
0.2301667693302711
 40
0.4604198887750442
 40
0.6906755115666
 40
0.9209288124592006
 40
0.9999999999999999
 40
0.9999999999999999
 40
0.9999999999999999
 40
0.9999999999999999
 10
308.7978265020308
 20
81.3519603556094
 30
0.0
 10
308.8216723031039
 20
81.34544059147792
 30
0.0
 10
308.8693728513186
 20
81.33239861723901
 30
0.0
 10
308.9409468441946
 20
81.23122361029735
 30
0.0
 10
309.012473819892
 20
81.08421274992166
 30
0.0
 10
309.0685030913305
 20
80.94320661326155
 30
0.0
 10
309.1003994478203
 20
80.86057898606062
 30
0.0
 10
309.1085529658255
 20
80.83945726808882
 30
0.0
  0
SPLINE
  5
FE
330
1F
100
AcDbEntity
  8
0
  6
Continuous
 62
     7
370
    25
100
AcDbSpline
210
0.0
220
0.0
230
1.0
 70
     8
 71
     3
 72
    12
 73
     8
 74
     0
 42
0.000000001
 43
0.00000001
 40
0.0
 40
0.0
 40
0.0
 40
0.0
 40
0.230166050064661
 40
0.4604184499739819
 40
0.6906733532222626
 40
0.920925934578844
 40
1.0
 40
1.0
 40
1.0
 40
1.0
 10
119.5120936963018
 20
80.83945726808881
 30
0.0
 10
119.5359395438117
 20
80.90122667678823
 30
0.0
 10
119.5836401849171
 20
81.02478866779953
 30
0.0
 10
119.6552134809094
 20
81.18632213381801
 30
0.0
 10
119.7267431049897
 20
81.30230755965435
 30
0.0
 10
119.7827649703669
 20
81.34801050514764
 30
0.0
 10
119.8146713026649
 20
81.35115620998351
 30
0.0
 10
119.8228276106771
 20
81.35196035560942
 30
0.0
  0
LINE
  5
FF
330
1F
100
AcDbEntity
  8
0
  6
Continuous
 62
     7
370
    25
100
AcDbLine
 10
119.8228276107
 20
81.3519603556
 30
0.0
 11
308.797826502
 21
81.3519603556
 31
0.0
  0
SPLINE
  5
100
330
1F
100
AcDbEntity
  8
0
  6
Continuous
 62
     7
370
    25
100
AcDbSpline
210
0.0
220
0.0
230
1.0
 70
     8
 71
     3
 72
    10
 73
     6
 74
     0
 42
0.000000001
 43
0.00000001
 40
0.0
 40
0.0
 40
0.0
 40
0.0
 40
0.0100825171340869
 40
0.522900748628938
 40
1.0
 40
1.0
 40
1.0
 40
1.0
 10
119.60081521005
 20
81.0587129538951
 30
0.0
 10
119.6001429402395
 20
81.05825565128148
 30
0.0
 10
119.565277600314
 20
81.03453896666464
 30
0.0
 10
119.5251049546997
 20
80.95600788397527
 30
0.0
 10
119.5151336600045
 20
80.87736154708479
 30
0.0
 10
119.5103279087003
 20
80.83945726808882
 30
0.0
  0
LINE
  5
101
330
1F
100
AcDbEntity
  8
0
  6
Continuous
 62
     7
370
    25
100
AcDbLine
 10
119.3103245232
 20
80.8394572681
 30
0.0
 11
119.5103279087
 21
80.8394572681
 31
0.0
  0
SPLINE
  5
102
330
1F
100
AcDbEntity
  8
0
  6
Continuous
 62
     7
370
    25
100
AcDbSpline
210
0.0
220
0.0
230
1.0
 70
     8
 71
     3
 72
    12
 73
     8
 74
     0
 42
0.000000001
 43
0.00000001
 40
0.0
 40
0.0
 40
0.0
 40
0.0
 40
0.230176900860508
 40
0.4604221371765303
 40
0.6906768005052117
 40
0.9209291419446133
 40
1.0
 40
1.0
 40
1.0
 40
1.0
 10
119.8228276106771
 20
81.35196035560942
 30
0.0
 10
119.7610554059454
 20
81.34544145094284
 30
0.0
 10
119.6374926574055
 20
81.33240170626208
 30
0.0
 10
119.4759623051194
 20
81.23122126041355
 30
0.0
 10
119.3599771091955
 20
81.08421299148803
 30
0.0
 10
119.3142746837034
 20
80.94320659590132
 30
0.0
 10
119.3111287130709
 20
80.86057898252632
 30
0.0
 10
119.3103245231565
 20
80.83945726808882
 30
0.0
  0
SPLINE
  5
103
330
1F
100
AcDbEntity
  8
0
  6
Continuous
 62
     7
370
    25
100
AcDbSpline
210
0.0
220
0.0
230
1.0
 70
     8
 71
     3
 72
    12
 73
     8
 74
     0
 42
0.000000001
 43
0.00000001
 40
0.0
 40
0.0
 40
0.0
 40
0.0
 40
0.2301706475488005
 40
0.4604245077746228
 40
0.6906745163934634
 40
0.920928558067697
 40
1.0
 40
1.0
 40
1.0
 40
1.0
 10
309.3103221389708
 20
80.83945726808882
 30
0.0
 10
309.3038026007903
 20
80.90122656736634
 30
0.0
 10
309.2907611674467
 20
81.02478749713005
 30
0.0
 10
309.189585176572
 20
81.18631981314414
 30
0.0
 10
309.0425817336089
 20
81.30230940946264
 30
0.0
 10
308.9015757458395
 20
81.34801011589265
 30
0.0
 10
308.8189481993664
 20
81.35115614957728
 30
0.0
 10
308.7978265020308
 20
81.35196035560942
 30
0.0
  0
LINE
  5
104
330
1F
100
AcDbEntity
  8
0
  6
Continuous
 62
     7
370
    25
100
AcDbLine
 10
309.310322139
 20
80.8394572681
 30
0.0
 11
309.110326204
 21
80.8394572681
 31
0.0
  0
SPLINE
  5
105
330
1F
100
AcDbEntity
  8
0
  6
Continuous
 62
     7
370
    25
100
AcDbSpline
210
0.0
220
0.0
230
1.0
 70
     8
 71
     3
 72
     9
 73
     5
 74
     0
 42
0.000000001
 43
0.00000001
 40
0.0
 40
0.0
 40
0.0
 40
0.0
 40
0.5275226561791011
 40
1.0
 40
1.0
 40
1.0
 40
1.0
 10
309.1103262040075
 20
80.83945726808882
 30
0.0
 10
309.106111052192
 20
80.88166005952887
 30
0.0
 10
309.0981205862544
 20
80.96166191527053
 30
0.0
 10
309.0471381492924
 20
81.02350885830666
 30
0.0
 10
309.0230501028952
 20
81.05273013767577
 30
0.0
  0
LINE
  5
106
330
1F
100
AcDbEntity
  8
0
  6
Continuous
 62
     7
370
    25
100
AcDbLine
 10
119.5103279087
 20
80.8394572681
 30
0.0
 11
119.5103279087
 21
72.3519570177
 31
0.0
  0
LINE
  5
107
330
1F
100
AcDbEntity
  8
0
  6
Continuous
 62
     7
370
    25
100
AcDbLine
 10
119.3103245232
 20
72.3519570177
 30
0.0
 11
119.5103279087
 21
72.3519570177
 31
0.0
  0
LINE
  5
108
330
1F
100
AcDbEntity
  8
0
  6
Continuous
 62
     7
370
    25
100
AcDbLine
 10
119.3103245232
 20
80.8394572681
 30
0.0
 11
119.3103245232
 21
72.3519570177
 31
0.0
  0
LINE
  5
109
330
1F
100
AcDbEntity
  8
0
  6
Continuous
 62
     7
370
    25
100
AcDbLine
 10
309.110326204
 20
80.8394572681
 30
0.0
 11
309.110326204
 21
72.3519570177
 31
0.0
  0
LINE
  5
10A
330
1F
100
AcDbEntity
  8
0
  6
Continuous
 62
     7
370
    25
100
AcDbLine
 10
309.310322139
 20
80.8394572681
 30
0.0
 11
309.310322139
 21
72.3519570177
 31
0.0
  0
LINE
  5
10B
330
1F
100
AcDbEntity
  8
0
  6
Continuous
 62
     7
370
    25
100
AcDbLine
 10
309.310322139
 20
72.3519570177
 30
0.0
 11
309.110326204
 21
72.3519570177
 31
0.0
  0
LINE
  5
10C
330
1F
100
AcDbEntity
  8
0
  6
Continuous
 62
     7
370
    25
100
AcDbLine
 10
296.4335581991
 20
72.3519570177
 30
0.0
 11
296.4335581991
 21
71.8394613808
 31
0.0
  0
LINE
  5
10D
330
1F
100
AcDbEntity
  8
0
  6
Continuous
 62
     7
370
    25
100
AcDbLine
 10
124.9370923969
 20
72.3519570177
 30
0.0
 11
124.9370923969
 21
71.8394613808
 31
0.0
  0
LINE
  5
10E
330
1F
100
AcDbEntity
  8
0
  6
Continuous
 62
     7
370
    25
100
AcDbLine
 10
124.9370923969
 20
71.1519590562
 30
0.0
 11
296.4335581991
 21
71.1519590562
 31
0.0
  0
LINE
  5
10F
330
1F
100
AcDbEntity
  8
0
  6
Continuous
 62
     7
370
    25
100
AcDbLine
 10
124.9370923969
 20
71.1519590562
 30
0.0
 11
124.9370923969
 21
71.8394613808
 31
0.0
  0
LINE
  5
110
330
1F
100
AcDbEntity
  8
0
  6
Continuous
 62
     7
370
    25
100
AcDbLine
 10
296.4335581991
 20
71.8394613808
 30
0.0
 11
296.4335581991
 21
71.1519590562
 31
0.0
  0
LINE
  5
111
330
1F
100
AcDbEntity
  8
0
  6
Continuous
 62
     7
370
    25
100
AcDbLine
 10
124.9353266093
 20
71.5269616788
 30
0.0
 11
124.5603239867
 21
71.5269616788
 31
0.0
  0
LINE
  5
112
330
1F
100
AcDbEntity
  8
0
  6
Continuous
 62
     7
370
    25
100
AcDbLine
 10
124.5603239867
 20
72.3519570177
 30
0.0
 11
124.5603239867
 21
71.5269616788
 31
0.0
  0
LINE
  5
113
330
1F
100
AcDbEntity
  8
0
  6
Continuous
 62
     7
370
    25
100
AcDbLine
 10
124.9353266093
 20
72.3519570177
 30
0.0
 11
124.9353266093
 21
71.5269616788
 31
0.0
  0
LINE
  5
114
330
1F
100
AcDbEntity
  8
0
  6
Continuous
 62
     7
370
    25
100
AcDbLine
 10
296.8103266093
 20
71.5269616788
 30
0.0
 11
296.8103266093
 21
72.3519570177
 31
0.0
  0
LINE
  5
115
330
1F
100
AcDbEntity
  8
0
  6
Continuous
 62
     7
370
    25
100
AcDbLine
 10
296.4353239867
 20
72.3519570177
 30
0.0
 11
296.4353239867
 21
71.5269616788
 31
0.0
  0
LINE
  5
116
330
1F
100
AcDbEntity
  8
0
  6
Continuous
 62
     7
370
    25
100
AcDbLine
 10
296.4353239867
 20
71.5269616788
 30
0.0
 11
296.8103266093
 21
71.5269616788
 31
0.0
  0
ARC
  5
117
330
1F
100
AcDbEntity
  8
0
  6
Continuous
 62
     7
370
    25
100
AcDbCircle
 10
125.2478242412
 20
71.8394590431
 30
0.0
 40
0.6875000000000039
100
AcDbArc
 50
207.0356917894
 51
243.1295854597
  0
LINE
  5
118
330
1F
100
AcDbEntity
  8
0
  6
Continuous
 62
     7
370
    25
100
AcDbLine
 10
124.9353266093
 20
71.8394613808
 30
0.0
 11
124.9370923969
 21
71.8062690443
 31
0.0
  0
ARC
  5
119
330
1F
100
AcDbEntity
  8
0
  6
Continuous
 62
     7
370
    25
100
AcDbCircle
 10
296.1228242412
 20
71.8394590431
 30
0.0
 40
0.6874999999999885
100
AcDbArc
 50
296.8704145403
 51
332.9643082106
  0
LINE
  5
11A
330
1F
100
AcDbEntity
  8
0
  6
Continuous
 62
     7
370
    25
100
AcDbLine
 10
296.4335581991
 20
71.8062690443
 30
0.0
 11
296.4353239867
 21
71.8394613808
 31
0.0
  0
SPLINE
  5
11B
330
1F
100
AcDbEntity
  8
0
  6
Continuous
 62
     7
370
    25
100
AcDbSpline
210
0.0
220
0.0
230
1.0
 70
     8
 71
     3
 72
     9
 73
     5
 74
     0
 42
0.000000001
 43
0.00000001
 40
0.0
 40
0.0
 40
0.0
 40
0.0
 40
0.1704621858129317
 40
1.0
 40
1.0
 40
1.0
 40
1.0
 10
295.1078242394385
 20
244.8462045734821
 30
0.0
 10
295.1166306359165
 20
244.8429882067744
 30
0.0
 10
295.1682925129252
 20
244.8241197011744
 30
0.0
 10
295.203563780175
 20
244.8162973900981
 30
0.0
 10
295.232822630113
 20
244.8098084872661
 30
0.0
  0
LINE
  5
11C
330
1F
100
AcDbEntity
  8
0
  6
Continuous
 62
     7
370
    25
100
AcDbLine
 10
295.2328226301
 20
244.5863208717
 30
0.0
 11
295.1078242394
 21
244.4010025805
 31
0.0
  0
LINE
  5
11D
330
1F
100
AcDbEntity
  8
0
  6
Continuous
 62
     7
370
    25
100
AcDbLine
 10
295.1353243324
 20
244.978258664
 30
0.0
 11
295.2328226301
 21
244.9124923891
 31
0.0
  0
SPLINE
  5
11E
330
1F
100
AcDbEntity
  8
0
  6
Continuous
 62
     7
370
    25
100
AcDbSpline
210
0.0
220
0.0
230
1.0
 70
     8
 71
     3
 72
     9
 73
     5
 74
     0
 42
0.000000001
 43
0.00000001
 40
0.0
 40
0.0
 40
0.0
 40
0.0
 40
0.5541915995610732
 40
1.0
 40
1.0
 40
1.0
 40
1.0
 10
295.1078242394385
 20
244.9600270932613
 30
0.0
 10
295.1147185068583
 20
244.9621944902325
 30
0.0
 10
295.1271587304657
 20
244.9661054065526
 30
0.0
 10
295.1328065064459
 20
244.974511262699
 30
0.0
 10
295.1353243324217
 20
244.9782586639819
 30
0.0
  0
LINE
  5
11F
330
1F
100
AcDbEntity
  8
0
  6
Continuous
 62
     7
370
    25
100
AcDbLine
 10
295.1887524459
 20
249.5574674552
 30
0.0
 11
295.1887524459
 21
245.1530045813
 31
0.0
  0
LINE
  5
120
330
1F
100
AcDbEntity
  8
0
  6
Continuous
 62
     7
370
    25
100
AcDbLine
 10
295.2328226301
 20
250.0574610179
 30
0.0
 11
295.1887524459
 21
250.0574610179
 31
0.0
  0
LINE
  5
121
330
1F
100
AcDbEntity
  8
0
  6
Continuous
 62
     7
370
    25
100
AcDbLine
 10
295.1887524459
 20
250.0574610179
 30
0.0
 11
295.1887524459
 21
249.5574674552
 31
0.0
  0
ARC
  5
122
330
1F
100
AcDbEntity
  8
0
  6
Continuous
 62
     7
370
    25
100
AcDbCircle
 10
294.8762499998
 20
245.1530048759
 30
0.0
 40
0.3125000000000568
100
AcDbArc
 50
326.0
 51
0.0
  0
LINE
  5
123
330
1F
100
AcDbEntity
  8
0
  6
Continuous
 62
     7
370
    25
100
AcDbLine
 10
289.6853214833
 20
173.2269590005
 30
0.0
 11
289.6853214833
 21
174.6019590431
 31
0.0
  0
LINE
  5
124
330
1F
100
AcDbEntity
  8
0
  6
Continuous
 62
     7
370
    25
100
AcDbLine
 10
289.6853214833
 20
172.6144589933
 30
0.0
 11
289.3103263113
 21
172.6144589933
 31
0.0
  0
LINE
  5
125
330
1F
100
AcDbEntity
  8
0
  6
Continuous
 62
     7
370
    25
100
AcDbLine
 10
279.3103209469
 20
172.6144589933
 30
0.0
 11
142.0603221986
 21
172.6144589933
 31
0.0
  0
LINE
  5
126
330
1F
100
AcDbEntity
  8
0
  6
Continuous
 62
     7
370
    25
100
AcDbLine
 10
289.6853214833
 20
173.2269590005
 30
0.0
 11
289.6853214833
 21
172.6144589933
 31
0.0
  0
LINE
  5
127
330
1F
100
AcDbEntity
  8
0
  6
Continuous
 62
     7
370
    25
100
AcDbLine
 10
310.960327718
 20
176.0269590171
 30
0.0
 11
310.960327718
 21
175.7769590925
 31
0.0
  0
LINE
  5
128
330
1F
100
AcDbEntity
  8
0
  6
Continuous
 62
     7
370
    25
100
AcDbLine
 10
310.960327718
 20
175.7769590925
 30
0.0
 11
310.9103268716
 21
175.7769590925
 31
0.0
  0
LINE
  5
129
330
1F
100
AcDbEntity
  8
0
  6
Continuous
 62
     7
370
    25
100
AcDbLine
 10
310.960327718
 20
178.0269591121
 30
0.0
 11
310.960327718
 21
176.0269590171
 31
0.0
  0
LINE
  5
12A
330
1F
100
AcDbEntity
  8
0
  6
Continuous
 62
     7
370
    25
100
AcDbLine
 10
310.960327718
 20
178.2769591531
 30
0.0
 11
310.9103268716
 21
178.2769591531
 31
0.0
  0
LINE
  5
12B
330
1F
100
AcDbEntity
  8
0
  6
Continuous
 62
     7
370
    25
100
AcDbLine
 10
310.960327718
 20
178.2769591531
 30
0.0
 11
310.960327718
 21
178.0269591121
 31
0.0
  0
LINE
  5
12C
330
1F
100
AcDbEntity
  8
0
  6
Continuous
 62
     7
370
    25
100
AcDbLine
 10
311.4103278849
 20
198.3374285495
 30
0.0
 11
311.4103278849
 21
198.3386243677
 31
0.0
  0
LINE
  5
12D
330
1F
100
AcDbEntity
  8
0
  6
Continuous
 62
     7
370
    25
100
AcDbLine
 10
311.4103278849
 20
182.0886249637
 30
0.0
 11
311.4103278849
 21
182.8965538165
 31
0.0
  0
LINE
  5
12E
330
1F
100
AcDbEntity
  8
0
  6
Continuous
 62
     7
370
    25
100
AcDbLine
 10
311.4103278849
 20
197.7612229979
 30
0.0
 11
311.4103278849
 21
198.3374285495
 31
0.0
  0
LINE
  5
12F
330
1F
100
AcDbEntity
  8
0
  6
Continuous
 62
     7
370
    25
100
AcDbLine
 10
313.9103255007
 20
196.0698145425
 30
0.0
 11
313.9103255007
 21
197.3386242038
 31
0.0
  0
LINE
  5
130
330
1F
100
AcDbEntity
  8
0
  6
Continuous
 62
     7
370
    25
100
AcDbLine
 10
313.9103255007
 20
183.0886251276
 30
0.0
 11
313.9103255007
 21
184.221669378
 31
0.0
  0
LINE
  5
131
330
1F
100
AcDbEntity
  8
0
  6
Continuous
 62
     7
370
    25
100
AcDbLine
 10
312.236403558
 20
194.9171538448
 30
0.0
 11
312.2365749213
 21
195.1666402614
 31
0.0
  0
LINE
  5
132
330
1F
100
AcDbEntity
  8
0
  6
Continuous
 62
     7
370
    25
100
AcDbLine
 10
312.4201646778
 20
194.7731359845
 30
0.0
 11
312.236403558
 21
194.9171538448
 31
0.0
  0
LINE
  5
133
330
1F
100
AcDbEntity
  8
0
  6
Continuous
 62
     7
370
    25
100
AcDbLine
 10
313.2727420661
 20
194.7446170246
 30
0.0
 11
312.4220049712
 21
194.9561501836
 31
0.0
  0
SPLINE
  5
134
330
1F
100
AcDbEntity
  8
0
  6
Continuous
 62
     7
370
    25
100
AcDbSpline
210
0.0
220
0.0
230
1.0
 70
     8
 71
     3
 72
     9
 73
     5
 74
     0
 42
0.000000001
 43
0.00000001
 40
0.0
 40
0.0
 40
0.0
 40
0.0
 40
0.4633895942556621
 40
1.0
 40
1.0
 40
1.0
 40
1.0
 10
312.4528801772055
 20
188.2414345612822
 30
0.0
 10
312.4689535392041
 20
188.2327530351717
 30
0.0
 10
312.5036400366956
 20
188.2140182033627
 30
0.0
 10
312.5443989215634
 20
188.215022547384
 30
0.0
 10
312.5662705633101
 20
188.2155614888368
 30
0.0
  0
SPLINE
  5
135
330
1F
100
AcDbEntity
  8
0
  6
Continuous
 62
     7
370
    25
100
AcDbSpline
210
0.0
220
0.0
230
1.0
 70
     8
 71
     3
 72
     9
 73
     5
 74
     0
 42
0.000000001
 43
0.00000001
 40
0.0
 40
0.0
 40
0.0
 40
0.0
 40
0.863578623115105
 40
1.0
 40
1.0
 40
1.0
 40
1.0
 10
312.8488710853514
 20
188.3471433987913
 30
0.0
 10
312.8042419659608
 20
188.3915465613288
 30
0.0
 10
312.7525626883642
 20
188.4429641871813
 30
0.0
 10
312.6875666707347
 20
188.474000486995
 30
0.0
 10
312.6786998245177
 20
188.4782345017491
 30
0.0
  0
LINE
  5
136
330
1F
100
AcDbEntity
  8
0
  6
Continuous
 62
     7
370
    25
100
AcDbLine
 10
313.1730905506
 20
188.0447951129
 30
0.0
 11
312.8488710854
 21
188.3471433988
 31
0.0
  0
LINE
  5
137
330
1F
100
AcDbEntity
  8
0
  6
Continuous
 62
     7
370
    25
100
AcDbLine
 10
313.0852705571
 20
188.7889497897
 30
0.0
 11
313.2684132788
 21
188.8065964898
 31
0.0
  0
LINE
  5
138
330
1F
100
AcDbEntity
  8
0
  6
Continuous
 62
     7
370
    25
100
AcDbLine
 10
313.0884594056
 20
188.3997351846
 30
0.0
 11
313.0852705571
 21
188.7889497897
 31
0.0
  0
SPLINE
  5
139
330
1F
100
AcDbEntity
  8
0
  6
Continuous
 62
     7
370
    25
100
AcDbSpline
210
0.0
220
0.0
230
1.0
 70
     8
 71
     3
 72
     9
 73
     5
 74
     0
 42
0.000000001
 43
0.00000001
 40
0.0
 40
0.0
 40
0.0
 40
0.0
 40
0.5408399006787609
 40
1.0
 40
1.0
 40
1.0
 40
1.0
 10
312.5105923745093
 20
188.7248878350554
 30
0.0
 10
312.5546699486579
 20
188.7241411562294
 30
0.0
 10
312.6361683257069
 20
188.7227605649952
 30
0.0
 10
312.7081919673429
 20
188.6880036025158
 30
0.0
 10
312.74126234979
 20
188.6720445921717
 30
0.0
  0
SPLINE
  5
13A
330
1F
100
AcDbEntity
  8
0
  6
Continuous
 62
     7
370
    25
100
AcDbSpline
210
0.0
220
0.0
230
1.0
 70
     8
 71
     3
 72
    12
 73
     8
 74
     0
 42
0.000000001
 43
0.00000001
 40
0.0
 40
0.0
 40
0.0
 40
0.0
 40
0.2500585560325536
 40
0.3754531659148525
 40
0.500859157797865
 40
0.7505790709413309
 40
1.0
 40
1.0
 40
1.0
 40
1.0
 10
312.2053867909369
 20
188.3522889560161
 30
0.0
 10
312.208596234439
 20
188.3964173214355
 30
0.0
 10
312.2134150886419
 20
188.4626743404563
 30
0.0
 10
312.2499963723709
 20
188.5455123988522
 30
0.0
 10
312.2998003676908
 20
188.6197806154052
 30
0.0
 10
312.3866157601377
 20
188.6946127353288
 30
0.0
 10
312.4692833422754
 20
188.7148001658862
 30
0.0
 10
312.5105923745093
 20
188.7248878350554
 30
0.0
  0
SPLINE
  5
13B
330
1F
100
AcDbEntity
  8
0
  6
Continuous
 62
     7
370
    25
100
AcDbSpline
210
0.0
220
0.0
230
1.0
 70
     8
 71
     3
 72
    11
 73
     7
 74
     0
 42
0.000000001
 43
0.00000001
 40
0.0
 40
0.0
 40
0.0
 40
0.0
 40
0.2003215650664057
 40
0.4015612129849369
 40
0.6009084466508285
 40
0.9999999999999999
 40
0.9999999999999999
 40
0.9999999999999999
 40
0.9999999999999999
 10
312.3613125416693
 20
188.0546391924915
 30
0.0
 10
312.3421368827823
 20
188.0670198317551
 30
0.0
 10
312.3036976820906
 20
188.0918378513156
 30
0.0
 10
312.2589956612585
 20
188.145122664719
 30
0.0
 10
312.2151032740262
 20
188.2287994905687
 30
0.0
 10
312.2092741577389
 20
188.3028833383687
 30
0.0
 10
312.2053867909369
 20
188.3522889560161
 30
0.0
  0
SPLINE
  5
13C
330
1F
100
AcDbEntity
  8
0
  6
Continuous
 62
     7
370
    25
100
AcDbSpline
210
0.0
220
0.0
230
1.0
 70
     8
 71
     3
 72
    12
 73
     8
 74
     0
 42
0.000000001
 43
0.00000001
 40
0.0
 40
0.0
 40
0.0
 40
0.0
 40
0.1253535361782879
 40
0.2505872236788097
 40
0.5003972106362697
 40
0.7501627612161151
 40
1.0
 40
1.0
 40
1.0
 40
1.0
 10
312.3967624041495
 20
183.1941663270889
 30
0.0
 10
312.3970927585545
 20
183.1911701039804
 30
0.0
 10
312.3977531515176
 20
183.1851805224084
 30
0.0
 10
312.4043028723037
 20
183.1754904628439
 30
0.0
 10
312.4209179176257
 20
183.1679522361675
 30
0.0
 10
312.4501322528268
 20
183.165178204525
 30
0.0
 10
312.4759041687232
 20
183.1700306346657
 30
0.0
 10
312.4887919756827
 20
183.1724571978746
 30
0.0
  0
LINE
  5
13D
330
1F
100
AcDbEntity
  8
0
  6
Continuous
 62
     7
370
    25
100
AcDbLine
 10
312.6241317722
 20
183.2442435419
 30
0.0
 11
312.6177615258
 21
183.2635219192
 31
0.0
  0
SPLINE
  5
13E
330
1F
100
AcDbEntity
  8
0
  6
Continuous
 62
     7
370
    25
100
AcDbSpline
210
0.0
220
0.0
230
1.0
 70
     8
 71
     3
 72
    12
 73
     8
 74
     0
 42
0.000000001
 43
0.00000001
 40
0.0
 40
0.0
 40
0.0
 40
0.0
 40
0.2503920193588042
 40
0.4996828587378569
 40
0.6248601798833124
 40
0.7502039983088103
 40
1.0
 40
1.0
 40
1.0
 40
1.0
 10
312.9574111434874
 20
183.3271107619701
 30
0.0
 10
312.9782151270485
 20
183.3365198594031
 30
0.0
 10
313.019731601917
 20
183.3552966747166
 30
0.0
 10
313.0663503576662
 20
183.3845989179777
 30
0.0
 10
313.0931295911678
 20
183.4087781304531
 30
0.0
 10
313.1126277751641
 20
183.4326761894857
 30
0.0
 10
313.1151778742866
 20
183.4479748390177
 30
0.0
 10
313.1168759200033
 20
183.4581618180571
 30
0.0
  0
LINE
  5
13F
330
1F
100
AcDbEntity
  8
0
  6
Continuous
 62
     7
370
    25
100
AcDbLine
 10
312.9547289345
 20
183.244933652
 30
0.0
 11
312.9574111435
 21
183.327110762
 31
0.0
  0
SPLINE
  5
140
330
1F
100
AcDbEntity
  8
0
  6
Continuous
 62
     7
370
    25
100
AcDbSpline
210
0.0
220
0.0
230
1.0
 70
     8
 71
     3
 72
    15
 73
    11
 74
     0
 42
0.000000001
 43
0.00000001
 40
0.0
 40
0.0
 40
0.0
 40
0.0
 40
0.0728943209353775
 40
0.145778284636283
 40
0.291281342265201
 40
0.436770468309464
 40
0.5823691380966473
 40
0.7279301164487866
 40
0.8735226583491468
 40
1.0
 40
1.0
 40
1.0
 40
1.0
 10
312.960801157659
 20
183.5710036551652
 30
0.0
 10
312.9723479500023
 20
183.5750629502483
 30
0.0
 10
312.9954398940559
 20
183.583180963647
 30
0.0
 10
313.0412019455947
 20
183.5962393147551
 30
0.0
 10
313.096927394858
 20
183.6077323913348
 30
0.0
 10
313.1569552049299
 20
183.6115314930906
 30
0.0
 10
313.2087442997003
 20
183.6071192118993
 30
0.0
 10
313.2493292186228
 20
183.5945863869138
 30
0.0
 10
313.2803046307578
 20
183.5771734249346
 30
0.0
 10
313.28450056645
 20
183.5589479390114
 30
0.0
 10
313.2864511343893
 20
183.5504754429755
 30
0.0
  0
SPLINE
  5
141
330
1F
100
AcDbEntity
  8
0
  6
Continuous
 62
     7
370
    25
100
AcDbSpline
210
0.0
220
0.0
230
1.0
 70
     8
 71
     3
 72
    11
 73
     7
 74
     0
 42
0.000000001
 43
0.00000001
 40
0.0
 40
0.0
 40
0.0
 40
0.0
 40
0.2502108051620086
 40
0.5001025895532237
 40
0.749902353407416
 40
1.0
 40
1.0
 40
1.0
 40
1.0
 10
312.6993304821905
 20
183.3777681907711
 30
0.0
 10
312.709541692729
 20
183.3948936841943
 30
0.0
 10
312.7299510944313
 20
183.4291228359
 30
0.0
 10
312.7915034894338
 20
183.4841700798116
 30
0.0
 10
312.8710943576664
 20
183.5349488492311
 30
0.0
 10
312.9308870144243
 20
183.5589806131094
 30
0.0
 10
312.960801157659
 20
183.5710036551652
 30
0.0
  0
SPLINE
  5
142
330
1F
100
AcDbEntity
  8
0
  6
Continuous
 62
     7
370
    25
100
AcDbSpline
210
0.0
220
0.0
230
1.0
 70
     8
 71
     3
 72
    12
 73
     8
 74
     0
 42
0.000000001
 43
0.00000001
 40
0.0
 40
0.0
 40
0.0
 40
0.0
 40
0.1252676383683631
 40
0.2504443195147127
 40
0.5000735978356223
 40
0.7498624179816611
 40
1.0
 40
1.0
 40
1.0
 40
1.0
 10
312.4783909651694
 20
183.369010964602
 30
0.0
 10
312.4900511706493
 20
183.3729817787014
 30
0.0
 10
312.5133631150978
 20
183.3809205236798
 30
0.0
 10
312.559077514013
 20
183.3923726442647
 30
0.0
 10
312.6122137745842
 20
183.3987846914108
 30
0.0
 10
312.6645868237641
 20
183.3942353570474
 30
0.0
 10
312.6877438777241
 20
183.3832597984765
 30
0.0
 10
312.6993304821905
 20
183.3777681907711
 30
0.0
  0
SPLINE
  5
143
330
1F
100
AcDbEntity
  8
0
  6
Continuous
 62
     7
370
    25
100
AcDbSpline
210
0.0
220
0.0
230
1.0
 70
     8
 71
     3
 72
    13
 73
     9
 74
     0
 42
0.000000001
 43
0.00000001
 40
0.0
 40
0.0
 40
0.0
 40
0.0
 40
0.2497377805319819
 40
0.4991045554013239
 40
0.6243783590364015
 40
0.7495712848481364
 40
0.8747487504264619
 40
0.9999999999999999
 40
0.9999999999999999
 40
0.9999999999999999
 40
0.9999999999999999
 10
312.2066310378966
 20
183.1278859620986
 30
0.0
 10
312.209644663028
 20
183.1462870896933
 30
0.0
 10
312.2156674363073
 20
183.1830620085201
 30
0.0
 10
312.2662944737104
 20
183.2409187108382
 30
0.0
 10
312.3203435057989
 20
183.2856424541157
 30
0.0
 10
312.368092321943
 20
183.3178162475562
 30
0.0
 10
312.4217738427154
 20
183.3467552469207
 30
0.0
 10
312.4595148844611
 20
183.361590935025
 30
0.0
 10
312.4783909651694
 20
183.369010964602
 30
0.0
  0
LINE
  5
144
330
1F
100
AcDbEntity
  8
0
  6
Continuous
 62
     7
370
    25
100
AcDbLine
 10
312.2179186675
 20
183.1041698327
 30
0.0
 11
312.2066310379
 21
183.1278859621
 31
0.0
  0
LINE
  5
145
330
1F
100
AcDbEntity
  8
0
  6
Continuous
 62
     7
370
    25
100
AcDbLine
 10
313.2677799794
 20
197.5946038013
 30
0.0
 11
313.2534227106
 21
197.6003910398
 31
0.0
  0
SPLINE
  5
146
330
1F
100
AcDbEntity
  8
0
  6
Continuous
 62
     7
370
    25
100
AcDbSpline
210
0.0
220
0.0
230
1.0
 70
     8
 71
     3
 72
    16
 73
    12
 74
     0
 42
0.000000001
 43
0.00000001
 40
0.0
 40
0.0
 40
0.0
 40
0.0
 40
0.0018383873377051
 40
0.1265937483192811
 40
0.2514186095345262
 40
0.3761623080607573
 40
0.5009084736946882
 40
0.6256528755371171
 40
0.7503977400982155
 40
0.8751330840268098
 40
1.0
 40
1.0
 40
1.0
 40
1.0
 10
312.1078363391813
 20
198.0585197901426
 30
0.0
 10
312.1076224296444
 20
198.0586037406293
 30
0.0
 10
312.0928923401162
 20
198.0643846805721
 30
0.0
 10
312.1430205400714
 20
198.0370689280496
 30
0.0
 10
312.2605213550377
 20
197.9774742413427
 30
0.0
 10
312.4524636191355
 20
197.8881524913985
 30
0.0
 10
312.6780305101652
 20
197.792713504178
 30
0.0
 10
312.9076522530756
 20
197.7055655236695
 30
0.0
 10
313.1028268799525
 20
197.639718823927
 30
0.0
 10
313.2406047272792
 20
197.5988682410667
 30
0.0
 10
313.2587183793048
 20
197.5960257806944
 30
0.0
 10
313.2677799794134
 20
197.5946038013396
 30
0.0
  0
LINE
  5
147
330
1F
100
AcDbEntity
  8
0
  6
Continuous
 62
     7
370
    25
100
AcDbLine
 10
312.5672018859
 20
188.2149561292
 30
0.0
 11
312.5645494792
 21
188.0148279464
 31
0.0
  0
SPLINE
  5
148
330
1F
100
AcDbEntity
  8
0
  6
Continuous
 62
     7
370
    25
100
AcDbSpline
210
0.0
220
0.0
230
1.0
 70
     8
 71
     3
 72
    13
 73
     9
 74
     0
 42
0.000000001
 43
0.00000001
 40
0.0
 40
0.0
 40
0.0
 40
0.0
 40
0.2498440581621118
 40
0.3750340872088496
 40
0.5002169429546911
 40
0.6259685504842318
 40
0.7505677613104955
 40
1.0
 40
1.0
 40
1.0
 40
1.0
 10
312.5645494791922
 20
188.0148279463945
 30
0.0
 10
312.5172622469493
 20
188.0156924617802
 30
0.0
 10
312.4462806750389
 20
188.0169901621975
 30
0.0
 10
312.3608393176037
 20
188.0516369403271
 30
0.0
 10
312.3049960905169
 20
188.091836005691
 30
0.0
 10
312.2598290451709
 20
188.144345997969
 30
0.0
 10
312.2160762437616
 20
188.2282969826628
 30
0.0
 10
312.2102220975281
 20
188.3023493085117
 30
0.0
 10
312.2063181135115
 20
188.351732956439
 30
0.0
  0
SPLINE
  5
149
330
1F
100
AcDbEntity
  8
0
  6
Continuous
 62
     7
370
    25
100
AcDbSpline
210
0.0
220
0.0
230
1.0
 70
     8
 71
     3
 72
    12
 73
     8
 74
     0
 42
0.000000001
 43
0.00000001
 40
0.0
 40
0.0
 40
0.0
 40
0.0
 40
0.2500908833671394
 40
0.375490479122553
 40
0.500906833836507
 40
0.7506023372644798
 40
1.0
 40
1.0
 40
1.0
 40
1.0
 10
312.2063181135115
 20
188.3517357504068
 30
0.0
 10
312.2095295272609
 20
188.3958755106772
 30
0.0
 10
312.2143511955728
 20
188.4621476574629
 30
0.0
 10
312.2509165025577
 20
188.5450179086148
 30
0.0
 10
312.3007329115491
 20
188.6192936905261
 30
0.0
 10
312.3875342519936
 20
188.6941591946337
 30
0.0
 10
312.4702103280812
 20
188.7143490852438
 30
0.0
 10
312.5115236970839
 20
188.7244380062518
 30
0.0
  0
SPLINE
  5
14A
330
1F
100
AcDbEntity
  8
0
  6
Continuous
 62
     7
370
    25
100
AcDbSpline
210
0.0
220
0.0
230
1.0
 70
     8
 71
     3
 72
    10
 73
     6
 74
     0
 42
0.000000001
 43
0.00000001
 40
0.0
 40
0.0
 40
0.0
 40
0.0
 40
0.2494631664655637
 40
0.4995780446694573
 40
1.0
 40
1.0
 40
1.0
 40
1.0
 10
312.5115236970839
 20
188.7244380062518
 30
0.0
 10
312.5553247201404
 20
188.7231517817181
 30
0.0
 10
312.6430411945331
 20
188.7205759724448
 30
0.0
 10
312.8029744974831
 20
188.6499884776542
 30
0.0
 10
312.9009511816201
 20
188.5657555436635
 30
0.0
 10
312.9662773343977
 20
188.5095930641589
 30
0.0
  0
LINE
  5
14B
330
1F
100
AcDbEntity
  8
0
  6
Continuous
 62
     7
370
    25
100
AcDbLine
 10
312.9662773344
 20
188.5095930642
 30
0.0
 11
313.0893907282
 21
188.3991698718
 31
0.0
  0
LINE
  5
14C
330
1F
100
AcDbEntity
  8
0
  6
Continuous
 62
     7
370
    25
100
AcDbLine
 10
313.0893907282
 20
188.3991698718
 30
0.0
 11
313.0861944291
 21
188.7885064801
 31
0.0
  0
LINE
  5
14D
330
1F
100
AcDbEntity
  8
0
  6
Continuous
 62
     7
370
    25
100
AcDbLine
 10
313.0861944291
 20
188.7885064801
 30
0.0
 11
313.2693446013
 21
188.8061541116
 31
0.0
  0
LINE
  5
14E
330
1F
100
AcDbEntity
  8
0
  6
Continuous
 62
     7
370
    25
100
AcDbLine
 10
313.2693446013
 20
188.8061541116
 30
0.0
 11
313.2687262031
 21
188.0531686341
 31
0.0
  0
LINE
  5
14F
330
1F
100
AcDbEntity
  8
0
  6
Continuous
 62
     7
370
    25
100
AcDbLine
 10
313.2687262031
 20
188.0531686341
 30
0.0
 11
313.1740144226
 21
188.04411711
 31
0.0
  0
LINE
  5
150
330
1F
100
AcDbEntity
  8
0
  6
Continuous
 62
     7
370
    25
100
AcDbLine
 10
313.1740144226
 20
188.04411711
 30
0.0
 11
312.8498024079
 21
188.3465697041
 31
0.0
  0
SPLINE
  5
151
330
1F
100
AcDbEntity
  8
0
  6
Continuous
 62
     7
370
    25
100
AcDbSpline
210
0.0
220
0.0
230
1.0
 70
     8
 71
     3
 72
    10
 73
     6
 74
     0
 42
0.000000001
 43
0.00000001
 40
0.0
 40
0.0
 40
0.0
 40
0.0
 40
0.5008572120249287
 40
0.7508962069358279
 40
1.0
 40
1.0
 40
1.0
 40
1.0
 10
312.849802407926
 20
188.3465697040854
 30
0.0
 10
312.8039524789455
 20
188.3883548364036
 30
0.0
 10
312.7352132516107
 20
188.4510000307039
 30
0.0
 10
312.6249059489884
 20
188.5125593104948
 30
0.0
 10
312.5614424602401
 20
188.5168025934215
 30
0.0
 10
312.5297701689657
 20
188.5189202597437
 30
0.0
  0
SPLINE
  5
152
330
1F
100
AcDbEntity
  8
0
  6
Continuous
 62
     7
370
    25
100
AcDbSpline
210
0.0
220
0.0
230
1.0
 70
     8
 71
     3
 72
    14
 73
    10
 74
     0
 42
0.000000001
 43
0.00000001
 40
0.0
 40
0.0
 40
0.0
 40
0.0
 40
0.2492018190294408
 40
0.3735775795634952
 40
0.4993839223810011
 40
0.6238272040201236
 40
0.7495927927052021
 40
0.8747108951050723
 40
0.9999999999999999
 40
0.9999999999999999
 40
0.9999999999999999
 40
0.9999999999999999
 10
312.5297701689657
 20
188.5189202597437
 30
0.0
 10
312.5110907271475
 20
188.5153919898374
 30
0.0
 10
312.4830884409312
 20
188.5101027727008
 30
0.0
 10
312.4501848220641
 20
188.4881072015122
 30
0.0
 10
312.4289371811777
 20
188.4671524434985
 30
0.0
 10
312.4117280534022
 20
188.4422503345269
 30
0.0
 10
312.3996207691548
 20
188.4146359105918
 30
0.0
 10
312.3926501646658
 20
188.3854234187138
 30
0.0
 10
312.3919645466493
 20
188.3658950131243
 30
0.0
 10
312.3916215035376
 20
188.3561241423783
 30
0.0
  0
SPLINE
  5
153
330
1F
100
AcDbEntity
  8
0
  6
Continuous
 62
     7
370
    25
100
AcDbSpline
210
0.0
220
0.0
230
1.0
 70
     8
 71
     3
 72
    13
 73
     9
 74
     0
 42
0.000000001
 43
0.00000001
 40
0.0
 40
0.0
 40
0.0
 40
0.0
 40
0.1251976171073781
 40
0.2503095978354357
 40
0.3721993733704436
 40
0.5005737683279634
 40
0.7498352647109441
 40
1.0
 40
1.0
 40
1.0
 40
1.0
 10
312.3916215035376
 20
188.3561222797332
 30
0.0
 10
312.3921713323907
 20
188.3448597023851
 30
0.0
 10
312.3932706140088
 20
188.3223422514007
 30
0.0
 10
312.4042319278366
 20
188.2914520971787
 30
0.0
 10
312.421806102891
 20
188.2645583083221
 30
0.0
 10
312.4530566885256
 20
188.2364591371439
 30
0.0
 10
312.5024466568614
 20
188.2146060445935
 30
0.0
 10
312.5455908000509
 20
188.2148392936922
 30
0.0
 10
312.5672018858847
 20
188.2149561291633
 30
0.0
  0
SPLINE
  5
154
330
1F
100
AcDbEntity
  8
0
  6
Continuous
 62
     7
370
    25
100
AcDbSpline
210
0.0
220
0.0
230
1.0
 70
     8
 71
     3
 72
     9
 73
     5
 74
     0
 42
0.000000001
 43
0.00000001
 40
0.0
 40
0.0
 40
0.0
 40
0.0
 40
0.5005211907575281
 40
0.9999999999999999
 40
0.9999999999999999
 40
0.9999999999999999
 40
0.9999999999999999
 10
312.5115236970839
 20
188.7244380062518
 30
0.0
 10
312.5113666937821
 20
188.7245127055705
 30
0.0
 10
312.5110530141525
 20
188.7246619486396
 30
0.0
 10
312.5107458143171
 20
188.724812591926
 30
0.0
 10
312.5105923745093
 20
188.7248878350554
 30
0.0
  0
SPLINE
  5
155
330
1F
100
AcDbEntity
  8
0
  6
Continuous
 62
     7
370
    25
100
AcDbSpline
210
0.0
220
0.0
230
1.0
 70
     8
 71
     3
 72
     9
 73
     5
 74
     0
 42
0.000000001
 43
0.00000001
 40
0.0
 40
0.0
 40
0.0
 40
0.0
 40
0.4995292554655684
 40
1.0
 40
1.0
 40
1.0
 40
1.0
 10
312.2063181135115
 20
188.3517357504068
 30
0.0
 10
312.2061646816277
 20
188.3518279946631
 30
0.0
 10
312.2058575286793
 20
188.3520126570333
 30
0.0
 10
312.2055438019744
 20
188.3521967985661
 30
0.0
 10
312.2053867909369
 20
188.3522889560161
 30
0.0
  0
SPLINE
  5
156
330
1F
100
AcDbEntity
  8
0
  6
Continuous
 62
     7
370
    25
100
AcDbSpline
210
0.0
220
0.0
230
1.0
 70
     8
 71
     3
 72
     9
 73
     5
 74
     0
 42
0.000000001
 43
0.00000001
 40
0.0
 40
0.0
 40
0.0
 40
0.0
 40
0.4994453220009037
 40
1.0
 40
1.0
 40
1.0
 40
1.0
 10
312.5672018858847
 20
188.2149561291633
 30
0.0
 10
312.5670484408181
 20
188.2150570782814
 30
0.0
 10
312.5667412098566
 20
188.2152592007436
 30
0.0
 10
312.5664275614748
 20
188.2154606516454
 30
0.0
 10
312.5662705633101
 20
188.2155614888368
 30
0.0
  0
LINE
  5
157
330
1F
100
AcDbEntity
  8
0
  6
Continuous
 62
     7
370
    25
100
AcDbLine
 10
313.2693446013
 20
188.8061541116
 30
0.0
 11
313.2684132788
 21
188.8065964898
 31
0.0
  0
LINE
  5
158
330
1F
100
AcDbEntity
  8
0
  6
Continuous
 62
     7
370
    25
100
AcDbLine
 10
313.0861944291
 20
188.7885064801
 30
0.0
 11
313.0852705571
 21
188.7889497897
 31
0.0
  0
LINE
  5
159
330
1F
100
AcDbEntity
  8
0
  6
Continuous
 62
     7
370
    25
100
AcDbLine
 10
313.1740144226
 20
188.04411711
 30
0.0
 11
313.1730905506
 21
188.0447951129
 31
0.0
  0
LINE
  5
15A
330
1F
100
AcDbEntity
  8
0
  6
Continuous
 62
     7
370
    25
100
AcDbLine
 10
313.9103255007
 20
195.6053881889
 30
0.0
 11
313.9103255007
 21
184.6742968058
 31
0.0
  0
LINE
  5
15B
330
1F
100
AcDbEntity
  8
0
  6
Continuous
 62
     7
370
    25
100
AcDbLine
 10
312.23732743
 20
194.918554554
 30
0.0
 11
312.2375062439
 21
195.1681154763
 31
0.0
  0
LINE
  5
15C
330
1F
100
AcDbEntity
  8
0
  6
Continuous
 62
     7
370
    25
100
AcDbLine
 10
312.2375062439
 20
195.1681154763
 30
0.0
 11
313.2734126183
 21
194.9106662517
 31
0.0
  0
LINE
  5
15D
330
1F
100
AcDbEntity
  8
0
  6
Continuous
 62
     7
370
    25
100
AcDbLine
 10
313.2734126183
 20
194.9106662517
 30
0.0
 11
313.2736659381
 21
194.7460438108
 31
0.0
  0
LINE
  5
15E
330
1F
100
AcDbEntity
  8
0
  6
Continuous
 62
     7
370
    25
100
AcDbLine
 10
313.2736659381
 20
194.7460438108
 30
0.0
 11
312.4229288432
 21
194.9575751072
 31
0.0
  0
LINE
  5
15F
330
1F
100
AcDbEntity
  8
0
  6
Continuous
 62
     7
370
    25
100
AcDbLine
 10
312.4229288432
 20
194.9575751072
 30
0.0
 11
312.4210960004
 21
194.7745068913
 31
0.0
  0
LINE
  5
160
330
1F
100
AcDbEntity
  8
0
  6
Continuous
 62
     7
370
    25
100
AcDbLine
 10
312.4210960004
 20
194.7745068913
 30
0.0
 11
312.23732743
 21
194.918554554
 31
0.0
  0
LINE
  5
161
330
1F
100
AcDbEntity
  8
0
  6
Continuous
 62
     7
370
    25
100
AcDbLine
 10
312.23732743
 20
194.918554554
 30
0.0
 11
312.236403558
 21
194.9171538448
 31
0.0
  0
LINE
  5
162
330
1F
100
AcDbEntity
  8
0
  6
Continuous
 62
     7
370
    25
100
AcDbLine
 10
312.4210960004
 20
194.7745068913
 30
0.0
 11
312.4201646778
 21
194.7731359845
 31
0.0
  0
LINE
  5
163
330
1F
100
AcDbEntity
  8
0
  6
Continuous
 62
     7
370
    25
100
AcDbLine
 10
312.2375062439
 20
195.1681154763
 30
0.0
 11
312.2365749213
 21
195.1666402614
 31
0.0
  0
LINE
  5
164
330
1F
100
AcDbEntity
  8
0
  6
Continuous
 62
     7
370
    25
100
AcDbLine
 10
313.2736659381
 20
194.7460438108
 30
0.0
 11
313.2727420661
 21
194.7446170246
 31
0.0
  0
SPLINE
  5
165
330
1F
100
AcDbEntity
  8
0
  6
Continuous
 62
     7
370
    25
100
AcDbSpline
210
0.0
220
0.0
230
1.0
 70
     8
 71
     3
 72
    12
 73
     8
 74
     0
 42
0.000000001
 43
0.00000001
 40
0.0
 40
0.0
 40
0.0
 40
0.0
 40
0.0304741767226201
 40
0.0888164449764095
 40
0.3925555569658086
 40
0.696275511891144
 40
1.0
 40
1.0
 40
1.0
 40
1.0
 10
314.02449819774
 20
195.8239211684165
 30
0.0
 10
314.0245612657977
 20
195.826555930874
 30
0.0
 10
314.0247450765282
 20
195.8342348991022
 30
0.0
 10
314.0237688198021
 20
195.8685536838046
 30
0.0
 10
314.0115511710478
 20
195.9283309699476
 30
0.0
 10
313.9731406005283
 20
196.0056188494052
 30
0.0
 10
313.9334395355847
 20
196.0437021494104
 30
0.0
 10
313.9135888549742
 20
196.0627439415155
 30
0.0
  0
SPLINE
  5
166
330
1F
100
AcDbEntity
  8
0
  6
Continuous
 62
     7
370
    25
100
AcDbSpline
210
0.0
220
0.0
230
1.0
 70
     8
 71
     3
 72
    11
 73
     7
 74
     0
 42
0.000000001
 43
0.00000001
 40
0.0
 40
0.0
 40
0.0
 40
0.0
 40
0.3704485065829563
 40
0.7443433564925093
 40
0.9444753290458855
 40
1.0
 40
1.0
 40
1.0
 40
1.0
 10
313.9103255006727
 20
196.0698145425019
 30
0.0
 10
313.9103683310865
 20
196.0690065223247
 30
0.0
 10
313.9104543903725
 20
196.0673829648257
 30
0.0
 10
313.9113939006679
 20
196.0650500524732
 30
0.0
 10
313.9127405086133
 20
196.0634629719688
 30
0.0
 10
313.9134374829272
 20
196.0628722394802
 30
0.0
 10
313.9135888549742
 20
196.0627439415155
 30
0.0
  0
SPLINE
  5
167
330
1F
100
AcDbEntity
  8
0
  6
Continuous
 62
     7
370
    25
100
AcDbSpline
210
0.0
220
0.0
230
1.0
 70
     8
 71
     3
 72
    12
 73
     8
 74
     0
 42
0.000000001
 43
0.00000001
 40
0.0
 40
0.0
 40
0.0
 40
0.0
 40
0.03047176104521
 40
0.0888116077003248
 40
0.3925529069253487
 40
0.696271923212082
 40
1.0
 40
1.0
 40
1.0
 40
1.0
 10
314.02449819774
 20
184.4675245678125
 30
0.0
 10
314.0245612657044
 20
184.4648584641829
 30
0.0
 10
314.0247450807229
 20
184.4570879599024
 30
0.0
 10
314.0237687181268
 20
184.4223963876378
 30
0.0
 10
314.0115514403754
 20
184.3622105192156
 30
0.0
 10
313.9731401402472
 20
184.2849062112502
 30
0.0
 10
313.9334394807862
 20
184.247285913013
 30
0.0
 10
313.9135888549742
 20
184.2284754833279
 30
0.0
  0
SPLINE
  5
168
330
1F
100
AcDbEntity
  8
0
  6
Continuous
 62
     7
370
    25
100
AcDbSpline
210
0.0
220
0.0
230
1.0
 70
     8
 71
     3
 72
    10
 73
     6
 74
     0
 42
0.000000001
 43
0.00000001
 40
0.0
 40
0.0
 40
0.0
 40
0.0
 40
0.2116578783902545
 40
0.487949280711918
 40
1.0
 40
1.0
 40
1.0
 40
1.0
 10
313.9135888549742
 20
184.2284754833279
 30
0.0
 10
313.9130479108262
 20
184.2279777876178
 30
0.0
 10
313.9118008355465
 20
184.2268304158988
 30
0.0
 10
313.9105283251476
 20
184.2243896329953
 30
0.0
 10
313.910405366091
 20
184.2227405223848
 30
0.0
 10
313.9103255006727
 20
184.2216693779526
 30
0.0
  0
LINE
  5
169
330
1F
100
AcDbEntity
  8
0
  6
Continuous
 62
     7
370
    25
100
AcDbLine
 10
314.0775165293
 20
197.263177762
 30
0.0
 11
318.4259510371
 21
195.2984540707
 31
0.0
  0
SPLINE
  5
16A
330
1F
100
AcDbEntity
  8
0
  6
Continuous
 62
     7
370
    25
100
AcDbSpline
210
0.0
220
0.0
230
1.0
 70
     8
 71
     3
 72
    12
 73
     8
 74
     0
 42
0.000000001
 43
0.00000001
 40
0.0
 40
0.0
 40
0.0
 40
0.0
 40
0.223886515215563
 40
0.4477891294813068
 40
0.6717051346079158
 40
0.8955848471843696
 40
1.0
 40
1.0
 40
1.0
 40
1.0
 10
314.0243119332251
 20
197.2863546555934
 30
0.0
 10
314.0249376265357
 20
197.2861834415578
 30
0.0
 10
314.0261890581492
 20
197.2858410011752
 30
0.0
 10
314.0359824022075
 20
197.281658569933
 30
0.0
 10
314.0504088951329
 20
197.2753096711449
 30
0.0
 10
314.0652535695193
 20
197.2686838712523
 30
0.0
 10
314.0745574140121
 20
197.2645064144816
 30
0.0
 10
314.0775165292677
 20
197.2631777620015
 30
0.0
  0
ELLIPSE
  5
16B
330
1F
100
AcDbEntity
  8
0
  6
Continuous
 62
     7
370
    25
100
AcDbEllipse
 10
310.0328824708
 20
188.4177446261
 30
0.0
 11
3.991042459774803
 21
8.86975980016274
 31
0.0
210
0.0
220
0.0
230
1.0
 40
0.0062865146
 41
6.268764683147799
 42
6.269665237907537
  0
SPLINE
  5
16C
330
1F
100
AcDbEntity
  8
0
  6
Continuous
 62
     7
370
    25
100
AcDbSpline
210
0.0
220
0.0
230
1.0
 70
     8
 71
     3
 72
    12
 73
     8
 74
     0
 42
0.000000001
 43
0.00000001
 40
0.0
 40
0.0
 40
0.0
 40
0.0
 40
0.2239045007401687
 40
0.4477811663778263
 40
0.6716913631670269
 40
0.8955865788225201
 40
0.9999999999999999
 40
0.9999999999999999
 40
0.9999999999999999
 40
0.9999999999999999
 10
314.0775165292677
 20
197.2609034722743
 30
0.0
 10
314.0711661632473
 20
197.2637911370978
 30
0.0
 10
314.0584662206641
 20
197.2695661077595
 30
0.0
 10
314.042097485274
 20
197.2772352674181
 30
0.0
 10
314.0301890044923
 20
197.2829833407198
 30
0.0
 10
314.0248902764639
 20
197.2857144669617
 30
0.0
 10
314.0244514842257
 20
197.2860984312978
 30
0.0
 10
314.0243119332251
 20
197.2862205451427
 30
0.0
  0
LINE
  5
16D
330
1F
100
AcDbEntity
  8
0
  6
Continuous
 62
     7
370
    25
100
AcDbLine
 10
314.0775165293
 20
197.2609034723
 30
0.0
 11
318.4259510371
 21
195.2855887806
 31
0.0
  0
LINE
  5
16E
330
1F
100
AcDbEntity
  8
0
  6
Continuous
 62
     7
370
    25
100
AcDbLine
 10
318.4259510371
 20
195.2855887806
 30
0.0
 11
318.7629184458
 21
195.1335503703
 31
0.0
  0
LINE
  5
16F
330
1F
100
AcDbEntity
  8
0
  6
Continuous
 62
     7
370
    25
100
AcDbLine
 10
312.4897232983
 20
183.1703328511
 30
0.0
 11
312.4876147839
 21
183.0895201286
 31
0.0
  0
SPLINE
  5
170
330
1F
100
AcDbEntity
  8
0
  6
Continuous
 62
     7
370
    25
100
AcDbSpline
210
0.0
220
0.0
230
1.0
 70
     8
 71
     3
 72
     9
 73
     5
 74
     0
 42
0.000000001
 43
0.00000001
 40
0.0
 40
0.0
 40
0.0
 40
0.0
 40
0.5006093641422991
 40
1.0
 40
1.0
 40
1.0
 40
1.0
 10
312.4876147839483
 20
183.0895201286373
 30
0.0
 10
312.4534293524888
 20
183.0795964831944
 30
0.0
 10
312.3851417136468
 20
183.0597733513201
 30
0.0
 10
312.3308233060312
 20
183.0578486798531
 30
0.0
 10
312.3036972019133
 20
183.0568875169454
 30
0.0
  0
SPLINE
  5
171
330
1F
100
AcDbEntity
  8
0
  6
Continuous
 62
     7
370
    25
100
AcDbSpline
210
0.0
220
0.0
230
1.0
 70
     8
 71
     3
 72
     9
 73
     5
 74
     0
 42
0.000000001
 43
0.00000001
 40
0.0
 40
0.0
 40
0.0
 40
0.0
 40
0.4996460688491722
 40
1.0
 40
1.0
 40
1.0
 40
1.0
 10
312.3036972019133
 20
183.0568875169454
 30
0.0
 10
312.2752790076322
 20
183.0611313452998
 30
0.0
 10
312.2184023582343
 20
183.0696250143567
 30
0.0
 10
312.2111773978179
 20
183.1070517598663
 30
0.0
 10
312.2075623604712
 20
183.1257783791123
 30
0.0
  0
SPLINE
  5
172
330
1F
100
AcDbEntity
  8
0
  6
Continuous
 62
     7
370
    25
100
AcDbSpline
210
0.0
220
0.0
230
1.0
 70
     8
 71
     3
 72
    14
 73
    10
 74
     0
 42
0.000000001
 43
0.00000001
 40
0.0
 40
0.0
 40
0.0
 40
0.0
 40
0.2497259765035612
 40
0.4990563695567518
 40
0.6243158392087855
 40
0.7494652586253908
 40
0.8746169244316689
 40
0.9372909434773256
 40
1.0
 40
1.0
 40
1.0
 40
1.0
 10
312.2075623604712
 20
183.1257783791123
 30
0.0
 10
312.2105769423711
 20
183.144182876658
 30
0.0
 10
312.2166013308621
 20
183.1809627177353
 30
0.0
 10
312.26721161991
 20
183.23885279268
 30
0.0
 10
312.3212758552024
 20
183.2835461996371
 30
0.0
 10
312.3690080108889
 20
183.3158249767059
 30
0.0
 10
312.4137857073732
 20
183.3396559687893
 30
0.0
 10
312.4510051073252
 20
183.3561992633644
 30
0.0
 10
312.4698814693126
 20
183.3633638562731
 30
0.0
 10
312.479322287744
 20
183.3669471537767
 30
0.0
  0
SPLINE
  5
173
330
1F
100
AcDbEntity
  8
0
  6
Continuous
 62
     7
370
    25
100
AcDbSpline
210
0.0
220
0.0
230
1.0
 70
     8
 71
     3
 72
    11
 73
     7
 74
     0
 42
0.000000001
 43
0.00000001
 40
0.0
 40
0.0
 40
0.0
 40
0.0
 40
0.2498951042190157
 40
0.4997011648246347
 40
0.7496672024688366
 40
1.0
 40
1.0
 40
1.0
 40
1.0
 10
312.479322287744
 20
183.3669471537767
 30
0.0
 10
312.5026881611046
 20
183.3744682701094
 30
0.0
 10
312.5494115820055
 20
183.389507822821
 30
0.0
 10
312.6131455544872
 20
183.3965884086456
 30
0.0
 10
312.6655198398377
 20
183.3921900822353
 30
0.0
 10
312.6886754914617
 20
183.3811880222322
 30
0.0
 10
312.7002618047651
 20
183.3756829595266
 30
0.0
  0
SPLINE
  5
174
330
1F
100
AcDbEntity
  8
0
  6
Continuous
 62
     7
370
    25
100
AcDbSpline
210
0.0
220
0.0
230
1.0
 70
     8
 71
     3
 72
    11
 73
     7
 74
     0
 42
0.000000001
 43
0.00000001
 40
0.0
 40
0.0
 40
0.0
 40
0.0
 40
0.2502379179746483
 40
0.5001429850439688
 40
0.7499294736424004
 40
1.0
 40
1.0
 40
1.0
 40
1.0
 10
312.7002618047651
 20
183.3756829595266
 30
0.0
 10
312.7104697259272
 20
183.392812403134
 30
0.0
 10
312.7308719903101
 20
183.427048505829
 30
0.0
 10
312.7924237111316
 20
183.4821050488083
 30
0.0
 10
312.8720157072617
 20
183.5328909462692
 30
0.0
 10
312.9318105962794
 20
183.5569252014076
 30
0.0
 10
312.961725029653
 20
183.5689491575656
 30
0.0
  0
SPLINE
  5
175
330
1F
100
AcDbEntity
  8
0
  6
Continuous
 62
     7
370
    25
100
AcDbSpline
210
0.0
220
0.0
230
1.0
 70
     8
 71
     3
 72
    14
 73
    10
 74
     0
 42
0.000000001
 43
0.00000001
 40
0.0
 40
0.0
 40
0.0
 40
0.0
 40
0.1250795295514155
 40
0.2500962548675438
 40
0.3751177047343736
 40
0.5002309860511801
 40
0.6253192036276365
 40
0.7504365871050409
 40
1.0
 40
1.0
 40
1.0
 40
1.0
 10
312.961725029653
 20
183.5689491575656
 30
0.0
 10
312.9848273241433
 20
183.5767255843719
 30
0.0
 10
313.031020313129
 20
183.5922745333285
 30
0.0
 10
313.0978380956784
 20
183.6055682172314
 30
0.0
 10
313.1579243127583
 20
183.6095104600861
 30
0.0
 10
313.2095463059594
 20
183.6049847842066
 30
0.0
 10
313.2507461378656
 20
183.5927163208775
 30
0.0
 10
313.2908213371718
 20
183.5671446930386
 30
0.0
 10
313.2959973579205
 20
183.5372617356761
 30
0.0
 10
313.2994449469504
 20
183.5173576122222
 30
0.0
  0
SPLINE
  5
176
330
1F
100
AcDbEntity
  8
0
  6
Continuous
 62
     7
370
    25
100
AcDbSpline
210
0.0
220
0.0
230
1.0
 70
     8
 71
     3
 72
    13
 73
     9
 74
     0
 42
0.000000001
 43
0.00000001
 40
0.0
 40
0.0
 40
0.0
 40
0.0
 40
0.2495865924257696
 40
0.3747598904154729
 40
0.4999162466198689
 40
0.6240432240548264
 40
0.7502525159661989
 40
1.0
 40
1.0
 40
1.0
 40
1.0
 10
313.2994449469504
 20
183.5173576122222
 30
0.0
 10
313.2958506456497
 20
183.4956749014596
 30
0.0
 10
313.2904537212858
 20
183.4631178228508
 30
0.0
 10
313.248864299685
 20
183.4128980248656
 30
0.0
 10
313.2058559459044
 20
183.374754672759
 30
0.0
 10
313.1521844247763
 20
183.3372867613596
 30
0.0
 10
313.0699906537268
 20
183.2901071436324
 30
0.0
 10
313.0012948015847
 20
183.2616695917072
 30
0.0
 10
312.9556602570471
 20
183.2427785715161
 30
0.0
  0
LINE
  5
177
330
1F
100
AcDbEntity
  8
0
  6
Continuous
 62
     7
370
    25
100
AcDbLine
 10
312.955660257
 20
183.2427785715
 30
0.0
 11
312.9583350155
 21
183.3249817586
 31
0.0
  0
SPLINE
  5
178
330
1F
100
AcDbEntity
  8
0
  6
Continuous
 62
     7
370
    25
100
AcDbSpline
210
0.0
220
0.0
230
1.0
 70
     8
 71
     3
 72
    12
 73
     8
 74
     0
 42
0.000000001
 43
0.00000001
 40
0.0
 40
0.0
 40
0.0
 40
0.0
 40
0.2503571831549782
 40
0.4996524722231591
 40
0.6248039657222723
 40
0.7501747601038864
 40
1.0
 40
1.0
 40
1.0
 40
1.0
 10
312.9583350154814
 20
183.3249817585645
 30
0.0
 10
312.9791386577125
 20
183.3343918367832
 30
0.0
 10
313.0206577031859
 20
183.35317208022
 30
0.0
 10
313.0672825845721
 20
183.382473290257
 30
0.0
 10
313.0940556478818
 20
183.4066582188961
 30
0.0
 10
313.113550623256
 20
183.4305629269589
 30
0.0
 10
313.1161013704491
 20
183.4458651864296
 30
0.0
 10
313.1177997919974
 20
183.4560542350707
 30
0.0
  0
SPLINE
  5
179
330
1F
100
AcDbEntity
  8
0
  6
Continuous
 62
     7
370
    25
100
AcDbSpline
210
0.0
220
0.0
230
1.0
 70
     8
 71
     3
 72
    12
 73
     8
 74
     0
 42
0.000000001
 43
0.00000001
 40
0.0
 40
0.0
 40
0.0
 40
0.0
 40
0.2501445323880033
 40
0.4997710530296021
 40
0.6263113232863778
 40
0.7505462382937804
 40
1.0
 40
1.0
 40
1.0
 40
1.0
 10
313.1177997919974
 20
183.4560551663933
 30
0.0
 10
313.1160453021695
 20
183.4648527634585
 30
0.0
 10
313.1125399557987
 20
183.4824297390871
 30
0.0
 10
313.0829687706652
 20
183.4926327578658
 30
0.0
 10
313.0519140380825
 20
183.4941342142545
 30
0.0
 10
313.0155723323024
 20
183.4908014745288
 30
0.0
 10
312.9844962502874
 20
183.4810117812648
 30
0.0
 10
312.9637515875754
 20
183.4744767269192
 30
0.0
  0
SPLINE
  5
17A
330
1F
100
AcDbEntity
  8
0
  6
Continuous
 62
     7
370
    25
100
AcDbSpline
210
0.0
220
0.0
230
1.0
 70
     8
 71
     3
 72
    13
 73
     9
 74
     0
 42
0.000000001
 43
0.00000001
 40
0.0
 40
0.0
 40
0.0
 40
0.0
 40
0.1244581718308046
 40
0.2497251613412292
 40
0.373858227065542
 40
0.5000495232284539
 40
0.7495832159508415
 40
1.0
 40
1.0
 40
1.0
 40
1.0
 10
312.9637515875754
 20
183.4744767269192
 30
0.0
 10
312.9501799740461
 20
183.4690548110313
 30
0.0
 10
312.9229485489948
 20
183.4581757437917
 30
0.0
 10
312.8854885034643
 20
183.4362094067877
 30
0.0
 10
312.8545948701409
 20
183.4123219328133
 30
0.0
 10
312.821771236744
 20
183.3800973944015
 30
0.0
 10
312.7991688739831
 20
183.3416044434421
 30
0.0
 10
312.7963041628191
 20
183.316403119433
 30
0.0
 10
312.7948692771849
 20
183.3037802001534
 30
0.0
  0
LINE
  5
17B
330
1F
100
AcDbEntity
  8
0
  6
Continuous
 62
     7
370
    25
100
AcDbLine
 10
312.7948692772
 20
183.3037802002
 30
0.0
 11
312.6250556442
 21
183.2421257144
 31
0.0
  0
SPLINE
  5
17C
330
1F
100
AcDbEntity
  8
0
  6
Continuous
 62
     7
370
    25
100
AcDbSpline
210
0.0
220
0.0
230
1.0
 70
     8
 71
     3
 72
    14
 73
    10
 74
     0
 42
0.000000001
 43
0.00000001
 40
0.0
 40
0.0
 40
0.0
 40
0.0
 40
0.2504758617235543
 40
0.4998677896627123
 40
0.6270718332264482
 40
0.749862916740541
 40
0.874798390550498
 40
0.9373673107824737
 40
1.0
 40
1.0
 40
1.0
 40
1.0
 10
312.6250556442198
 20
183.2421257143912
 30
0.0
 10
312.6230953115476
 20
183.2504670488561
 30
0.0
 10
312.6191831295391
 20
183.2671136206777
 30
0.0
 10
312.6036415793843
 20
183.2842956494178
 30
0.0
 10
312.5786395666365
 20
183.2904023151058
 30
0.0
 10
312.5545821545182
 20
183.2907491617621
 30
0.0
 10
312.531265771304
 20
183.2874519231058
 30
0.0
 10
312.5111099920952
 20
183.2821912013288
 30
0.0
 10
312.5008375173236
 20
183.2786726479438
 30
0.0
 10
312.495698663896
 20
183.2769124751983
 30
0.0
  0
SPLINE
  5
17D
330
1F
100
AcDbEntity
  8
0
  6
Continuous
 62
     7
370
    25
100
AcDbSpline
210
0.0
220
0.0
230
1.0
 70
     8
 71
     3
 72
    13
 73
     9
 74
     0
 42
0.000000001
 43
0.00000001
 40
0.0
 40
0.0
 40
0.0
 40
0.0
 40
0.2491850664147295
 40
0.3727569970420925
 40
0.4995094451807197
 40
0.6251708551141866
 40
0.7499911824235399
 40
1.0
 40
1.0
 40
1.0
 40
1.0
 10
312.495698663896
 20
183.2769124751983
 30
0.0
 10
312.4820109009115
 20
183.27132168743
 30
0.0
 10
312.4615353182463
 20
183.2629584043103
 30
0.0
 10
312.4378823653023
 20
183.2478559633354
 30
0.0
 10
312.422914645218
 20
183.2359482674513
 30
0.0
 10
312.4110206947457
 20
183.2239021497782
 30
0.0
 10
312.3999042057216
 20
183.2083581446763
 30
0.0
 10
312.3985737093415
 20
183.1985804250974
 30
0.0
 10
312.3976862761435
 20
183.1920587441025
 30
0.0
  0
SPLINE
  5
17E
330
1F
100
AcDbEntity
  8
0
  6
Continuous
 62
     7
370
    25
100
AcDbSpline
210
0.0
220
0.0
230
1.0
 70
     8
 71
     3
 72
    12
 73
     8
 74
     0
 42
0.000000001
 43
0.00000001
 40
0.0
 40
0.0
 40
0.0
 40
0.0
 40
0.2498501165915321
 40
0.4996780820540096
 40
0.74943971320102
 40
0.8746684504825576
 40
1.0
 40
1.0
 40
1.0
 40
1.0
 10
312.3976862761435
 20
183.1920587441025
 30
0.0
 10
312.3989038293248
 20
183.1862639687964
 30
0.0
 10
312.4013388277421
 20
183.1746749319355
 30
0.0
 10
312.4219637634371
 20
183.1658146901959
 30
0.0
 10
312.4463241615213
 20
183.1637525419706
 30
0.0
 10
312.4702063207811
 20
183.1662828590123
 30
0.0
 10
312.4832158597001
 20
183.1689824844802
 30
0.0
 10
312.4897232982573
 20
183.1703328510819
 30
0.0
  0
SPLINE
  5
17F
330
1F
100
AcDbEntity
  8
0
  6
Continuous
 62
     7
370
    25
100
AcDbSpline
210
0.0
220
0.0
230
1.0
 70
     8
 71
     3
 72
     9
 73
     5
 74
     0
 42
0.000000001
 43
0.00000001
 40
0.0
 40
0.0
 40
0.0
 40
0.0
 40
0.4994453266351152
 40
1.0
 40
1.0
 40
1.0
 40
1.0
 10
312.479322287744
 20
183.3669471537767
 30
0.0
 10
312.4791688426781
 20
183.3672913126149
 30
0.0
 10
312.4788616117209
 20
183.3679803947223
 30
0.0
 10
312.4785479633347
 20
183.368667187345
 30
0.0
 10
312.4783909651694
 20
183.369010964602
 30
0.0
  0
SPLINE
  5
180
330
1F
100
AcDbEntity
  8
0
  6
Continuous
 62
     7
370
    25
100
AcDbSpline
210
0.0
220
0.0
230
1.0
 70
     8
 71
     3
 72
     9
 73
     5
 74
     0
 42
0.000000001
 43
0.00000001
 40
0.0
 40
0.0
 40
0.0
 40
0.0
 40
0.4992888064498639
 40
1.0
 40
1.0
 40
1.0
 40
1.0
 10
312.2075623604712
 20
183.1257783791123
 30
0.0
 10
312.2074088908453
 20
183.12612965944
 30
0.0
 10
312.2071015143852
 20
183.1268332208323
 30
0.0
 10
312.2067880120333
 20
183.127534715744
 30
0.0
 10
312.2066310378966
 20
183.1278859620986
 30
0.0
  0
LINE
  5
181
330
1F
100
AcDbEntity
  8
0
  6
Continuous
 62
     7
370
    25
100
AcDbLine
 10
312.9617250297
 20
183.5689491576
 30
0.0
 11
312.9608011577
 21
183.5710036552
 31
0.0
  0
SPLINE
  5
182
330
1F
100
AcDbEntity
  8
0
  6
Continuous
 62
     7
370
    25
100
AcDbSpline
210
0.0
220
0.0
230
1.0
 70
     8
 71
     3
 72
     9
 73
     5
 74
     0
 42
0.000000001
 43
0.00000001
 40
0.0
 40
0.0
 40
0.0
 40
0.0
 40
0.5004183980312626
 40
1.0
 40
1.0
 40
1.0
 40
1.0
 10
312.7002618047651
 20
183.3756829595266
 30
0.0
 10
312.7001047857036
 20
183.3760301194537
 30
0.0
 10
312.6997910101467
 20
183.3767238587895
 30
0.0
 10
312.699483905848
 20
183.3774202743632
 30
0.0
 10
312.6993304821905
 20
183.3777681907711
 30
0.0
  0
LINE
  5
183
330
1F
100
AcDbEntity
  8
0
  6
Continuous
 62
     7
370
    25
100
AcDbLine
 10
312.6250556442
 20
183.2421257144
 30
0.0
 11
312.6241317722
 21
183.2442435419
 31
0.0
  0
LINE
  5
184
330
1F
100
AcDbEntity
  8
0
  6
Continuous
 62
     7
370
    25
100
AcDbLine
 10
313.117799792
 20
183.4560551664
 30
0.0
 11
313.11687592
 21
183.4581618181
 31
0.0
  0
SPLINE
  5
185
330
1F
100
AcDbEntity
  8
0
  6
Continuous
 62
     7
370
    25
100
AcDbSpline
210
0.0
220
0.0
230
1.0
 70
     8
 71
     3
 72
     9
 73
     5
 74
     0
 42
0.000000001
 43
0.00000001
 40
0.0
 40
0.0
 40
0.0
 40
0.0
 40
0.4996035103354891
 40
1.0
 40
1.0
 40
1.0
 40
1.0
 10
312.4897232982573
 20
183.1703328510819
 30
0.0
 10
312.4895698780436
 20
183.1706872817461
 30
0.0
 10
312.4892627941051
 20
183.171396705633
 30
0.0
 10
312.4889489981014
 20
183.1721035136327
 30
0.0
 10
312.4887919756827
 20
183.1724571978746
 30
0.0
  0
LINE
  5
186
330
1F
100
AcDbEntity
  8
0
  6
Continuous
 62
     7
370
    25
100
AcDbLine
 10
312.9583350155
 20
183.3249817586
 30
0.0
 11
312.9574111435
 21
183.327110762
 31
0.0
  0
SPLINE
  5
187
330
1F
100
AcDbEntity
  8
0
  6
Continuous
 62
     7
370
    25
100
AcDbSpline
210
0.0
220
0.0
230
1.0
 70
     8
 71
     3
 72
     9
 73
     5
 74
     0
 42
0.000000001
 43
0.00000001
 40
0.0
 40
0.0
 40
0.0
 40
0.0
 40
0.4994455210675882
 40
0.9999999999999999
 40
0.9999999999999999
 40
0.9999999999999999
 40
0.9999999999999999
 10
312.9556602570471
 20
183.2427785715161
 30
0.0
 10
312.9555068120118
 20
183.2431379503055
 30
0.0
 10
312.9551995812353
 20
183.2438575058413
 30
0.0
 10
312.9548859326678
 20
183.2445746714808
 30
0.0
 10
312.9547289344725
 20
183.2449336519537
 30
0.0
  0
LINE
  5
188
330
1F
100
AcDbEntity
  8
0
  6
Continuous
 62
     7
370
    25
100
AcDbLine
 10
318.9103207323
 20
194.0593629127
 30
0.0
 11
318.9103207323
 21
186.2766754797
 31
0.0
  0
LINE
  5
189
330
1F
100
AcDbEntity
  8
0
  6
Continuous
 62
     7
370
    25
100
AcDbLine
 10
318.9103207323
 20
194.9049125409
 30
0.0
 11
318.9103207323
 21
194.0593629127
 31
0.0
  0
SPLINE
  5
18A
330
1F
100
AcDbEntity
  8
0
  6
Continuous
 62
     7
370
    25
100
AcDbSpline
210
0.0
220
0.0
230
1.0
 70
     8
 71
     3
 72
    11
 73
     7
 74
     0
 42
0.000000001
 43
0.00000001
 40
0.0
 40
0.0
 40
0.0
 40
0.0
 40
0.2933078610600864
 40
0.5865968129675714
 40
0.8805025665990895
 40
1.0
 40
1.0
 40
1.0
 40
1.0
 10
318.7629184457716
 20
195.1335503703056
 30
0.0
 10
318.7874316588125
 20
195.1194543446507
 30
0.0
 10
318.8364565045613
 20
195.0912632020924
 30
0.0
 10
318.8867249827201
 20
195.0211605492158
 30
0.0
 10
318.9082255238756
 20
194.9558067312199
 30
0.0
 10
318.909850903557
 20
194.9163250348583
 30
0.0
 10
318.9103207323012
 20
194.9049125408826
 30
0.0
  0
LINE
  5
18B
330
1F
100
AcDbEntity
  8
0
  6
Continuous
 62
     7
370
    25
100
AcDbLine
 10
318.9103207323
 20
186.2766754797
 30
0.0
 11
318.9103207323
 21
185.5002709648
 31
0.0
  0
LINE
  5
18C
330
1F
100
AcDbEntity
  8
0
  6
Continuous
 62
     7
370
    25
100
AcDbLine
 10
313.268711302
 20
197.5969246572
 30
0.0
 11
313.2451004121
 21
197.6064427739
 31
0.0
  0
SPLINE
  5
18D
330
1F
100
AcDbEntity
  8
0
  6
Continuous
 62
     7
370
    25
100
AcDbSpline
210
0.0
220
0.0
230
1.0
 70
     8
 71
     3
 72
    16
 73
    12
 74
     0
 42
0.000000001
 43
0.00000001
 40
0.0
 40
0.0
 40
0.0
 40
0.0
 40
0.064520855541718
 40
0.1815109729691148
 40
0.2984932951980978
 40
0.4154647419525289
 40
0.532422051057533
 40
0.6493816147135554
 40
0.7663363371454963
 40
0.8833839059799501
 40
1.0
 40
1.0
 40
1.0
 40
1.0
 10
312.1317229005751
 20
198.0518533831535
 30
0.0
 10
312.1214144382052
 20
198.0561243659163
 30
0.0
 10
312.0924145277287
 20
198.0681395543434
 30
0.0
 10
312.14011500939
 20
198.041259384376
 30
0.0
 10
312.262729563933
 20
197.9791601046362
 30
0.0
 10
312.4534539075773
 20
197.8904489937968
 30
0.0
 10
312.6795199642325
 20
197.7947846933385
 30
0.0
 10
312.9091121120019
 20
197.7076899009229
 30
0.0
 10
313.1042966824268
 20
197.6418562515623
 30
0.0
 10
313.2416977848485
 20
197.6011489446266
 30
0.0
 10
313.2597178880304
 20
197.5983310185127
 30
0.0
 10
313.268711301988
 20
197.5969246571956
 30
0.0
  0
LINE
  5
18E
330
1F
100
AcDbEntity
  8
0
  6
Continuous
 62
     7
370
    25
100
AcDbLine
 10
318.9103207323
 20
194.9049125409
 30
0.0
 11
318.9103207323
 21
194.9177778309
 31
0.0
  0
LINE
  5
18F
330
1F
100
AcDbEntity
  8
0
  6
Continuous
 62
     7
370
    25
100
AcDbLine
 10
115.7228252623
 20
198.2158034092
 30
0.0
 11
114.7478273842
 21
198.2158034092
 31
0.0
  0
LINE
  5
190
330
1F
100
AcDbEntity
  8
0
  6
Continuous
 62
     7
370
    25
100
AcDbLine
 10
114.7478273842
 20
198.7381151861
 30
0.0
 11
115.7228252623
 21
198.7381151861
 31
0.0
  0
LINE
  5
191
330
1F
100
AcDbEntity
  8
0
  6
Continuous
 62
     7
370
    25
100
AcDbLine
 10
114.7478273842
 20
198.7381151861
 30
0.0
 11
114.7478273842
 21
198.2158034092
 31
0.0
  0
LINE
  5
192
330
1F
100
AcDbEntity
  8
0
  6
Continuous
 62
     7
370
    25
100
AcDbLine
 10
115.7228252623
 20
198.7381151861
 30
0.0
 11
115.7228252623
 21
198.2158034092
 31
0.0
  0
LINE
  5
193
330
1F
100
AcDbEntity
  8
0
  6
Continuous
 62
     7
370
    25
100
AcDbLine
 10
115.7228252623
 20
201.9658035582
 30
0.0
 11
114.7478273842
 21
201.9658035582
 31
0.0
  0
LINE
  5
194
330
1F
100
AcDbEntity
  8
0
  6
Continuous
 62
     7
370
    25
100
AcDbLine
 10
114.7478273842
 20
201.9658035582
 30
0.0
 11
114.7478273842
 21
198.7381151861
 31
0.0
  0
LINE
  5
195
330
1F
100
AcDbEntity
  8
0
  6
Continuous
 62
     7
370
    25
100
AcDbLine
 10
115.7228252623
 20
201.9658035582
 30
0.0
 11
115.7228252623
 21
198.7381151861
 31
0.0
  0
LINE
  5
196
330
1F
100
AcDbEntity
  8
0
  6
Continuous
 62
     7
370
    25
100
AcDbLine
 10
114.7478273842
 20
194.9881150371
 30
0.0
 11
115.7228252623
 21
194.9881150371
 31
0.0
  0
LINE
  5
197
330
1F
100
AcDbEntity
  8
0
  6
Continuous
 62
     7
370
    25
100
AcDbLine
 10
114.7478273842
 20
198.2158034092
 30
0.0
 11
114.7478273842
 21
194.9881150371
 31
0.0
  0
LINE
  5
198
330
1F
100
AcDbEntity
  8
0
  6
Continuous
 62
     7
370
    25
100
AcDbLine
 10
115.7228252623
 20
198.2158034092
 30
0.0
 11
115.7228252623
 21
194.9881150371
 31
0.0
  0
LINE
  5
199
330
1F
100
AcDbEntity
  8
0
  6
Continuous
 62
     7
370
    25
100
AcDbLine
 10
119.1103211376
 20
196.6134517437
 30
0.0
 11
118.1978261802
 21
196.6134517437
 31
0.0
  0
LINE
  5
19A
330
1F
100
AcDbEntity
  8
0
  6
Continuous
 62
     7
370
    25
100
AcDbLine
 10
118.1978261802
 20
200.3404649889
 30
0.0
 11
119.1103211376
 21
200.3404649889
 31
0.0
  0
LINE
  5
19B
330
1F
100
AcDbEntity
  8
0
  6
Continuous
 62
     7
370
    25
100
AcDbLine
 10
118.1978261802
 20
200.3404649889
 30
0.0
 11
118.1978261802
 21
196.6134517437
 31
0.0
  0
LINE
  5
19C
330
1F
100
AcDbEntity
  8
0
  6
Continuous
 62
     7
370
    25
100
AcDbLine
 10
119.1103211376
 20
200.7928009128
 30
0.0
 11
118.1978261802
 21
200.7928009128
 31
0.0
  0
LINE
  5
19D
330
1F
100
AcDbEntity
  8
0
  6
Continuous
 62
     7
370
    25
100
AcDbLine
 10
118.1978261802
 20
200.7928009128
 30
0.0
 11
118.1978261802
 21
200.3404649889
 31
0.0
  0
LINE
  5
19E
330
1F
100
AcDbEntity
  8
0
  6
Continuous
 62
     7
370
    25
100
AcDbLine
 10
118.1978261802
 20
196.1611176824
 30
0.0
 11
119.1103211376
 21
196.1611176824
 31
0.0
  0
LINE
  5
19F
330
1F
100
AcDbEntity
  8
0
  6
Continuous
 62
     7
370
    25
100
AcDbLine
 10
118.1978261802
 20
196.6134517437
 30
0.0
 11
118.1978261802
 21
196.1611176824
 31
0.0
  0
LINE
  5
1A0
330
1F
100
AcDbEntity
  8
0
  6
Continuous
 62
     7
370
    25
100
AcDbLine
 10
116.3228205177
 20
202.1894588118
 30
0.0
 11
116.3228205177
 21
194.7644597834
 31
0.0
  0
LINE
  5
1A1
330
1F
100
AcDbEntity
  8
0
  6
Continuous
 62
     7
370
    25
100
AcDbLine
 10
111.1978268954
 20
196.0144585913
 30
0.0
 11
111.1978268954
 21
200.9394581413
 31
0.0
  0
LINE
  5
1A2
330
1F
100
AcDbEntity
  8
0
  6
Continuous
 62
     7
370
    25
100
AcDbLine
 10
117.6978251669
 20
201.97695894
 30
0.0
 11
117.6978251669
 21
194.9769596553
 31
0.0
  0
LINE
  5
1A3
330
1F
100
AcDbEntity
  8
0
  6
Continuous
 62
     7
370
    25
100
AcDbLine
 10
118.1978261802
 20
202.6563066041
 30
0.0
 11
119.1103211376
 21
202.6563066041
 31
0.0
  0
LINE
  5
1A4
330
1F
100
AcDbEntity
  8
0
  6
Continuous
 62
     7
370
    25
100
AcDbLine
 10
118.1978261802
 20
202.6563066041
 30
0.0
 11
118.1978261802
 21
200.7928009128
 31
0.0
  0
LINE
  5
1A5
330
1F
100
AcDbEntity
  8
0
  6
Continuous
 62
     7
370
    25
100
AcDbLine
 10
119.1103211376
 20
194.2976101285
 30
0.0
 11
118.1978261802
 21
194.2976101285
 31
0.0
  0
LINE
  5
1A6
330
1F
100
AcDbEntity
  8
0
  6
Continuous
 62
     7
370
    25
100
AcDbLine
 10
118.1978261802
 20
196.1611176824
 30
0.0
 11
118.1978261802
 21
194.2976101285
 31
0.0
  0
LINE
  5
1A7
330
1F
100
AcDbEntity
  8
0
  6
Continuous
 62
     7
370
    25
100
AcDbLine
 10
114.7478273842
 20
202.2269594466
 30
0.0
 11
115.7228252623
 21
202.2269594466
 31
0.0
  0
LINE
  5
1A8
330
1F
100
AcDbEntity
  8
0
  6
Continuous
 62
     7
370
    25
100
AcDbLine
 10
114.7478273842
 20
202.2269594466
 30
0.0
 11
114.7478273842
 21
201.9658035582
 31
0.0
  0
LINE
  5
1A9
330
1F
100
AcDbEntity
  8
0
  6
Continuous
 62
     7
370
    25
100
AcDbLine
 10
115.7228252623
 20
202.2269594466
 30
0.0
 11
115.7228252623
 21
201.9658035582
 31
0.0
  0
LINE
  5
1AA
330
1F
100
AcDbEntity
  8
0
  6
Continuous
 62
     7
370
    25
100
AcDbLine
 10
115.7228252623
 20
194.7269591486
 30
0.0
 11
114.7478273842
 21
194.7269591486
 31
0.0
  0
LINE
  5
1AB
330
1F
100
AcDbEntity
  8
0
  6
Continuous
 62
     7
370
    25
100
AcDbLine
 10
114.7478273842
 20
194.9881150371
 30
0.0
 11
114.7478273842
 21
194.7269591486
 31
0.0
  0
LINE
  5
1AC
330
1F
100
AcDbEntity
  8
0
  6
Continuous
 62
     7
370
    25
100
AcDbLine
 10
115.7228252623
 20
194.9881150371
 30
0.0
 11
115.7228252623
 21
194.7269591486
 31
0.0
  0
LINE
  5
1AD
330
1F
100
AcDbEntity
  8
0
  6
Continuous
 62
     7
370
    25
100
AcDbLine
 10
118.1978261802
 20
202.6644594019
 30
0.0
 11
118.1978261802
 21
202.6563066041
 31
0.0
  0
LINE
  5
1AE
330
1F
100
AcDbEntity
  8
0
  6
Continuous
 62
     7
370
    25
100
AcDbLine
 10
118.1978261802
 20
194.2976101285
 30
0.0
 11
118.1978261802
 21
194.2894591933
 31
0.0
  0
LINE
  5
1AF
330
1F
100
AcDbEntity
  8
0
  6
Continuous
 62
     7
370
    25
100
AcDbLine
 10
129.8580816719
 20
250.5519560522
 30
0.0
 11
129.8392093512
 21
250.5269593543
 31
0.0
  0
LINE
  5
1B0
330
1F
100
AcDbEntity
  8
0
  6
Continuous
 62
     7
370
    25
100
AcDbLine
 10
130.2027380797
 20
250.5269593543
 30
0.0
 11
130.2418387267
 21
250.5519560522
 31
0.0
  0
LINE
  5
1B1
330
1F
100
AcDbEntity
  8
0
  6
Continuous
 62
     7
370
    25
100
AcDbLine
 10
129.8276684019
 20
250.5269593543
 30
0.0
 11
129.8465407226
 21
250.5519560522
 31
0.0
  0
LINE
  5
1B2
330
1F
100
AcDbEntity
  8
0
  6
Continuous
 62
     7
370
    25
100
AcDbLine
 10
129.3668425414
 20
250.5519560522
 30
0.0
 11
129.3732574913
 21
250.5269593543
 31
0.0
  0
LINE
  5
1B3
330
1F
100
AcDbEntity
  8
0
  6
Continuous
 62
     7
370
    25
100
AcDbLine
 10
126.3276687595
 20
250.5269593543
 30
0.0
 11
126.3465410802
 21
250.5519560522
 31
0.0
  0
LINE
  5
1B4
330
1F
100
AcDbEntity
  8
0
  6
Continuous
 62
     7
370
    25
100
AcDbLine
 10
125.866842899
 20
250.5519560522
 30
0.0
 11
125.8732578489
 21
250.5269593543
 31
0.0
  0
LINE
  5
1B5
330
1F
100
AcDbEntity
  8
0
  6
Continuous
 62
     7
370
    25
100
AcDbLine
 10
120.7353225681
 20
251.2269563025
 30
0.0
 11
120.7353225681
 21
250.8519611305
 31
0.0
  0
LINE
  5
1B6
330
1F
100
AcDbEntity
  8
0
  6
Continuous
 62
     7
370
    25
100
AcDbLine
 10
139.1103244159
 20
268.476957733
 30
0.0
 11
132.3260492417
 21
268.476957733
 31
0.0
  0
ARC
  5
1B7
330
1F
100
AcDbEntity
  8
0
  6
Continuous
 62
     7
370
    25
100
AcDbCircle
 10
139.1103242412
 20
267.6019590431
 30
0.0
 40
0.875
100
AcDbArc
 50
28.3800916461
 51
90.0
  0
LINE
  5
1B8
330
1F
100
AcDbEntity
  8
0
  6
Continuous
 62
     7
370
    25
100
AcDbLine
 10
131.2353214952
 20
250.8519611305
 30
0.0
 11
131.2353214952
 21
251.2269563025
 31
0.0
  0
LINE
  5
1B9
330
1F
100
AcDbEntity
  8
0
  6
Continuous
 62
     7
370
    25
100
AcDbLine
 10
128.6434433195
 20
250.5269593543
 30
0.0
 11
128.5979351732
 21
250.5519560522
 31
0.0
  0
LINE
  5
1BA
330
1F
100
AcDbEntity
  8
0
  6
Continuous
 62
     7
370
    25
100
AcDbLine
 10
128.9073503348
 20
250.5519560522
 30
0.0
 11
128.9373240206
 21
250.5269593543
 31
0.0
  0
LINE
  5
1BB
330
1F
100
AcDbEntity
  8
0
  6
Continuous
 62
     7
370
    25
100
AcDbLine
 10
129.3608597252
 20
250.5269593543
 30
0.0
 11
129.3544522259
 21
250.5519560522
 31
0.0
  0
LINE
  5
1BC
330
1F
100
AcDbEntity
  8
0
  6
Continuous
 62
     7
370
    25
100
AcDbLine
 10
128.6027258965
 20
250.5519560522
 30
0.0
 11
128.6482340428
 21
250.5269593543
 31
0.0
  0
LINE
  5
1BD
330
1F
100
AcDbEntity
  8
0
  6
Continuous
 62
     7
370
    25
100
AcDbLine
 10
128.9274072978
 20
250.5269593543
 30
0.0
 11
128.8974336121
 21
250.5519560522
 31
0.0
  0
LINE
  5
1BE
330
1F
100
AcDbEntity
  8
0
  6
Continuous
 62
     7
370
    25
100
AcDbLine
 10
130.4360530111
 20
250.5519560522
 30
0.0
 11
130.3872070047
 21
250.5269593543
 31
0.0
  0
LINE
  5
1BF
330
1F
100
AcDbEntity
  8
0
  6
Continuous
 62
     7
370
    25
100
AcDbLine
 10
130.2494457695
 20
250.5519560522
 30
0.0
 11
130.2103451225
 21
250.5269593543
 31
0.0
  0
LINE
  5
1C0
330
1F
100
AcDbEntity
  8
0
  6
Continuous
 62
     7
370
    25
100
AcDbLine
 10
130.3855827782
 20
250.5269593543
 30
0.0
 11
130.4344287846
 21
250.5519560522
 31
0.0
  0
LINE
  5
1C1
330
1F
100
AcDbEntity
  8
0
  6
Continuous
 62
     7
370
    25
100
AcDbLine
 10
121.6434440348
 20
250.5269593543
 30
0.0
 11
121.5979358885
 21
250.5519560522
 31
0.0
  0
LINE
  5
1C2
330
1F
100
AcDbEntity
  8
0
  6
Continuous
 62
     7
370
    25
100
AcDbLine
 10
121.9073510501
 20
250.5519560522
 30
0.0
 11
121.9373247358
 21
250.5269593543
 31
0.0
  0
LINE
  5
1C3
330
1F
100
AcDbEntity
  8
0
  6
Continuous
 62
     7
370
    25
100
AcDbLine
 10
122.3608604404
 20
250.5269593543
 30
0.0
 11
122.3544529411
 21
250.5519560522
 31
0.0
  0
LINE
  5
1C4
330
1F
100
AcDbEntity
  8
0
  6
Continuous
 62
     7
370
    25
100
AcDbLine
 10
121.9274080131
 20
250.5269593543
 30
0.0
 11
121.8974343273
 21
250.5519560522
 31
0.0
  0
LINE
  5
1C5
330
1F
100
AcDbEntity
  8
0
  6
Continuous
 62
     7
370
    25
100
AcDbLine
 10
121.6027266118
 20
250.5519560522
 30
0.0
 11
121.6482347581
 21
250.5269593543
 31
0.0
  0
LINE
  5
1C6
330
1F
100
AcDbEntity
  8
0
  6
Continuous
 62
     7
370
    25
100
AcDbLine
 10
123.4360537264
 20
250.5519560522
 30
0.0
 11
123.38720772
 21
250.5269593543
 31
0.0
  0
LINE
  5
1C7
330
1F
100
AcDbEntity
  8
0
  6
Continuous
 62
     7
370
    25
100
AcDbLine
 10
123.2494390342
 20
250.5519560522
 30
0.0
 11
123.2103458378
 21
250.5269593543
 31
0.0
  0
LINE
  5
1C8
330
1F
100
AcDbEntity
  8
0
  6
Continuous
 62
     7
370
    25
100
AcDbLine
 10
123.3855834934
 20
250.5269593543
 30
0.0
 11
123.4344294998
 21
250.5519560522
 31
0.0
  0
LINE
  5
1C9
330
1F
100
AcDbEntity
  8
0
  6
Continuous
 62
     7
370
    25
100
AcDbLine
 10
122.3668432567
 20
250.5519560522
 30
0.0
 11
122.3732582066
 21
250.5269593543
 31
0.0
  0
LINE
  5
1CA
330
1F
100
AcDbEntity
  8
0
  6
Continuous
 62
     7
370
    25
100
AcDbLine
 10
122.8276691172
 20
250.5269593543
 30
0.0
 11
122.8465339872
 21
250.5519560522
 31
0.0
  0
LINE
  5
1CB
330
1F
100
AcDbEntity
  8
0
  6
Continuous
 62
     7
370
    25
100
AcDbLine
 10
122.8580823872
 20
250.5519560522
 30
0.0
 11
122.8392100665
 21
250.5269593543
 31
0.0
  0
LINE
  5
1CC
330
1F
100
AcDbEntity
  8
0
  6
Continuous
 62
     7
370
    25
100
AcDbLine
 10
123.202738795
 20
250.5269593543
 30
0.0
 11
123.241839442
 21
250.5519560522
 31
0.0
  0
LINE
  5
1CD
330
1F
100
AcDbEntity
  8
0
  6
Continuous
 62
     7
370
    25
100
AcDbLine
 10
125.1027262542
 20
250.5519560522
 30
0.0
 11
125.1482344005
 21
250.5269593543
 31
0.0
  0
LINE
  5
1CE
330
1F
100
AcDbEntity
  8
0
  6
Continuous
 62
     7
370
    25
100
AcDbLine
 10
125.4274076554
 20
250.5269593543
 30
0.0
 11
125.3974339697
 21
250.5519560522
 31
0.0
  0
LINE
  5
1CF
330
1F
100
AcDbEntity
  8
0
  6
Continuous
 62
     7
370
    25
100
AcDbLine
 10
125.1434436771
 20
250.5269593543
 30
0.0
 11
125.0979355308
 21
250.5519560522
 31
0.0
  0
LINE
  5
1D0
330
1F
100
AcDbEntity
  8
0
  6
Continuous
 62
     7
370
    25
100
AcDbLine
 10
125.8608600828
 20
250.5269593543
 30
0.0
 11
125.8544525835
 21
250.5519560522
 31
0.0
  0
LINE
  5
1D1
330
1F
100
AcDbEntity
  8
0
  6
Continuous
 62
     7
370
    25
100
AcDbLine
 10
125.4073506925
 20
250.5519560522
 30
0.0
 11
125.4373243782
 21
250.5269593543
 31
0.0
  0
LINE
  5
1D2
330
1F
100
AcDbEntity
  8
0
  6
Continuous
 62
     7
370
    25
100
AcDbLine
 10
126.9360533688
 20
250.5519560522
 30
0.0
 11
126.8872073624
 21
250.5269593543
 31
0.0
  0
LINE
  5
1D3
330
1F
100
AcDbEntity
  8
0
  6
Continuous
 62
     7
370
    25
100
AcDbLine
 10
126.7494386765
 20
250.5519560522
 30
0.0
 11
126.7103454801
 21
250.5269593543
 31
0.0
  0
LINE
  5
1D4
330
1F
100
AcDbEntity
  8
0
  6
Continuous
 62
     7
370
    25
100
AcDbLine
 10
126.8855831358
 20
250.5269593543
 30
0.0
 11
126.9344291422
 21
250.5519560522
 31
0.0
  0
LINE
  5
1D5
330
1F
100
AcDbEntity
  8
0
  6
Continuous
 62
     7
370
    25
100
AcDbLine
 10
126.3580820295
 20
250.5519560522
 30
0.0
 11
126.3392097089
 21
250.5269593543
 31
0.0
  0
LINE
  5
1D6
330
1F
100
AcDbEntity
  8
0
  6
Continuous
 62
     7
370
    25
100
AcDbLine
 10
126.7027384374
 20
250.5269593543
 30
0.0
 11
126.7418390843
 21
250.5519560522
 31
0.0
  0
LINE
  5
1D7
330
1F
100
AcDbEntity
  8
0
  6
Continuous
 62
     7
370
    25
100
AcDbLine
 10
120.3603273961
 20
251.2269563025
 30
0.0
 11
120.3603273961
 21
250.8519611305
 31
0.0
  0
LINE
  5
1D8
330
1F
100
AcDbEntity
  8
0
  6
Continuous
 62
     7
370
    25
100
AcDbLine
 10
126.1556870076
 20
268.8519603556
 30
0.0
 11
139.1103244159
 21
268.8519603556
 31
0.0
  0
ARC
  5
1D9
330
1F
100
AcDbEntity
  8
0
  6
Continuous
 62
     7
370
    25
100
AcDbCircle
 10
139.1103242412
 20
267.6019590431
 30
0.0
 40
1.25
100
AcDbArc
 50
18.2051197958
 51
90.0
  0
LINE
  5
1DA
330
1F
100
AcDbEntity
  8
0
  6
Continuous
 62
     7
370
    25
100
AcDbLine
 10
131.6103241178
 20
250.8519611305
 30
0.0
 11
131.6103241178
 21
251.2269563025
 31
0.0
  0
LWPOLYLINE
  5
1DB
330
1F
100
AcDbEntity
  8
0
  6
Continuous
 62
     7
370
    25
100
AcDbPolyline
 90
       11
 70
   128
 43
0.0
 10
303.9030260179
 20
237.8421372717
 10
303.892081115
 20
237.8373838013
 10
303.8063100311
 20
237.8000861948
 10
303.644066188
 20
237.7295440978
 10
303.4229329559
 20
237.6333869046
 10
303.1668639514
 20
237.5220454281
 10
302.9036125872
 20
237.4075821584
 10
302.6617145869
 20
237.3024023121
 10
302.4673736426
 20
237.217897827
 10
302.3416525456
 20
237.1632329172
 10
302.2981709573
 20
237.1443307942
  0
ARC
  5
1DC
330
1F
100
AcDbEntity
  8
0
  6
Continuous
 62
     7
370
    25
100
AcDbCircle
 10
296.2603242412
 20
236.3988776749
 30
0.0
 40
0.2500000000000284
100
AcDbArc
 50
90.0
 51
180.0
  0
ARC
  5
1DD
330
1F
100
AcDbEntity
  8
0
  6
Continuous
 62
     7
370
    25
100
AcDbCircle
 10
296.2603242412
 20
206.7269590431
 30
0.0
 40
0.25
100
AcDbArc
 50
180.0
 51
270.0
  0
LINE
  5
1DE
330
1F
100
AcDbEntity
  8
0
  6
Continuous
 62
     7
370
    25
100
AcDbLine
 10
296.0103205177
 20
206.7269592529
 30
0.0
 11
296.0103205177
 21
236.3988778537
 31
0.0
  0
LINE
  5
1DF
330
1F
100
AcDbEntity
  8
0
  6
Continuous
 62
     7
370
    25
100
AcDbLine
 10
307.1385598514
 20
217.7792659944
 30
0.0
 11
301.0575300786
 21
236.4947481996
 31
0.0
  0
LINE
  5
1E0
330
1F
100
AcDbEntity
  8
0
  6
Continuous
 62
     7
370
    25
100
AcDbLine
 10
306.9483465287
 20
217.7174634283
 30
0.0
 11
300.867316756
 21
236.4329456335
 31
0.0
  0
ARC
  5
1E1
330
1F
100
AcDbEntity
  8
0
  6
Continuous
 62
     7
370
    25
100
AcDbCircle
 10
300.5701144451
 20
236.3363776749
 30
0.0
 40
0.512499999999996
100
AcDbArc
 50
18.0
 51
90.0
  0
ARC
  5
1E2
330
1F
100
AcDbEntity
  8
0
  6
Continuous
 62
     7
370
    25
100
AcDbCircle
 10
300.5701144451
 20
236.3363776749
 30
0.0
 40
0.3125000000000349
100
AcDbArc
 50
18.0
 51
90.0
  0
LINE
  5
1E3
330
1F
100
AcDbEntity
  8
0
  6
Continuous
 62
     7
370
    25
100
AcDbLine
 10
296.0103205177
 20
236.8488780206
 30
0.0
 11
296.0103205177
 21
236.6488783604
 31
0.0
  0
LINE
  5
1E4
330
1F
100
AcDbEntity
  8
0
  6
Continuous
 62
     7
370
    25
100
AcDbLine
 10
296.0103205177
 20
236.8488780206
 30
0.0
 11
300.5701130959
 21
236.8488780206
 31
0.0
  0
LINE
  5
1E5
330
1F
100
AcDbEntity
  8
0
  6
Continuous
 62
     7
370
    25
100
AcDbLine
 10
296.0103205177
 20
236.6488783604
 30
0.0
 11
300.5701130959
 21
236.6488783604
 31
0.0
  0
LINE
  5
1E6
330
1F
100
AcDbEntity
  8
0
  6
Continuous
 62
     7
370
    25
100
AcDbLine
 10
313.4553483459
 20
214.2447962409
 30
0.0
 11
308.5927492711
 21
216.0146369582
 31
0.0
  0
LINE
  5
1E7
330
1F
100
AcDbEntity
  8
0
  6
Continuous
 62
     7
370
    25
100
AcDbLine
 10
313.5237521264
 20
214.4327334112
 30
0.0
 11
308.6611530516
 21
216.2025778538
 31
0.0
  0
ARC
  5
1E8
330
1F
100
AcDbEntity
  8
0
  6
Continuous
 62
     7
370
    25
100
AcDbCircle
 10
309.5162014389
 20
218.5518077944
 30
0.0
 40
2.700000000000005
100
AcDbArc
 50
198.0
 51
250.0
  0
ARC
  5
1E9
330
1F
100
AcDbEntity
  8
0
  6
Continuous
 62
     7
370
    25
100
AcDbCircle
 10
309.5162014389
 20
218.5518077944
 30
0.0
 40
2.49999999999999
100
AcDbArc
 50
198.0
 51
250.0
  0
LINE
  5
1EA
330
1F
100
AcDbEntity
  8
0
  6
Continuous
 62
     7
370
    25
100
AcDbLine
 10
311.4107302162
 20
206.5885870701
 30
0.0
 11
314.5154095027
 21
210.2885975486
 31
0.0
  0
LINE
  5
1EB
330
1F
100
AcDbEntity
  8
0
  6
Continuous
 62
     7
370
    25
100
AcDbLine
 10
311.563936505
 20
206.4600310272
 30
0.0
 11
314.6686157915
 21
210.1600377804
 31
0.0
  0
ARC
  5
1EC
330
1F
100
AcDbEntity
  8
0
  6
Continuous
 62
     7
370
    25
100
AcDbCircle
 10
312.6002948837
 20
211.8955651639
 30
0.0
 40
2.500000000000024
100
AcDbArc
 50
320.0
 51
70.0
  0
ARC
  5
1ED
330
1F
100
AcDbEntity
  8
0
  6
Continuous
 62
     7
370
    25
100
AcDbCircle
 10
312.6002948837
 20
211.8955651639
 30
0.0
 40
2.700000000000017
100
AcDbArc
 50
320.0
 51
70.0
  0
ARC
  5
1EE
330
1F
100
AcDbEntity
  8
0
  6
Continuous
 62
     7
370
    25
100
AcDbCircle
 10
311.1713415664
 20
206.7894590431
 30
0.0
 40
0.5125000000000133
100
AcDbArc
 50
270.0
 51
320.0
  0
ARC
  5
1EF
330
1F
100
AcDbEntity
  8
0
  6
Continuous
 62
     7
370
    25
100
AcDbCircle
 10
311.1713415664
 20
206.7894590431
 30
0.0
 40
0.3125000000000219
100
AcDbArc
 50
270.0
 51
320.0
  0
LINE
  5
1F0
330
1F
100
AcDbEntity
  8
0
  6
Continuous
 62
     7
370
    25
100
AcDbLine
 10
296.0103205177
 20
206.276959086
 30
0.0
 11
311.1713430616
 21
206.276959086
 31
0.0
  0
LINE
  5
1F1
330
1F
100
AcDbEntity
  8
0
  6
Continuous
 62
     7
370
    25
100
AcDbLine
 10
296.0103205177
 20
206.4769587463
 30
0.0
 11
296.0103205177
 21
206.276959086
 31
0.0
  0
LINE
  5
1F2
330
1F
100
AcDbEntity
  8
0
  6
Continuous
 62
     7
370
    25
100
AcDbLine
 10
296.0103205177
 20
206.4769587463
 30
0.0
 11
311.1713430616
 21
206.4769587463
 31
0.0
  0
LINE
  5
1F3
330
1F
100
AcDbEntity
  8
0
  6
Continuous
 62
     7
370
    25
100
AcDbLine
 10
300.9369275305
 20
236.6942933744
 30
0.0
 11
300.9873679611
 21
236.7106809264
 31
0.0
  0
LINE
  5
1F4
330
1F
100
AcDbEntity
  8
0
  6
Continuous
 62
     7
370
    25
100
AcDbLine
 10
300.9873679611
 20
236.7106809264
 30
0.0
 11
301.0575300786
 21
236.4947481996
 31
0.0
  0
ARC
  5
1F5
330
1F
100
AcDbEntity
  8
0
  6
Continuous
 62
     7
370
    25
100
AcDbCircle
 10
301.3722914732
 20
236.5372867232
 30
0.0
 40
0.5125000000000685
100
AcDbArc
 50
113.5
 51
157.8436735516
  0
ARC
  5
1F6
330
1F
100
AcDbEntity
  8
0
  6
Continuous
 62
     7
370
    25
100
AcDbCircle
 10
301.3722914732
 20
236.5372867232
 30
0.0
 40
0.3125000000000616
100
AcDbArc
 50
113.5
 51
198.0
  0
LWPOLYLINE
  5
1F7
330
1F
100
AcDbEntity
  8
0
  6
Continuous
 62
     7
370
    25
100
AcDbPolyline
 90
        9
 70
   128
 43
0.0
 10
303.2002723548
 20
237.890968377
 10
303.423908982
 20
237.9882059043
 10
303.6389476392
 20
238.0817106908
 10
303.8371330831
 20
238.167884106
 10
304.0108433697
 20
238.2434106415
 10
304.1534027788
 20
238.3053994721
 10
304.2593351337
 20
238.3514589613
 10
304.3245724174
 20
238.3798233217
 10
304.3465963337
 20
238.3894047683
  0
LINE
  5
1F8
330
1F
100
AcDbEntity
  8
0
  6
Continuous
 62
     7
370
    25
100
AcDbLine
 10
304.3465963337
 20
238.3894047683
 30
0.0
 11
304.4263473484
 21
238.2059863752
 31
0.0
  0
LWPOLYLINE
  5
1F9
330
1F
100
AcDbEntity
  8
0
  6
Continuous
 62
     7
370
    25
100
AcDbPolyline
 90
        9
 70
   128
 43
0.0
 10
303.2800233695
 20
237.7075574344
 10
303.5036599967
 20
237.8047949618
 10
303.7186986539
 20
237.8982997483
 10
303.9168840978
 20
237.9844731635
 10
304.0905943844
 20
238.059999699
 10
304.2331537935
 20
238.1219885295
 10
304.3390861484
 20
238.1680480188
 10
304.4043159816
 20
238.1964123791
 10
304.4263473484
 20
238.2059863752
  0
LINE
  5
1FA
330
1F
100
AcDbEntity
  8
0
  6
Continuous
 62
     7
370
    25
100
AcDbLine
 10
301.1679327819
 20
237.0072810894
 30
0.0
 11
303.2002723548
 21
237.890968377
 31
0.0
  0
LINE
  5
1FB
330
1F
100
AcDbEntity
  8
0
  6
Continuous
 62
     7
370
    25
100
AcDbLine
 10
301.2476837966
 20
236.8238664216
 30
0.0
 11
303.2800233695
 21
237.7075574344
 31
0.0
  0
LINE
  5
1FC
330
1F
100
AcDbEntity
  8
0
  6
Continuous
 62
     7
370
    25
100
AcDbLine
 10
301.0588637325
 20
237.291531915
 30
0.0
 11
301.0845980379
 21
237.3420468515
 31
0.0
  0
LWPOLYLINE
  5
1FD
330
1F
100
AcDbEntity
  8
0
  6
Continuous
 62
     7
370
    25
100
AcDbPolyline
 90
        3
 70
   128
 43
0.0
 10
301.2370667192
 20
237.2007316893
 10
301.3477748963
 20
237.4180204218
 10
301.3729504082
 20
237.4674177712
  0
LINE
  5
1FE
330
1F
100
AcDbEntity
  8
0
  6
Continuous
 62
     7
370
    25
100
AcDbLine
 10
300.8679351541
 20
236.9168124145
 30
0.0
 11
301.0588637325
 21
237.291531915
 31
0.0
  0
LINE
  5
1FF
330
1F
100
AcDbEntity
  8
0
  6
Continuous
 62
     7
370
    25
100
AcDbLine
 10
301.128794882
 20
236.9882485813
 30
0.0
 11
301.2370667192
 21
237.2007316893
 31
0.0
  0
ARC
  5
200
330
1F
100
AcDbEntity
  8
0
  6
Continuous
 62
     7
370
    25
100
AcDbCircle
 10
301.3245751466
 20
236.6841424758
 30
0.0
 40
0.5125000000000658
100
AcDbArc
 50
153.0
 51
168.8910459366
  0
SPLINE
  5
201
330
1F
100
AcDbEntity
  8
0
  6
Continuous
 62
     7
370
    25
100
AcDbSpline
210
0.0
220
0.0
230
1.0
 70
     8
 71
     3
 72
    11
 73
     7
 74
     0
 42
0.000000001
 43
0.00000001
 40
0.0
 40
0.0
 40
0.0
 40
0.0
 40
0.2499978957351528
 40
0.5000033122091198
 40
0.7499947624193671
 40
1.0
 40
1.0
 40
1.0
 40
1.0
 10
296.522823605245
 20
175.5394590303374
 30
0.0
 10
296.4969309036205
 20
175.4723019523207
 30
0.0
 10
296.445144721436
 20
175.3379857759869
 30
0.0
 10
296.3674566144576
 20
175.1685907342949
 30
0.0
 10
296.2897766283194
 20
175.0500670133218
 30
0.0
 10
296.2379858127289
 20
175.0346618506571
 30
0.0
 10
296.2120896908697
 20
175.0269590569267
 30
0.0
  0
LINE
  5
202
330
1F
100
AcDbEntity
  8
0
  6
Continuous
 62
     7
370
    25
100
AcDbLine
 10
296.2120896909
 20
175.2269590373
 30
0.0
 11
296.2120896909
 21
175.0269590569
 31
0.0
  0
SPLINE
  5
203
330
1F
100
AcDbEntity
  8
0
  6
Continuous
 62
     7
370
    25
100
AcDbSpline
210
0.0
220
0.0
230
1.0
 70
     8
 71
     3
 72
    11
 73
     7
 74
     0
 42
0.000000001
 43
0.00000001
 40
0.0
 40
0.0
 40
0.0
 40
0.0
 40
0.2499975780514823
 40
0.5000008012432593
 40
0.7499950798985898
 40
1.0
 40
1.0
 40
1.0
 40
1.0
 10
296.522823605245
 20
175.5394590303374
 30
0.0
 10
296.4969309986293
 20
175.4985096852759
 30
0.0
 10
296.4451452007226
 20
175.4166100704847
 30
0.0
 10
296.3674555370175
 20
175.3133187201331
 30
0.0
 10
296.289777337895
 20
175.2410497597965
 30
0.0
 10
296.2379859406356
 20
175.2316560114559
 30
0.0
 10
296.2120896908697
 20
175.2269590373223
 30
0.0
  0
LWPOLYLINE
  5
204
330
1F
100
AcDbEntity
  8
0
  6
Continuous
 62
     7
370
    25
100
AcDbPolyline
 90
        2
 70
   128
 43
0.0
 10
296.5228236052
 20
175.5394590303
 10
296.5228236052
 20
175.5394590303
  0
SPLINE
  5
205
330
1F
100
AcDbEntity
  8
0
  6
Continuous
 62
     7
370
    25
100
AcDbSpline
210
0.0
220
0.0
230
1.0
 70
     8
 71
     3
 72
    12
 73
     8
 74
     0
 42
0.000000001
 43
0.00000001
 40
0.0
 40
0.0
 40
0.0
 40
0.0
 40
0.2301699161926374
 40
0.4604230447978924
 40
0.6906754992603114
 40
0.920928809313401
 40
1.0
 40
1.0
 40
1.0
 40
1.0
 10
296.2120896908697
 20
206.2769590860305
 30
0.0
 10
296.2359385839932
 20
206.2704395002845
 30
0.0
 10
296.2836449922356
 20
206.2573979717928
 30
0.0
 10
296.3552163255024
 20
206.1562222292643
 30
0.0
 10
296.4267452897521
 20
206.0092150812948
 30
0.0
 10
296.4827736947817
 20
205.8682090182342
 30
0.0
 10
296.5146700799173
 20
205.7855814314424
 30
0.0
 10
296.522823605245
 20
205.7644597238002
 30
0.0
  0
SPLINE
  5
206
330
1F
100
AcDbEntity
  8
0
  6
Continuous
 62
     7
370
    25
100
AcDbSpline
210
0.0
220
0.0
230
1.0
 70
     8
 71
     3
 72
    11
 73
     7
 74
     0
 42
0.000000001
 43
0.00000001
 40
0.0
 40
0.0
 40
0.0
 40
0.0
 40
0.2499994987921918
 40
0.5000040710612429
 40
0.7499957296902817
 40
0.9999999999999999
 40
0.9999999999999999
 40
0.9999999999999999
 40
0.9999999999999999
 10
310.397823784059
 20
205.7644597238002
 30
0.0
 10
310.396351082209
 20
205.8316166645533
 30
0.0
 10
310.393405648622
 20
205.965931908939
 30
0.0
 10
310.3889870269023
 20
206.1353289973642
 30
0.0
 10
310.3845710448537
 20
206.2538513219106
 30
0.0
 10
310.3816194106365
 20
206.2692563684671
 30
0.0
 10
310.3801435563025
 20
206.2769590860305
 30
0.0
  0
SPLINE
  5
207
330
1F
100
AcDbEntity
  8
0
  6
Continuous
 62
     7
370
    25
100
AcDbSpline
210
0.0
220
0.0
230
1.0
 70
     8
 71
     3
 72
    11
 73
     7
 74
     0
 42
0.000000001
 43
0.00000001
 40
0.0
 40
0.0
 40
0.0
 40
0.0
 40
0.2543089019819654
 40
0.5087866509979223
 40
0.7632549280100116
 40
1.0
 40
1.0
 40
1.0
 40
1.0
 10
296.2120896908697
 20
206.076959425777
 30
0.0
 10
296.2384351498055
 20
206.0720952549363
 30
0.0
 10
296.2911435596034
 20
206.0623636837148
 30
0.0
 10
296.3702102291624
 20
205.9876185457346
 30
0.0
 10
296.4474700510597
 20
205.8836250928597
 30
0.0
 10
296.4983172844225
 20
205.8032144288261
 30
0.0
 10
296.522823605245
 20
205.7644597238002
 30
0.0
  0
LINE
  5
208
330
1F
100
AcDbEntity
  8
0
  6
Continuous
 62
     7
370
    25
100
AcDbLine
 10
296.2120896909
 20
206.0769594258
 30
0.0
 11
296.2120896909
 21
206.276959086
 31
0.0
  0
SPLINE
  5
209
330
1F
100
AcDbEntity
  8
0
  6
Continuous
 62
     7
370
    25
100
AcDbSpline
210
0.0
220
0.0
230
1.0
 70
     8
 71
     3
 72
    12
 73
     8
 74
     0
 42
0.000000001
 43
0.00000001
 40
0.0
 40
0.0
 40
0.0
 40
0.0
 40
0.1888378710199235
 40
0.3778469820750694
 40
0.569822270916021
 40
0.7755837835731133
 40
1.0
 40
1.0
 40
1.0
 40
1.0
 10
296.0103205177244
 20
175.2287268039843
 30
0.0
 10
296.0154710900908
 20
175.2341447612668
 30
0.0
 10
296.0257769054131
 20
175.2449855888887
 30
0.0
 10
296.1046624370711
 20
175.2859115015452
 30
0.0
 10
296.2171155902819
 20
175.3532327588019
 30
0.0
 10
296.359569915015
 20
175.44136643085
 30
0.0
 10
296.4668549001715
 20
175.5058296786036
 30
0.0
 10
296.522823605245
 20
175.5394590303374
 30
0.0
  0
SPLINE
  5
20A
330
1F
100
AcDbEntity
  8
0
  6
Continuous
 62
     7
370
    25
100
AcDbSpline
210
0.0
220
0.0
230
1.0
 70
     8
 71
     3
 72
    12
 73
     8
 74
     0
 42
0.000000001
 43
0.00000001
 40
0.0
 40
0.0
 40
0.0
 40
0.0
 40
0.1759377912028868
 40
0.3356081901448575
 40
0.5051378534126725
 40
0.7914149156209458
 40
0.9999999999999999
 40
0.9999999999999999
 40
0.9999999999999999
 40
0.9999999999999999
 10
296.2103239032683
 20
175.2287268039843
 30
0.0
 10
296.2137117867447
 20
175.2343923771091
 30
0.0
 10
296.2201743064468
 20
175.2451996785398
 30
0.0
 10
296.265436747709
 20
175.2840857915735
 30
0.0
 10
296.3355343083223
 20
175.3517170666136
 30
0.0
 10
296.4239344486519
 20
175.4419706577984
 30
0.0
 10
296.4935011455577
 20
175.5105519289702
 30
0.0
 10
296.522823605245
 20
175.5394590303374
 30
0.0
  0
LINE
  5
20B
330
1F
100
AcDbEntity
  8
0
  6
Continuous
 62
     7
370
    25
100
AcDbLine
 10
296.0103205177
 20
175.228726804
 30
0.0
 11
296.2103239033
 21
175.228726804
 31
0.0
  0
SPLINE
  5
20C
330
1F
100
AcDbEntity
  8
0
  6
Continuous
 62
     7
370
    25
100
AcDbSpline
210
0.0
220
0.0
230
1.0
 70
     8
 71
     3
 72
    12
 73
     8
 74
     0
 42
0.000000001
 43
0.00000001
 40
0.0
 40
0.0
 40
0.0
 40
0.0
 40
0.2905035839403265
 40
0.5021688513683868
 40
0.7241744663544513
 40
0.8552152358172279
 40
1.0
 40
1.0
 40
1.0
 40
1.0
 10
296.522823605245
 20
205.7644597238002
 30
0.0
 10
296.4505344693787
 20
205.8084619110089
 30
0.0
 10
296.325574385128
 20
205.8845247516411
 30
0.0
 10
296.1669917579742
 20
205.9830699807943
 30
0.0
 10
296.0700057989668
 20
206.031345375528
 30
0.0
 10
296.0189401622001
 20
206.0593567528955
 30
0.0
 10
296.0132876186232
 20
206.0697397364458
 30
0.0
 10
296.0103205177244
 20
206.0751899128852
 30
0.0
  0
LINE
  5
20D
330
1F
100
AcDbEntity
  8
0
  6
Continuous
 62
     7
370
    25
100
AcDbLine
 10
296.0103205177
 20
206.0751899129
 30
0.0
 11
296.2103239033
 21
206.0751899129
 31
0.0
  0
SPLINE
  5
20E
330
1F
100
AcDbEntity
  8
0
  6
Continuous
 62
     7
370
    25
100
AcDbSpline
210
0.0
220
0.0
230
1.0
 70
     8
 71
     3
 72
    13
 73
     9
 74
     0
 42
0.000000001
 43
0.00000001
 40
0.0
 40
0.0
 40
0.0
 40
0.0
 40
0.3126728197966112
 40
0.5321592841213538
 40
0.635484775161501
 40
0.7470223119621907
 40
0.8681590711463141
 40
1.0
 40
1.0
 40
1.0
 40
1.0
 10
296.522823605245
 20
205.7644597238002
 30
0.0
 10
296.4790163806919
 20
205.8081839024466
 30
0.0
 10
296.4044578652675
 20
205.882601076355
 30
0.0
 10
296.3231834431488
 20
205.9654061192185
 30
0.0
 10
296.2731023771103
 20
206.0100522611675
 30
0.0
 10
296.2406554172132
 20
206.0367508105371
 30
0.0
 10
296.2156417892468
 20
206.0592686378603
 30
0.0
 10
296.21214583962
 20
206.0697351983894
 30
0.0
 10
296.2103239032683
 20
206.0751899128852
 30
0.0
  0
LINE
  5
20F
330
1F
100
AcDbEntity
  8
0
  6
Continuous
 62
     7
370
    25
100
AcDbLine
 10
296.0103205177
 20
206.0751899129
 30
0.0
 11
296.0103205177
 21
175.228726804
 31
0.0
  0
LINE
  5
210
330
1F
100
AcDbEntity
  8
0
  6
Continuous
 62
     7
370
    25
100
AcDbLine
 10
296.2120896909
 20
175.0269590569
 30
0.0
 11
310.3624707791
 21
175.0269590569
 31
0.0
  0
SPLINE
  5
211
330
1F
100
AcDbEntity
  8
0
  6
Continuous
 62
     7
370
    25
100
AcDbSpline
210
0.0
220
0.0
230
1.0
 70
     8
 71
     3
 72
    11
 73
     7
 74
     0
 42
0.000000001
 43
0.00000001
 40
0.0
 40
0.0
 40
0.0
 40
0.0
 40
0.2500041077634403
 40
0.4999959898837152
 40
0.7500007141094769
 40
1.0
 40
1.0
 40
1.0
 40
1.0
 10
310.3624707791266
 20
175.0269590569267
 30
0.0
 10
310.3654164131958
 20
175.0346619497512
 30
0.0
 10
310.3713075372876
 20
175.050067358715
 30
0.0
 10
310.3801412211159
 20
175.168590207306
 30
0.0
 10
310.3889897675999
 20
175.3379867452819
 30
0.0
 10
310.394879133258
 20
175.4723020889496
 30
0.0
 10
310.397823784059
 20
175.5394590303374
 30
0.0
  0
LINE
  5
212
330
1F
100
AcDbEntity
  8
0
  6
Continuous
 62
     7
370
    25
100
AcDbLine
 10
310.9103268716
 20
205.7644597238
 30
0.0
 11
310.9103268716
 21
175.5394590303
 31
0.0
  0
LINE
  5
213
330
1F
100
AcDbEntity
  8
0
  6
Continuous
 62
     7
370
    25
100
AcDbLine
 10
310.9103268716
 20
175.5394590303
 30
0.0
 11
310.3978237841
 21
175.5394590303
 31
0.0
  0
LINE
  5
214
330
1F
100
AcDbEntity
  8
0
  6
Continuous
 62
     7
370
    25
100
AcDbLine
 10
310.3978237841
 20
205.7644597238
 30
0.0
 11
310.9103268716
 21
205.7644597238
 31
0.0
  0
ARC
  5
215
330
1F
100
AcDbEntity
  8
0
  6
Continuous
 62
     7
370
    25
100
AcDbCircle
 10
310.3978242412
 20
205.7644590431
 30
0.0
 40
0.5125000000000455
100
AcDbArc
 50
0.0
 51
90.0
  0
ARC
  5
216
330
1F
100
AcDbEntity
  8
0
  6
Continuous
 62
     7
370
    25
100
AcDbCircle
 10
310.3978242412
 20
205.7644590431
 30
0.0
 40
0.3125
100
AcDbArc
 50
360.0
 51
90.0
  0
LINE
  5
217
330
1F
100
AcDbEntity
  8
0
  6
Continuous
 62
     7
370
    25
100
AcDbLine
 10
310.3978237841
 20
206.0769594258
 30
0.0
 11
310.3978237841
 21
206.276959086
 31
0.0
  0
LINE
  5
218
330
1F
100
AcDbEntity
  8
0
  6
Continuous
 62
     7
370
    25
100
AcDbLine
 10
310.3978237841
 20
175.2269590373
 30
0.0
 11
310.3978237841
 21
175.0269590569
 31
0.0
  0
ARC
  5
219
330
1F
100
AcDbEntity
  8
0
  6
Continuous
 62
     7
370
    25
100
AcDbCircle
 10
310.3978242412
 20
175.5394590431
 30
0.0
 40
0.3125
100
AcDbArc
 50
270.0
 51
0.0
  0
ARC
  5
21A
330
1F
100
AcDbEntity
  8
0
  6
Continuous
 62
     7
370
    25
100
AcDbCircle
 10
310.3978242412
 20
175.5394590431
 30
0.0
 40
0.5125000000000455
100
AcDbArc
 50
270.0
 51
0.0
  0
LINE
  5
21B
330
1F
100
AcDbEntity
  8
0
  6
Continuous
 62
     7
370
    25
100
AcDbLine
 10
310.3978237841
 20
175.0269590569
 30
0.0
 11
310.3624707791
 21
175.0269590569
 31
0.0
  0
LINE
  5
21C
330
1F
100
AcDbEntity
  8
0
  6
Continuous
 62
     7
370
    25
100
AcDbLine
 10
119.2103228304
 20
241.3519567793
 30
0.0
 11
119.2103228304
 21
241.2001884526
 31
0.0
  0
LWPOLYLINE
  5
21D
330
1F
100
AcDbEntity
  8
0
  6
Continuous
 62
     7
370
    25
100
AcDbPolyline
 90
        3
 70
   128
 43
0.0
 10
310.3985613915
 20
175.4323424405
 10
310.4540458652
 20
175.4832406162
 10
310.5055591795
 20
175.5394590303
  0
LINE
  5
21E
330
1F
100
AcDbEntity
  8
0
  6
Continuous
 62
     7
370
    25
100
AcDbLine
 10
299.3853217694
 20
173.2144590218
 30
0.0
 11
299.3853217694
 21
172.9144590657
 31
0.0
  0
LINE
  5
21F
330
1F
100
AcDbEntity
  8
0
  6
Continuous
 62
     7
370
    25
100
AcDbLine
 10
299.3853217694
 20
172.9144590657
 30
0.0
 11
298.1353229615
 21
172.9144590657
 31
0.0
  0
LINE
  5
220
330
1F
100
AcDbEntity
  8
0
  6
Continuous
 62
     7
370
    25
100
AcDbLine
 10
298.1353229615
 20
173.2144590218
 30
0.0
 11
299.3853217694
 21
173.2144590218
 31
0.0
  0
LINE
  5
221
330
1F
100
AcDbEntity
  8
0
  6
Continuous
 62
     7
370
    25
100
AcDbLine
 10
298.1353229615
 20
172.9144590657
 30
0.0
 11
289.6853214833
 21
172.9144590657
 31
0.0
  0
LINE
  5
222
330
1F
100
AcDbEntity
  8
0
  6
Continuous
 62
     7
370
    25
100
AcDbLine
 10
298.1353229615
 20
173.2144590218
 30
0.0
 11
289.6853214833
 21
173.2144590218
 31
0.0
  0
LINE
  5
223
330
1F
100
AcDbEntity
  8
0
  6
Continuous
 62
     7
370
    25
100
AcDbLine
 10
194.9853240284
 20
172.6019590145
 30
0.0
 11
194.9853240284
 21
172.6144589933
 31
0.0
  0
LINE
  5
224
330
1F
100
AcDbEntity
  8
0
  6
Continuous
 62
     7
370
    25
100
AcDbLine
 10
299.3853217694
 20
172.6019590145
 30
0.0
 11
299.3853217694
 21
172.9144590657
 31
0.0
  0
LINE
  5
225
330
1F
100
AcDbEntity
  8
0
  6
Continuous
 62
     7
370
    25
100
AcDbLine
 10
299.3853217694
 20
160.7894592902
 30
0.0
 11
299.3853217694
 21
172.6019590145
 31
0.0
  0
LINE
  5
226
330
1F
100
AcDbEntity
  8
0
  6
Continuous
 62
     7
370
    25
100
AcDbLine
 10
194.9853240284
 20
160.7894592902
 30
0.0
 11
194.9853240284
 21
172.6019590145
 31
0.0
  0
ARC
  5
227
330
1F
100
AcDbEntity
  8
0
  6
Continuous
 62
     7
370
    25
100
AcDbCircle
 10
297.6353242412
 20
169.7269590431
 30
0.0
 40
0.5
100
AcDbArc
 50
270.0
 51
0.0
  0
ARC
  5
228
330
1F
100
AcDbEntity
  8
0
  6
Continuous
 62
     7
370
    25
100
AcDbCircle
 10
297.6353242412
 20
171.2269590431
 30
0.0
 40
0.5
100
AcDbArc
 50
0.0
 51
90.0
  0
LINE
  5
229
330
1F
100
AcDbEntity
  8
0
  6
Continuous
 62
     7
370
    25
100
AcDbLine
 10
289.3103263113
 20
169.2269591598
 30
0.0
 11
297.6353219482
 21
169.2269591598
 31
0.0
  0
LINE
  5
22A
330
1F
100
AcDbEntity
  8
0
  6
Continuous
 62
     7
370
    25
100
AcDbLine
 10
298.1353229615
 20
169.7269592417
 30
0.0
 11
298.1353229615
 21
171.226959022
 31
0.0
  0
LINE
  5
22B
330
1F
100
AcDbEntity
  8
0
  6
Continuous
 62
     7
370
    25
100
AcDbLine
 10
297.6353219482
 20
171.7269591039
 30
0.0
 11
289.3103263113
 21
171.7269591039
 31
0.0
  0
LINE
  5
22C
330
1F
100
AcDbEntity
  8
0
  6
Continuous
 62
     7
370
    25
100
AcDbLine
 10
299.3853217694
 20
160.4144594615
 30
0.0
 11
299.0728220674
 21
160.4144594615
 31
0.0
  0
LINE
  5
22D
330
1F
100
AcDbEntity
  8
0
  6
Continuous
 62
     7
370
    25
100
AcDbLine
 10
299.0728220674
 20
160.4144594615
 30
0.0
 11
289.3103263113
 21
160.4144594615
 31
0.0
  0
LINE
  5
22E
330
1F
100
AcDbEntity
  8
0
  6
Continuous
 62
     7
370
    25
100
AcDbLine
 10
279.3103209469
 20
160.4144594615
 30
0.0
 11
195.2978237304
 21
160.4144594615
 31
0.0
  0
LINE
  5
22F
330
1F
100
AcDbEntity
  8
0
  6
Continuous
 62
     7
370
    25
100
AcDbLine
 10
194.9853240284
 20
160.4144594615
 30
0.0
 11
195.2978237304
 21
160.4144594615
 31
0.0
  0
LINE
  5
230
330
1F
100
AcDbEntity
  8
0
  6
Continuous
 62
     7
370
    25
100
AcDbLine
 10
194.9853240284
 20
160.4144594615
 30
0.0
 11
194.9853240284
 21
160.7894592902
 31
0.0
  0
LINE
  5
231
330
1F
100
AcDbEntity
  8
0
  6
Continuous
 62
     7
370
    25
100
AcDbLine
 10
299.3853217694
 20
160.4144594615
 30
0.0
 11
299.3853217694
 21
160.7894592902
 31
0.0
  0
LINE
  5
232
330
1F
100
AcDbEntity
  8
0
  6
Continuous
 62
     7
370
    25
100
AcDbLine
 10
299.6853268477
 20
172.6019590145
 30
0.0
 11
299.3853217694
 21
172.6019590145
 31
0.0
  0
LINE
  5
233
330
1F
100
AcDbEntity
  8
0
  6
Continuous
 62
     7
370
    25
100
AcDbLine
 10
299.6853268477
 20
172.6019590145
 30
0.0
 11
299.6853268477
 21
161.0269586539
 31
0.0
  0
ARC
  5
234
330
1F
100
AcDbEntity
  8
0
  6
Continuous
 62
     7
370
    25
100
AcDbCircle
 10
299.0728242412
 20
161.0269590431
 30
0.0
 40
0.6125000000000123
100
AcDbArc
 50
300.6774244726
 51
0.0
  0
LINE
  5
235
330
1F
100
AcDbEntity
  8
0
  6
Continuous
 62
     7
370
    25
100
AcDbLine
 10
194.6853245381
 20
172.6019590145
 30
0.0
 11
194.9853240284
 21
172.6019590145
 31
0.0
  0
LINE
  5
236
330
1F
100
AcDbEntity
  8
0
  6
Continuous
 62
     7
370
    25
100
AcDbLine
 10
194.6853245381
 20
161.0269586539
 30
0.0
 11
194.6853245381
 21
172.6019590145
 31
0.0
  0
ARC
  5
237
330
1F
100
AcDbEntity
  8
0
  6
Continuous
 62
     7
370
    25
100
AcDbCircle
 10
195.2978242412
 20
161.0269590431
 30
0.0
 40
0.6125000000000398
100
AcDbArc
 50
180.0
 51
239.3225755274
  0
ARC
  5
238
330
1F
100
AcDbEntity
  8
0
  6
Continuous
 62
     7
370
    25
100
AcDbCircle
 10
304.0728242412
 20
172.5894590431
 30
0.0
 40
0.6125000000000114
100
AcDbArc
 50
0.0
 51
90.0
  0
ARC
  5
239
330
1F
100
AcDbEntity
  8
0
  6
Continuous
 62
     7
370
    25
100
AcDbCircle
 10
304.0728242412
 20
172.5894590431
 30
0.0
 40
0.3125
100
AcDbArc
 50
0.0
 51
90.0
  0
LINE
  5
23A
330
1F
100
AcDbEntity
  8
0
  6
Continuous
 62
     7
370
    25
100
AcDbLine
 10
304.3853244516
 20
172.5894590357
 30
0.0
 11
304.3853244516
 21
171.5394589568
 31
0.0
  0
LINE
  5
23B
330
1F
100
AcDbEntity
  8
0
  6
Continuous
 62
     7
370
    25
100
AcDbLine
 10
304.6853220794
 20
172.5894590357
 30
0.0
 11
304.6853220794
 21
171.5394589568
 31
0.0
  0
LINE
  5
23C
330
1F
100
AcDbEntity
  8
0
  6
Continuous
 62
     7
370
    25
100
AcDbLine
 10
304.6853220794
 20
169.0394592455
 30
0.0
 11
304.3853244516
 21
169.0394592455
 31
0.0
  0
LINE
  5
23D
330
1F
100
AcDbEntity
  8
0
  6
Continuous
 62
     7
370
    25
100
AcDbLine
 10
304.3853244516
 20
171.5394589568
 30
0.0
 11
304.3853244516
 21
169.0394592455
 31
0.0
  0
LINE
  5
23E
330
1F
100
AcDbEntity
  8
0
  6
Continuous
 62
     7
370
    25
100
AcDbLine
 10
304.6853220794
 20
171.5394589568
 30
0.0
 11
304.6853220794
 21
169.0394592455
 31
0.0
  0
LINE
  5
23F
330
1F
100
AcDbEntity
  8
0
  6
Continuous
 62
     7
370
    25
100
AcDbLine
 10
299.9978265497
 20
173.201959043
 30
0.0
 11
304.0728247497
 21
173.201959043
 31
0.0
  0
LINE
  5
240
330
1F
100
AcDbEntity
  8
0
  6
Continuous
 62
     7
370
    25
100
AcDbLine
 10
299.9978265497
 20
172.901959087
 30
0.0
 11
304.0728247497
 21
172.901959087
 31
0.0
  0
ARC
  5
241
330
1F
100
AcDbEntity
  8
0
  6
Continuous
 62
     7
370
    25
100
AcDbCircle
 10
299.9978242412
 20
172.5894590431
 30
0.0
 40
0.3125
100
AcDbArc
 50
90.0
 51
180.0
  0
ARC
  5
242
330
1F
100
AcDbEntity
  8
0
  6
Continuous
 62
     7
370
    25
100
AcDbCircle
 10
299.9978242412
 20
172.5894590431
 30
0.0
 40
0.612500000000023
100
AcDbArc
 50
90.0
 51
178.8306171944
  0
LINE
  5
243
330
1F
100
AcDbEntity
  8
0
  6
Continuous
 62
     7
370
    25
100
AcDbLine
 10
189.6858340833
 20
172.6144589933
 30
0.0
 11
189.6853237185
 21
172.5894590357
 31
0.0
  0
LINE
  5
244
330
1F
100
AcDbEntity
  8
0
  6
Continuous
 62
     7
370
    25
100
AcDbLine
 10
189.986325312
 20
172.6144589933
 30
0.0
 11
189.9853250715
 21
172.5894590357
 31
0.0
  0
LINE
  5
245
330
1F
100
AcDbEntity
  8
0
  6
Continuous
 62
     7
370
    25
100
AcDbLine
 10
189.9853250715
 20
171.5394589568
 30
0.0
 11
189.9853250715
 21
172.5894590357
 31
0.0
  0
LINE
  5
246
330
1F
100
AcDbEntity
  8
0
  6
Continuous
 62
     7
370
    25
100
AcDbLine
 10
189.6853237185
 20
171.5394589568
 30
0.0
 11
189.6853237185
 21
172.5894590357
 31
0.0
  0
LINE
  5
247
330
1F
100
AcDbEntity
  8
0
  6
Continuous
 62
     7
370
    25
100
AcDbLine
 10
189.6853237185
 20
169.0394592455
 30
0.0
 11
189.9853250715
 21
169.0394592455
 31
0.0
  0
LINE
  5
248
330
1F
100
AcDbEntity
  8
0
  6
Continuous
 62
     7
370
    25
100
AcDbLine
 10
189.9853250715
 20
169.0394592455
 30
0.0
 11
189.9853250715
 21
171.5394589568
 31
0.0
  0
LINE
  5
249
330
1F
100
AcDbEntity
  8
0
  6
Continuous
 62
     7
370
    25
100
AcDbLine
 10
189.6853237185
 20
169.0394592455
 30
0.0
 11
189.6853237185
 21
171.5394589568
 31
0.0
  0
LINE
  5
24A
330
1F
100
AcDbEntity
  8
0
  6
Continuous
 62
     7
370
    25
100
AcDbLine
 10
194.9851973686
 20
172.6019590145
 30
0.0
 11
194.9848136637
 21
172.6144589933
 31
0.0
  0
LINE
  5
24B
330
1F
100
AcDbEntity
  8
0
  6
Continuous
 62
     7
370
    25
100
AcDbLine
 10
194.6853245381
 20
172.5894590357
 30
0.0
 11
194.684322435
 21
172.6144589933
 31
0.0
  0
LINE
  5
24C
330
1F
100
AcDbEntity
  8
0
  6
Continuous
 62
     7
370
    25
100
AcDbLine
 10
119.4103262159
 20
245.9269559925
 30
0.0
 11
119.4353229138
 21
245.9269559925
 31
0.0
  0
LINE
  5
24D
330
1F
100
AcDbEntity
  8
0
  6
Continuous
 62
     7
370
    25
100
AcDbLine
 10
119.4103262159
 20
241.1602533406
 30
0.0
 11
119.4103262159
 21
241.0999110883
 31
0.0
  0
LINE
  5
24E
330
1F
100
AcDbEntity
  8
0
  6
Continuous
 62
     7
370
    25
100
AcDbLine
 10
294.6728220913
 20
251.2269563025
 30
0.0
 11
294.6728220913
 21
250.8519611305
 31
0.0
  0
LINE
  5
24F
330
1F
100
AcDbEntity
  8
0
  6
Continuous
 62
     7
370
    25
100
AcDbLine
 10
132.7978274557
 20
250.8519611305
 30
0.0
 11
132.7978274557
 21
251.2269563025
 31
0.0
  0
LINE
  5
250
330
1F
100
AcDbEntity
  8
0
  6
Continuous
 62
     7
370
    25
100
AcDbLine
 10
132.7978274557
 20
251.2269563025
 30
0.0
 11
132.9853213164
 21
251.2269563025
 31
0.0
  0
LINE
  5
251
330
1F
100
AcDbEntity
  8
0
  6
Continuous
 62
     7
370
    25
100
AcDbLine
 10
294.48532078
 20
251.2269563025
 30
0.0
 11
294.6728220913
 21
251.2269563025
 31
0.0
  0
SPLINE
  5
252
330
1F
100
AcDbEntity
  8
0
  6
Continuous
 62
     7
370
    25
100
AcDbSpline
210
0.0
220
0.0
230
1.0
 70
     8
 71
     3
 72
    11
 73
     7
 74
     0
 42
0.000000001
 43
0.00000001
 40
0.0
 40
0.0
 40
0.0
 40
0.0
 40
0.2500037304724063
 40
0.5000010488794331
 40
0.7500100498545709
 40
1.0
 40
1.0
 40
1.0
 40
1.0
 10
294.6728220912871
 20
251.2269563024936
 30
0.0
 10
294.660816861307
 20
251.2316544740263
 30
0.0
 10
294.6368067092557
 20
251.2410506965936
 30
0.0
 10
294.6007885741762
 20
251.3133154907037
 30
0.0
 10
294.5647755581757
 20
251.4166137810554
 30
0.0
 10
294.5407633243325
 20
251.4985096367902
 30
0.0
 10
294.5287576648649
 20
251.5394560044704
 30
0.0
  0
LINE
  5
253
330
1F
100
AcDbEntity
  8
0
  6
Continuous
 62
     7
370
    25
100
AcDbLine
 10
289.6728268597
 20
258.9257008379
 30
0.0
 11
140.2938640449
 21
268.004114086
 31
0.0
  0
LINE
  5
254
330
1F
100
AcDbEntity
  8
0
  6
Continuous
 62
     7
370
    25
100
AcDbLine
 10
126.3431883189
 20
268.8519603556
 30
0.0
 11
120.4853257868
 21
269.2079639977
 31
0.0
  0
ARC
  5
255
330
1F
100
AcDbEntity
  8
0
  6
Continuous
 62
     7
370
    25
100
AcDbCircle
 10
289.5211681188
 20
256.4303066673
 30
0.0
 40
2.500000000000066
100
AcDbArc
 50
24.7500765152
 51
86.5221624375
  0
LINE
  5
256
330
1F
100
AcDbEntity
  8
0
  6
Continuous
 62
     7
370
    25
100
AcDbLine
 10
294.5287576649
 20
251.5394560045
 30
0.0
 11
291.7915261123
 21
257.4769577926
 31
0.0
  0
SPLINE
  5
257
330
1F
100
AcDbEntity
  8
0
  6
Continuous
 62
     7
370
    25
100
AcDbSpline
210
0.0
220
0.0
230
1.0
 70
     8
 71
     3
 72
    12
 73
     8
 74
     0
 42
0.000000001
 43
0.00000001
 40
0.0
 40
0.0
 40
0.0
 40
0.0
 40
0.2165977000892761
 40
0.4332051645834573
 40
0.6498115331427181
 40
0.8664174527198854
 40
1.0
 40
1.0
 40
1.0
 40
1.0
 10
294.3412563535628
 20
251.5394560044704
 30
0.0
 10
294.3516622660761
 20
251.4614784759241
 30
0.0
 10
294.37247456021
 20
251.3055199035397
 30
0.0
 10
294.4036943543389
 20
251.0981314390384
 30
0.0
 10
294.4349014152899
 20
250.9425346919648
 30
0.0
 10
294.4621668807863
 20
250.8627883284394
 30
0.0
 10
294.4789273484976
 20
250.8549508190671
 30
0.0
 10
294.4853207799849
 20
250.8519611304698
 30
0.0
  0
SPLINE
  5
258
330
1F
100
AcDbEntity
  8
0
  6
Continuous
 62
     7
370
    25
100
AcDbSpline
210
0.0
220
0.0
230
1.0
 70
     8
 71
     3
 72
    11
 73
     7
 74
     0
 42
0.000000001
 43
0.00000001
 40
0.0
 40
0.0
 40
0.0
 40
0.0
 40
0.2499899501454291
 40
0.4999989511205669
 40
0.7499962695275937
 40
1.0
 40
1.0
 40
1.0
 40
1.0
 10
294.3412563535628
 20
251.5394560044704
 30
0.0
 10
294.3532620130304
 20
251.4985096367902
 30
0.0
 10
294.3772742468735
 20
251.4166137810554
 30
0.0
 10
294.413287262874
 20
251.3133154907037
 30
0.0
 10
294.4493053979536
 20
251.2410506965937
 30
0.0
 10
294.4733155500048
 20
251.2316544740263
 30
0.0
 10
294.4853207799849
 20
251.2269563024936
 30
0.0
  0
LINE
  5
259
330
1F
100
AcDbEntity
  8
0
  6
Continuous
 62
     7
370
    25
100
AcDbLine
 10
294.48532078
 20
251.2269563025
 30
0.0
 11
294.48532078
 21
250.8519611305
 31
0.0
  0
LINE
  5
25A
330
1F
100
AcDbEntity
  8
0
  6
Continuous
 62
     7
370
    25
100
AcDbLine
 10
132.9853213164
 20
250.8519611305
 30
0.0
 11
132.9853213164
 21
251.5394560045
 31
0.0
  0
LINE
  5
25B
330
1F
100
AcDbEntity
  8
0
  6
Continuous
 62
     7
370
    25
100
AcDbLine
 10
289.4853255484
 20
258.9257008379
 30
0.0
 11
120.2978244755
 21
269.2079639977
 31
0.0
  0
LINE
  5
25C
330
1F
100
AcDbEntity
  8
0
  6
Continuous
 62
     7
370
    25
100
AcDbLine
 10
132.9853213164
 20
251.7269573158
 30
0.0
 11
132.9853213164
 21
251.5394560045
 31
0.0
  0
LINE
  5
25D
330
1F
100
AcDbEntity
  8
0
  6
Continuous
 62
     7
370
    25
100
AcDbLine
 10
132.7978274557
 20
251.7269573158
 30
0.0
 11
132.9853213164
 21
251.7269573158
 31
0.0
  0
LINE
  5
25E
330
1F
100
AcDbEntity
  8
0
  6
Continuous
 62
     7
370
    25
100
AcDbLine
 10
132.7978274557
 20
251.2269563025
 30
0.0
 11
132.7978274557
 21
251.7269573158
 31
0.0
  0
LINE
  5
25F
330
1F
100
AcDbEntity
  8
0
  6
Continuous
 62
     7
370
    25
100
AcDbLine
 10
120.2978244755
 20
251.2269563025
 30
0.0
 11
132.7978274557
 21
251.2269563025
 31
0.0
  0
LINE
  5
260
330
1F
100
AcDbEntity
  8
0
  6
Continuous
 62
     7
370
    25
100
AcDbLine
 10
294.3412563536
 20
251.5394560045
 30
0.0
 11
291.604024801
 21
257.4769577926
 31
0.0
  0
ARC
  5
261
330
1F
100
AcDbEntity
  8
0
  6
Continuous
 62
     7
370
    25
100
AcDbCircle
 10
289.3336681188
 20
256.4303066673
 30
0.0
 40
2.50000000000001
100
AcDbArc
 50
24.7500765152
 51
86.5221624375
  0
SPLINE
  5
262
330
1F
100
AcDbEntity
  8
0
  6
Continuous
 62
     7
370
    25
100
AcDbSpline
210
0.0
220
0.0
230
1.0
 70
     8
 71
     3
 72
    11
 73
     7
 74
     0
 42
0.000000001
 43
0.00000001
 40
0.0
 40
0.0
 40
0.0
 40
0.0
 40
0.2499994783572345
 40
0.499999938545105
 40
0.7500003987329754
 40
1.0
 40
1.0
 40
1.0
 40
1.0
 10
119.6103221508917
 20
269.2269555276332
 30
0.0
 10
119.6206561153977
 20
269.2253735638013
 30
0.0
 10
119.6413240849945
 20
269.2222096299246
 30
0.0
 10
119.8003125536688
 20
269.2174629559322
 30
0.0
 10
120.0275596043221
 20
269.2127194732814
 30
0.0
 10
120.2077362882609
 20
269.2095491544062
 30
0.0
 10
120.2978244754728
 20
269.2079639976916
 30
0.0
  0
LINE
  5
263
330
1F
100
AcDbEntity
  8
0
  6
Continuous
 62
     7
370
    25
100
AcDbLine
 10
119.6103221509
 20
251.2269563025
 30
0.0
 11
119.6103221509
 21
269.2269555276
 31
0.0
  0
LINE
  5
264
330
1F
100
AcDbEntity
  8
0
  6
Continuous
 62
     7
370
    25
100
AcDbLine
 10
120.2978244755
 20
251.2269563025
 30
0.0
 11
119.6103221509
 21
251.2269563025
 31
0.0
  0
LINE
  5
265
330
1F
100
AcDbEntity
  8
0
  6
Continuous
 62
     7
370
    25
100
AcDbLine
 10
119.9853247735
 20
269.2269555276
 30
0.0
 11
119.6103221509
 21
269.2269555276
 31
0.0
  0
ARC
  5
266
330
1F
100
AcDbEntity
  8
0
  6
Continuous
 62
     7
370
    25
100
AcDbCircle
 10
119.9353242412
 20
250.0269590431
 30
0.0
 40
0.5
100
AcDbArc
 50
90.0
 51
180.0
  0
LINE
  5
267
330
1F
100
AcDbEntity
  8
0
  6
Continuous
 62
     7
370
    25
100
AcDbLine
 10
131.7378259036
 20
250.5269593543
 30
0.0
 11
119.9353239271
 21
250.5269593543
 31
0.0
  0
ARC
  5
268
330
1F
100
AcDbEntity
  8
0
  6
Continuous
 62
     7
370
    25
100
AcDbCircle
 10
131.7378242412
 20
250.0269590431
 30
0.0
 40
0.5
100
AcDbArc
 50
0.0
 51
90.0
  0
LINE
  5
269
330
1F
100
AcDbEntity
  8
0
  6
Continuous
 62
     7
370
    25
100
AcDbLine
 10
132.2378269169
 20
249.9269566482
 30
0.0
 11
132.2378269169
 21
250.026958341
 31
0.0
  0
LINE
  5
26A
330
1F
100
AcDbEntity
  8
0
  6
Continuous
 62
     7
370
    25
100
AcDbLine
 10
132.3628253076
 20
249.9269566482
 30
0.0
 11
132.2378269169
 21
249.9269566482
 31
0.0
  0
LINE
  5
26B
330
1F
100
AcDbEntity
  8
0
  6
Continuous
 62
     7
370
    25
100
AcDbLine
 10
132.3628253076
 20
250.2394563502
 30
0.0
 11
132.3628253076
 21
249.9269566482
 31
0.0
  0
LINE
  5
26C
330
1F
100
AcDbEntity
  8
0
  6
Continuous
 62
     7
370
    25
100
AcDbLine
 10
295.1078242394
 20
242.014462406
 30
0.0
 11
295.1078242394
 21
250.2394563502
 31
0.0
  0
LINE
  5
26D
330
1F
100
AcDbEntity
  8
0
  6
Continuous
 62
     7
370
    25
100
AcDbLine
 10
119.4353229138
 20
250.026958341
 30
0.0
 11
119.4353229138
 21
242.014462406
 31
0.0
  0
LINE
  5
26E
330
1F
100
AcDbEntity
  8
0
  6
Continuous
 62
     7
370
    25
100
AcDbLine
 10
295.1078242394
 20
242.014462406
 30
0.0
 11
295.1078242394
 21
241.4019576257
 31
0.0
  0
LINE
  5
26F
330
1F
100
AcDbEntity
  8
0
  6
Continuous
 62
     7
370
    25
100
AcDbLine
 10
119.4353229138
 20
241.4019576257
 30
0.0
 11
119.4353229138
 21
242.014462406
 31
0.0
  0
LINE
  5
270
330
1F
100
AcDbEntity
  8
0
  6
Continuous
 62
     7
370
    25
100
AcDbLine
 10
304.8769882652
 20
250.201957578
 30
0.0
 11
304.9519858095
 21
250.201957578
 31
0.0
  0
LINE
  5
271
330
1F
100
AcDbEntity
  8
0
  6
Continuous
 62
     7
370
    25
100
AcDbLine
 10
304.9519858095
 20
250.201957578
 30
0.0
 11
304.9519858095
 21
250.5269593543
 31
0.0
  0
LINE
  5
272
330
1F
100
AcDbEntity
  8
0
  6
Continuous
 62
     7
370
    25
100
AcDbLine
 10
307.1578494045
 20
239.9827486819
 30
0.0
 11
300.5128255817
 21
237.0934284275
 31
0.0
  0
ARC
  5
273
330
1F
100
AcDbEntity
  8
0
  6
Continuous
 62
     7
370
    25
100
AcDbCircle
 10
300.3134486061
 20
237.5519590431
 30
0.0
 40
0.5
100
AcDbArc
 50
270.0
 51
293.4998700858
  0
LINE
  5
274
330
1F
100
AcDbEntity
  8
0
  6
Continuous
 62
     7
370
    25
100
AcDbLine
 10
300.313448045
 20
237.0519584959
 30
0.0
 11
296.6078272793
 21
237.0519584959
 31
0.0
  0
ARC
  5
275
330
1F
100
AcDbEntity
  8
0
  6
Continuous
 62
     7
370
    25
100
AcDbCircle
 10
296.6078242412
 20
237.5519590431
 30
0.0
 40
0.5000000000009948
100
AcDbArc
 50
180.0
 51
270.0
  0
LINE
  5
276
330
1F
100
AcDbEntity
  8
0
  6
Continuous
 62
     7
370
    25
100
AcDbLine
 10
296.107826266
 20
241.4519584721
 30
0.0
 11
295.2328226301
 21
241.4519584721
 31
0.0
  0
LINE
  5
277
330
1F
100
AcDbEntity
  8
0
  6
Continuous
 62
     7
370
    25
100
AcDbLine
 10
295.2328226301
 20
241.4519584721
 30
0.0
 11
295.2328226301
 21
250.2394563502
 31
0.0
  0
LINE
  5
278
330
1F
100
AcDbEntity
  8
0
  6
Continuous
 62
     7
370
    25
100
AcDbLine
 10
304.8769882652
 20
250.2394563502
 30
0.0
 11
304.8769882652
 21
250.201957578
 31
0.0
  0
ARC
  5
279
330
1F
100
AcDbEntity
  8
0
  6
Continuous
 62
     7
370
    25
100
AcDbCircle
 10
301.8305568234
 20
241.9019590431
 30
0.0
 40
0.7749999999999914
100
AcDbArc
 50
280.1054407084
 51
79.8945592916
  0
ARC
  5
27A
330
1F
100
AcDbEntity
  8
0
  6
Continuous
 62
     7
370
    25
100
AcDbCircle
 10
301.9555568234
 20
242.6033192772
 30
0.0
 40
0.0625877752733096
100
AcDbArc
 50
79.8945592916
 51
255.7948950782
  0
ARC
  5
27B
330
1F
100
AcDbEntity
  8
0
  6
Continuous
 62
     7
370
    25
100
AcDbCircle
 10
301.8305568234
 20
241.9019590431
 30
0.0
 40
0.6500000000000056
100
AcDbArc
 50
279.7110222516
 51
80.2889777484
  0
ARC
  5
27C
330
1F
100
AcDbEntity
  8
0
  6
Continuous
 62
     7
370
    25
100
AcDbCircle
 10
301.9555568234
 20
241.200598809
 30
0.0
 40
0.0625877752733279
100
AcDbArc
 50
104.2051049218
 51
280.1054407084
  0
ARC
  5
27D
330
1F
100
AcDbEntity
  8
0
  6
Continuous
 62
     7
370
    25
100
AcDbCircle
 10
301.7055568234
 20
241.200598809
 30
0.0
 40
0.0625877752733375
100
AcDbArc
 50
259.8945592916
 51
83.9942235051
  0
ARC
  5
27E
330
1F
100
AcDbEntity
  8
0
  6
Continuous
 62
     7
370
    25
100
AcDbCircle
 10
301.8305568234
 20
241.9019590431
 30
0.0
 40
0.650000000000006
100
AcDbArc
 50
100.4998591652
 51
259.5001408348
  0
ARC
  5
27F
330
1F
100
AcDbEntity
  8
0
  6
Continuous
 62
     7
370
    25
100
AcDbCircle
 10
301.7055568234
 20
242.6033192772
 30
0.0
 40
0.0625877752733096
100
AcDbArc
 50
276.0057764949
 51
100.1054407084
  0
ARC
  5
280
330
1F
100
AcDbEntity
  8
0
  6
Continuous
 62
     7
370
    25
100
AcDbCircle
 10
301.8305568234
 20
241.9019590431
 30
0.0
 40
0.7750000000000193
100
AcDbArc
 50
100.1054407084
 51
259.8945592916
  0
ARC
  5
281
330
1F
100
AcDbEntity
  8
0
  6
Continuous
 62
     7
370
    25
100
AcDbCircle
 10
304.9655568234
 20
245.0269590431
 30
0.0
 40
5.500016741342483
100
AcDbArc
 50
293.4904921589
 51
90.1413679245
  0
LINE
  5
282
330
1F
100
AcDbEntity
  8
0
  6
Continuous
 62
     7
370
    25
100
AcDbLine
 10
296.107826266
 20
237.5519595092
 30
0.0
 11
296.107826266
 21
241.4519584721
 31
0.0
  0
LINE
  5
283
330
1F
100
AcDbEntity
  8
0
  6
Continuous
 62
     7
370
    25
100
AcDbLine
 10
304.8769882652
 20
250.7662422007
 30
0.0
 11
304.8769882652
 21
250.2394563502
 31
0.0
  0
LINE
  5
284
330
1F
100
AcDbEntity
  8
0
  6
Continuous
 62
     7
370
    25
100
AcDbLine
 10
295.2328226301
 20
250.2394563502
 30
0.0
 11
295.2328226301
 21
250.7662422007
 31
0.0
  0
LINE
  5
285
330
1F
100
AcDbEntity
  8
0
  6
Continuous
 62
     7
370
    25
100
AcDbLine
 10
295.2328226301
 20
250.8519611305
 30
0.0
 11
304.8769882652
 21
250.8519611305
 31
0.0
  0
LINE
  5
286
330
1F
100
AcDbEntity
  8
0
  6
Continuous
 62
     7
370
    25
100
AcDbLine
 10
295.1078242394
 20
250.8519611305
 30
0.0
 11
295.1078242394
 21
250.2394563502
 31
0.0
  0
LINE
  5
287
330
1F
100
AcDbEntity
  8
0
  6
Continuous
 62
     7
370
    25
100
AcDbLine
 10
132.3628253076
 20
250.2394563502
 30
0.0
 11
132.3628253076
 21
250.8519611305
 31
0.0
  0
LINE
  5
288
330
1F
100
AcDbEntity
  8
0
  6
Continuous
 62
     7
370
    25
100
AcDbLine
 10
132.3628253076
 20
250.8519611305
 30
0.0
 11
295.1078242394
 21
250.8519611305
 31
0.0
  0
LINE
  5
289
330
1F
100
AcDbEntity
  8
0
  6
Continuous
 62
     7
370
    25
100
AcDbLine
 10
119.4103262159
 20
250.2394563502
 30
0.0
 11
119.4103262159
 21
241.8519577926
 31
0.0
  0
LINE
  5
28A
330
1F
100
AcDbEntity
  8
0
  6
Continuous
 62
     7
370
    25
100
AcDbLine
 10
119.1103211376
 20
250.2394563502
 30
0.0
 11
119.1103211376
 21
241.8519577926
 31
0.0
  0
LINE
  5
28B
330
1F
100
AcDbEntity
  8
0
  6
Continuous
 62
     7
370
    25
100
AcDbLine
 10
295.2328226301
 20
250.5519560522
 30
0.0
 11
295.222823951
 21
250.5519560522
 31
0.0
  0
LINE
  5
28C
330
1F
100
AcDbEntity
  8
0
  6
Continuous
 62
     7
370
    25
100
AcDbLine
 10
295.2328226301
 20
250.8519611305
 30
0.0
 11
295.222823951
 21
250.8519611305
 31
0.0
  0
LINE
  5
28D
330
1F
100
AcDbEntity
  8
0
  6
Continuous
 62
     7
370
    25
100
AcDbLine
 10
295.2328226301
 20
250.7662422007
 30
0.0
 11
295.2328226301
 21
250.8519611305
 31
0.0
  0
LINE
  5
28E
330
1F
100
AcDbEntity
  8
0
  6
Continuous
 62
     7
370
    25
100
AcDbLine
 10
295.222823951
 20
250.8519611305
 30
0.0
 11
295.222823951
 21
250.5519560522
 31
0.0
  0
LINE
  5
28F
330
1F
100
AcDbEntity
  8
0
  6
Continuous
 62
     7
370
    25
100
AcDbLine
 10
301.3658723566
 20
237.4414301461
 30
0.0
 11
301.4854914281
 21
237.1663100069
 31
0.0
  0
LINE
  5
290
330
1F
100
AcDbEntity
  8
0
  6
Continuous
 62
     7
370
    25
100
AcDbLine
 10
301.3658723566
 20
237.4414301461
 30
0.0
 11
307.1586466166
 21
239.960203225
 31
0.0
  0
LINE
  5
291
330
1F
100
AcDbEntity
  8
0
  6
Continuous
 62
     7
370
    25
100
AcDbLine
 10
301.4854914281
 20
237.1663100069
 30
0.0
 11
307.2782731387
 21
239.6850830859
 31
0.0
  0
LWPOLYLINE
  5
292
330
1F
100
AcDbEntity
  8
0
  6
Continuous
 62
     7
370
    25
100
AcDbPolyline
 90
        3
 70
   128
 43
0.0
 10
307.1586466166
 20
239.960203225
 10
307.7972060773
 20
240.288744027
 10
307.9901761147
 20
240.4099575227
  0
LWPOLYLINE
  5
293
330
1F
100
AcDbEntity
  8
0
  6
Continuous
 62
     7
370
    25
100
AcDbPolyline
 90
        3
 70
   128
 43
0.0
 10
306.3311478826
 20
250.3779775446
 10
305.67215893
 20
250.5052930659
 10
304.9555546376
 20
250.5519560522
  0
ARC
  5
294
330
1F
100
AcDbEntity
  8
0
  6
Continuous
 62
     7
370
    25
100
AcDbCircle
 10
304.9555568234
 20
245.0269590431
 30
0.0
 40
5.825000000000017
100
AcDbArc
 50
293.5
 51
90.0
  0
ARC
  5
295
330
1F
100
AcDbEntity
  8
0
  6
Continuous
 62
     7
370
    25
100
AcDbCircle
 10
119.7228242412
 20
250.2394590431
 30
0.0
 40
0.6125000000000114
100
AcDbArc
 50
90.0
 51
180.0
  0
ARC
  5
296
330
1F
100
AcDbEntity
  8
0
  6
Continuous
 62
     7
370
    25
100
AcDbCircle
 10
119.7228242412
 20
250.2394590431
 30
0.0
 40
0.3125
100
AcDbArc
 50
90.0
 51
180.0
  0
LINE
  5
297
330
1F
100
AcDbEntity
  8
0
  6
Continuous
 62
     7
370
    25
100
AcDbLine
 10
119.4103262159
 20
241.8519577926
 30
0.0
 11
119.4103262159
 21
241.4019576257
 31
0.0
  0
LINE
  5
298
330
1F
100
AcDbEntity
  8
0
  6
Continuous
 62
     7
370
    25
100
AcDbLine
 10
119.3120903108
 20
241.3519567793
 30
0.0
 11
119.1103211376
 21
241.3519567793
 31
0.0
  0
LINE
  5
299
330
1F
100
AcDbEntity
  8
0
  6
Continuous
 62
     7
370
    25
100
AcDbLine
 10
119.1103211376
 20
241.3519567793
 30
0.0
 11
119.1103211376
 21
241.8519577926
 31
0.0
  0
LINE
  5
29A
330
1F
100
AcDbEntity
  8
0
  6
Continuous
 62
     7
370
    25
100
AcDbLine
 10
132.247825596
 20
250.5519560522
 30
0.0
 11
132.247825596
 21
250.8519611305
 31
0.0
  0
LINE
  5
29B
330
1F
100
AcDbEntity
  8
0
  6
Continuous
 62
     7
370
    25
100
AcDbLine
 10
132.247825596
 20
250.8519611305
 30
0.0
 11
119.7228259179
 21
250.8519611305
 31
0.0
  0
LINE
  5
29C
330
1F
100
AcDbEntity
  8
0
  6
Continuous
 62
     7
370
    25
100
AcDbLine
 10
132.247825596
 20
250.5519560522
 30
0.0
 11
119.7228259179
 21
250.5519560522
 31
0.0
  0
LINE
  5
29D
330
1F
100
AcDbEntity
  8
0
  6
Continuous
 62
     7
370
    25
100
AcDbLine
 10
304.8769882652
 20
250.7662422007
 30
0.0
 11
304.8769882652
 21
250.8519611305
 31
0.0
  0
LINE
  5
29E
330
1F
100
AcDbEntity
  8
0
  6
Continuous
 62
     7
370
    25
100
AcDbLine
 10
304.9555546376
 20
250.8519611305
 30
0.0
 11
304.8769882652
 21
250.8519611305
 31
0.0
  0
LINE
  5
29F
330
1F
100
AcDbEntity
  8
0
  6
Continuous
 62
     7
370
    25
100
AcDbLine
 10
304.9555546376
 20
250.5519560522
 30
0.0
 11
304.8769882652
 21
250.5519560522
 31
0.0
  0
LINE
  5
2A0
330
1F
100
AcDbEntity
  8
0
  6
Continuous
 62
     7
370
    25
100
AcDbLine
 10
295.222823951
 20
250.8519611305
 30
0.0
 11
295.1078242394
 21
250.8410683816
 31
0.0
  0
LWPOLYLINE
  5
2A1
330
1F
100
AcDbEntity
  8
0
  6
Continuous
 62
     7
370
    25
100
AcDbPolyline
 90
        3
 70
   128
 43
0.0
 10
295.222823951
 20
250.5519560522
 10
295.1618558499
 20
250.5459508842
 10
295.1078242394
 20
250.5300289935
  0
LINE
  5
2A2
330
1F
100
AcDbEntity
  8
0
  6
Continuous
 62
     7
370
    25
100
AcDbLine
 10
132.3628253076
 20
250.8410683816
 30
0.0
 11
132.247825596
 21
250.8519611305
 31
0.0
  0
LWPOLYLINE
  5
2A3
330
1F
100
AcDbEntity
  8
0
  6
Continuous
 62
     7
370
    25
100
AcDbPolyline
 90
        3
 70
   128
 43
0.0
 10
132.3628253076
 20
250.5300289935
 10
132.3087862465
 20
250.5459508842
 10
132.247825596
 20
250.5519560522
  0
LINE
  5
2A4
330
1F
100
AcDbEntity
  8
0
  6
Continuous
 62
     7
370
    25
100
AcDbLine
 10
295.8085587952
 20
175.0019590412
 30
0.0
 11
119.3120903108
 21
175.0019590412
 31
0.0
  0
SPLINE
  5
2A5
330
1F
100
AcDbEntity
  8
0
  6
Continuous
 62
     7
370
    25
100
AcDbSpline
210
0.0
220
0.0
230
1.0
 70
     8
 71
     3
 72
    12
 73
     8
 74
     0
 42
0.000000001
 43
0.00000001
 40
0.0
 40
0.0
 40
0.0
 40
0.0
 40
0.2301698246537744
 40
0.4604234778701233
 40
0.6906764819929497
 40
0.9209292036386398
 40
1.0
 40
1.0
 40
1.0
 40
1.0
 10
119.312090310758
 20
175.0019590411873
 30
0.0
 10
119.3359392188804
 20
175.0084784572247
 30
0.0
 10
119.3836457209713
 20
175.021519663691
 30
0.0
 10
119.4552169594616
 20
175.122696848862
 30
0.0
 10
119.5267457086512
 20
175.2697043285525
 30
0.0
 10
119.5827742503356
 20
175.4107101396313
 30
0.0
 10
119.6146706984612
 20
175.4933374227988
 30
0.0
 10
119.6228242251333
 20
175.5144590145981
 30
0.0
  0
SPLINE
  5
2A6
330
1F
100
AcDbEntity
  8
0
  6
Continuous
 62
     7
370
    25
100
AcDbSpline
210
0.0
220
0.0
230
1.0
 70
     8
 71
     3
 72
    12
 73
     8
 74
     0
 42
0.000000001
 43
0.00000001
 40
0.0
 40
0.0
 40
0.0
 40
0.0
 40
0.2353727261746596
 40
0.5035757294218756
 40
0.7398177166975793
 40
0.9425264034723695
 40
1.0
 40
1.0
 40
1.0
 40
1.0
 10
295.4978248807844
 20
175.5144590145981
 30
0.0
 10
295.5332431914974
 20
175.4560328747365
 30
0.0
 10
295.6090200325191
 20
175.3310311955859
 30
0.0
 10
295.711713390928
 20
175.1636478515393
 30
0.0
 10
295.7756188354137
 20
175.0445931558699
 30
0.0
 10
295.8009726667594
 20
175.0047281356505
 30
0.0
 10
295.8071862341257
 20
175.0024600544788
 30
0.0
 10
295.8085587951597
 20
175.0019590411873
 30
0.0
  0
SPLINE
  5
2A7
330
1F
100
AcDbEntity
  8
0
  6
Continuous
 62
     7
370
    25
100
AcDbSpline
210
0.0
220
0.0
230
1.0
 70
     8
 71
     3
 72
    11
 73
     7
 74
     0
 42
0.000000001
 43
0.00000001
 40
0.0
 40
0.0
 40
0.0
 40
0.0
 40
0.2500045763302701
 40
0.4999983682819353
 40
0.750003386073375
 40
1.0
 40
1.0
 40
1.0
 40
1.0
 10
296.0103205177244
 20
175.2037267882449
 30
0.0
 10
296.0026176842759
 20
175.2296207478247
 30
0.0
 10
295.9872123496539
 20
175.2814075500037
 30
0.0
 10
295.8686911037913
 20
175.3590955116381
 30
0.0
 10
295.6992937769105
 20
175.436774138341
 30
0.0
 10
295.5649804269947
 20
175.4885643460034
 30
0.0
 10
295.4978248807844
 20
175.5144590145981
 30
0.0
  0
SPLINE
  5
2A8
330
1F
100
AcDbEntity
  8
0
  6
Continuous
 62
     7
370
    25
100
AcDbSpline
210
0.0
220
0.0
230
1.0
 70
     8
 71
     3
 72
    11
 73
     7
 74
     0
 42
0.000000001
 43
0.00000001
 40
0.0
 40
0.0
 40
0.0
 40
0.0
 40
0.2499958462728228
 40
0.5000000719141765
 40
0.7499962158233617
 40
1.0
 40
1.0
 40
1.0
 40
1.0
 10
295.4978248807844
 20
240.8894619887767
 30
0.0
 10
295.564980390777
 20
240.9153557679983
 30
0.0
 10
295.6992936616826
 20
240.9671441943501
 30
0.0
 10
295.8686922324993
 20
241.0448169243139
 30
0.0
 10
295.9872116721664
 20
241.1225128802951
 30
0.0
 10
296.0026174907353
 20
241.1742963313863
 30
0.0
 10
296.0103205177244
 20
241.2001884525714
 30
0.0
  0
LINE
  5
2A9
330
1F
100
AcDbEntity
  8
0
  6
Continuous
 62
     7
370
    25
100
AcDbLine
 10
296.0103205177
 20
175.2037267882
 30
0.0
 11
296.0103205177
 21
206.276959086
 31
0.0
  0
LINE
  5
2AA
330
1F
100
AcDbEntity
  8
0
  6
Continuous
 62
     7
370
    25
100
AcDbLine
 10
296.0103205177
 20
206.4769587463
 30
0.0
 11
296.0103205177
 21
206.7269592529
 31
0.0
  0
LINE
  5
2AB
330
1F
100
AcDbEntity
  8
0
  6
Continuous
 62
     7
370
    25
100
AcDbLine
 10
296.0103205177
 20
236.3988778537
 30
0.0
 11
296.0103205177
 21
236.6488783604
 31
0.0
  0
LINE
  5
2AC
330
1F
100
AcDbEntity
  8
0
  6
Continuous
 62
     7
370
    25
100
AcDbLine
 10
296.0103205177
 20
236.8488780206
 30
0.0
 11
296.0103205177
 21
241.2001884526
 31
0.0
  0
LINE
  5
2AD
330
1F
100
AcDbEntity
  8
0
  6
Continuous
 62
     7
370
    25
100
AcDbLine
 10
296.0103205177
 20
175.2037267882
 30
0.0
 11
295.8103245828
 21
175.2037267882
 31
0.0
  0
SPLINE
  5
2AE
330
1F
100
AcDbEntity
  8
0
  6
Continuous
 62
     7
370
    25
100
AcDbSpline
210
0.0
220
0.0
230
1.0
 70
     8
 71
     3
 72
    11
 73
     7
 74
     0
 42
0.000000001
 43
0.00000001
 40
0.0
 40
0.0
 40
0.0
 40
0.0
 40
0.2500024928842343
 40
0.5000000270413708
 40
0.7499975611985074
 40
1.0
 40
1.0
 40
1.0
 40
1.0
 10
295.8103245827612
 20
175.2037267882449
 30
0.0
 10
295.8056264477304
 20
175.2296210171325
 30
0.0
 10
295.7962302708552
 20
175.2814089613031
 30
0.0
 10
295.723965605729
 20
175.359092927568
 30
0.0
 10
295.6206723092944
 20
175.4367769059748
 30
0.0
 10
295.5387742914082
 20
175.4885648090561
 30
0.0
 10
295.4978248807844
 20
175.5144590145981
 30
0.0
  0
SPLINE
  5
2AF
330
1F
100
AcDbEntity
  8
0
  6
Continuous
 62
     7
370
    25
100
AcDbSpline
210
0.0
220
0.0
230
1.0
 70
     8
 71
     3
 72
    12
 73
     8
 74
     0
 42
0.000000001
 43
0.00000001
 40
0.0
 40
0.0
 40
0.0
 40
0.0
 40
0.3486232722639344
 40
0.5715628748847573
 40
0.7575608240810359
 40
0.9445149048050423
 40
0.9999999999999999
 40
0.9999999999999999
 40
0.9999999999999999
 40
0.9999999999999999
 10
295.4978248807844
 20
175.5144590145981
 30
0.0
 10
295.5468080850861
 20
175.4656874462534
 30
0.0
 10
295.6271153488265
 20
175.3857271566414
 30
0.0
 10
295.7212866250427
 20
175.2892729408403
 30
0.0
 10
295.7759319991369
 20
175.2279404253333
 30
0.0
 10
295.800591244383
 20
175.2038355338349
 30
0.0
 10
295.8070749270892
 20
175.2023085012026
 30
0.0
 10
295.8085587951597
 20
175.201959021583
 30
0.0
  0
LINE
  5
2B0
330
1F
100
AcDbEntity
  8
0
  6
Continuous
 62
     7
370
    25
100
AcDbLine
 10
295.8085587952
 20
175.0019590412
 30
0.0
 11
295.8085587952
 21
175.2019590216
 31
0.0
  0
SPLINE
  5
2B1
330
1F
100
AcDbEntity
  8
0
  6
Continuous
 62
     7
370
    25
100
AcDbSpline
210
0.0
220
0.0
230
1.0
 70
     8
 71
     3
 72
    13
 73
     9
 74
     0
 42
0.000000001
 43
0.00000001
 40
0.0
 40
0.0
 40
0.0
 40
0.0
 40
0.3066602598377235
 40
0.4984636799153969
 40
0.6088141697171492
 40
0.7281596801691467
 40
0.8581361675486511
 40
1.0
 40
1.0
 40
1.0
 40
1.0
 10
119.6228242251333
 20
175.5144590145981
 30
0.0
 10
119.5792758625798
 20
175.4722774896693
 30
0.0
 10
119.5084897846439
 20
175.4037131502547
 30
0.0
 10
119.4315514105537
 20
175.3227550738275
 30
0.0
 10
119.3813226533486
 20
175.2775336516544
 30
0.0
 10
119.3449278519659
 20
175.2475083038702
 30
0.0
 10
119.3164272134346
 20
175.222024081643
 30
0.0
 10
119.312417204669
 20
175.2100011370775
 30
0.0
 10
119.3103245231565
 20
175.2037267882449
 30
0.0
  0
LINE
  5
2B2
330
1F
100
AcDbEntity
  8
0
  6
Continuous
 62
     7
370
    25
100
AcDbLine
 10
119.1103211376
 20
175.2037267882
 30
0.0
 11
119.3103245232
 21
175.2037267882
 31
0.0
  0
SPLINE
  5
2B3
330
1F
100
AcDbEntity
  8
0
  6
Continuous
 62
     7
370
    25
100
AcDbSpline
210
0.0
220
0.0
230
1.0
 70
     8
 71
     3
 72
    13
 73
     9
 74
     0
 42
0.000000001
 43
0.00000001
 40
0.0
 40
0.0
 40
0.0
 40
0.0
 40
0.2855711442954467
 40
0.4687856066465086
 40
0.5798983070656708
 40
0.7049765259990453
 40
0.8448196447707278
 40
1.0
 40
1.0
 40
1.0
 40
1.0
 10
119.6228242251333
 20
175.5144590145981
 30
0.0
 10
119.5511637977008
 20
175.4720954232871
 30
0.0
 10
119.4335280434674
 20
175.4025525361672
 30
0.0
 10
119.3065453196247
 20
175.3212241550945
 30
0.0
 10
119.2255104279036
 20
175.2768910743625
 30
0.0
 10
119.1663832902688
 20
175.2471675153701
 30
0.0
 10
119.1201427803477
 20
175.2218466708635
 30
0.0
 10
119.1137065508624
 20
175.2099725143781
 30
0.0
 10
119.1103211376127
 20
175.2037267882449
 30
0.0
  0
SPLINE
  5
2B4
330
1F
100
AcDbEntity
  8
0
  6
Continuous
 62
     7
370
    25
100
AcDbSpline
210
0.0
220
0.0
230
1.0
 70
     8
 71
     3
 72
    11
 73
     7
 74
     0
 42
0.000000001
 43
0.00000001
 40
0.0
 40
0.0
 40
0.0
 40
0.0
 40
0.2543083858920593
 40
0.5087765424210083
 40
0.7632537759925664
 40
1.0
 40
1.0
 40
1.0
 40
1.0
 10
119.312090310758
 20
175.201959021583
 30
0.0
 10
119.3384364318633
 20
175.2068230089744
 30
0.0
 10
119.3911452261688
 20
175.2165540395839
 30
0.0
 10
119.4702019963446
 20
175.2912998489466
 30
0.0
 10
119.5474717964908
 20
175.3952906748834
 30
0.0
 10
119.5983185301818
 20
175.4757037543691
 30
0.0
 10
119.6228242251333
 20
175.5144590145981
 30
0.0
  0
LINE
  5
2B5
330
1F
100
AcDbEntity
  8
0
  6
Continuous
 62
     7
370
    25
100
AcDbLine
 10
119.3120903108
 20
175.0019590412
 30
0.0
 11
119.3120903108
 21
175.2019590216
 31
0.0
  0
LINE
  5
2B6
330
1F
100
AcDbEntity
  8
0
  6
Continuous
 62
     7
370
    25
100
AcDbLine
 10
119.1103211376
 20
241.2001884526
 30
0.0
 11
119.1103211376
 21
175.2037267882
 31
0.0
  0
SPLINE
  5
2B7
330
1F
100
AcDbEntity
  8
0
  6
Continuous
 62
     7
370
    25
100
AcDbSpline
210
0.0
220
0.0
230
1.0
 70
     8
 71
     3
 72
    12
 73
     8
 74
     0
 42
0.000000001
 43
0.00000001
 40
0.0
 40
0.0
 40
0.0
 40
0.0
 40
0.1873961453950768
 40
0.37544066661233
 40
0.5704465771960541
 40
0.7798259760358166
 40
1.0
 40
1.0
 40
1.0
 40
1.0
 10
119.1103211376127
 20
241.2001884525714
 30
0.0
 10
119.1154057919999
 20
241.1944466193912
 30
0.0
 10
119.1255926932759
 20
241.1829430867427
 30
0.0
 10
119.2033965010874
 20
241.1400628896339
 30
0.0
 10
119.3179114510203
 20
241.0762935191503
 30
0.0
 10
119.4611819892406
 20
240.9871067130852
 30
0.0
 10
119.5680483007113
 20
240.9225509893674
 30
0.0
 10
119.6228242251333
 20
240.8894619887767
 30
0.0
  0
SPLINE
  5
2B8
330
1F
100
AcDbEntity
  8
0
  6
Continuous
 62
     7
370
    25
100
AcDbSpline
210
0.0
220
0.0
230
1.0
 70
     8
 71
     3
 72
    12
 73
     8
 74
     0
 42
0.000000001
 43
0.00000001
 40
0.0
 40
0.0
 40
0.0
 40
0.0
 40
0.1873948038470672
 40
0.3754430887099012
 40
0.570446583714914
 40
0.7798259793771556
 40
1.0
 40
1.0
 40
1.0
 40
1.0
 10
295.8085587951597
 20
241.4019576257167
 30
0.0
 10
295.8028165912555
 20
241.3968768722576
 30
0.0
 10
295.7913121592992
 20
241.3866976477941
 30
0.0
 10
295.7484369633881
 20
241.3088783752774
 30
0.0
 10
295.6846527728045
 20
241.1943774790301
 30
0.0
 10
295.5954705038405
 20
241.0511033325387
 30
0.0
 10
295.5309141859349
 20
240.9442376108811
 30
0.0
 10
295.4978248807844
 20
240.8894619887767
 30
0.0
  0
SPLINE
  5
2B9
330
1F
100
AcDbEntity
  8
0
  6
Continuous
 62
     7
370
    25
100
AcDbSpline
210
0.0
220
0.0
230
1.0
 70
     8
 71
     3
 72
    11
 73
     7
 74
     0
 42
0.000000001
 43
0.00000001
 40
0.0
 40
0.0
 40
0.0
 40
0.0
 40
0.2499950603081129
 40
0.5000016440051178
 40
0.7499938577607708
 40
1.0
 40
1.0
 40
1.0
 40
1.0
 10
119.6228242251333
 20
240.8894619887767
 30
0.0
 10
119.5969314092072
 20
240.9566177556884
 30
0.0
 10
119.5451445838394
 20
241.0909323850209
 30
0.0
 10
119.4674574039502
 20
241.2603269002063
 30
0.0
 10
119.3897771906869
 20
241.3788501808539
 30
0.0
 10
119.3379864183138
 20
241.3942550010514
 30
0.0
 10
119.312090310758
 20
241.4019576257167
 30
0.0
  0
LINE
  5
2BA
330
1F
100
AcDbEntity
  8
0
  6
Continuous
 62
     7
370
    25
100
AcDbLine
 10
119.3120903108
 20
241.4019576257
 30
0.0
 11
295.8085587952
 21
241.4019576257
 31
0.0
  0
LINE
  5
2BB
330
1F
100
AcDbEntity
  8
0
  6
Continuous
 62
     7
370
    25
100
AcDbLine
 10
295.8085587952
 20
241.4019576257
 30
0.0
 11
295.8085587952
 21
241.2019616908
 31
0.0
  0
SPLINE
  5
2BC
330
1F
100
AcDbEntity
  8
0
  6
Continuous
 62
     7
370
    25
100
AcDbSpline
210
0.0
220
0.0
230
1.0
 70
     8
 71
     3
 72
    12
 73
     8
 74
     0
 42
0.000000001
 43
0.00000001
 40
0.0
 40
0.0
 40
0.0
 40
0.0
 40
0.1739953862613653
 40
0.3321032325718449
 40
0.5068923953045733
 40
0.7762328912085422
 40
1.0
 40
1.0
 40
1.0
 40
1.0
 10
295.8085587951597
 20
241.2019616907535
 30
0.0
 10
295.8025753103942
 20
241.1986448856178
 30
0.0
 10
295.7911546935871
 20
241.1923141332281
 30
0.0
 10
295.7509485456338
 20
241.148038505662
 30
0.0
 10
295.6876873717549
 20
241.0784578753495
 30
0.0
 10
295.5973487894649
 20
240.9898747983308
 30
0.0
 10
295.5288905284939
 20
240.9208051002812
 30
0.0
 10
295.4978248807844
 20
240.8894619887767
 30
0.0
  0
LWPOLYLINE
  5
2BD
330
1F
100
AcDbEntity
  8
0
  6
Continuous
 62
     7
370
    25
100
AcDbPolyline
 90
        2
 70
   128
 43
0.0
 10
295.4978248808
 20
240.8894619888
 10
295.4978248808
 20
240.8894619888
  0
SPLINE
  5
2BE
330
1F
100
AcDbEntity
  8
0
  6
Continuous
 62
     7
370
    25
100
AcDbSpline
210
0.0
220
0.0
230
1.0
 70
     8
 71
     3
 72
    11
 73
     7
 74
     0
 42
0.000000001
 43
0.00000001
 40
0.0
 40
0.0
 40
0.0
 40
0.0
 40
0.2500007487091522
 40
0.4999965386035115
 40
0.7499992512908479
 40
1.0
 40
1.0
 40
1.0
 40
1.0
 10
295.4978248807844
 20
240.8894619887767
 30
0.0
 10
295.5387742427728
 20
240.9153552691962
 30
0.0
 10
295.6206721545107
 20
240.9671413164367
 30
0.0
 10
295.7239671211015
 20
241.0448203197895
 30
0.0
 10
295.7962293612882
 20
241.1225106790945
 30
0.0
 10
295.8056261879069
 20
241.1742959292154
 30
0.0
 10
295.8103245827612
 20
241.2001884525714
 30
0.0
  0
LINE
  5
2BF
330
1F
100
AcDbEntity
  8
0
  6
Continuous
 62
     7
370
    25
100
AcDbLine
 10
295.8103245828
 20
241.2001884526
 30
0.0
 11
296.0103205177
 21
241.2001884526
 31
0.0
  0
SPLINE
  5
2C0
330
1F
100
AcDbEntity
  8
0
  6
Continuous
 62
     7
370
    25
100
AcDbSpline
210
0.0
220
0.0
230
1.0
 70
     8
 71
     3
 72
    11
 73
     7
 74
     0
 42
0.000000001
 43
0.00000001
 40
0.0
 40
0.0
 40
0.0
 40
0.0
 40
0.2499990180520333
 40
0.5000000000686551
 40
0.7499940593402235
 40
1.0
 40
1.0
 40
1.0
 40
1.0
 10
119.6228242251333
 20
240.8894619887767
 30
0.0
 10
119.596931733321
 20
240.9304116957207
 30
0.0
 10
119.5451465462879
 20
241.012311431305
 30
0.0
 10
119.4674557138261
 20
241.1156009528381
 30
0.0
 10
119.3897777914589
 20
241.1878683498057
 30
0.0
 10
119.3379865478929
 20
241.1972638360166
 30
0.0
 10
119.312090310758
 20
241.2019616907535
 30
0.0
  0
LINE
  5
2C1
330
1F
100
AcDbEntity
  8
0
  6
Continuous
 62
     7
370
    25
100
AcDbLine
 10
119.3120903108
 20
241.4019576257
 30
0.0
 11
119.3120903108
 21
241.2019616908
 31
0.0
  0
LWPOLYLINE
  5
2C2
330
1F
100
AcDbEntity
  8
0
  6
Continuous
 62
     7
370
    25
100
AcDbPolyline
 90
        2
 70
   128
 43
0.0
 10
119.6228242251
 20
240.8894619888
 10
119.6228242251
 20
240.8894619888
  0
SPLINE
  5
2C3
330
1F
100
AcDbEntity
  8
0
  6
Continuous
 62
     7
370
    25
100
AcDbSpline
210
0.0
220
0.0
230
1.0
 70
     8
 71
     3
 72
    12
 73
     8
 74
     0
 42
0.000000001
 43
0.00000001
 40
0.0
 40
0.0
 40
0.0
 40
0.0
 40
0.1739906240980286
 40
0.3321035652096163
 40
0.506892641781701
 40
0.7762329589755528
 40
0.9999999999999999
 40
0.9999999999999999
 40
0.9999999999999999
 40
0.9999999999999999
 10
119.3103245231565
 20
241.2001884525714
 30
0.0
 10
119.3136375533127
 20
241.1942078997611
 30
0.0
 10
119.319961279848
 20
241.182792555282
 30
0.0
 10
119.3642496696237
 20
241.1425857020369
 30
0.0
 10
119.4338291593708
 20
241.0793266978737
 30
0.0
 10
119.5223996503203
 20
240.9889737602597
 30
0.0
 10
119.5914774369431
 20
240.9205238521594
 30
0.0
 10
119.6228242251333
 20
240.8894619887767
 30
0.0
  0
LINE
  5
2C4
330
1F
100
AcDbEntity
  8
0
  6
Continuous
 62
     7
370
    25
100
AcDbLine
 10
119.1103211376
 20
241.2001884526
 30
0.0
 11
119.3103245232
 21
241.2001884526
 31
0.0
  0
LINE
  5
2C5
330
1F
100
AcDbEntity
  8
0
  6
Continuous
 62
     7
370
    25
100
AcDbLine
 10
310.9353235695
 20
204.7769597715
 30
0.0
 11
310.9353235695
 21
198.776958788
 31
0.0
  0
LINE
  5
2C6
330
1F
100
AcDbEntity
  8
0
  6
Continuous
 62
     7
370
    25
100
AcDbLine
 10
310.9353235695
 20
198.776958788
 30
0.0
 11
310.9103268716
 21
198.776958788
 31
0.0
  0
LINE
  5
2C7
330
1F
100
AcDbEntity
  8
0
  6
Continuous
 62
     7
370
    25
100
AcDbLine
 10
310.9353235695
 20
204.7769597715
 30
0.0
 11
310.9103268716
 21
204.7769597715
 31
0.0
  0
LINE
  5
2C8
330
1F
100
AcDbEntity
  8
0
  6
Continuous
 62
     7
370
    25
100
AcDbLine
 10
310.960327718
 20
199.4052625245
 30
0.0
 11
310.960327718
 21
199.2177630758
 31
0.0
  0
LINE
  5
2C9
330
1F
100
AcDbEntity
  8
0
  6
Continuous
 62
     7
370
    25
100
AcDbLine
 10
310.960327718
 20
199.2177630758
 30
0.0
 11
310.9353235695
 21
199.2177630758
 31
0.0
  0
LINE
  5
2CA
330
1F
100
AcDbEntity
  8
0
  6
Continuous
 62
     7
370
    25
100
AcDbLine
 10
310.960327718
 20
204.2802630907
 30
0.0
 11
310.960327718
 21
199.4052625245
 31
0.0
  0
LINE
  5
2CB
330
1F
100
AcDbEntity
  8
0
  6
Continuous
 62
     7
370
    25
100
AcDbLine
 10
310.960327718
 20
204.3427641487
 30
0.0
 11
310.960327718
 21
204.2802630907
 31
0.0
  0
LINE
  5
2CC
330
1F
100
AcDbEntity
  8
0
  6
Continuous
 62
     7
370
    25
100
AcDbLine
 10
310.9103268716
 20
197.8519598937
 30
0.0
 11
311.3103261921
 21
197.8519598937
 31
0.0
  0
SPLINE
  5
2CD
330
1F
100
AcDbEntity
  8
0
  6
Continuous
 62
     7
370
    25
100
AcDbSpline
210
0.0
220
0.0
230
1.0
 70
    24
 71
     3
 72
    11
 73
     7
 74
     0
 42
0.000000001
 43
0.00000001
 40
0.0
 40
0.0
 40
0.0
 40
0.0
 40
0.2833564397002662
 40
0.5581121644452676
 40
0.7754832379936829
 40
1.0
 40
1.0
 40
1.0
 40
1.0
 10
311.3103261920866
 20
197.3533651774821
 30
0.0
 10
311.3103261920866
 20
197.4276272956274
 30
0.0
 10
311.3103261920867
 20
197.5738974546477
 30
0.0
 10
311.3103261920866
 20
197.7359246682481
 30
0.0
 10
311.3103261920866
 20
197.8344033307048
 30
0.0
 10
311.3103261920866
 20
197.8460449544847
 30
0.0
 10
311.3103261920866
 20
197.8519598936734
 30
0.0
  0
LINE
  5
2CE
330
1F
100
AcDbEntity
  8
0
  6
Continuous
 62
     7
370
    25
100
AcDbLine
 10
311.3103261921
 20
183.3504552936
 30
0.0
 11
311.3103261921
 21
197.3533651775
 31
0.0
  0
SPLINE
  5
2CF
330
1F
100
AcDbEntity
  8
0
  6
Continuous
 62
     7
370
    25
100
AcDbSpline
210
0.0
220
0.0
230
1.0
 70
    24
 71
     3
 72
    11
 73
     7
 74
     0
 42
0.000000001
 43
0.00000001
 40
0.0
 40
0.0
 40
0.0
 40
0.0
 40
0.283271365534185
 40
0.5580001613464234
 40
0.7754001789821588
 40
1.0
 40
1.0
 40
1.0
 40
1.0
 10
311.3103261920866
 20
182.851959297627
 30
0.0
 10
311.3103261920866
 20
182.8615304980781
 30
0.0
 10
311.3103261920866
 20
182.8803842618035
 30
0.0
 10
311.3103261920866
 20
183.0136171427098
 30
0.0
 10
311.3103261920866
 20
183.1762243795279
 30
0.0
 10
311.3103261920866
 20
183.2917510450493
 30
0.0
 10
311.3103261920866
 20
183.3504552936254
 30
0.0
  0
LINE
  5
2D0
330
1F
100
AcDbEntity
  8
0
  6
Continuous
 62
     7
370
    25
100
AcDbLine
 10
310.9103268716
 20
182.8519592976
 30
0.0
 11
311.3103261921
 21
182.8519592976
 31
0.0
  0
LINE
  5
2D1
330
1F
100
AcDbEntity
  8
0
  6
Continuous
 62
     7
370
    25
100
AcDbLine
 10
311.6603246662
 20
197.2175299173
 30
0.0
 11
311.6603246662
 21
183.4863883426
 31
0.0
  0
SPLINE
  5
2D2
330
1F
100
AcDbEntity
  8
0
  6
Continuous
 62
     7
370
    25
100
AcDbSpline
210
0.0
220
0.0
230
1.0
 70
     8
 71
     3
 72
    11
 73
     7
 74
     0
 42
0.000000001
 43
0.00000001
 40
0.0
 40
0.0
 40
0.0
 40
0.0
 40
0.2514197350060309
 40
0.5021386318866393
 40
0.7627971355077232
 40
1.0
 40
1.0
 40
1.0
 40
1.0
 10
311.6603246662077
 20
183.4863883426485
 30
0.0
 10
311.6557458463905
 20
183.4233521261841
 30
0.0
 10
311.6466009703186
 20
183.2974554081162
 30
0.0
 10
311.5722883933455
 20
183.1185303587056
 30
0.0
 10
311.4613865817232
 20
182.9626834866199
 30
0.0
 10
311.3590728941348
 20
182.8876896374159
 30
0.0
 10
311.3103261920866
 20
182.851959297627
 30
0.0
  0
SPLINE
  5
2D3
330
1F
100
AcDbEntity
  8
0
  6
Continuous
 62
     7
370
    25
100
AcDbSpline
210
0.0
220
0.0
230
1.0
 70
    24
 71
     3
 72
    13
 73
     9
 74
     0
 42
0.000000001
 43
0.00000001
 40
0.0
 40
0.0
 40
0.0
 40
0.0
 40
0.1275890486917231
 40
0.2546779263957972
 40
0.5000478929310903
 40
0.7454034835463158
 40
0.8725367459645864
 40
0.9999999999999999
 40
0.9999999999999999
 40
0.9999999999999999
 40
0.9999999999999999
 10
311.3103261920866
 20
183.3504552936254
 30
0.0
 10
311.3103261920866
 20
183.3171622791315
 30
0.0
 10
311.3103261920866
 20
183.2507067644795
 30
0.0
 10
311.3103261920866
 20
183.1257712617542
 30
0.0
 10
311.3103261920866
 20
182.9889162700261
 30
0.0
 10
311.3103261920866
 20
182.8974847272547
 30
0.0
 10
311.3103261920866
 20
182.8574145886595
 30
0.0
 10
311.3103261920866
 20
182.8537792985808
 30
0.0
 10
311.3103261920866
 20
182.851959297627
 30
0.0
  0
SPLINE
  5
2D4
330
1F
100
AcDbEntity
  8
0
  6
Continuous
 62
     7
370
    25
100
AcDbSpline
210
0.0
220
0.0
230
1.0
 70
     8
 71
     3
 72
    11
 73
     7
 74
     0
 42
0.000000001
 43
0.00000001
 40
0.0
 40
0.0
 40
0.0
 40
0.0
 40
0.2371939653777024
 40
0.497861161430987
 40
0.7485801615085483
 40
1.0
 40
1.0
 40
1.0
 40
1.0
 10
311.3103261920866
 20
197.8519598936734
 30
0.0
 10
311.3590697064768
 20
197.8162295643812
 30
0.0
 10
311.4613804994513
 20
197.7412329547018
 30
0.0
 10
311.5722887963711
 20
197.5853908215666
 30
0.0
 10
311.6466006645123
 20
197.4064626281878
 30
0.0
 10
311.6557457443603
 20
197.2805660591664
 30
0.0
 10
311.6603246662077
 20
197.2175299173293
 30
0.0
  0
SPLINE
  5
2D5
330
1F
100
AcDbEntity
  8
0
  6
Continuous
 62
     7
370
    25
100
AcDbSpline
210
0.0
220
0.0
230
1.0
 70
    24
 71
     3
 72
    13
 73
     9
 74
     0
 42
0.000000001
 43
0.00000001
 40
0.0
 40
0.0
 40
0.0
 40
0.0
 40
0.1275388008176146
 40
0.2545834128861152
 40
0.4999432881626906
 40
0.745328427773526
 40
0.8725057155511715
 40
0.9999999999999999
 40
0.9999999999999999
 40
0.9999999999999999
 40
0.9999999999999999
 10
311.3103261920866
 20
197.8519598936734
 30
0.0
 10
311.3103261920866
 20
197.8501427473209
 30
0.0
 10
311.3103261920866
 20
197.8465154957144
 30
0.0
 10
311.3103261920866
 20
197.8063914436611
 30
0.0
 10
311.3103261920866
 20
197.7149507597698
 30
0.0
 10
311.3103261920866
 20
197.5780535742109
 30
0.0
 10
311.3103261920866
 20
197.4530921077153
 30
0.0
 10
311.3103261920866
 20
197.3866350611943
 30
0.0
 10
311.3103261920866
 20
197.3533651774821
 30
0.0
  0
SPLINE
  5
2D6
330
1F
100
AcDbEntity
  8
0
  6
Continuous
 62
     7
370
    25
100
AcDbSpline
210
0.0
220
0.0
230
1.0
 70
     8
 71
     3
 72
    13
 73
     9
 74
     0
 42
0.000000001
 43
0.00000001
 40
0.0
 40
0.0
 40
0.0
 40
0.0
 40
0.007548040649594
 40
0.272261936824367
 40
0.4814997288381769
 40
0.661309104508095
 40
0.8304193431289963
 40
1.0
 40
1.0
 40
1.0
 40
1.0
 10
116.6103235217985
 20
184.7036288103161
 30
0.0
 10
116.6103239540361
 20
184.7036555003788
 30
0.0
 10
116.6103395450818
 20
184.7046182254751
 30
0.0
 10
116.6073833963734
 20
184.706375016707
 30
0.0
 10
116.5967256544685
 20
184.7085912610397
 30
0.0
 10
116.5828026095857
 20
184.7101623221223
 30
0.0
 10
116.5662673495489
 20
184.7112171462317
 30
0.0
 10
116.5539752082751
 20
184.7113574541551
 30
0.0
 10
116.5478206011709
 20
184.7114277055559
 30
0.0
  0
LINE
  5
2D7
330
1F
100
AcDbEntity
  8
0
  6
Continuous
 62
     7
370
    25
100
AcDbLine
 10
116.6103235218
 20
186.6455611756
 30
0.0
 11
116.6103235218
 21
184.7036288103
 31
0.0
  0
SPLINE
  5
2D8
330
1F
100
AcDbEntity
  8
0
  6
Continuous
 62
     7
370
    25
100
AcDbSpline
210
0.0
220
0.0
230
1.0
 70
     8
 71
     3
 72
    13
 73
     9
 74
     0
 42
0.000000001
 43
0.00000001
 40
0.0
 40
0.0
 40
0.0
 40
0.0
 40
0.1695244437974605
 40
0.3386461298953012
 40
0.5184676772923617
 40
0.7277196331132743
 40
0.9924514484054626
 40
0.9999999999999999
 40
0.9999999999999999
 40
0.9999999999999999
 40
0.9999999999999999
 10
116.3728213641104
 20
184.7114277055559
 30
0.0
 10
116.366669333891
 20
184.7113574149479
 30
0.0
 10
116.3543798895011
 20
184.7112170007291
 30
0.0
 10
116.3378468114687
 20
184.7101623243465
 30
0.0
 10
116.3239237597097
 20
184.7085912603185
 30
0.0
 10
116.3132660201438
 20
184.7063750169877
 30
0.0
 10
116.3103098707766
 20
184.7046182254735
 30
0.0
 10
116.3103254618257
 20
184.7036555003787
 30
0.0
 10
116.3103258940634
 20
184.7036288103161
 30
0.0
  0
LINE
  5
2D9
330
1F
100
AcDbEntity
  8
0
  6
Continuous
 62
     7
370
    25
100
AcDbLine
 10
116.3103258941
 20
184.7036288103
 30
0.0
 11
116.3103258941
 21
186.5761431849
 31
0.0
  0
LINE
  5
2DA
330
1F
100
AcDbEntity
  8
0
  6
Continuous
 62
     7
370
    25
100
AcDbLine
 10
116.3728213641
 20
184.7114277056
 30
0.0
 11
116.5478206012
 21
184.7114277056
 31
0.0
  0
SPLINE
  5
2DB
330
1F
100
AcDbEntity
  8
0
  6
Continuous
 62
     7
370
    25
100
AcDbSpline
210
0.0
220
0.0
230
1.0
 70
     8
 71
     3
 72
    12
 73
     8
 74
     0
 42
0.000000001
 43
0.00000001
 40
0.0
 40
0.0
 40
0.0
 40
0.0
 40
0.2028179780381207
 40
0.4049470652429262
 40
0.6098305918206068
 40
0.8226927037846008
 40
1.0
 40
1.0
 40
1.0
 40
1.0
 10
116.2478229734358
 20
183.3741835301814
 30
0.0
 10
116.2871076985766
 20
183.3772393241969
 30
0.0
 10
116.3655437144985
 20
183.3833405329286
 30
0.0
 10
116.470643184764
 20
183.4307525366632
 30
0.0
 10
116.5524120986658
 20
183.5012853559487
 30
0.0
 10
116.6019634601761
 20
183.5861967862779
 30
0.0
 10
116.6077114323312
 20
183.6463838459458
 30
0.0
 10
116.6103235217985
 20
183.6737350544033
 30
0.0
  0
SPLINE
  5
2DC
330
1F
100
AcDbEntity
  8
0
  6
Continuous
 62
     7
370
    25
100
AcDbSpline
210
0.0
220
0.0
230
1.0
 70
     8
 71
     3
 72
    12
 73
     8
 74
     0
 42
0.000000001
 43
0.00000001
 40
0.0
 40
0.0
 40
0.0
 40
0.0
 40
0.2289423188723423
 40
0.4594204143591584
 40
0.6825388747122172
 40
0.8947203692662763
 40
1.0
 40
1.0
 40
1.0
 40
1.0
 10
116.6103235217985
 20
184.642530324131
 30
0.0
 10
116.6059903493173
 20
184.6103106633473
 30
0.0
 10
116.5972949368368
 20
184.5456552078566
 30
0.0
 10
116.5288276946833
 20
184.4600008542182
 30
0.0
 10
116.4295651523119
 20
184.3982386742261
 30
0.0
 10
116.3293464369172
 20
184.3704656436191
 30
0.0
 10
116.2681256293997
 20
184.368103977395
 30
0.0
 10
116.2478229734357
 20
184.3673207780419
 30
0.0
  0
LINE
  5
2DD
330
1F
100
AcDbEntity
  8
0
  6
Continuous
 62
     7
370
    25
100
AcDbLine
 10
116.6103235218
 20
184.6425303241
 30
0.0
 11
116.6103235218
 21
183.6737350544
 31
0.0
  0
LINE
  5
2DE
330
1F
100
AcDbEntity
  8
0
  6
Continuous
 62
     7
370
    25
100
AcDbLine
 10
114.910324547
 20
183.4318491614
 30
0.0
 11
114.910324547
 21
184.4006453624
 31
0.0
  0
LINE
  5
2DF
330
1F
100
AcDbEntity
  8
0
  6
Continuous
 62
     7
370
    25
100
AcDbLine
 10
114.910324547
 20
184.4006453624
 30
0.0
 11
114.910324547
 21
184.5413048735
 31
0.0
  0
LINE
  5
2E0
330
1F
100
AcDbEntity
  8
0
  6
Continuous
 62
     7
370
    25
100
AcDbLine
 10
116.6103235218
 20
184.7036288103
 30
0.0
 11
116.6103235218
 21
184.6425303241
 31
0.0
  0
LINE
  5
2E1
330
1F
100
AcDbEntity
  8
0
  6
Continuous
 62
     7
370
    25
100
AcDbLine
 10
116.3103258941
 20
184.6425303241
 30
0.0
 11
116.3103258941
 21
184.7036288103
 31
0.0
  0
LINE
  5
2E2
330
1F
100
AcDbEntity
  8
0
  6
Continuous
 62
     7
370
    25
100
AcDbLine
 10
116.2478229734
 20
183.3693490347
 30
0.0
 11
116.2478229734
 21
183.3741835302
 31
0.0
  0
LINE
  5
2E3
330
1F
100
AcDbEntity
  8
0
  6
Continuous
 62
     7
370
    25
100
AcDbLine
 10
116.6103235218
 20
183.6737350544
 30
0.0
 11
116.6103235218
 21
183.6144591665
 31
0.0
  0
SPLINE
  5
2E4
330
1F
100
AcDbEntity
  8
0
  6
Continuous
 62
     7
370
    25
100
AcDbSpline
210
0.0
220
0.0
230
1.0
 70
     8
 71
     3
 72
    10
 73
     6
 74
     0
 42
0.000000001
 43
0.00000001
 40
0.0
 40
0.0
 40
0.0
 40
0.0
 40
0.3816802194693152
 40
0.762064025242993
 40
1.0
 40
1.0
 40
1.0
 40
1.0
 10
116.2478229734358
 20
188.0797346105871
 30
0.0
 10
116.2868851912956
 20
188.0765204358664
 30
0.0
 10
116.3648769484228
 20
188.0701030036797
 30
0.0
 10
116.4593653150435
 20
188.0308606374494
 30
0.0
 10
116.5000465715362
 20
187.9920410497527
 30
0.0
 10
116.5157011482176
 20
187.9771028628645
 30
0.0
  0
LINE
  5
2E5
330
1F
100
AcDbEntity
  8
0
  6
Continuous
 62
     7
370
    25
100
AcDbLine
 10
114.910324547
 20
187.8814094683
 30
0.0
 11
114.910324547
 21
188.0220689794
 31
0.0
  0
LINE
  5
2E6
330
1F
100
AcDbEntity
  8
0
  6
Continuous
 62
     7
370
    25
100
AcDbLine
 10
114.910324547
 20
187.056135664
 30
0.0
 11
114.910324547
 21
187.8814094683
 31
0.0
  0
SPLINE
  5
2E7
330
1F
100
AcDbEntity
  8
0
  6
Continuous
 62
     7
370
    25
100
AcDbSpline
210
0.0
220
0.0
230
1.0
 70
     8
 71
     3
 72
    13
 73
     9
 74
     0
 42
0.000000001
 43
0.00000001
 40
0.0
 40
0.0
 40
0.0
 40
0.0
 40
0.007542047792438
 40
0.2722868288873911
 40
0.481527025212627
 40
0.6613512799821933
 40
0.8304773552483812
 40
1.0
 40
1.0
 40
1.0
 40
1.0
 10
116.0103208157476
 20
186.56028834936
 30
0.0
 10
116.0103229081193
 20
186.5602343361628
 30
0.0
 10
116.0103984479818
 20
186.5582843243633
 30
0.0
 10
116.0132368611729
 20
186.5548115299581
 30
0.0
 10
116.0239329433057
 20
186.5504689292865
 30
0.0
 10
116.037847829507
 20
186.5474280990718
 30
0.0
 10
116.0543822393657
 20
186.5454017349414
 30
0.0
 10
116.0666717735474
 20
186.5451338548629
 30
0.0
 10
116.0728237363752
 20
186.5449997579751
 30
0.0
  0
LINE
  5
2E8
330
1F
100
AcDbEntity
  8
0
  6
Continuous
 62
     7
370
    25
100
AcDbLine
 10
116.0103208157
 20
184.6038050002
 30
0.0
 11
116.0103208157
 21
186.5602883494
 31
0.0
  0
SPLINE
  5
2E9
330
1F
100
AcDbEntity
  8
0
  6
Continuous
 62
     7
370
    25
100
AcDbSpline
210
0.0
220
0.0
230
1.0
 70
     8
 71
     3
 72
    13
 73
     9
 74
     0
 42
0.000000001
 43
0.00000001
 40
0.0
 40
0.0
 40
0.0
 40
0.0
 40
0.1695226447516189
 40
0.3386487200178067
 40
0.518472974787373
 40
0.7277131711126089
 40
0.9924579522075619
 40
1.0
 40
1.0
 40
1.0
 40
1.0
 10
116.2478229734358
 20
186.5449997579751
 30
0.0
 10
116.2539749362636
 20
186.5451338548629
 30
0.0
 10
116.2662644704454
 20
186.5454017349414
 30
0.0
 10
116.282798880304
 20
186.5474280990718
 30
0.0
 10
116.2967137665053
 20
186.5504689292865
 30
0.0
 10
116.3074098486381
 20
186.5548115299581
 30
0.0
 10
116.3102482618289
 20
186.5582843243633
 30
0.0
 10
116.3103238016917
 20
186.5602343361628
 30
0.0
 10
116.3103258940634
 20
186.56028834936
 30
0.0
  0
LINE
  5
2EA
330
1F
100
AcDbEntity
  8
0
  6
Continuous
 62
     7
370
    25
100
AcDbLine
 10
116.3103258941
 20
186.5602883494
 30
0.0
 11
116.3103258941
 21
184.7036288103
 31
0.0
  0
LINE
  5
2EB
330
1F
100
AcDbEntity
  8
0
  6
Continuous
 62
     7
370
    25
100
AcDbLine
 10
116.3103258941
 20
184.6425303241
 30
0.0
 11
116.3103258941
 21
184.6046059376
 31
0.0
  0
LINE
  5
2EC
330
1F
100
AcDbEntity
  8
0
  6
Continuous
 62
     7
370
    25
100
AcDbLine
 10
116.2478229734
 20
186.544999758
 30
0.0
 11
116.0728237364
 21
186.544999758
 31
0.0
  0
SPLINE
  5
2ED
330
1F
100
AcDbEntity
  8
0
  6
Continuous
 62
     7
370
    25
100
AcDbSpline
210
0.0
220
0.0
230
1.0
 70
     8
 71
     3
 72
    12
 73
     8
 74
     0
 42
0.000000001
 43
0.00000001
 40
0.0
 40
0.0
 40
0.0
 40
0.0
 40
0.2028182422622125
 40
0.4049472419517106
 40
0.6098297892068723
 40
0.8226946021795957
 40
1.0
 40
1.0
 40
1.0
 40
1.0
 10
116.3728213641104
 20
187.9695693945584
 30
0.0
 10
116.3335366415894
 20
187.9667651057455
 30
0.0
 10
116.2551006988545
 20
187.961166058008
 30
0.0
 10
116.1500014532435
 20
187.9176517345909
 30
0.0
 10
116.0682314636325
 20
187.8528900570656
 30
0.0
 10
116.0186813374987
 20
187.7748879754925
 30
0.0
 10
116.0129330260569
 20
187.7195487021414
 30
0.0
 10
116.0103208157476
 20
187.6944008266626
 30
0.0
  0
SPLINE
  5
2EE
330
1F
100
AcDbEntity
  8
0
  6
Continuous
 62
     7
370
    25
100
AcDbSpline
210
0.0
220
0.0
230
1.0
 70
     8
 71
     3
 72
    12
 73
     8
 74
     0
 42
0.000000001
 43
0.00000001
 40
0.0
 40
0.0
 40
0.0
 40
0.0
 40
0.2289476116952792
 40
0.4594263637621755
 40
0.6825360511756223
 40
0.8947193487650612
 40
1.0
 40
1.0
 40
1.0
 40
1.0
 10
116.0103208157476
 20
186.6159097274838
 30
0.0
 10
116.01465691492
 20
186.6449215095008
 30
0.0
 10
116.023358111936
 20
186.7031390965709
 30
0.0
 10
116.0918236947679
 20
186.7803606125473
 30
0.0
 10
116.1910801609706
 20
186.8360798451544
 30
0.0
 10
116.291298072748
 20
186.8611411675123
 30
0.0
 10
116.3525187388273
 20
186.8632734157241
 30
0.0
 10
116.3728213641104
 20
186.8639805337486
 30
0.0
  0
LINE
  5
2EF
330
1F
100
AcDbEntity
  8
0
  6
Continuous
 62
     7
370
    25
100
AcDbLine
 10
116.0103208157
 20
186.6159097275
 30
0.0
 11
116.0103208157
 21
187.6944008267
 31
0.0
  0
LINE
  5
2F0
330
1F
100
AcDbEntity
  8
0
  6
Continuous
 62
     7
370
    25
100
AcDbLine
 10
117.7103272411
 20
187.9146027362
 30
0.0
 11
117.7103272411
 21
186.836111637
 31
0.0
  0
LINE
  5
2F1
330
1F
100
AcDbEntity
  8
0
  6
Continuous
 62
     7
370
    25
100
AcDbLine
 10
117.7103272411
 20
186.836111637
 30
0.0
 11
117.7103272411
 21
186.7080613023
 31
0.0
  0
LINE
  5
2F2
330
1F
100
AcDbEntity
  8
0
  6
Continuous
 62
     7
370
    25
100
AcDbLine
 10
116.0103208157
 20
186.5602883494
 30
0.0
 11
116.0103208157
 21
186.6159097275
 31
0.0
  0
LINE
  5
2F3
330
1F
100
AcDbEntity
  8
0
  6
Continuous
 62
     7
370
    25
100
AcDbLine
 10
116.3103258941
 20
186.6159097275
 30
0.0
 11
116.3103258941
 21
186.5602883494
 31
0.0
  0
LINE
  5
2F4
330
1F
100
AcDbEntity
  8
0
  6
Continuous
 62
     7
370
    25
100
AcDbLine
 10
116.3728213641
 20
187.9771028629
 30
0.0
 11
116.3728213641
 21
187.9695693946
 31
0.0
  0
LINE
  5
2F5
330
1F
100
AcDbEntity
  8
0
  6
Continuous
 62
     7
370
    25
100
AcDbLine
 10
116.0103208157
 20
187.6944008267
 30
0.0
 11
116.0103208157
 21
187.8394589743
 31
0.0
  0
LINE
  5
2F6
330
1F
100
AcDbEntity
  8
0
  6
Continuous
 62
     7
370
    25
100
AcDbLine
 10
117.7103272411
 20
183.6673657393
 30
0.0
 11
117.7103272411
 21
183.5393154046
 31
0.0
  0
LINE
  5
2F7
330
1F
100
AcDbEntity
  8
0
  6
Continuous
 62
     7
370
    25
100
AcDbLine
 10
117.7103272411
 20
184.3516298553
 30
0.0
 11
117.7103272411
 21
183.6673657393
 31
0.0
  0
LINE
  5
2F8
330
1F
100
AcDbEntity
  8
0
  6
Continuous
 62
     7
370
    25
100
AcDbLine
 10
115.8986813161
 20
186.8788537553
 30
0.0
 11
116.0103208157
 21
186.2142656913
 31
0.0
  0
SPLINE
  5
2F9
330
1F
100
AcDbEntity
  8
0
  6
Continuous
 62
     7
370
    25
100
AcDbSpline
210
0.0
220
0.0
230
1.0
 70
     8
 71
     3
 72
     9
 73
     5
 74
     0
 42
0.000000001
 43
0.00000001
 40
0.0
 40
0.0
 40
0.0
 40
0.0
 40
0.0702009296018785
 40
1.0
 40
1.0
 40
1.0
 40
1.0
 10
116.0103208157476
 20
186.2142656913099
 30
0.0
 10
116.0102106755512
 20
186.1985108754666
 30
0.0
 10
116.0086417476601
 20
185.9740862712238
 30
0.0
 10
115.9516614986469
 20
185.7541620409234
 30
0.0
 10
115.8986813160833
 20
185.5496766960321
 30
0.0
  0
LINE
  5
2FA
330
1F
100
AcDbEntity
  8
0
  6
Continuous
 62
     7
370
    25
100
AcDbLine
 10
115.8986813161
 20
185.549676696
 30
0.0
 11
114.8219681117
 21
185.549676696
 31
0.0
  0
SPLINE
  5
2FB
330
1F
100
AcDbEntity
  8
0
  6
Continuous
 62
     7
370
    25
100
AcDbSpline
210
0.0
220
0.0
230
1.0
 70
     8
 71
     3
 72
     9
 73
     5
 74
     0
 42
0.000000001
 43
0.00000001
 40
0.0
 40
0.0
 40
0.0
 40
0.0
 40
0.0702010417924278
 40
1.0
 40
1.0
 40
1.0
 40
1.0
 10
114.7103211614546
 20
186.2142656913099
 30
0.0
 10
114.7104338720369
 20
186.1985108763921
 30
0.0
 10
114.7120394120608
 20
185.9740866439936
 30
0.0
 10
114.7690032212551
 20
185.7541622077426
 30
0.0
 10
114.8219681116995
 20
185.5496766960321
 30
0.0
  0
LINE
  5
2FC
330
1F
100
AcDbEntity
  8
0
  6
Continuous
 62
     7
370
    25
100
AcDbLine
 10
114.8219681117
 20
186.8788537553
 30
0.0
 11
114.7103211615
 21
186.2142656913
 31
0.0
  0
LINE
  5
2FD
330
1F
100
AcDbEntity
  8
0
  6
Continuous
 62
     7
370
    25
100
AcDbLine
 10
115.8986813161
 20
186.8788537553
 30
0.0
 11
114.8219681117
 21
186.8788537553
 31
0.0
  0
SPLINE
  5
2FE
330
1F
100
AcDbEntity
  8
0
  6
Continuous
 62
     7
370
    25
100
AcDbSpline
210
0.0
220
0.0
230
1.0
 70
     8
 71
     3
 72
     9
 73
     5
 74
     0
 42
0.000000001
 43
0.00000001
 40
0.0
 40
0.0
 40
0.0
 40
0.0
 40
0.2686329506590988
 40
1.0
 40
1.0
 40
1.0
 40
1.0
 10
116.0103208157476
 20
184.9737300520835
 30
0.0
 10
116.0086644389934
 20
185.0260996418592
 30
0.0
 10
116.0024984911817
 20
185.2210481381146
 30
0.0
 10
115.9425359458983
 20
185.4108568548986
 30
0.0
 10
115.8986813160833
 20
185.5496766960321
 30
0.0
  0
SPLINE
  5
2FF
330
1F
100
AcDbEntity
  8
0
  6
Continuous
 62
     7
370
    25
100
AcDbSpline
210
0.0
220
0.0
230
1.0
 70
     8
 71
     3
 72
     9
 73
     5
 74
     0
 42
0.000000001
 43
0.00000001
 40
0.0
 40
0.0
 40
0.0
 40
0.0
 40
0.2686332860195101
 40
1.0
 40
1.0
 40
1.0
 40
1.0
 10
114.7103211614546
 20
184.9737300520835
 30
0.0
 10
114.7119803508139
 20
185.0260996302461
 30
0.0
 10
114.7181567609821
 20
185.2210478398987
 30
0.0
 10
114.7781159538435
 20
185.4108567656911
 30
0.0
 10
114.8219681116995
 20
185.5496766960321
 30
0.0
  0
LINE
  5
300
330
1F
100
AcDbEntity
  8
0
  6
Continuous
 62
     7
370
    25
100
AcDbLine
 10
114.7103211615
 20
184.9737300521
 30
0.0
 11
114.7103211615
 21
186.2142656913
 31
0.0
  0
LINE
  5
301
330
1F
100
AcDbEntity
  8
0
  6
Continuous
 62
     7
370
    25
100
AcDbLine
 10
115.9550524089
 20
184.6038050002
 30
0.0
 11
116.0103208157
 21
184.9737300521
 31
0.0
  0
LINE
  5
302
330
1F
100
AcDbEntity
  8
0
  6
Continuous
 62
     7
370
    25
100
AcDbLine
 10
114.910324547
 20
184.3977824768
 30
0.0
 11
114.8219681117
 21
184.3977824768
 31
0.0
  0
SPLINE
  5
303
330
1F
100
AcDbEntity
  8
0
  6
Continuous
 62
     7
370
    25
100
AcDbSpline
210
0.0
220
0.0
230
1.0
 70
     8
 71
     3
 72
     9
 73
     5
 74
     0
 42
0.000000001
 43
0.00000001
 40
0.0
 40
0.0
 40
0.0
 40
0.0
 40
0.2575502456659197
 40
0.9999999999999999
 40
0.9999999999999999
 40
0.9999999999999999
 40
0.9999999999999999
 10
114.8219681116995
 20
184.3977824768124
 30
0.0
 10
114.805116122224
 20
184.4461344146618
 30
0.0
 10
114.7396842705407
 20
184.633872297514
 30
0.0
 10
114.7228326459741
 20
184.8289182400005
 30
0.0
 10
114.7103211614546
 20
184.9737300520835
 30
0.0
  0
SPLINE
  5
304
330
1F
100
AcDbEntity
  8
0
  6
Continuous
 62
     7
370
    25
100
AcDbSpline
210
0.0
220
0.0
230
1.0
 70
     8
 71
     3
 72
     9
 73
     5
 74
     0
 42
0.000000001
 43
0.00000001
 40
0.0
 40
0.0
 40
0.0
 40
0.0
 40
0.0701998119168678
 40
1.0
 40
1.0
 40
1.0
 40
1.0
 10
114.7103211614546
 20
186.9674942439494
 30
0.0
 10
114.7104338754782
 20
186.9653931319127
 30
0.0
 10
114.7120394926523
 20
186.9354626808276
 30
0.0
 10
114.7690032237816
 20
186.9061285943704
 30
0.0
 10
114.8219681116995
 20
186.8788537552653
 30
0.0
  0
LINE
  5
305
330
1F
100
AcDbEntity
  8
0
  6
Continuous
 62
     7
370
    25
100
AcDbLine
 10
114.7103211615
 20
186.2142656913
 30
0.0
 11
114.7103211615
 21
186.9674942439
 31
0.0
  0
SPLINE
  5
306
330
1F
100
AcDbEntity
  8
0
  6
Continuous
 62
     7
370
    25
100
AcDbSpline
210
0.0
220
0.0
230
1.0
 70
     8
 71
     3
 72
     9
 73
     5
 74
     0
 42
0.000000001
 43
0.00000001
 40
0.0
 40
0.0
 40
0.0
 40
0.0
 40
0.0701996997235893
 40
1.0
 40
1.0
 40
1.0
 40
1.0
 10
116.0103208157476
 20
186.9674942439494
 30
0.0
 10
116.0102106721084
 20
186.9653931317892
 30
0.0
 10
116.0086416676866
 20
186.9354626311107
 30
0.0
 10
115.9516614964287
 20
186.9061285721216
 30
0.0
 10
115.8986813160833
 20
186.8788537552653
 30
0.0
  0
LINE
  5
307
330
1F
100
AcDbEntity
  8
0
  6
Continuous
 62
     7
370
    25
100
AcDbLine
 10
114.8219681117
 20
184.3977824768
 30
0.0
 11
114.7103211615
 21
184.4864238968
 31
0.0
  0
LINE
  5
308
330
1F
100
AcDbEntity
  8
0
  6
Continuous
 62
     7
370
    25
100
AcDbLine
 10
114.7103211615
 20
184.9737300521
 30
0.0
 11
114.7103211615
 21
184.4769970497
 31
0.0
  0
LINE
  5
309
330
1F
100
AcDbEntity
  8
0
  6
Continuous
 62
     7
370
    25
100
AcDbLine
 10
115.8986813161
 20
187.056135664
 30
0.0
 11
116.0103208157
 21
186.9674942439
 31
0.0
  0
LINE
  5
30A
330
1F
100
AcDbEntity
  8
0
  6
Continuous
 62
     7
370
    25
100
AcDbLine
 10
114.8219681117
 20
187.056135664
 30
0.0
 11
114.7103211615
 21
186.9674942439
 31
0.0
  0
LINE
  5
30B
330
1F
100
AcDbEntity
  8
0
  6
Continuous
 62
     7
370
    25
100
AcDbLine
 10
115.8986813161
 20
187.056135664
 30
0.0
 11
114.8219681117
 21
187.056135664
 31
0.0
  0
LINE
  5
30C
330
1F
100
AcDbEntity
  8
0
  6
Continuous
 62
     7
370
    25
100
AcDbLine
 10
117.7986762258
 20
187.1022882855
 30
0.0
 11
117.9103231761
 21
186.5688174015
 31
0.0
  0
SPLINE
  5
30D
330
1F
100
AcDbEntity
  8
0
  6
Continuous
 62
     7
370
    25
100
AcDbSpline
210
0.0
220
0.0
230
1.0
 70
     8
 71
     3
 72
     9
 73
     5
 74
     0
 42
0.000000001
 43
0.00000001
 40
0.0
 40
0.0
 40
0.0
 40
0.0
 40
0.0702004956515168
 40
0.9999999999999999
 40
0.9999999999999999
 40
0.9999999999999999
 40
0.9999999999999999
 10
117.9103231760916
 20
186.5688174014983
 30
0.0
 10
117.9102130412619
 20
186.5561709353728
 30
0.0
 10
117.908644180122
 20
186.3760231172114
 30
0.0
 10
117.8516600457456
 20
186.1994884052318
 30
0.0
 10
117.7986762258466
 20
186.0353465175328
 30
0.0
  0
LINE
  5
30E
330
1F
100
AcDbEntity
  8
0
  6
Continuous
 62
     7
370
    25
100
AcDbLine
 10
117.7986762258
 20
186.0353465175
 30
0.0
 11
116.721970472
 21
186.0353465175
 31
0.0
  0
SPLINE
  5
30F
330
1F
100
AcDbEntity
  8
0
  6
Continuous
 62
     7
370
    25
100
AcDbSpline
210
0.0
220
0.0
230
1.0
 70
     8
 71
     3
 72
     9
 73
     5
 74
     0
 42
0.000000001
 43
0.00000001
 40
0.0
 40
0.0
 40
0.0
 40
0.0
 40
0.0702007247914513
 40
1.0
 40
1.0
 40
1.0
 40
1.0
 10
116.6103235217985
 20
186.5688174014983
 30
0.0
 10
116.6104362332678
 20
186.5561709368902
 30
0.0
 10
116.6120417931771
 20
186.3760237283581
 30
0.0
 10
116.6690055822501
 20
186.1994886787279
 30
0.0
 10
116.7219704720434
 20
186.0353465175328
 30
0.0
  0
LINE
  5
310
330
1F
100
AcDbEntity
  8
0
  6
Continuous
 62
     7
370
    25
100
AcDbLine
 10
116.6263869736
 20
186.6455611756
 30
0.0
 11
116.6103235218
 21
186.5688174015
 31
0.0
  0
LINE
  5
311
330
1F
100
AcDbEntity
  8
0
  6
Continuous
 62
     7
370
    25
100
AcDbLine
 10
117.7986762258
 20
187.1022882855
 30
0.0
 11
117.7103272411
 21
187.1022882855
 31
0.0
  0
SPLINE
  5
312
330
1F
100
AcDbEntity
  8
0
  6
Continuous
 62
     7
370
    25
100
AcDbSpline
210
0.0
220
0.0
230
1.0
 70
     8
 71
     3
 72
     9
 73
     5
 74
     0
 42
0.000000001
 43
0.00000001
 40
0.0
 40
0.0
 40
0.0
 40
0.0
 40
0.2686339456448456
 40
0.9999999999999999
 40
0.9999999999999999
 40
0.9999999999999999
 40
0.9999999999999999
 10
117.9103231760916
 20
185.3476812115011
 30
0.0
 10
117.9086669352161
 20
185.4102094488511
 30
0.0
 10
117.9025015160566
 20
185.6429731719908
 30
0.0
 10
117.8425342491988
 20
185.8695996237195
 30
0.0
 10
117.7986762258466
 20
186.0353465175328
 30
0.0
  0
LINE
  5
313
330
1F
100
AcDbEntity
  8
0
  6
Continuous
 62
     7
370
    25
100
AcDbLine
 10
117.9103231761
 20
185.3476812115
 30
0.0
 11
117.9103231761
 21
186.5688174015
 31
0.0
  0
SPLINE
  5
314
330
1F
100
AcDbEntity
  8
0
  6
Continuous
 62
     7
370
    25
100
AcDbSpline
210
0.0
220
0.0
230
1.0
 70
     8
 71
     3
 72
     9
 73
     5
 74
     0
 42
0.000000001
 43
0.00000001
 40
0.0
 40
0.0
 40
0.0
 40
0.0
 40
0.2686339456448456
 40
0.9999999999999999
 40
0.9999999999999999
 40
0.9999999999999999
 40
0.9999999999999999
 10
116.6103235217985
 20
185.3476812115011
 30
0.0
 10
116.6119797626739
 20
185.4102094488511
 30
0.0
 10
116.6181451818335
 20
185.6429731719908
 30
0.0
 10
116.6781124486912
 20
185.8695996237195
 30
0.0
 10
116.7219704720434
 20
186.0353465175328
 30
0.0
  0
SPLINE
  5
315
330
1F
100
AcDbEntity
  8
0
  6
Continuous
 62
     7
370
    25
100
AcDbSpline
210
0.0
220
0.0
230
1.0
 70
     8
 71
     3
 72
     9
 73
     5
 74
     0
 42
0.000000001
 43
0.00000001
 40
0.0
 40
0.0
 40
0.0
 40
0.0
 40
0.2575516847509375
 40
1.0
 40
1.0
 40
1.0
 40
1.0
 10
117.7986762258466
 20
184.660016836792
 30
0.0
 10
117.8155311284052
 20
184.7177474379171
 30
0.0
 10
117.8809739251585
 20
184.9418989560133
 30
0.0
 10
117.8978176103778
 20
185.1747794678406
 30
0.0
 10
117.9103231760915
 20
185.3476812115011
 30
0.0
  0
LINE
  5
316
330
1F
100
AcDbEntity
  8
0
  6
Continuous
 62
     7
370
    25
100
AcDbLine
 10
117.7986762258
 20
184.6600168368
 30
0.0
 11
116.721970472
 21
184.6600168368
 31
0.0
  0
SPLINE
  5
317
330
1F
100
AcDbEntity
  8
0
  6
Continuous
 62
     7
370
    25
100
AcDbSpline
210
0.0
220
0.0
230
1.0
 70
     8
 71
     3
 72
     9
 73
     5
 74
     0
 42
0.000000001
 43
0.00000001
 40
0.0
 40
0.0
 40
0.0
 40
0.0
 40
0.2575516847509375
 40
1.0
 40
1.0
 40
1.0
 40
1.0
 10
116.7219704720434
 20
184.660016836792
 30
0.0
 10
116.7051155694848
 20
184.7177474379171
 30
0.0
 10
116.6396727727316
 20
184.9418989560133
 30
0.0
 10
116.6228290875122
 20
185.1747794678406
 30
0.0
 10
116.6103235217985
 20
185.3476812115011
 30
0.0
  0
LINE
  5
318
330
1F
100
AcDbEntity
  8
0
  6
Continuous
 62
     7
370
    25
100
AcDbLine
 10
116.721970472
 20
184.6600168368
 30
0.0
 11
116.6103235218
 21
184.505823346
 31
0.0
  0
LINE
  5
319
330
1F
100
AcDbEntity
  8
0
  6
Continuous
 62
     7
370
    25
100
AcDbLine
 10
117.7986762258
 20
184.6600168368
 30
0.0
 11
117.9103231761
 21
184.505823346
 31
0.0
  0
LINE
  5
31A
330
1F
100
AcDbEntity
  8
0
  6
Continuous
 62
     7
370
    25
100
AcDbLine
 10
117.9103231761
 20
185.3476812115
 30
0.0
 11
117.9103231761
 21
184.505823346
 31
0.0
  0
LINE
  5
31B
330
1F
100
AcDbEntity
  8
0
  6
Continuous
 62
     7
370
    25
100
AcDbLine
 10
117.8730479214
 20
187.006361129
 30
0.0
 11
117.7986762258
 21
187.1022882855
 31
0.0
  0
LINE
  5
31C
330
1F
100
AcDbEntity
  8
0
  6
Continuous
 62
     7
370
    25
100
AcDbLine
 10
117.9103231761
 20
186.9769592753
 30
0.0
 11
117.9103231761
 21
186.5688174015
 31
0.0
  0
SPLINE
  5
31D
330
1F
100
AcDbEntity
  8
0
  6
Continuous
 62
     7
370
    25
100
AcDbSpline
210
0.0
220
0.0
230
1.0
 70
     8
 71
     3
 72
     9
 73
     5
 74
     0
 42
0.000000001
 43
0.00000001
 40
0.0
 40
0.0
 40
0.0
 40
0.0
 40
0.0702007552522052
 40
1.0
 40
1.0
 40
1.0
 40
1.0
 10
117.9103231760916
 20
184.5058233460484
 30
0.0
 10
117.9102130419887
 20
184.5021680532644
 30
0.0
 10
117.908644197003
 20
184.4500989156776
 30
0.0
 10
117.8516600462134
 20
184.3990733695536
 30
0.0
 10
117.7986762258466
 20
184.3516298553047
 30
0.0
  0
LINE
  5
31E
330
1F
100
AcDbEntity
  8
0
  6
Continuous
 62
     7
370
    25
100
AcDbLine
 10
117.7986762258
 20
184.3516298553
 30
0.0
 11
116.721970472
 21
184.3516298553
 31
0.0
  0
LINE
  5
31F
330
1F
100
AcDbEntity
  8
0
  6
Continuous
 62
     7
370
    25
100
AcDbLine
 10
116.6476062271
 20
184.4475570118
 30
0.0
 11
116.721970472
 21
184.3516298553
 31
0.0
  0
LINE
  5
320
330
1F
100
AcDbEntity
  8
0
  6
Continuous
 62
     7
370
    25
100
AcDbLine
 10
117.9103231761
 20
184.505823346
 30
0.0
 11
117.9103231761
 21
184.4769588655
 31
0.0
  0
LINE
  5
321
330
1F
100
AcDbEntity
  8
0
  6
Continuous
 62
     7
370
    25
100
AcDbLine
 10
119.1103211376
 20
184.308896119
 30
0.0
 11
118.084473047
 21
184.308896119
 31
0.0
  0
SPLINE
  5
322
330
1F
100
AcDbEntity
  8
0
  6
Continuous
 62
     7
370
    25
100
AcDbSpline
210
0.0
220
0.0
230
1.0
 70
     8
 71
     3
 72
     9
 73
     5
 74
     0
 42
0.000000001
 43
0.00000001
 40
0.0
 40
0.0
 40
0.0
 40
0.0
 40
0.0702008740550461
 40
1.0
 40
1.0
 40
1.0
 40
1.0
 10
117.9728260967191
 20
184.7799488326607
 30
0.0
 10
117.9729362304894
 20
184.7687820015169
 30
0.0
 10
117.9745050680824
 20
184.6097123133672
 30
0.0
 10
118.0314892263832
 20
184.4538327762929
 30
0.0
 10
118.084473046964
 20
184.3088961189685
 30
0.0
  0
LINE
  5
323
330
1F
100
AcDbEntity
  8
0
  6
Continuous
 62
     7
370
    25
100
AcDbLine
 10
118.084473047
 20
185.251000615
 30
0.0
 11
117.9728260967
 21
184.7799488327
 31
0.0
  0
LINE
  5
324
330
1F
100
AcDbEntity
  8
0
  6
Continuous
 62
     7
370
    25
100
AcDbLine
 10
119.1103211376
 20
185.251000615
 30
0.0
 11
118.084473047
 21
185.251000615
 31
0.0
  0
SPLINE
  5
325
330
1F
100
AcDbEntity
  8
0
  6
Continuous
 62
     7
370
    25
100
AcDbSpline
210
0.0
220
0.0
230
1.0
 70
     8
 71
     3
 72
     9
 73
     5
 74
     0
 42
0.000000001
 43
0.00000001
 40
0.0
 40
0.0
 40
0.0
 40
0.0
 40
0.2575526339922936
 40
1.0
 40
1.0
 40
1.0
 40
1.0
 10
118.084473046964
 20
185.2510006150303
 30
0.0
 10
118.0676181451984
 20
185.3105251350858
 30
0.0
 10
118.0021755927215
 20
185.5416410787778
 30
0.0
 10
117.9853317576795
 20
185.7817580848654
 30
0.0
 10
117.9728260967191
 20
185.9600323235688
 30
0.0
  0
LINE
  5
326
330
1F
100
AcDbEntity
  8
0
  6
Continuous
 62
     7
370
    25
100
AcDbLine
 10
117.9728260967
 20
184.7799488327
 30
0.0
 11
117.9728260967
 21
185.9600323236
 31
0.0
  0
SPLINE
  5
327
330
1F
100
AcDbEntity
  8
0
  6
Continuous
 62
     7
370
    25
100
AcDbSpline
210
0.0
220
0.0
230
1.0
 70
     8
 71
     3
 72
     9
 73
     5
 74
     0
 42
0.000000001
 43
0.00000001
 40
0.0
 40
0.0
 40
0.0
 40
0.0
 40
0.2686332406911227
 40
1.0
 40
1.0
 40
1.0
 40
1.0
 10
117.9728260967191
 20
185.9600323235688
 30
0.0
 10
117.9744823470564
 20
186.0245032343014
 30
0.0
 10
117.9806478176175
 20
186.2644992622192
 30
0.0
 10
118.0406150249053
 20
186.4981671247405
 30
0.0
 10
118.084473046964
 20
186.6690640321074
 30
0.0
  0
LINE
  5
328
330
1F
100
AcDbEntity
  8
0
  6
Continuous
 62
     7
370
    25
100
AcDbLine
 10
119.1103211376
 20
186.6690640321
 30
0.0
 11
118.084473047
 21
186.6690640321
 31
0.0
  0
SPLINE
  5
329
330
1F
100
AcDbEntity
  8
0
  6
Continuous
 62
     7
370
    25
100
AcDbSpline
210
0.0
220
0.0
230
1.0
 70
     8
 71
     3
 72
     9
 73
     5
 74
     0
 42
0.000000001
 43
0.00000001
 40
0.0
 40
0.0
 40
0.0
 40
0.0
 40
0.0702018778233921
 40
1.0
 40
1.0
 40
1.0
 40
1.0
 10
117.9728260967191
 20
186.9070430269537
 30
0.0
 10
117.9729362276793
 20
186.9014015369914
 30
0.0
 10
117.9745050028114
 20
186.8210405817397
 30
0.0
 10
118.0314892245748
 20
186.7422880179944
 30
0.0
 10
118.084473046964
 20
186.6690640321074
 30
0.0
  0
LINE
  5
32A
330
1F
100
AcDbEntity
  8
0
  6
Continuous
 62
     7
370
    25
100
AcDbLine
 10
117.9728260967
 20
185.9600323236
 30
0.0
 11
117.9728260967
 21
186.907043027
 31
0.0
  0
LINE
  5
32B
330
1F
100
AcDbEntity
  8
0
  6
Continuous
 62
     7
370
    25
100
AcDbLine
 10
118.084473047
 20
187.1450220218
 30
0.0
 11
117.9728260967
 21
186.907043027
 31
0.0
  0
LINE
  5
32C
330
1F
100
AcDbEntity
  8
0
  6
Continuous
 62
     7
370
    25
100
AcDbLine
 10
119.1103211376
 20
187.1450220218
 30
0.0
 11
118.084473047
 21
187.1450220218
 31
0.0
  0
LINE
  5
32D
330
1F
100
AcDbEntity
  8
0
  6
Continuous
 62
     7
370
    25
100
AcDbLine
 10
118.084473047
 20
184.308896119
 30
0.0
 11
118.0404848191
 21
184.4026551565
 31
0.0
  0
LINE
  5
32E
330
1F
100
AcDbEntity
  8
0
  6
Continuous
 62
     7
370
    25
100
AcDbLine
 10
117.9728260967
 20
184.4769588655
 30
0.0
 11
117.9728260967
 21
184.7799488327
 31
0.0
  0
LINE
  5
32F
330
1F
100
AcDbEntity
  8
0
  6
Continuous
 62
     7
370
    25
100
AcDbLine
 10
117.9728260967
 20
186.907043027
 30
0.0
 11
117.9728260967
 21
186.9769592753
 31
0.0
  0
LINE
  5
330
330
1F
100
AcDbEntity
  8
0
  6
Continuous
 62
     7
370
    25
100
AcDbLine
 10
143.6853236291
 20
28.6519623345
 30
0.0
 11
130.4353228542
 21
28.6519623345
 31
0.0
  0
LINE
  5
331
330
1F
100
AcDbEntity
  8
0
  6
Continuous
 62
     7
370
    25
100
AcDbLine
 10
144.1853246424
 20
30.1519579237
 30
0.0
 11
129.9353218409
 21
30.1519579237
 31
0.0
  0
LINE
  5
332
330
1F
100
AcDbEntity
  8
0
  6
Continuous
 62
     7
370
    25
100
AcDbLine
 10
290.9353277418
 20
28.6519623345
 30
0.0
 11
277.6853269669
 21
28.6519623345
 31
0.0
  0
LINE
  5
333
330
1F
100
AcDbEntity
  8
0
  6
Continuous
 62
     7
370
    25
100
AcDbLine
 10
291.4353213045
 20
30.1519579237
 30
0.0
 11
277.1853259537
 21
30.1519579237
 31
0.0
  0
LINE
  5
334
330
1F
100
AcDbEntity
  8
0
  6
Continuous
 62
     7
370
    25
100
AcDbLine
 10
293.060322735
 20
70.6519580429
 30
0.0
 11
293.060322735
 21
71.1519590562
 31
0.0
  0
LINE
  5
335
330
1F
100
AcDbEntity
  8
0
  6
Continuous
 62
     7
370
    25
100
AcDbLine
 10
275.5603245232
 20
70.6519580429
 30
0.0
 11
293.060322735
 21
70.6519580429
 31
0.0
  0
LINE
  5
336
330
1F
100
AcDbEntity
  8
0
  6
Continuous
 62
     7
370
    25
100
AcDbLine
 10
275.5603245232
 20
70.6519580429
 30
0.0
 11
275.5603245232
 21
71.1519590562
 31
0.0
  0
LINE
  5
337
330
1F
100
AcDbEntity
  8
0
  6
Continuous
 62
     7
370
    25
100
AcDbLine
 10
292.0502400729
 20
47.1519625729
 30
0.0
 11
276.5704146358
 21
47.1519625729
 31
0.0
  0
LINE
  5
338
330
1F
100
AcDbEntity
  8
0
  6
Continuous
 62
     7
370
    25
100
AcDbLine
 10
145.8103260729
 20
70.6519580429
 30
0.0
 11
145.8103260729
 21
71.1519590562
 31
0.0
  0
LINE
  5
339
330
1F
100
AcDbEntity
  8
0
  6
Continuous
 62
     7
370
    25
100
AcDbLine
 10
128.310327861
 20
70.6519580429
 30
0.0
 11
128.310327861
 21
71.1519590562
 31
0.0
  0
LINE
  5
33A
330
1F
100
AcDbEntity
  8
0
  6
Continuous
 62
     7
370
    25
100
AcDbLine
 10
128.310327861
 20
70.6519580429
 30
0.0
 11
145.8103260729
 21
70.6519580429
 31
0.0
  0
LINE
  5
33B
330
1F
100
AcDbEntity
  8
0
  6
Continuous
 62
     7
370
    25
100
AcDbLine
 10
144.8002359602
 20
47.1519625729
 30
0.0
 11
129.3204105231
 21
47.1519625729
 31
0.0
  0
ENDSEC
  0
SECTION
  2
OBJECTS
  0
DICTIONARY
  5
C
330
0
100
AcDbDictionary
281
     1
  3
ACAD_GROUP
350
D
  3
ACAD_LAYOUT
350
1A
  3
ACAD_MLINESTYLE
350
17
  3
ACAD_PLOTSETTINGS
350
19
  3
ACAD_PLOTSTYLENAME
350
E
  3
ACAD_SCALELIST
350
47
  0
DICTIONARY
  5
D
102
{ACAD_REACTORS
330
C
102
}
330
C
100
AcDbDictionary
281
     1
  0
DICTIONARY
  5
1A
102
{ACAD_REACTORS
330
C
102
}
330
C
100
AcDbDictionary
281
     1
  3
Layout1
350
1E
  3
Layout2
350
26
  3
Model
350
22
  0
DICTIONARY
  5
17
102
{ACAD_REACTORS
330
C
102
}
330
C
100
AcDbDictionary
281
     1
  3
Standard
350
18
  0
DICTIONARY
  5
19
102
{ACAD_REACTORS
330
C
102
}
330
C
100
AcDbDictionary
281
     1
  0
ACDBDICTIONARYWDFLT
  5
E
102
{ACAD_REACTORS
330
C
102
}
330
C
100
AcDbDictionary
281
     1
  3
Normal
350
F
100
AcDbDictionaryWithDefault
340
F
  0
DICTIONARY
  5
47
102
{ACAD_REACTORS
330
C
102
}
330
C
100
AcDbDictionary
281
     1
  3
A0
350
48
  3
A1
350
49
  3
A2
350
4A
  3
A3
350
4B
  3
A4
350
4C
  3
A5
350
4D
  3
A6
350
4E
  3
A7
350
4F
  3
A8
350
50
  3
A9
350
51
  3
B0
350
52
  3
B1
350
53
  3
B2
350
54
  3
B3
350
55
  3
B4
350
56
  3
B5
350
57
  3
B6
350
58
  3
B7
350
59
  3
B8
350
5A
  3
B9
350
5B
  3
C0
350
5C
  3
C1
350
5D
  3
C2
350
5E
  3
C3
350
5F
  3
C4
350
60
  3
C5
350
61
  3
C6
350
62
  3
C7
350
63
  3
C8
350
64
  3
C9
350
65
  3
D0
350
66
  3
D1
350
67
  3
D2
350
68
  0
LAYOUT
  5
1E
102
{ACAD_REACTORS
330
1A
102
}
330
1A
100
AcDbPlotSettings
  1

  2
none_device
  4

  6

 40
0.0
 41
0.0
 42
0.0
 43
0.0
 44
0.0
 45
0.0
 46
0.0
 47
0.0
 48
0.0
 49
0.0
140
0.0
141
0.0
142
1.0
143
1.0
 70
   688
 72
     1
 73
     0
 74
     5
  7

 75
    16
147
1.0
148
0.0
149
0.0
100
AcDbLayout
  1
Layout1
 70
     1
 71
     1
 10
0.0
 20
0.0
 11
420.0
 21
297.0
 12
0.0
 22
0.0
 32
0.0
 14
1.0000000000E+20
 24
1.0000000000E+20
 34
1.0000000000E+20
 15
-1.0000000000E+20
 25
-1.0000000000E+20
 35
-1.0000000000E+20
146
0.0
 13
0.0
 23
0.0
 33
0.0
 16
1.0
 26
0.0
 36
0.0
 17
0.0
 27
1.0
 37
0.0
 76
     0
330
1B
  0
LAYOUT
  5
26
102
{ACAD_REACTORS
330
1A
102
}
330
1A
100
AcDbPlotSettings
  1

  2
none_device
  4

  6

 40
0.0
 41
0.0
 42
0.0
 43
0.0
 44
0.0
 45
0.0
 46
0.0
 47
0.0
 48
0.0
 49
0.0
140
0.0
141
0.0
142
1.0
143
1.0
 70
   688
 72
     1
 73
     0
 74
     5
  7

 75
    16
147
1.0
148
0.0
149
0.0
100
AcDbLayout
  1
Layout2
 70
     1
 71
     2
 10
0.0
 20
0.0
 11
0.0
 21
0.0
 12
0.0
 22
0.0
 32
0.0
 14
0.0
 24
0.0
 34
0.0
 15
0.0
 25
0.0
 35
0.0
146
0.0
 13
0.0
 23
0.0
 33
0.0
 16
1.0
 26
0.0
 36
0.0
 17
0.0
 27
1.0
 37
0.0
 76
     0
330
23
  0
LAYOUT
  5
22
102
{ACAD_REACTORS
330
1A
102
}
330
1A
100
AcDbPlotSettings
  1

  2
none_device
  4
Letter_(8.50_x_11.00_Inches)
  6

 40
6.35
 41
6.35
 42
6.35000508
 43
6.35000508
 44
215.9
 45
279.4
 46
0.0
 47
0.0
 48
0.0
 49
0.0
140
0.0
141
0.0
142
1.0
143
1.0
 70
  1712
 72
     1
 73
     0
 74
     0
  7

 75
     0
147
1.0
148
0.0
149
0.0
100
AcDbLayout
  1
Model
 70
     1
 71
     0
 10
0.0
 20
0.0
 11
420.0
 21
297.0
 12
0.0
 22
0.0
 32
0.0
 14
0.0
 24
0.0
 34
0.0
 15
420.0
 25
297.0
 35
0.0
146
0.0
 13
0.0
 23
0.0
 33
0.0
 16
1.0
 26
0.0
 36
0.0
 17
0.0
 27
1.0
 37
0.0
 76
     0
330
1F
331
29
  0
MLINESTYLE
  5
18
102
{ACAD_REACTORS
330
17
102
}
330
17
100
AcDbMlineStyle
  2
Standard
 70
     0
  3

 62
   256
 51
90.0
 52
90.0
 71
     2
 49
0.5
 62
   256
  6
BYLAYER
 49
-0.5
 62
   256
  6
BYLAYER
  0
ACDBPLACEHOLDER
  5
F
102
{ACAD_REACTORS
330
E
102
}
330
E
  0
SCALE
  5
48
102
{ACAD_REACTORS
330
47
102
}
330
47
100
AcDbScale
 70
     0
300
1:1
140
1.0
141
1.0
290
     1
  0
SCALE
  5
49
102
{ACAD_REACTORS
330
47
102
}
330
47
100
AcDbScale
 70
     0
300
1:2
140
1.0
141
2.0
290
     0
  0
SCALE
  5
4A
102
{ACAD_REACTORS
330
47
102
}
330
47
100
AcDbScale
 70
     0
300
1:4
140
1.0
141
4.0
290
     0
  0
SCALE
  5
4B
102
{ACAD_REACTORS
330
47
102
}
330
47
100
AcDbScale
 70
     0
300
1:5
140
1.0
141
5.0
290
     0
  0
SCALE
  5
4C
102
{ACAD_REACTORS
330
47
102
}
330
47
100
AcDbScale
 70
     0
300
1:8
140
1.0
141
8.0
290
     0
  0
SCALE
  5
4D
102
{ACAD_REACTORS
330
47
102
}
330
47
100
AcDbScale
 70
     0
300
1:10
140
1.0
141
10.0
290
     0
  0
SCALE
  5
4E
102
{ACAD_REACTORS
330
47
102
}
330
47
100
AcDbScale
 70
     0
300
1:16
140
1.0
141
16.0
290
     0
  0
SCALE
  5
4F
102
{ACAD_REACTORS
330
47
102
}
330
47
100
AcDbScale
 70
     0
300
1:20
140
1.0
141
20.0
290
     0
  0
SCALE
  5
50
102
{ACAD_REACTORS
330
47
102
}
330
47
100
AcDbScale
 70
     0
300
1:30
140
1.0
141
30.0
290
     0
  0
SCALE
  5
51
102
{ACAD_REACTORS
330
47
102
}
330
47
100
AcDbScale
 70
     0
300
1:40
140
1.0
141
40.0
290
     0
  0
SCALE
  5
52
102
{ACAD_REACTORS
330
47
102
}
330
47
100
AcDbScale
 70
     0
300
1:50
140
1.0
141
50.0
290
     0
  0
SCALE
  5
53
102
{ACAD_REACTORS
330
47
102
}
330
47
100
AcDbScale
 70
     0
300
1:100
140
1.0
141
100.0
290
     0
  0
SCALE
  5
54
102
{ACAD_REACTORS
330
47
102
}
330
47
100
AcDbScale
 70
     0
300
2:1
140
2.0
141
1.0
290
     0
  0
SCALE
  5
55
102
{ACAD_REACTORS
330
47
102
}
330
47
100
AcDbScale
 70
     0
300
4:1
140
4.0
141
1.0
290
     0
  0
SCALE
  5
56
102
{ACAD_REACTORS
330
47
102
}
330
47
100
AcDbScale
 70
     0
300
8:1
140
8.0
141
1.0
290
     0
  0
SCALE
  5
57
102
{ACAD_REACTORS
330
47
102
}
330
47
100
AcDbScale
 70
     0
300
10:1
140
10.0
141
1.0
290
     0
  0
SCALE
  5
58
102
{ACAD_REACTORS
330
47
102
}
330
47
100
AcDbScale
 70
     0
300
100:1
140
100.0
141
1.0
290
     0
  0
SCALE
  5
59
102
{ACAD_REACTORS
330
47
102
}
330
47
100
AcDbScale
 70
     0
300
1/128" = 1'-0"
140
0.0078125
141
12.0
290
     0
  0
SCALE
  5
5A
102
{ACAD_REACTORS
330
47
102
}
330
47
100
AcDbScale
 70
     0
300
1/64" = 1'-0"
140
0.015625
141
12.0
290
     0
  0
SCALE
  5
5B
102
{ACAD_REACTORS
330
47
102
}
330
47
100
AcDbScale
 70
     0
300
1/32" = 1'-0"
140
0.03125
141
12.0
290
     0
  0
SCALE
  5
5C
102
{ACAD_REACTORS
330
47
102
}
330
47
100
AcDbScale
 70
     0
300
1/16" = 1'-0"
140
0.0625
141
12.0
290
     0
  0
SCALE
  5
5D
102
{ACAD_REACTORS
330
47
102
}
330
47
100
AcDbScale
 70
     0
300
3/32" = 1'-0"
140
0.09375
141
12.0
290
     0
  0
SCALE
  5
5E
102
{ACAD_REACTORS
330
47
102
}
330
47
100
AcDbScale
 70
     0
300
1/8" = 1'-0"
140
0.125
141
12.0
290
     0
  0
SCALE
  5
5F
102
{ACAD_REACTORS
330
47
102
}
330
47
100
AcDbScale
 70
     0
300
3/16" = 1'-0"
140
0.1875
141
12.0
290
     0
  0
SCALE
  5
60
102
{ACAD_REACTORS
330
47
102
}
330
47
100
AcDbScale
 70
     0
300
1/4" = 1'-0"
140
0.25
141
12.0
290
     0
  0
SCALE
  5
61
102
{ACAD_REACTORS
330
47
102
}
330
47
100
AcDbScale
 70
     0
300
3/8" = 1'-0"
140
0.375
141
12.0
290
     0
  0
SCALE
  5
62
102
{ACAD_REACTORS
330
47
102
}
330
47
100
AcDbScale
 70
     0
300
1/2" = 1'-0"
140
0.5
141
12.0
290
     0
  0
SCALE
  5
63
102
{ACAD_REACTORS
330
47
102
}
330
47
100
AcDbScale
 70
     0
300
3/4" = 1'-0"
140
0.75
141
12.0
290
     0
  0
SCALE
  5
64
102
{ACAD_REACTORS
330
47
102
}
330
47
100
AcDbScale
 70
     0
300
1" = 1'-0"
140
1.0
141
12.0
290
     0
  0
SCALE
  5
65
102
{ACAD_REACTORS
330
47
102
}
330
47
100
AcDbScale
 70
     0
300
1-1/2" = 1'-0"
140
1.5
141
12.0
290
     0
  0
SCALE
  5
66
102
{ACAD_REACTORS
330
47
102
}
330
47
100
AcDbScale
 70
     0
300
3" = 1'-0"
140
3.0
141
12.0
290
     0
  0
SCALE
  5
67
102
{ACAD_REACTORS
330
47
102
}
330
47
100
AcDbScale
 70
     0
300
6" = 1'-0"
140
6.0
141
12.0
290
     0
  0
SCALE
  5
68
102
{ACAD_REACTORS
330
47
102
}
330
47
100
AcDbScale
 70
     0
300
1'-0" = 1'-0"
140
12.0
141
12.0
290
     0
  0
ENDSEC
  0
EOF
