  0
SECTION
  2
HEADER
  9
$ACADVER
  1
AC1021
  9
$ACADMAINTVER
 70
    25
  9
$DWGCODEPAGE
  3
ANSI_1252
  9
$INSBASE
 10
0.0
 20
0.0
 30
0.0
  9
$EXTMIN
 10
0.0
 20
0.0
 30
0.0
  9
$EXTMAX
 10
420.0
 20
297.0
 30
0.0
  9
$LIMMIN
 10
0.0
 20
0.0
  9
$LIMMAX
 10
420.0
 20
297.0
  9
$ORTHOMODE
 70
     0
  9
$REGENMODE
 70
     1
  9
$FILLMODE
 70
     1
  9
$QTEXTMODE
 70
     0
  9
$MIRRTEXT
 70
     1
  9
$LTSCALE
 40
1.0
  9
$ATTMODE
 70
     1
  9
$TEXTSIZE
 40
3.5
  9
$TRACEWID
 40
1.0
  9
$TEXTSTYLE
  7
Standard
  9
$CLAYER
  8
0
  9
$CELTYPE
  6
ByLayer
  9
$CECOLOR
 62
   256
  9
$CELTSCALE
 40
1.0
  9
$DISPSILH
 70
     0
  9
$DIMSCALE
 40
1.0
  9
$DIMASZ
 40
3.302
  9
$DIMEXO
 40
1.0
  9
$DIMDLI
 40
3.75
  9
$DIMRND
 40
0.0
  9
$DIMDLE
 40
0.0
  9
$DIMEXE
 40
1.0
  9
$DIMTP
 40
0.0
  9
$DIMTM
 40
0.0
  9
$DIMTXT
 40
3.5
  9
$DIMCEN
 40
2.5
  9
$DIMTSZ
 40
0.0
  9
$DIMTOL
 70
     0
  9
$DIMLIM
 70
     0
  9
$DIMTIH
 70
     1
  9
$DIMTOH
 70
     1
  9
$DIMSE1
 70
     0
  9
$DIMSE2
 70
     0
  9
$DIMTAD
 70
     1
  9
$DIMZIN
 70
     0
  9
$DIMBLK
  1

  9
$DIMASO
 70
     1
  9
$DIMSHO
 70
     1
  9
$DIMPOST
  1

  9
$DIMAPOST
  1

  9
$DIMALT
 70
     0
  9
$DIMALTD
 70
     3
  9
$DIMALTF
 40
0.0393700787
  9
$DIMLFAC
 40
1.0
  9
$DIMTOFL
 70
     1
  9
$DIMTVP
 40
0.0
  9
$DIMTIX
 70
     0
  9
$DIMSOXD
 70
     0
  9
$DIMSAH
 70
     0
  9
$DIMBLK1
  1

  9
$DIMBLK2
  1

  9
$DIMSTYLE
  2
ISO-25
  9
$DIMCLRD
 70
     0
  9
$DIMCLRE
 70
     0
  9
$DIMCLRT
 70
     0
  9
$DIMTFAC
 40
1.0
  9
$DIMGAP
 40
1.524
  9
$DIMJUST
 70
     0
  9
$DIMSD1
 70
     0
  9
$DIMSD2
 70
     0
  9
$DIMTOLJ
 70
     0
  9
$DIMTZIN
 70
     0
  9
$DIMALTZ
 70
     0
  9
$DIMALTTZ
 70
     0
  9
$DIMUPT
 70
     0
  9
$DIMDEC
 70
     1
  9
$DIMTDEC
 70
     1
  9
$DIMALTU
 70
     2
  9
$DIMALTTD
 70
     3
  9
$DIMTXSTY
  7
Standard
  9
$DIMAUNIT
 70
     0
  9
$DIMADEC
 70
     1
  9
$DIMALTRND
 40
0.0
  9
$DIMAZIN
 70
     0
  9
$DIMDSEP
 70
    44
  9
$DIMATFIT
 70
     3
  9
$DIMFRAC
 70
     0
  9
$DIMLDRBLK
  1

  9
$DIMLUNIT
 70
     2
  9
$DIMLWD
 70
    -2
  9
$DIMLWE
 70
    -2
  9
$DIMTMOVE
 70
     0
  9
$DIMFXL
 40
1.0
  9
$DIMFXLON
 70
     0
  9
$DIMJOGANG
 40
0.7853981634
  9
$DIMTFILL
 70
     0
  9
$DIMTFILLCLR
 70
     0
  9
$DIMARCSYM
 70
     0
  9
$DIMLTYPE
  6

  9
$DIMLTEX1
  6

  9
$DIMLTEX2
  6

  9
$LUNITS
 70
     2
  9
$LUPREC
 70
     1
  9
$SKETCHINC
 40
1.0
  9
$FILLETRAD
 40
10.0
  9
$AUNITS
 70
     0
  9
$AUPREC
 70
     1
  9
$MENU
  1
.
  9
$ELEVATION
 40
0.0
  9
$PELEVATION
 40
0.0
  9
$THICKNESS
 40
0.0
  9
$LIMCHECK
 70
     0
  9
$CHAMFERA
 40
10.0
  9
$CHAMFERB
 40
10.0
  9
$CHAMFERC
 40
20.0
  9
$CHAMFERD
 40
0.0
  9
$SKPOLY
 70
     0
  9
$TDCREATE
 40
2455748.397522917
  9
$TDUCREATE
 40
2455748.35585625
  9
$TDUPDATE
 40
2455748.397522928
  9
$TDUUPDATE
 40
2455748.355856262
  9
$TDINDWG
 40
0.0000000116
  9
$TDUSRTIMER
 40
0.0000000116
  9
$USRTIMER
 70
     1
  9
$ANGBASE
 50
0.0
  9
$ANGDIR
 70
     0
  9
$PDMODE
 70
     0
  9
$PDSIZE
 40
-1.0
  9
$PLINEWID
 40
0.0
  9
$SPLFRAME
 70
     0
  9
$SPLINETYPE
 70
     6
  9
$SPLINESEGS
 70
     8
  9
$HANDSEED
  5
403
  9
$SURFTAB1
 70
     6
  9
$SURFTAB2
 70
     6
  9
$SURFTYPE
 70
     6
  9
$SURFU
 70
     6
  9
$SURFV
 70
     6
  9
$UCSBASE
  2

  9
$UCSNAME
  2

  9
$UCSORG
 10
0.0
 20
0.0
 30
0.0
  9
$UCSXDIR
 10
1.0
 20
0.0
 30
0.0
  9
$UCSYDIR
 10
0.0
 20
1.0
 30
0.0
  9
$UCSORTHOREF
  2

  9
$UCSORTHOVIEW
 70
     0
  9
$UCSORGTOP
 10
0.0
 20
0.0
 30
0.0
  9
$UCSORGBOTTOM
 10
0.0
 20
0.0
 30
0.0
  9
$UCSORGLEFT
 10
0.0
 20
0.0
 30
0.0
  9
$UCSORGRIGHT
 10
0.0
 20
0.0
 30
0.0
  9
$UCSORGFRONT
 10
0.0
 20
0.0
 30
0.0
  9
$UCSORGBACK
 10
0.0
 20
0.0
 30
0.0
  9
$PUCSBASE
  2

  9
$PUCSNAME
  2

  9
$PUCSORG
 10
0.0
 20
0.0
 30
0.0
  9
$PUCSXDIR
 10
1.0
 20
0.0
 30
0.0
  9
$PUCSYDIR
 10
0.0
 20
1.0
 30
0.0
  9
$PUCSORTHOREF
  2

  9
$PUCSORTHOVIEW
 70
     0
  9
$PUCSORGTOP
 10
0.0
 20
0.0
 30
0.0
  9
$PUCSORGBOTTOM
 10
0.0
 20
0.0
 30
0.0
  9
$PUCSORGLEFT
 10
0.0
 20
0.0
 30
0.0
  9
$PUCSORGRIGHT
 10
0.0
 20
0.0
 30
0.0
  9
$PUCSORGFRONT
 10
0.0
 20
0.0
 30
0.0
  9
$PUCSORGBACK
 10
0.0
 20
0.0
 30
0.0
  9
$USERI1
 70
     0
  9
$USERI2
 70
     0
  9
$USERI3
 70
     0
  9
$USERI4
 70
     0
  9
$USERI5
 70
     0
  9
$USERR1
 40
0.0
  9
$USERR2
 40
0.0
  9
$USERR3
 40
0.0
  9
$USERR4
 40
0.0
  9
$USERR5
 40
0.0
  9
$WORLDVIEW
 70
     1
  9
$SHADEDGE
 70
     3
  9
$SHADEDIF
 70
    70
  9
$TILEMODE
 70
     1
  9
$MAXACTVP
 70
    64
  9
$PINSBASE
 10
0.0
 20
0.0
 30
0.0
  9
$PLIMCHECK
 70
     0
  9
$PEXTMIN
 10
1.0000000000E+20
 20
1.0000000000E+20
 30
1.0000000000E+20
  9
$PEXTMAX
 10
-1.0000000000E+20
 20
-1.0000000000E+20
 30
-1.0000000000E+20
  9
$PLIMMIN
 10
0.0
 20
0.0
  9
$PLIMMAX
 10
420.0
 20
297.0
  9
$UNITMODE
 70
     0
  9
$VISRETAIN
 70
     1
  9
$PLINEGEN
 70
     0
  9
$PSLTSCALE
 70
     1
  9
$TREEDEPTH
 70
  3020
  9
$CMLSTYLE
  2
Standard
  9
$CMLJUST
 70
     0
  9
$CMLSCALE
 40
20.0
  9
$PROXYGRAPHICS
 70
     1
  9
$MEASUREMENT
 70
     1
  9
$CELWEIGHT
370
    -1
  9
$ENDCAPS
280
     0
  9
$JOINSTYLE
280
     0
  9
$LWDISPLAY
290
     1
  9
$INSUNITS
 70
     4
  9
$HYPERLINKBASE
  1

  9
$STYLESHEET
  1

  9
$XEDIT
290
     1
  9
$CEPSNTYPE
380
     0
  9
$PSTYLEMODE
290
     1
  9
$FINGERPRINTGUID
  2
{92E476B8-8DED-4F9E-B8E6-EFEDF4A71418}
  9
$VERSIONGUID
  2
{FAEB1C32-E019-11D5-929B-00C0DF256EC4}
  9
$EXTNAMES
290
     1
  9
$PSVPSCALE
 40
0.0
  9
$OLESTARTUP
290
     0
  9
$SORTENTS
280
   127
  9
$INDEXCTL
280
     0
  9
$HIDETEXT
280
     1
  9
$XCLIPFRAME
290
     0
  9
$HALOGAP
280
     0
  9
$OBSCOLOR
 70
   257
  9
$OBSLTYPE
280
     0
  9
$INTERSECTIONDISPLAY
280
     0
  9
$INTERSECTIONCOLOR
 70
   257
  9
$DIMASSOC
280
     2
  9
$PROJECTNAME
  1

  9
$CAMERADISPLAY
290
     0
  9
$LENSLENGTH
 40
50.0
  9
$CAMERAHEIGHT
 40
0.0
  9
$STEPSPERSEC
 40
2.0
  9
$STEPSIZE
 40
6.0
  9
$3DDWFPREC
 40
2.0
  9
$PSOLWIDTH
 40
5.0
  9
$PSOLHEIGHT
 40
80.0
  9
$LOFTANG1
 40
1.5707963268
  9
$LOFTANG2
 40
1.5707963268
  9
$LOFTMAG1
 40
0.0
  9
$LOFTMAG2
 40
0.0
  9
$LOFTPARAM
 70
     7
  9
$LOFTNORMALS
280
     1
  9
$LATITUDE
 40
37.795
  9
$LONGITUDE
 40
-122.394
  9
$NORTHDIRECTION
 40
0.0
  9
$TIMEZONE
 70
 -8000
  9
$LIGHTGLYPHDISPLAY
280
     1
  9
$TILEMODELIGHTSYNCH
280
     1
  9
$SOLIDHIST
280
     1
  9
$SHOWHIST
280
     1
  9
$DWFFRAME
280
     2
  9
$DGNFRAME
280
     2
  9
$REALWORLDSCALE
290
     1
  9
$INTERFERECOLOR
 62
   256
  9
$CSHADOW
280
     0
  9
$SHADOWPLANELOCATION
 40
0.0
  0
ENDSEC
  0
SECTION
  2
CLASSES
  0
CLASS
  1
ACDBDICTIONARYWDFLT
  2
AcDbDictionaryWithDefault
  3
ObjectDBX Classes
 90
        0
 91
        4
280
     0
281
     0
  0
CLASS
  1
VISUALSTYLE
  2
AcDbVisualStyle
  3
ObjectDBX Classes
 90
     4095
 91
        4
280
     0
281
     0
  0
CLASS
  1
MATERIAL
  2
AcDbMaterial
  3
ObjectDBX Classes
 90
     1153
 91
        4
280
     0
281
     0
  0
ENDSEC
  0
SECTION
  2
TABLES
  0
TABLE
  2
VPORT
  5
8
330
0
100
AcDbSymbolTable
 70
     1
  0
VPORT
  5
29
330
8
100
AcDbSymbolTableRecord
100
AcDbViewportTableRecord
  2
*Active
 70
     0
 10
0.0
 20
0.0
 11
1.0
 21
1.0
 12
210.0
 22
148.5
 13
0.0
 23
0.0
 14
10.0
 24
10.0
 15
10.0
 25
10.0
 16
0.0
 26
0.0
 36
1.0
 17
0.0
 27
0.0
 37
0.0
 40
297.0
 41
1.4141414141
 42
50.0
 43
0.0
 44
0.0
 50
0.0
 51
0.0
 71
     0
 72
  2000
 73
     1
 74
     3
 75
     0
 76
     0
 77
     0
 78
     0
281
     0
 65
     1
110
0.0
120
0.0
130
0.0
111
1.0
121
0.0
131
0.0
112
0.0
122
1.0
132
0.0
 79
     0
146
0.0
 60
     3
 61
     5
292
     1
282
     1
141
0.0
142
0.0
 63
   250
  0
ENDTAB
  0
TABLE
  2
LTYPE
  5
5
330
0
100
AcDbSymbolTable
 70
     6
  0
LTYPE
  5
14
330
5
100
AcDbSymbolTableRecord
100
AcDbLinetypeTableRecord
  2
ByBlock
 70
     0
  3

 72
    65
 73
     0
 40
0.0
  0
LTYPE
  5
15
330
5
100
AcDbSymbolTableRecord
100
AcDbLinetypeTableRecord
  2
ByLayer
 70
     0
  3

 72
    65
 73
     0
 40
0.0
  0
LTYPE
  5
16
330
5
100
AcDbSymbolTableRecord
100
AcDbLinetypeTableRecord
  2
Continuous
 70
     0
  3
Solid line
 72
    65
 73
     0
 40
0.0
  0
LTYPE
  5
3F
330
5
100
AcDbSymbolTableRecord
100
AcDbLinetypeTableRecord
  2
HIDDEN
 70
     0
  3
Hidden __ __ __ __ __ __ __ __ __ __ __ __ __ __
 72
    65
 73
     2
 40
1.905
 49
1.27
 74
     0
 49
-0.635
 74
     0
  0
LTYPE
  5
40
330
5
100
AcDbSymbolTableRecord
100
AcDbLinetypeTableRecord
  2
PHANTOM
 70
     0
  3
Phantom ______  __  __  ______  __  __  ______
 72
    65
 73
     6
 40
12.7
 49
6.35
 74
     0
 49
-1.27
 74
     0
 49
1.27
 74
     0
 49
-1.27
 74
     0
 49
1.27
 74
     0
 49
-1.27
 74
     0
  0
LTYPE
  5
41
330
5
100
AcDbSymbolTableRecord
100
AcDbLinetypeTableRecord
  2
CENTER
 70
     0
  3
Center ____ _ ____ _ ____ _ ____ _ ____ _ ____
 72
    65
 73
     4
 40
10.16
 49
6.35
 74
     0
 49
-1.27
 74
     0
 49
1.27
 74
     0
 49
-1.27
 74
     0
  0
LTYPE
  5
42
330
5
100
AcDbSymbolTableRecord
100
AcDbLinetypeTableRecord
  2
CENTERX2
 70
     0
  3
Center (2x) ________  __  ________  __  _____
 72
    65
 73
     4
 40
20.32
 49
12.7
 74
     0
 49
-2.54
 74
     0
 49
2.54
 74
     0
 49
-2.54
 74
     0
  0
LTYPE
  5
43
330
5
100
AcDbSymbolTableRecord
100
AcDbLinetypeTableRecord
  2
DOT2
 70
     0
  3
Dot (.5x) ........................................
 72
    65
 73
     2
 40
0.635
 49
0.0
 74
     0
 49
-0.635
 74
     0
  0
ENDTAB
  0
TABLE
  2
LAYER
  5
2
330
0
100
AcDbSymbolTable
 70
     1
  0
LAYER
  5
10
330
2
100
AcDbSymbolTableRecord
100
AcDbLayerTableRecord
  2
0
 70
     0
 62
     7
  6
Continuous
370
    -3
390
F
347
3E
  0
ENDTAB
  0
TABLE
  2
STYLE
  5
3
330
0
100
AcDbSymbolTable
 70
     1
  0
STYLE
  5
11
330
3
100
AcDbSymbolTableRecord
100
AcDbTextStyleTableRecord
  2
Standard
 70
     0
 40
0.0
 41
1.0
 50
0.0
 71
     0
 42
2.5
  3
txt
  4

  0
ENDTAB
  0
TABLE
  2
VIEW
  5
6
330
0
100
AcDbSymbolTable
 70
     0
  0
ENDTAB
  0
TABLE
  2
UCS
  5
7
330
0
100
AcDbSymbolTable
 70
     0
  0
ENDTAB
  0
TABLE
  2
APPID
  5
9
330
0
100
AcDbSymbolTable
 70
     1
  0
APPID
  5
12
330
9
100
AcDbSymbolTableRecord
100
AcDbRegAppTableRecord
  2
ACAD
 70
     0
  0
ENDTAB
  0
TABLE
  2
DIMSTYLE
  5
A
330
0
100
AcDbSymbolTable
 70
     1
100
AcDbDimStyleTable
  0
DIMSTYLE
105
27
330
A
100
AcDbSymbolTableRecord
100
AcDbDimStyleTableRecord
  2
ISO-25
 70
     0
 41
2.5
 42
0.625
 43
3.75
 44
1.25
 73
     0
 74
     0
 77
     1
 78
     8
140
2.5
141
2.5
143
0.0393700787
147
0.625
171
     3
172
     1
271
     2
272
     2
274
     3
278
    44
283
     0
284
     8
340
11
  0
ENDTAB
  0
TABLE
  2
BLOCK_RECORD
  5
1
330
0
100
AcDbSymbolTable
 70
     1
  0
BLOCK_RECORD
  5
1F
330
1
100
AcDbSymbolTableRecord
100
AcDbBlockTableRecord
  2
*Model_Space
340
22
 70
     0
280
     1
281
     0
  0
BLOCK_RECORD
  5
1B
330
1
100
AcDbSymbolTableRecord
100
AcDbBlockTableRecord
  2
*Paper_Space
340
1E
 70
     0
280
     1
281
     0
  0
BLOCK_RECORD
  5
23
330
1
100
AcDbSymbolTableRecord
100
AcDbBlockTableRecord
  2
*Paper_Space0
340
26
 70
     0
280
     1
281
     0
  0
ENDTAB
  0
ENDSEC
  0
SECTION
  2
BLOCKS
  0
BLOCK
  5
20
330
1F
100
AcDbEntity
  8
0
100
AcDbBlockBegin
  2
*Model_Space
 70
     0
 10
0.0
 20
0.0
 30
0.0
  3
*Model_Space
  1

  0
ENDBLK
  5
21
330
1F
100
AcDbEntity
  8
0
100
AcDbBlockEnd
  0
BLOCK
  5
1C
330
1B
100
AcDbEntity
 67
     1
  8
0
100
AcDbBlockBegin
  2
*Paper_Space
 70
     0
 10
0.0
 20
0.0
 30
0.0
  3
*Paper_Space
  1

  0
ENDBLK
  5
1D
330
1B
100
AcDbEntity
 67
     1
  8
0
100
AcDbBlockEnd
  0
BLOCK
  5
24
330
23
100
AcDbEntity
  8
0
100
AcDbBlockBegin
  2
*Paper_Space0
 70
     0
 10
0.0
 20
0.0
 30
0.0
  3
*Paper_Space0
  1

  0
ENDBLK
  5
25
330
23
100
AcDbEntity
  8
0
100
AcDbBlockEnd
  0
ENDSEC
  0
SECTION
  2
ENTITIES
  0
LINE
  5
44
330
1F
100
AcDbEntity
  8
0
  6
Continuous
 62
     7
370
    15
100
AcDbLine
 10
181.2227434282
 20
553.9191471053
 30
0.0
 11
181.2227434282
 21
560.5191098167
 31
0.0
  0
LINE
  5
45
330
1F
100
AcDbEntity
  8
0
  6
Continuous
 62
     7
370
    15
100
AcDbLine
 10
147.4727420871
 20
560.5191098167
 30
0.0
 11
147.4727420871
 21
553.9191471053
 31
0.0
  0
LINE
  5
46
330
1F
100
AcDbEntity
  8
0
  6
Continuous
 62
     7
370
    15
100
AcDbLine
 10
181.2227434282
 20
565.9191118194
 30
0.0
 11
181.2227434282
 21
567.062865348
 31
0.0
  0
LINE
  5
47
330
1F
100
AcDbEntity
  8
0
  6
Continuous
 62
     7
370
    15
100
AcDbLine
 10
147.4727420871
 20
567.062865348
 30
0.0
 11
147.4727420871
 21
565.9191118194
 31
0.0
  0
ARC
  5
48
330
1F
100
AcDbEntity
  8
0
  6
Continuous
 62
     7
370
    15
100
AcDbCircle
 10
155.4727436964
 20
567.0628852069
 30
0.0
 40
8.000000000000028
100
AcDbArc
 50
102.635625093
 51
180.0
  0
ARC
  5
49
330
1F
100
AcDbEntity
  8
0
  6
Continuous
 62
     7
370
    15
100
AcDbCircle
 10
173.2227436964
 20
567.0628852069
 30
0.0
 40
8.000000000000036
100
AcDbArc
 50
0.0
 51
77.364374907
  0
LINE
  5
4A
330
1F
100
AcDbEntity
  8
0
  6
Continuous
 62
     7
370
    15
100
AcDbLine
 10
180.1977428411
 20
548.5691533996
 30
0.0
 11
180.1977428411
 21
553.9191471053
 31
0.0
  0
LINE
  5
4B
330
1F
100
AcDbEntity
  8
0
  6
Continuous
 62
     7
370
    15
100
AcDbLine
 10
148.4977445368
 20
553.9191471053
 30
0.0
 11
148.4977445368
 21
548.5691533996
 31
0.0
  0
LINE
  5
4C
330
1F
100
AcDbEntity
  8
0
  6
Continuous
 62
     7
370
    15
100
AcDbLine
 10
179.2727439467
 20
545.6191407157
 30
0.0
 11
179.2727439467
 21
548.5691533996
 31
0.0
  0
LINE
  5
4D
330
1F
100
AcDbEntity
  8
0
  6
Continuous
 62
     7
370
    15
100
AcDbLine
 10
149.4227452938
 20
548.5691533996
 30
0.0
 11
149.4227452938
 21
545.6191407157
 31
0.0
  0
LINE
  5
4E
330
1F
100
AcDbEntity
  8
0
  6
Continuous
 62
     7
370
    15
100
AcDbLine
 10
59.8477377359
 20
-224.0476763235
 30
0.0
 11
61.047743148
 21
-224.0476763235
 31
0.0
  0
LINE
  5
4F
330
1F
100
AcDbEntity
  8
0
  6
Continuous
 62
     7
370
    15
100
AcDbLine
 10
98.8477422659
 20
9.3691305829
 30
0.0
 11
106.8477435772
 21
9.3691305829
 31
0.0
  0
LINE
  5
50
330
1F
100
AcDbEntity
  8
0
  6
Continuous
 62
     7
370
    15
100
AcDbLine
 10
115.9977420036
 20
9.3691305829
 30
0.0
 11
116.847741491
 21
9.3691305829
 31
0.0
  0
LINE
  5
51
330
1F
100
AcDbEntity
  8
0
  6
Continuous
 62
     7
370
    15
100
AcDbLine
 10
116.847741491
 20
22.0691369487
 30
0.0
 11
115.9977420036
 21
22.0691369487
 31
0.0
  0
LINE
  5
52
330
1F
100
AcDbEntity
  8
0
  6
Continuous
 62
     7
370
    15
100
AcDbLine
 10
106.8477435772
 20
22.0691369487
 30
0.0
 11
98.8477422659
 21
22.0691369487
 31
0.0
  0
LINE
  5
53
330
1F
100
AcDbEntity
  8
0
  6
Continuous
 62
     7
370
    15
100
AcDbLine
 10
116.847741491
 20
9.3691305829
 30
0.0
 11
117.8477435176
 21
10.3691326095
 31
0.0
  0
LINE
  5
54
330
1F
100
AcDbEntity
  8
0
  6
Continuous
 62
     7
370
    15
100
AcDbLine
 10
117.8477435176
 20
21.0691349221
 30
0.0
 11
116.847741491
 21
22.0691369487
 31
0.0
  0
ARC
  5
55
330
1F
100
AcDbEntity
  8
0
  6
Continuous
 62
     7
370
    15
100
AcDbCircle
 10
199.212940436
 20
-223.8412780807
 30
0.0
 40
0.9999999999999909
100
AcDbArc
 50
210.4241796914
 51
219.7546578804
  0
ARC
  5
56
330
1F
100
AcDbEntity
  8
0
  6
Continuous
 62
     7
370
    15
100
AcDbCircle
 10
220.4825469568
 20
-223.8412780807
 30
0.0
 40
0.9999999999999791
100
AcDbArc
 50
320.2453421196
 51
329.5758203086
  0
SPLINE
  5
57
330
1F
100
AcDbEntity
  8
0
  6
Continuous
 62
     7
370
    15
100
AcDbSpline
210
0.0
220
0.0
230
1.0
 70
     8
 71
     3
 72
    12
 73
     8
 74
     0
 42
0.00000001
 43
0.00000001
 40
0.0
 40
0.0
 40
0.0
 40
0.0
 40
0.1457387154780312
 40
0.4224062771556353
 40
0.7025666154859078
 40
0.9915733542056496
 40
1.0
 40
1.0
 40
1.0
 40
1.0
 10
198.4441504616821
 20
-224.4807785736332
 30
0.0
 10
198.6130989690819
 20
-224.6940883112321
 30
0.0
 10
199.1027760587123
 20
-225.3123411333776
 30
0.0
 10
199.6902598044699
 20
-226.327028026583
 30
0.0
 10
200.0790747411701
 20
-227.5196644290887
 30
0.0
 10
200.2353934553967
 20
-228.3128989539624
 30
0.0
 10
200.1783977368082
 20
-228.7251138113849
 30
0.0
 10
200.1767829794967
 20
-228.7367923544655
 30
0.0
  0
SPLINE
  5
58
330
1F
100
AcDbEntity
  8
0
  6
Continuous
 62
     7
370
    15
100
AcDbSpline
210
0.0
220
0.0
230
1.0
 70
     8
 71
     3
 72
    11
 73
     7
 74
     0
 42
0.00000001
 43
0.00000001
 40
0.0
 40
0.0
 40
0.0
 40
0.0
 40
0.2706746472947866
 40
0.597277147164666
 40
0.9114936872513305
 40
1.0
 40
1.0
 40
1.0
 40
1.0
 10
219.5431963343704
 20
-228.3859072612534
 30
0.0
 10
219.5725328180409
 20
-228.0439622124255
 30
0.0
 10
219.6372674041932
 20
-227.2894180935278
 30
0.0
 10
220.116423570164
 20
-226.1082064435793
 30
0.0
 10
220.7180228978847
 20
-225.139308464716
 30
0.0
 10
221.1552480546308
 20
-224.5994279873447
 30
0.0
 10
221.2513369311177
 20
-224.4807785736332
 30
0.0
  0
ARC
  5
59
330
1F
100
AcDbEntity
  8
0
  6
Continuous
 62
     7
370
    15
100
AcDbCircle
 10
199.212940436
 20
-233.4626241806
 30
0.0
 40
1.000000000000021
100
AcDbArc
 50
189.4154824284
 51
258.0798679019
  0
ARC
  5
5A
330
1F
100
AcDbEntity
  8
0
  6
Continuous
 62
     7
370
    15
100
AcDbCircle
 10
220.4825469568
 20
-233.4626241806
 30
0.0
 40
1.000000000000021
100
AcDbArc
 50
281.9201320981
 51
350.5845175716
  0
SPLINE
  5
5B
330
1F
100
AcDbEntity
  8
0
  6
Continuous
 62
     7
370
    15
100
AcDbSpline
210
0.0
220
0.0
230
1.0
 70
     8
 71
     3
 72
    11
 73
     7
 74
     0
 42
0.00000001
 43
0.00000001
 40
0.0
 40
0.0
 40
0.0
 40
0.0
 40
0.0925535746469281
 40
0.4249810253417852
 40
0.7579048903447293
 40
1.0
 40
1.0
 40
1.0
 40
1.0
 10
213.8410625782394
 20
-235.3377981470833
 30
0.0
 10
214.0682558240576
 20
-235.3258199527095
 30
0.0
 10
215.1114658667479
 20
-235.2708193182537
 30
0.0
 10
216.9017806763492
 20
-235.0741360784523
 30
0.0
 10
218.9674281478636
 20
-234.7841320784809
 30
0.0
 10
220.1789981768957
 20
-234.5427064474734
 30
0.0
 10
220.6890946988547
 20
-234.4410611675988
 30
0.0
  0
SPLINE
  5
5C
330
1F
100
AcDbEntity
  8
0
  6
Continuous
 62
     7
370
    15
100
AcDbSpline
210
0.0
220
0.0
230
1.0
 70
     8
 71
     3
 72
    12
 73
     8
 74
     0
 42
0.00000001
 43
0.00000001
 40
0.0
 40
0.0
 40
0.0
 40
0.0
 40
0.1036821716163777
 40
0.3447562748414357
 40
0.5855730321577027
 40
0.8263056421378245
 40
1.0
 40
1.0
 40
1.0
 40
1.0
 10
203.693616277405
 20
-235.1514963792573
 30
0.0
 10
204.0283799527761
 20
-235.1896577441174
 30
0.0
 10
205.1415113221711
 20
-235.3165490870258
 30
0.0
 10
207.1296453516715
 20
-235.43178278604
 30
0.0
 10
209.6026802952159
 20
-235.4928616905653
 30
0.0
 10
211.8615478473966
 20
-235.4646470457619
 30
0.0
 10
213.256437391182
 20
-235.3752614000527
 30
0.0
 10
213.8410625782394
 20
-235.3377981470833
 30
0.0
  0
SPLINE
  5
5D
330
1F
100
AcDbEntity
  8
0
  6
Continuous
 62
     7
370
    15
100
AcDbSpline
210
0.0
220
0.0
230
1.0
 70
     8
 71
     3
 72
    10
 73
     6
 74
     0
 42
0.00000001
 43
0.00000001
 40
0.0
 40
0.0
 40
0.0
 40
0.0
 40
0.2502357775246525
 40
0.7279676104658392
 40
1.0
 40
1.0
 40
1.0
 40
1.0
 10
199.0063926939451
 20
-234.4410611675988
 30
0.0
 10
199.3736741216765
 20
-234.5148495844409
 30
0.0
 10
200.4421423717361
 20
-234.7295094465118
 30
0.0
 10
202.0009910017001
 20
-234.980024874706
 30
0.0
 10
203.2429895157539
 20
-235.1058456082801
 30
0.0
 10
203.693616277405
 20
-235.1514963792573
 30
0.0
  0
LINE
  5
5E
330
1F
100
AcDbEntity
  8
0
  6
Continuous
 62
     7
370
    15
100
AcDbLine
 10
198.1054964278
 20
-233.0720989393
 30
0.0
 11
198.194877318
 21
-233.6127577709
 31
0.0
  0
SPLINE
  5
5F
330
1F
100
AcDbEntity
  8
0
  6
Continuous
 62
     7
370
    15
100
AcDbSpline
210
0.0
220
0.0
230
1.0
 70
     8
 71
     3
 72
     9
 73
     5
 74
     0
 42
0.00000001
 43
0.00000001
 40
0.0
 40
0.0
 40
0.0
 40
0.0
 40
0.6408284652038597
 40
1.0
 40
1.0
 40
1.0
 40
1.0
 10
196.4854794357502
 20
-224.3476739512692
 30
0.0
 10
196.8747874815809
 20
-226.2294557394883
 30
0.0
 10
197.4822948988847
 20
-229.1659385744392
 30
0.0
 10
197.9408106292418
 20
-232.0398660110135
 30
0.0
 10
198.1054964278424
 20
-233.0720989393006
 30
0.0
  0
SPLINE
  5
60
330
1F
100
AcDbEntity
  8
0
  6
Continuous
 62
     7
370
    15
100
AcDbSpline
210
0.0
220
0.0
230
1.0
 70
     8
 71
     3
 72
     9
 73
     5
 74
     0
 42
0.00000001
 43
0.00000001
 40
0.0
 40
0.0
 40
0.0
 40
0.0
 40
0.7329325961549383
 40
1.0
 40
1.0
 40
1.0
 40
1.0
 10
221.4702079807007
 20
-233.6258335398446
 30
0.0
 10
221.8498899301635
 20
-231.375628419402
 30
0.0
 10
222.3679211262853
 20
-228.3054891838878
 30
0.0
 10
223.0311123678063
 20
-225.1818864295212
 30
0.0
 10
223.2082291309321
 20
-224.3476739512692
 30
0.0
  0
LINE
  5
61
330
1F
100
AcDbEntity
  8
0
  6
Continuous
 62
     7
370
    15
100
AcDbLine
 10
122.2619592015
 20
424.7191058112
 30
0.0
 11
130.1477431123
 21
424.7191058112
 31
0.0
  0
LINE
  5
62
330
1F
100
AcDbEntity
  8
0
  6
Continuous
 62
     7
370
    15
100
AcDbLine
 10
130.1477431123
 20
459.7191320373
 30
0.0
 11
122.2619592015
 21
459.7191320373
 31
0.0
  0
LINE
  5
63
330
1F
100
AcDbEntity
  8
0
  6
Continuous
 62
     7
370
    15
100
AcDbLine
 10
119.3477465574
 20
424.7191058112
 30
0.0
 11
121.433529145
 21
424.7191058112
 31
0.0
  0
LINE
  5
64
330
1F
100
AcDbEntity
  8
0
  6
Continuous
 62
     7
370
    15
100
AcDbLine
 10
121.433529145
 20
459.7191320373
 30
0.0
 11
119.3477465574
 21
459.7191320373
 31
0.0
  0
LINE
  5
65
330
1F
100
AcDbEntity
  8
0
  6
Continuous
 62
     7
370
    15
100
AcDbLine
 10
122.2619592015
 20
459.7191320373
 30
0.0
 11
121.8477441732
 21
458.7191449119
 31
0.0
  0
LINE
  5
66
330
1F
100
AcDbEntity
  8
0
  6
Continuous
 62
     7
370
    15
100
AcDbLine
 10
121.8477441732
 20
425.7191525413
 30
0.0
 11
122.2619592015
 21
424.7191058112
 31
0.0
  0
LINE
  5
67
330
1F
100
AcDbEntity
  8
0
  6
Continuous
 62
     7
370
    15
100
AcDbLine
 10
121.433529145
 20
424.7191058112
 30
0.0
 11
121.8477441732
 21
425.7191525413
 31
0.0
  0
LINE
  5
68
330
1F
100
AcDbEntity
  8
0
  6
Continuous
 62
     7
370
    15
100
AcDbLine
 10
121.8477441732
 20
458.7191449119
 30
0.0
 11
121.433529145
 21
459.7191320373
 31
0.0
  0
LINE
  5
69
330
1F
100
AcDbEntity
  8
0
  6
Continuous
 62
     7
370
    15
100
AcDbLine
 10
119.3477465574
 20
459.7191320373
 30
0.0
 11
118.8477455441
 21
459.2191086723
 31
0.0
  0
LINE
  5
6A
330
1F
100
AcDbEntity
  8
0
  6
Continuous
 62
     7
370
    15
100
AcDbLine
 10
118.8477455441
 20
425.2191291763
 30
0.0
 11
119.3477465574
 21
424.7191058112
 31
0.0
  0
LINE
  5
6B
330
1F
100
AcDbEntity
  8
0
  6
Continuous
 62
     7
370
    15
100
AcDbLine
 10
104.0977417294
 20
-42.7808655785
 30
0.0
 11
104.0977417294
 21
-49.28086385
 31
0.0
  0
LINE
  5
6C
330
1F
100
AcDbEntity
  8
0
  6
Continuous
 62
     7
370
    15
100
AcDbLine
 10
117.5977467362
 20
-49.28086385
 30
0.0
 11
117.5977467362
 21
-42.7808655785
 31
0.0
  0
LWPOLYLINE
  5
6D
330
1F
100
AcDbEntity
  8
0
  6
Continuous
 62
     7
370
    15
100
AcDbPolyline
 90
        4
 70
   128
 43
0.0
 10
226.6503508006
 20
383.7191568328
 10
225.5977551256
 20
382.1207390739
 10
224.3389711518
 20
380.2092777206
 10
223.0484085892
 20
378.249536605
  0
LWPOLYLINE
  5
6E
330
1F
100
AcDbEntity
  8
0
  6
Continuous
 62
     7
370
    15
100
AcDbPolyline
 90
        8
 70
   128
 43
0.0
 10
230.841823927
 20
374.6291504813
 10
231.4379243915
 20
375.5343662215
 10
232.6967074339
 20
377.4458275748
 10
233.8927193348
 20
379.2620407058
 10
234.9965060864
 20
380.9381233169
 10
235.980891696
 20
382.4329482032
 10
236.8216375623
 20
383.7096200896
 10
236.8279072259
 20
383.7191568328
  0
LINE
  5
6F
330
1F
100
AcDbEntity
  8
0
  6
Continuous
 62
     7
370
    15
100
AcDbLine
 10
223.0484085892
 20
378.249536605
 30
0.0
 11
220.6642647077
 21
374.6291504813
 31
0.0
  0
LINE
  5
70
330
1F
100
AcDbEntity
  8
0
  6
Continuous
 62
     7
370
    15
100
AcDbLine
 10
229.0977435921
 20
339.634548278
 30
0.0
 11
229.0977435921
 21
293.1725488616
 31
0.0
  0
LINE
  5
71
330
1F
100
AcDbEntity
  8
0
  6
Continuous
 62
     7
370
    15
100
AcDbLine
 10
229.0977435921
 20
279.6625898792
 30
0.0
 11
229.0977435921
 21
233.2005904628
 31
0.0
  0
LINE
  5
72
330
1F
100
AcDbEntity
  8
0
  6
Continuous
 62
     7
370
    15
100
AcDbLine
 10
229.0977435921
 20
219.6906314803
 30
0.0
 11
229.0977435921
 21
173.228632064
 31
0.0
  0
LINE
  5
73
330
1F
100
AcDbEntity
  8
0
  6
Continuous
 62
     7
370
    15
100
AcDbLine
 10
225.5977439497
 20
173.228632064
 30
0.0
 11
225.5977439497
 21
219.6906314803
 31
0.0
  0
LINE
  5
74
330
1F
100
AcDbEntity
  8
0
  6
Continuous
 62
     7
370
    15
100
AcDbLine
 10
225.5977439497
 20
233.2005904628
 30
0.0
 11
225.5977439497
 21
279.6625898792
 31
0.0
  0
LINE
  5
75
330
1F
100
AcDbEntity
  8
0
  6
Continuous
 62
     7
370
    15
100
AcDbLine
 10
225.5977439497
 20
293.1725488616
 30
0.0
 11
225.5977439497
 21
339.634548278
 31
0.0
  0
LINE
  5
76
330
1F
100
AcDbEntity
  8
0
  6
Continuous
 62
     7
370
    15
100
AcDbLine
 10
249.5977422957
 20
374.6291504813
 30
0.0
 11
249.5977422957
 21
383.7191568328
 31
0.0
  0
LINE
  5
77
330
1F
100
AcDbEntity
  8
0
  6
Continuous
 62
     7
370
    15
100
AcDbLine
 10
241.0977436964
 20
383.7191568328
 30
0.0
 11
241.0977436964
 21
374.6291504813
 31
0.0
  0
LINE
  5
78
330
1F
100
AcDbEntity
  8
0
  6
Continuous
 62
     7
370
    15
100
AcDbLine
 10
261.5977442626
 20
374.6291504813
 30
0.0
 11
261.5977442626
 21
383.7191568328
 31
0.0
  0
LINE
  5
79
330
1F
100
AcDbEntity
  8
0
  6
Continuous
 62
     7
370
    15
100
AcDbLine
 10
253.0977419381
 20
383.7191568328
 30
0.0
 11
253.0977419381
 21
374.6291504813
 31
0.0
  0
LINE
  5
7A
330
1F
100
AcDbEntity
  8
0
  6
Continuous
 62
     7
370
    15
100
AcDbLine
 10
237.597744054
 20
374.6291504813
 30
0.0
 11
237.597744054
 21
383.7191568328
 31
0.0
  0
LINE
  5
7B
330
1F
100
AcDbEntity
  8
0
  6
Continuous
 62
     7
370
    15
100
AcDbLine
 10
241.0977436964
 20
350.4387842132
 30
0.0
 11
241.0977436964
 21
341.2796960784
 31
0.0
  0
LINE
  5
7C
330
1F
100
AcDbEntity
  8
0
  6
Continuous
 62
     7
370
    15
100
AcDbLine
 10
241.0977436964
 20
291.5274010612
 30
0.0
 11
241.0977436964
 21
281.3077376796
 31
0.0
  0
LINE
  5
7D
330
1F
100
AcDbEntity
  8
0
  6
Continuous
 62
     7
370
    15
100
AcDbLine
 10
241.0977436964
 20
231.5554426624
 30
0.0
 11
241.0977436964
 21
221.3357792808
 31
0.0
  0
LINE
  5
7E
330
1F
100
AcDbEntity
  8
0
  6
Continuous
 62
     7
370
    15
100
AcDbLine
 10
241.0977436964
 20
171.5834842635
 30
0.0
 11
241.0977436964
 21
161.363820882
 31
0.0
  0
LINE
  5
7F
330
1F
100
AcDbEntity
  8
0
  6
Continuous
 62
     7
370
    15
100
AcDbLine
 10
249.5977422957
 20
162.2735665752
 30
0.0
 11
249.5977422957
 21
170.673708768
 31
0.0
  0
LINE
  5
80
330
1F
100
AcDbEntity
  8
0
  6
Continuous
 62
     7
370
    15
100
AcDbLine
 10
249.5977422957
 20
222.2455547763
 30
0.0
 11
249.5977422957
 21
230.6456671668
 31
0.0
  0
LINE
  5
81
330
1F
100
AcDbEntity
  8
0
  6
Continuous
 62
     7
370
    15
100
AcDbLine
 10
249.5977422957
 20
282.2175131751
 30
0.0
 11
249.5977422957
 21
290.6176255656
 31
0.0
  0
LINE
  5
82
330
1F
100
AcDbEntity
  8
0
  6
Continuous
 62
     7
370
    15
100
AcDbLine
 10
249.5977422957
 20
342.1894417716
 30
0.0
 11
249.5977422957
 21
350.4387842132
 31
0.0
  0
LINE
  5
83
330
1F
100
AcDbEntity
  8
0
  6
Continuous
 62
     7
370
    15
100
AcDbLine
 10
261.5977442626
 20
173.0272577716
 30
0.0
 11
261.5977442626
 21
219.8919759704
 31
0.0
  0
LINE
  5
84
330
1F
100
AcDbEntity
  8
0
  6
Continuous
 62
     7
370
    15
100
AcDbLine
 10
261.5977442626
 20
232.9992161704
 30
0.0
 11
261.5977442626
 21
279.8639641715
 31
0.0
  0
LINE
  5
85
330
1F
100
AcDbEntity
  8
0
  6
Continuous
 62
     7
370
    15
100
AcDbLine
 10
261.5977442626
 20
292.9711745692
 30
0.0
 11
261.5977442626
 21
339.835892768
 31
0.0
  0
LINE
  5
86
330
1F
100
AcDbEntity
  8
0
  6
Continuous
 62
     7
370
    15
100
AcDbLine
 10
273.5977425043
 20
374.6291504813
 30
0.0
 11
273.5977425043
 21
383.7191568328
 31
0.0
  0
LINE
  5
87
330
1F
100
AcDbEntity
  8
0
  6
Continuous
 62
     7
370
    15
100
AcDbLine
 10
265.097743905
 20
383.7191568328
 30
0.0
 11
265.097743905
 21
374.6291504813
 31
0.0
  0
LINE
  5
88
330
1F
100
AcDbEntity
  8
0
  6
Continuous
 62
     7
370
    15
100
AcDbLine
 10
265.097743905
 20
339.2542706443
 30
0.0
 11
265.097743905
 21
293.5528264953
 31
0.0
  0
LINE
  5
89
330
1F
100
AcDbEntity
  8
0
  6
Continuous
 62
     7
370
    15
100
AcDbLine
 10
265.097743905
 20
279.2823122455
 30
0.0
 11
265.097743905
 21
233.5808680965
 31
0.0
  0
LINE
  5
8A
330
1F
100
AcDbEntity
  8
0
  6
Continuous
 62
     7
370
    15
100
AcDbLine
 10
265.097743905
 20
219.3103538467
 30
0.0
 11
265.097743905
 21
173.6089096977
 31
0.0
  0
LINE
  5
8B
330
1F
100
AcDbEntity
  8
0
  6
Continuous
 62
     7
370
    15
100
AcDbLine
 10
273.5977425043
 20
165.3638885928
 30
0.0
 11
273.5977425043
 21
167.5833867503
 31
0.0
  0
LINE
  5
8C
330
1F
100
AcDbEntity
  8
0
  6
Continuous
 62
     7
370
    15
100
AcDbLine
 10
273.5977425043
 20
225.3358469917
 30
0.0
 11
273.5977425043
 21
227.5553451492
 31
0.0
  0
LINE
  5
8D
330
1F
100
AcDbEntity
  8
0
  6
Continuous
 62
     7
370
    15
100
AcDbLine
 10
273.5977425043
 20
285.3078351928
 30
0.0
 11
273.5977425043
 21
287.527303548
 31
0.0
  0
LINE
  5
8E
330
1F
100
AcDbEntity
  8
0
  6
Continuous
 62
     7
370
    15
100
AcDbLine
 10
273.5977425043
 20
345.2797637893
 30
0.0
 11
273.5977425043
 21
347.4992619468
 31
0.0
  0
SPLINE
  5
8F
330
1F
100
AcDbEntity
  8
0
  6
Continuous
 62
     7
370
    15
100
AcDbSpline
210
0.0
220
0.0
230
1.0
 70
     8
 71
     3
 72
    19
 73
    15
 74
     0
 42
0.00000001
 43
0.00000001
 40
0.0
 40
0.0
 40
0.0
 40
0.0
 40
0.0382060412908629
 40
0.129281273660669
 40
0.2204780593237017
 40
0.3118904181657266
 40
0.4036750621235206
 40
0.4960368310713236
 40
0.589272240328943
 40
0.6838451735970338
 40
0.780513012631133
 40
0.8805917677348233
 40
0.9862273861260834
 40
1.0
 40
1.0
 40
1.0
 40
1.0
 10
229.09990612311
 20
159.6289680911293
 30
0.0
 10
229.1017732211824
 20
159.2207674362928
 30
0.0
 10
229.1080910915687
 20
157.8395015740539
 30
0.0
 10
229.1758179547061
 20
155.4936621820275
 30
0.0
 10
229.3305426473966
 20
152.6339556920081
 30
0.0
 10
229.5626664738884
 20
149.8519592861003
 30
0.0
 10
229.8691034800462
 20
147.175237262517
 30
0.0
 10
230.2499130327986
 20
144.6280305097763
 30
0.0
 10
230.7052010162334
 20
142.2299289938004
 30
0.0
 10
231.2406480272902
 20
139.9954887140547
 30
0.0
 10
231.8605375314365
 20
137.9237735524269
 30
0.0
 10
232.6193726082014
 20
136.0224250425546
 30
0.0
 10
233.2063921171666
 20
134.7652062570119
 30
0.0
 10
233.6469311986272
 20
134.1704749108789
 30
0.0
 10
233.6977432285034
 20
134.1018782569161
 30
0.0
  0
SPLINE
  5
90
330
1F
100
AcDbEntity
  8
0
  6
Continuous
 62
     7
370
    15
100
AcDbSpline
210
0.0
220
0.0
230
1.0
 70
     8
 71
     3
 72
    21
 73
    17
 74
     0
 42
0.00000001
 43
0.00000001
 40
0.0
 40
0.0
 40
0.0
 40
0.0
 40
0.0117704002759447
 40
0.0696651583389163
 40
0.1318796970256433
 40
0.199402797778781
 40
0.2720662413711528
 40
0.3490803336528976
 40
0.4294656824565058
 40
0.5123170018211952
 40
0.5969170979080574
 40
0.6827334145841835
 40
0.7693865741323755
 40
0.8566001211993025
 40
0.9441741323909493
 40
1.0
 40
1.0
 40
1.0
 40
1.0
 10
228.8886616740906
 20
138.6139200640907
 30
0.0
 10
228.8938645505523
 20
138.608891654056
 30
0.0
 10
228.9246586785363
 20
138.579130135922
 30
0.0
 10
228.7904064484142
 20
138.738559385879
 30
0.0
 10
228.5604681144184
 20
139.1437320554528
 30
0.0
 10
228.2294723934386
 20
139.8578081766576
 30
0.0
 10
227.8549498025178
 20
140.8733910496705
 30
0.0
 10
227.4573410143754
 20
142.1997159029607
 30
0.0
 10
227.0634583067745
 20
143.8197801221373
 30
0.0
 10
226.6925561416399
 20
145.7076784121043
 30
0.0
 10
226.3602960088842
 20
147.829353057278
 30
0.0
 10
226.0783711661186
 20
150.1472818397893
 30
0.0
 10
225.8547335392731
 20
152.6219515049684
 30
0.0
 10
225.6975495542117
 20
155.2130773723513
 30
0.0
 10
225.6141858573787
 20
157.5549917297271
 30
0.0
 10
225.6048516205205
 20
159.0242571086967
 30
0.0
 10
225.601217782923
 20
159.5962451411476
 30
0.0
  0
SPLINE
  5
91
330
1F
100
AcDbEntity
  8
0
  6
Continuous
 62
     7
370
    15
100
AcDbSpline
210
0.0
220
0.0
230
1.0
 70
     8
 71
     3
 72
    14
 73
    10
 74
     0
 42
0.00000001
 43
0.00000001
 40
0.0
 40
0.0
 40
0.0
 40
0.0
 40
0.1517751991039181
 40
0.3553374950035208
 40
0.5243664010394129
 40
0.6758764527117436
 40
0.8181092751451814
 40
0.9561161657374798
 40
0.9999999999999999
 40
0.9999999999999999
 40
0.9999999999999999
 40
0.9999999999999999
 10
220.9977433819854
 20
135.3535757971992
 30
0.0
 10
221.1734519664389
 20
134.998345143428
 30
0.0
 10
221.5848225238089
 20
134.1666758627765
 30
0.0
 10
222.3702378291939
 20
133.1090243716159
 30
0.0
 10
223.3332714106329
 20
132.1316592826886
 30
0.0
 10
224.3925287392796
 20
131.3962851364356
 30
0.0
 10
225.5654048951848
 20
130.8953256680647
 30
0.0
 10
226.5446146653556
 20
130.7050517540763
 30
0.0
 10
227.1030213656769
 20
130.6926287796018
 30
0.0
 10
227.2377452616179
 20
130.6896315528144
 30
0.0
  0
SPLINE
  5
92
330
1F
100
AcDbEntity
  8
0
  6
Continuous
 62
     7
370
    15
100
AcDbSpline
210
0.0
220
0.0
230
1.0
 70
     8
 71
     3
 72
    21
 73
    17
 74
     0
 42
0.00000001
 43
0.00000001
 40
0.0
 40
0.0
 40
0.0
 40
0.0
 40
0.0116402113041456
 40
0.0688946188667759
 40
0.1304210317741268
 40
0.1971972912372308
 40
0.26905704862507
 40
0.3452193141961852
 40
0.4247155679710017
 40
0.5066504991027354
 40
0.5903148656291192
 40
0.6751820147486763
 40
0.7608767494319311
 40
0.8471256648955895
 40
0.9337310610982579
 40
1.0
 40
1.0
 40
1.0
 40
1.0
 10
264.888661987015
 20
138.6139200640907
 30
0.0
 10
264.8938641684178
 20
138.6088916541732
 30
0.0
 10
264.924654185511
 20
138.5791301338953
 30
0.0
 10
264.7904088882823
 20
138.7385594040554
 30
0.0
 10
264.5604676087432
 20
139.1437320371788
 30
0.0
 10
264.2294736760066
 20
139.8578082822253
 30
0.0
 10
263.8549467405968
 20
140.8733908159774
 30
0.0
 10
263.4573428567822
 20
142.1997161580457
 30
0.0
 10
263.0634557990951
 20
143.8197799694351
 30
0.0
 10
262.6925550394037
 20
145.7076779541895
 30
0.0
 10
262.3603051450103
 20
147.829355147723
 30
0.0
 10
262.0783482675101
 20
150.14727467599
 30
0.0
 10
261.8548188103561
 20
152.6219783295137
 30
0.0
 10
261.6972195970491
 20
155.2129758990995
 30
0.0
 10
261.6112608462675
 20
157.6689122345805
 30
0.0
 10
261.6018316783238
 20
159.252963070458
 30
0.0
 10
261.597744262644
 20
159.9396274996986
 30
0.0
  0
SPLINE
  5
93
330
1F
100
AcDbEntity
  8
0
  6
Continuous
 62
     7
370
    15
100
AcDbSpline
210
0.0
220
0.0
230
1.0
 70
     8
 71
     3
 72
    15
 73
    11
 74
     0
 42
0.00000001
 43
0.00000001
 40
0.0
 40
0.0
 40
0.0
 40
0.0
 40
0.1549249245198625
 40
0.3520061377486121
 40
0.5075157905574094
 40
0.6366439439095286
 40
0.7523886934111087
 40
0.8610462466703693
 40
0.9664753289054215
 40
1.0
 40
1.0
 40
1.0
 40
1.0
 10
255.9977425996744
 20
137.6632259799232
 30
0.0
 10
256.19655271328
 20
137.1252791699528
 30
0.0
 10
256.648270733815
 20
135.9030059981006
 30
0.0
 10
257.4430952845831
 20
134.4030615768295
 30
0.0
 10
258.366833904866
 20
133.1046743455749
 30
0.0
 10
259.3340165599481
 20
132.1326108673631
 30
0.0
 10
260.3923499280645
 20
131.3960576597255
 30
0.0
 10
261.5654517359335
 20
130.8953850174317
 30
0.0
 10
262.5446103027777
 20
130.7050478892099
 30
0.0
 10
263.1030192114678
 20
130.6926280296715
 30
0.0
 10
263.2377437118971
 20
130.6896315528144
 30
0.0
  0
SPLINE
  5
94
330
1F
100
AcDbEntity
  8
0
  6
Continuous
 62
     7
370
    15
100
AcDbSpline
210
0.0
220
0.0
230
1.0
 70
     8
 71
     3
 72
    18
 73
    14
 74
     0
 42
0.00000001
 43
0.00000001
 40
0.0
 40
0.0
 40
0.0
 40
0.0
 40
0.0284117536404669
 40
0.1279521274414039
 40
0.2276194420650462
 40
0.3275087115112517
 40
0.4277825770378925
 40
0.5286546532867126
 40
0.6304402360489697
 40
0.7336317881017375
 40
0.8390651038321474
 40
0.9482419857318013
 40
1.0
 40
1.0
 40
1.0
 40
1.0
 10
265.1022254292452
 20
159.2401073886146
 30
0.0
 10
265.1035386042682
 20
158.9631771036715
 30
0.0
 10
265.1094524785055
 20
157.7160235643362
 30
0.0
 10
265.1699039035532
 20
155.5067805721641
 30
0.0
 10
265.3113628762682
 20
152.6556364573733
 30
0.0
 10
265.5245746111008
 20
149.8829804119632
 30
0.0
 10
265.8057046766926
 20
147.2166614630246
 30
0.0
 10
266.1546211796677
 20
144.6809406838508
 30
0.0
 10
266.5723014583925
 20
142.2970734668102
 30
0.0
 10
267.0591241459938
 20
140.0749915968501
 30
0.0
 10
267.6364194910969
 20
138.0317822134717
 30
0.0
 10
268.1597276625823
 20
136.4739970711805
 30
0.0
 10
268.5668207001757
 20
135.6685073962754
 30
0.0
 10
268.6977452401602
 20
135.4094551516761
 30
0.0
  0
LINE
  5
95
330
1F
100
AcDbEntity
  8
0
  6
Continuous
 62
     7
370
    15
100
AcDbLine
 10
227.2377452616
 20
130.6896315528
 30
0.0
 11
227.4577422802
 21
130.6896315528
 31
0.0
  0
LINE
  5
96
330
1F
100
AcDbEntity
  8
0
  6
Continuous
 62
     7
370
    15
100
AcDbLine
 10
263.2377437119
 20
130.6896315528
 30
0.0
 11
263.4577444558
 21
130.6896315528
 31
0.0
  0
LINE
  5
97
330
1F
100
AcDbEntity
  8
0
  6
Continuous
 62
     7
370
    15
100
AcDbLine
 10
284.5977424447
 20
374.8294816924
 30
0.0
 11
284.5977424447
 21
383.7191568328
 31
0.0
  0
LINE
  5
98
330
1F
100
AcDbEntity
  8
0
  6
Continuous
 62
     7
370
    15
100
AcDbLine
 10
276.0977401201
 20
383.7191568328
 30
0.0
 11
276.0977401201
 21
374.6291504813
 31
0.0
  0
SPLINE
  5
99
330
1F
100
AcDbEntity
  8
0
  6
Continuous
 62
     7
370
    15
100
AcDbSpline
210
0.0
220
0.0
230
1.0
 70
     8
 71
     3
 72
     9
 73
     5
 74
     0
 42
0.00000001
 43
0.00000001
 40
0.0
 40
0.0
 40
0.0
 40
0.0
 40
0.5404069963676874
 40
0.9999999999999999
 40
0.9999999999999999
 40
0.9999999999999999
 40
0.9999999999999999
 10
255.9977425996744
 20
132.798235268711
 30
0.0
 10
256.2760103523598
 20
133.1146657485863
 30
0.0
 10
256.7909329099055
 20
133.7002067982068
 30
0.0
 10
257.1732838719618
 20
134.3751492814634
 30
0.0
 10
257.3490096990549
 20
134.6853481246224
 30
0.0
  0
SPLINE
  5
9A
330
1F
100
AcDbEntity
  8
0
  6
Continuous
 62
     7
370
    15
100
AcDbSpline
210
0.0
220
0.0
230
1.0
 70
     8
 71
     3
 72
    15
 73
    11
 74
     0
 42
0.00000001
 43
0.00000001
 40
0.0
 40
0.0
 40
0.0
 40
0.0
 40
0.0573873566095258
 40
0.1972831959395644
 40
0.3370382778948559
 40
0.4763792170326688
 40
0.6150511456731164
 40
0.7527269676998464
 40
0.8889581072568473
 40
0.9999999999999999
 40
0.9999999999999999
 40
0.9999999999999999
 40
0.9999999999999999
 10
229.095586649009
 20
159.6297131491889
 30
0.0
 10
229.0938868394902
 20
159.2607259700712
 30
0.0
 10
229.0880433249224
 20
157.9922415118589
 30
0.0
 10
229.0255887418301
 20
155.8356740507586
 30
0.0
 10
228.8833886924145
 20
153.2109330124555
 30
0.0
 10
228.6723895014552
 20
150.6866530082139
 30
0.0
 10
228.3994968140486
 20
148.3003400856905
 30
0.0
 10
228.0698207555637
 20
146.1003716713214
 30
0.0
 10
227.7179755404114
 20
144.2042079948999
 30
0.0
 10
227.4632396602487
 20
143.167489415275
 30
0.0
 10
227.3488464568341
 20
142.7019344283332
 30
0.0
  0
SPLINE
  5
9B
330
1F
100
AcDbEntity
  8
0
  6
Continuous
 62
     7
370
    15
100
AcDbSpline
210
0.0
220
0.0
230
1.0
 70
     8
 71
     3
 72
    13
 73
     9
 74
     0
 42
0.00000001
 43
0.00000001
 40
0.0
 40
0.0
 40
0.0
 40
0.0
 40
0.168590198040547
 40
0.3248818708579096
 40
0.4835924152341584
 40
0.6533739930032212
 40
0.8453122498949563
 40
1.0
 40
1.0
 40
1.0
 40
1.0
 10
227.4577422801935
 20
130.6896315528144
 30
0.0
 10
227.9257767568294
 20
130.7238467729429
 30
0.0
 10
228.8277029551657
 20
130.7897812392189
 30
0.0
 10
230.048842717128
 20
131.2681024978645
 30
0.0
 10
231.096620660868
 20
131.922179044573
 30
0.0
 10
232.0174227195913
 20
132.7689267179419
 30
0.0
 10
232.7725607653001
 20
133.6834899585461
 30
0.0
 10
233.1711377383086
 20
134.3762100181187
 30
0.0
 10
233.3490094904387
 20
134.6853481246223
 30
0.0
  0
SPLINE
  5
9C
330
1F
100
AcDbEntity
  8
0
  6
Continuous
 62
     7
370
    15
100
AcDbSpline
210
0.0
220
0.0
230
1.0
 70
     8
 71
     3
 72
    15
 73
    11
 74
     0
 42
0.00000001
 43
0.00000001
 40
0.0
 40
0.0
 40
0.0
 40
0.0
 40
0.0382500815739447
 40
0.1809861403553601
 40
0.3235785840513517
 40
0.4657484768421654
 40
0.6072357665866771
 40
0.7477067364146373
 40
0.8867037073108269
 40
1.0
 40
1.0
 40
1.0
 40
1.0
 10
265.0929159287894
 20
159.2460678530921
 30
0.0
 10
265.0916556089372
 20
159.0050526090766
 30
0.0
 10
265.0856922118343
 20
157.8646519357644
 30
0.0
 10
265.025068633078
 20
155.8357779632545
 30
0.0
 10
264.8835257517941
 20
153.2109052541956
 30
0.0
 10
264.6723504798676
 20
150.6866605090901
 30
0.0
 10
264.3995073386857
 20
148.3003380349314
 30
0.0
 10
264.0698191519718
 20
146.1003720420106
 30
0.0
 10
263.7179734589725
 20
144.2042081415778
 30
0.0
 10
263.4632392208086
 20
143.1674894186054
 30
0.0
 10
263.3488467697584
 20
142.7019344283332
 30
0.0
  0
SPLINE
  5
9D
330
1F
100
AcDbEntity
  8
0
  6
Continuous
 62
     7
370
    15
100
AcDbSpline
210
0.0
220
0.0
230
1.0
 70
     8
 71
     3
 72
    12
 73
     8
 74
     0
 42
0.00000001
 43
0.00000001
 40
0.0
 40
0.0
 40
0.0
 40
0.0
 40
0.2047591599513914
 40
0.3945816622479615
 40
0.5873418582226236
 40
0.7935483458671895
 40
1.0
 40
1.0
 40
1.0
 40
1.0
 10
263.4577444557631
 20
130.6896315528144
 30
0.0
 10
263.9257212838678
 20
130.7238851041518
 30
0.0
 10
264.8275372259284
 20
130.7898934977585
 30
0.0
 10
266.0494481816679
 20
131.2676899142857
 30
0.0
 10
267.0942394532103
 20
131.9238027812964
 30
0.0
 10
267.9881644705505
 20
132.7266710397192
 30
0.0
 10
268.461124652674
 20
133.3460253588838
 30
0.0
 10
268.6977452401602
 20
133.6558865023841
 30
0.0
  0
LINE
  5
9E
330
1F
100
AcDbEntity
  8
0
  6
Continuous
 62
     7
370
    15
100
AcDbLine
 10
284.5977424447
 20
162.2735665752
 30
0.0
 11
284.5977424447
 21
170.673708768
 31
0.0
  0
LINE
  5
9F
330
1F
100
AcDbEntity
  8
0
  6
Continuous
 62
     7
370
    15
100
AcDbLine
 10
284.5977424447
 20
222.2455547763
 30
0.0
 11
284.5977424447
 21
230.6456671668
 31
0.0
  0
LINE
  5
A0
330
1F
100
AcDbEntity
  8
0
  6
Continuous
 62
     7
370
    15
100
AcDbLine
 10
284.5977424447
 20
282.2175131751
 30
0.0
 11
284.5977424447
 21
290.6176255656
 31
0.0
  0
LINE
  5
A1
330
1F
100
AcDbEntity
  8
0
  6
Continuous
 62
     7
370
    15
100
AcDbLine
 10
284.5977424447
 20
342.1894417716
 30
0.0
 11
284.5977424447
 21
350.5895839645
 31
0.0
  0
LINE
  5
A2
330
1F
100
AcDbEntity
  8
0
  6
Continuous
 62
     7
370
    15
100
AcDbLine
 10
276.0977401201
 20
350.4387842132
 30
0.0
 11
276.0977401201
 21
341.2796960784
 31
0.0
  0
LINE
  5
A3
330
1F
100
AcDbEntity
  8
0
  6
Continuous
 62
     7
370
    15
100
AcDbLine
 10
276.0977401201
 20
291.5274010612
 30
0.0
 11
276.0977401201
 21
281.3077376796
 31
0.0
  0
LINE
  5
A4
330
1F
100
AcDbEntity
  8
0
  6
Continuous
 62
     7
370
    15
100
AcDbLine
 10
276.0977401201
 20
231.5554426624
 30
0.0
 11
276.0977401201
 21
221.3357792808
 31
0.0
  0
LINE
  5
A5
330
1F
100
AcDbEntity
  8
0
  6
Continuous
 62
     7
370
    15
100
AcDbLine
 10
276.0977401201
 20
171.5834842635
 30
0.0
 11
276.0977401201
 21
161.363820882
 31
0.0
  0
LINE
  5
A6
330
1F
100
AcDbEntity
  8
0
  6
Continuous
 62
     7
370
    15
100
AcDbLine
 10
107.6522870724
 20
-36.6319014119
 30
0.0
 11
312.0432003204
 21
-36.6319014119
 31
0.0
  0
LINE
  5
A7
330
1F
100
AcDbEntity
  8
0
  6
Continuous
 62
     7
370
    15
100
AcDbLine
 10
261.5977442626
 20
250.1896427585
 30
0.0
 11
265.097743905
 21
250.1896427585
 31
0.0
  0
LINE
  5
A8
330
1F
100
AcDbEntity
  8
0
  6
Continuous
 62
     7
370
    15
100
AcDbLine
 10
265.097743905
 20
253.189633937
 30
0.0
 11
261.5977442626
 21
253.189633937
 31
0.0
  0
ARC
  5
A9
330
1F
100
AcDbEntity
  8
0
  6
Continuous
 62
     7
370
    15
100
AcDbCircle
 10
322.3477436964
 20
307.7191327048
 30
0.0
 40
3.5
100
AcDbArc
 50
115.3769335251
 51
180.0
  0
LINE
  5
AA
330
1F
100
AcDbEntity
  8
0
  6
Continuous
 62
     7
370
    15
100
AcDbLine
 10
318.8477410738
 20
307.7191220237
 30
0.0
 11
318.8477410738
 21
50.7191376401
 31
0.0
  0
ARC
  5
AB
330
1F
100
AcDbEntity
  8
0
  6
Continuous
 62
     7
370
    15
100
AcDbCircle
 10
322.3477436964
 20
50.7191327048
 30
0.0
 40
3.500000000000004
100
AcDbArc
 50
180.0
 51
244.6230664749
  0
LINE
  5
AC
330
1F
100
AcDbEntity
  8
0
  6
Continuous
 62
     7
370
    15
100
AcDbLine
 10
320.8477451269
 20
349.0691290809
 30
0.0
 11
312.8477438156
 21
349.0691290809
 31
0.0
  0
LINE
  5
AD
330
1F
100
AcDbEntity
  8
0
  6
Continuous
 62
     7
370
    15
100
AcDbLine
 10
302.8477459018
 20
336.3691376163
 30
0.0
 11
303.0286832516
 21
336.3691376163
 31
0.0
  0
LINE
  5
AE
330
1F
100
AcDbEntity
  8
0
  6
Continuous
 62
     7
370
    15
100
AcDbLine
 10
312.8477438156
 20
336.3691376163
 30
0.0
 11
320.8477451269
 21
336.3691376163
 31
0.0
  0
LINE
  5
AF
330
1F
100
AcDbEntity
  8
0
  6
Continuous
 62
     7
370
    15
100
AcDbLine
 10
301.8477438752
 20
337.369154544
 30
0.0
 11
302.8477459018
 21
336.3691376163
 31
0.0
  0
LWPOLYLINE
  5
B0
330
1F
100
AcDbEntity
  8
0
  6
Continuous
 62
     7
370
    15
100
AcDbPolyline
 90
        4
 70
   128
 43
0.0
 10
144.6503503983
 20
383.7191568328
 10
143.5977547233
 20
382.1207390739
 10
142.3389716808
 20
380.2092777206
 10
141.0484119122
 20
378.249536605
  0
LWPOLYLINE
  5
B1
330
1F
100
AcDbEntity
  8
0
  6
Continuous
 62
     7
370
    15
100
AcDbPolyline
 90
        8
 70
   128
 43
0.0
 10
148.8418235247
 20
374.6291504813
 10
149.4379221265
 20
375.5343662215
 10
150.6967088942
 20
377.4458275748
 10
151.8927170698
 20
379.2620407058
 10
152.9965056841
 20
380.9381233169
 10
153.9808912937
 20
382.4329482032
 10
154.82163716
 20
383.7096200896
 10
154.8279068236
 20
383.7191568328
  0
LINE
  5
B2
330
1F
100
AcDbEntity
  8
0
  6
Continuous
 62
     7
370
    15
100
AcDbLine
 10
141.0484119122
 20
378.249536605
 30
0.0
 11
138.664263374
 21
374.6291504813
 31
0.0
  0
LINE
  5
B3
330
1F
100
AcDbEntity
  8
0
  6
Continuous
 62
     7
370
    15
100
AcDbLine
 10
155.5977455143
 20
173.228632064
 30
0.0
 11
155.5977455143
 21
219.6906314803
 31
0.0
  0
LINE
  5
B4
330
1F
100
AcDbEntity
  8
0
  6
Continuous
 62
     7
370
    15
100
AcDbLine
 10
155.5977455143
 20
233.2005904628
 30
0.0
 11
155.5977455143
 21
279.6625898792
 31
0.0
  0
LINE
  5
B5
330
1F
100
AcDbEntity
  8
0
  6
Continuous
 62
     7
370
    15
100
AcDbLine
 10
155.5977455143
 20
293.1725488616
 30
0.0
 11
155.5977455143
 21
339.634548278
 31
0.0
  0
LINE
  5
B6
330
1F
100
AcDbEntity
  8
0
  6
Continuous
 62
     7
370
    15
100
AcDbLine
 10
135.0977449481
 20
350.5895839645
 30
0.0
 11
135.0977449481
 21
342.1894417716
 31
0.0
  0
LINE
  5
B7
330
1F
100
AcDbEntity
  8
0
  6
Continuous
 62
     7
370
    15
100
AcDbLine
 10
135.0977449481
 20
290.6176255656
 30
0.0
 11
135.0977449481
 21
282.2175131751
 31
0.0
  0
LINE
  5
B8
330
1F
100
AcDbEntity
  8
0
  6
Continuous
 62
     7
370
    15
100
AcDbLine
 10
135.0977449481
 20
230.6456671668
 30
0.0
 11
135.0977449481
 21
222.2455547763
 31
0.0
  0
LINE
  5
B9
330
1F
100
AcDbEntity
  8
0
  6
Continuous
 62
     7
370
    15
100
AcDbLine
 10
135.0977449481
 20
170.673708768
 30
0.0
 11
135.0977449481
 21
162.2735665752
 31
0.0
  0
LINE
  5
BA
330
1F
100
AcDbEntity
  8
0
  6
Continuous
 62
     7
370
    15
100
AcDbLine
 10
143.5977472727
 20
161.363820882
 30
0.0
 11
143.5977472727
 21
171.5834842635
 31
0.0
  0
LINE
  5
BB
330
1F
100
AcDbEntity
  8
0
  6
Continuous
 62
     7
370
    15
100
AcDbLine
 10
143.5977472727
 20
221.3357792808
 30
0.0
 11
143.5977472727
 21
231.5554426624
 31
0.0
  0
LINE
  5
BC
330
1F
100
AcDbEntity
  8
0
  6
Continuous
 62
     7
370
    15
100
AcDbLine
 10
143.5977472727
 20
281.3077376796
 30
0.0
 11
143.5977472727
 21
291.5274010612
 31
0.0
  0
LINE
  5
BD
330
1F
100
AcDbEntity
  8
0
  6
Continuous
 62
     7
370
    15
100
AcDbLine
 10
143.5977472727
 20
341.2796960784
 30
0.0
 11
143.5977472727
 21
350.4387842132
 31
0.0
  0
LINE
  5
BE
330
1F
100
AcDbEntity
  8
0
  6
Continuous
 62
     7
370
    15
100
AcDbLine
 10
167.597743756
 20
374.6291504813
 30
0.0
 11
167.597743756
 21
383.7191568328
 31
0.0
  0
LINE
  5
BF
330
1F
100
AcDbEntity
  8
0
  6
Continuous
 62
     7
370
    15
100
AcDbLine
 10
159.0977451567
 20
383.7191568328
 30
0.0
 11
159.0977451567
 21
374.6291504813
 31
0.0
  0
LINE
  5
C0
330
1F
100
AcDbEntity
  8
0
  6
Continuous
 62
     7
370
    15
100
AcDbLine
 10
179.5977438603
 20
374.6291504813
 30
0.0
 11
179.5977438603
 21
383.7191568328
 31
0.0
  0
LINE
  5
C1
330
1F
100
AcDbEntity
  8
0
  6
Continuous
 62
     7
370
    15
100
AcDbLine
 10
171.0977433984
 20
383.7191568328
 30
0.0
 11
171.0977433984
 21
374.6291504813
 31
0.0
  0
LINE
  5
C2
330
1F
100
AcDbEntity
  8
0
  6
Continuous
 62
     7
370
    15
100
AcDbLine
 10
155.5977455143
 20
374.6291504813
 30
0.0
 11
155.5977455143
 21
383.7191568328
 31
0.0
  0
LINE
  5
C3
330
1F
100
AcDbEntity
  8
0
  6
Continuous
 62
     7
370
    15
100
AcDbLine
 10
159.0977451567
 20
339.634548278
 30
0.0
 11
159.0977451567
 21
293.1725488616
 31
0.0
  0
LINE
  5
C4
330
1F
100
AcDbEntity
  8
0
  6
Continuous
 62
     7
370
    15
100
AcDbLine
 10
159.0977451567
 20
279.6625898792
 30
0.0
 11
159.0977451567
 21
233.2005904628
 31
0.0
  0
LINE
  5
C5
330
1F
100
AcDbEntity
  8
0
  6
Continuous
 62
     7
370
    15
100
AcDbLine
 10
159.0977451567
 20
219.6906314803
 30
0.0
 11
159.0977451567
 21
173.228632064
 31
0.0
  0
LINE
  5
C6
330
1F
100
AcDbEntity
  8
0
  6
Continuous
 62
     7
370
    15
100
AcDbLine
 10
171.0977433984
 20
350.4387842132
 30
0.0
 11
171.0977433984
 21
341.2796960784
 31
0.0
  0
LINE
  5
C7
330
1F
100
AcDbEntity
  8
0
  6
Continuous
 62
     7
370
    15
100
AcDbLine
 10
171.0977433984
 20
291.5274010612
 30
0.0
 11
171.0977433984
 21
281.3077376796
 31
0.0
  0
LINE
  5
C8
330
1F
100
AcDbEntity
  8
0
  6
Continuous
 62
     7
370
    15
100
AcDbLine
 10
171.0977433984
 20
231.5554426624
 30
0.0
 11
171.0977433984
 21
221.3357792808
 31
0.0
  0
LINE
  5
C9
330
1F
100
AcDbEntity
  8
0
  6
Continuous
 62
     7
370
    15
100
AcDbLine
 10
171.0977433984
 20
171.5834842635
 30
0.0
 11
171.0977433984
 21
161.363820882
 31
0.0
  0
LINE
  5
CA
330
1F
100
AcDbEntity
  8
0
  6
Continuous
 62
     7
370
    15
100
AcDbLine
 10
179.5977438603
 20
162.2735665752
 30
0.0
 11
179.5977438603
 21
170.673708768
 31
0.0
  0
LINE
  5
CB
330
1F
100
AcDbEntity
  8
0
  6
Continuous
 62
     7
370
    15
100
AcDbLine
 10
179.5977438603
 20
222.2455547763
 30
0.0
 11
179.5977438603
 21
230.6456671668
 31
0.0
  0
LINE
  5
CC
330
1F
100
AcDbEntity
  8
0
  6
Continuous
 62
     7
370
    15
100
AcDbLine
 10
179.5977438603
 20
282.2175131751
 30
0.0
 11
179.5977438603
 21
290.6176255656
 31
0.0
  0
LINE
  5
CD
330
1F
100
AcDbEntity
  8
0
  6
Continuous
 62
     7
370
    15
100
AcDbLine
 10
179.5977438603
 20
342.1894417716
 30
0.0
 11
179.5977438603
 21
350.4387842132
 31
0.0
  0
LINE
  5
CE
330
1F
100
AcDbEntity
  8
0
  6
Continuous
 62
     7
370
    15
100
AcDbLine
 10
191.5977439646
 20
374.6291504813
 30
0.0
 11
191.5977439646
 21
383.7191568328
 31
0.0
  0
LINE
  5
CF
330
1F
100
AcDbEntity
  8
0
  6
Continuous
 62
     7
370
    15
100
AcDbLine
 10
183.0977435027
 20
383.7191568328
 30
0.0
 11
183.0977435027
 21
374.6291504813
 31
0.0
  0
LINE
  5
D0
330
1F
100
AcDbEntity
  8
0
  6
Continuous
 62
     7
370
    15
100
AcDbLine
 10
191.5977439646
 20
173.0272577716
 30
0.0
 11
191.5977439646
 21
219.8919759704
 31
0.0
  0
LINE
  5
D1
330
1F
100
AcDbEntity
  8
0
  6
Continuous
 62
     7
370
    15
100
AcDbLine
 10
191.5977439646
 20
232.9992161704
 30
0.0
 11
191.5977439646
 21
279.8639641715
 31
0.0
  0
LINE
  5
D2
330
1F
100
AcDbEntity
  8
0
  6
Continuous
 62
     7
370
    15
100
AcDbLine
 10
191.5977439646
 20
292.9711745692
 30
0.0
 11
191.5977439646
 21
339.835892768
 31
0.0
  0
SPLINE
  5
D3
330
1F
100
AcDbEntity
  8
0
  6
Continuous
 62
     7
370
    15
100
AcDbSpline
210
0.0
220
0.0
230
1.0
 70
     8
 71
     3
 72
    21
 73
    17
 74
     0
 42
0.00000001
 43
0.00000001
 40
0.0
 40
0.0
 40
0.0
 40
0.0
 40
0.011770398135386
 40
0.0696651523120394
 40
0.1318796909350413
 40
0.1994027916190165
 40
0.2720662452511577
 40
0.3490803273190455
 40
0.4294656856903342
 40
0.5123169961534413
 40
0.5969170998883478
 40
0.6827334229474145
 40
0.7693865773340859
 40
0.8566001207335047
 40
0.9441741318354512
 40
1.0
 40
1.0
 40
1.0
 40
1.0
 10
158.8886632387125
 20
138.6139200640907
 30
0.0
 10
158.8938654201118
 20
138.6088916541725
 30
0.0
 10
158.9246554371838
 20
138.5791301338897
 30
0.0
 10
158.790410140627
 20
138.7385594041989
 30
0.0
 10
158.5604688578401
 20
139.1437320366022
 30
0.0
 10
158.2294749386193
 20
139.8578082846461
 30
0.0
 10
157.8549479471116
 20
140.8733908059561
 30
0.0
 10
157.4573442912236
 20
142.1997161985777
 30
0.0
 10
157.0634563277313
 20
143.819779809062
 30
0.0
 10
156.692559079214
 20
145.7076786955588
 30
0.0
 10
156.3602955658373
 20
147.8293530193426
 30
0.0
 10
156.0783680820334
 20
150.1472816524299
 30
0.0
 10
155.8547334313006
 20
152.621951545548
 30
0.0
 10
155.6975513309354
 20
155.2130774281167
 30
0.0
 10
155.6141881747757
 20
157.5549917410175
 30
0.0
 10
155.6048520553925
 20
159.0242571091011
 30
0.0
 10
155.6012174848997
 20
159.5962451411476
 30
0.0
  0
SPLINE
  5
D4
330
1F
100
AcDbEntity
  8
0
  6
Continuous
 62
     7
370
    15
100
AcDbSpline
210
0.0
220
0.0
230
1.0
 70
     8
 71
     3
 72
    14
 73
    10
 74
     0
 42
0.00000001
 43
0.00000001
 40
0.0
 40
0.0
 40
0.0
 40
0.0
 40
0.1517752422977633
 40
0.3553375678972732
 40
0.5243664784630137
 40
0.6758764970304366
 40
0.8181093670542867
 40
0.956116164561426
 40
1.0
 40
1.0
 40
1.0
 40
1.0
 10
150.9977421526396
 20
135.3535757971992
 30
0.0
 10
151.1734514353021
 20
134.9983451526708
 30
0.0
 10
151.5848235946414
 20
134.1666759597357
 30
0.0
 10
152.3702393141228
 20
133.1090244075818
 30
0.0
 10
153.3332732653798
 20
132.1316594359541
 30
0.0
 10
154.3925290032887
 20
131.3962848946152
 30
0.0
 10
155.5654067524767
 20
130.8953259350346
 30
0.0
 10
156.5446145537589
 20
130.7050517218967
 30
0.0
 10
157.1030210461368
 20
130.6926287746318
 30
0.0
 10
157.2377449635947
 20
130.6896315528144
 30
0.0
  0
SPLINE
  5
D5
330
1F
100
AcDbEntity
  8
0
  6
Continuous
 62
     7
370
    15
100
AcDbSpline
210
0.0
220
0.0
230
1.0
 70
     8
 71
     3
 72
    19
 73
    15
 74
     0
 42
0.00000001
 43
0.00000001
 40
0.0
 40
0.0
 40
0.0
 40
0.0
 40
0.0382060409928198
 40
0.1292812701137697
 40
0.2204780541004373
 40
0.3118904112621343
 40
0.4036750595753678
 40
0.4960368193678392
 40
0.5892722269116196
 40
0.6838451686643898
 40
0.7805129942329686
 40
0.8805917340538801
 40
0.9862273665245
 40
1.0
 40
1.0
 40
1.0
 40
1.0
 10
159.0999058250868
 20
159.6289680911293
 30
0.0
 10
159.1017737003921
 20
159.2207674385635
 30
0.0
 10
159.1080942006483
 20
157.8395016111279
 30
0.0
 10
159.175816387581
 20
155.493662136277
 30
0.0
 10
159.3305428968721
 20
152.6339557198633
 30
0.0
 10
159.5626652607693
 20
149.8519591424423
 30
0.0
 10
159.8691063409573
 20
147.1752375226014
 30
0.0
 10
160.2499120853331
 20
144.6280303780411
 30
0.0
 10
160.7052001851347
 20
142.2299288284862
 30
0.0
 10
161.2406506927259
 20
139.9954890390434
 30
0.0
 10
161.8605367792782
 20
137.9237734949547
 30
0.0
 10
162.6193709469843
 20
136.0224249726703
 30
0.0
 10
163.2063878912331
 20
134.7652055166644
 30
0.0
 10
163.6469321124421
 20
134.1704749045021
 30
0.0
 10
163.6977447931254
 20
134.1018782569161
 30
0.0
  0
SPLINE
  5
D6
330
1F
100
AcDbEntity
  8
0
  6
Continuous
 62
     7
370
    15
100
AcDbSpline
210
0.0
220
0.0
230
1.0
 70
     8
 71
     3
 72
    21
 73
    17
 74
     0
 42
0.00000001
 43
0.00000001
 40
0.0
 40
0.0
 40
0.0
 40
0.0
 40
0.0014852977785139
 40
0.0563372833813262
 40
0.1159846692152477
 40
0.1813809258581707
 40
0.2523314180860891
 40
0.3279677063018184
 40
0.4072067676970212
 40
0.4890526932532135
 40
0.5727229239621066
 40
0.6576504889558868
 40
0.7434332383451628
 40
0.8297901707327721
 40
0.9165177881804959
 40
0.9999999999999999
 40
0.9999999999999999
 40
0.9999999999999999
 40
0.9999999999999999
 10
194.6679503460014
 20
138.4683655215492
 30
0.0
 10
194.6688117745541
 20
138.4674887136107
 30
0.0
 10
194.7014857239751
 20
138.4342314247273
 30
0.0
 10
194.5898506345857
 20
138.5654657800921
 30
0.0
 10
194.4009656968334
 20
138.9167136371497
 30
0.0
 10
194.103484982697
 20
139.581172162761
 30
0.0
 10
193.762294516541
 20
140.5452057874059
 30
0.0
 10
193.3940561441988
 20
141.8241877670358
 30
0.0
 10
193.0257923371016
 20
143.4018860978289
 30
0.0
 10
192.6760376993613
 20
145.2534824138874
 30
0.0
 10
192.3600851211625
 20
147.3451358783753
 30
0.0
 10
192.0892330593318
 20
149.6395317570783
 30
0.0
 10
191.8712773901837
 20
152.0973605330421
 30
0.0
 10
191.7136126174431
 20
154.6785205015983
 30
0.0
 10
191.615605244817
 20
157.3071029763983
 30
0.0
 10
191.6036215600326
 20
159.0733450222003
 30
0.0
 10
191.5977439646208
 20
159.9396274996986
 30
0.0
  0
SPLINE
  5
D7
330
1F
100
AcDbEntity
  8
0
  6
Continuous
 62
     7
370
    15
100
AcDbSpline
210
0.0
220
0.0
230
1.0
 70
     8
 71
     3
 72
    15
 73
    11
 74
     0
 42
0.00000001
 43
0.00000001
 40
0.0
 40
0.0
 40
0.0
 40
0.0
 40
0.0930518637520341
 40
0.3038614836169249
 40
0.4705004632195045
 40
0.6054495445050496
 40
0.7256846438443184
 40
0.8381306471838377
 40
0.9471175140135211
 40
1.0
 40
1.0
 40
1.0
 40
1.0
 10
185.9977441642964
 20
137.0822893096199
 30
0.0
 10
186.1009354465695
 20
136.7837321585168
 30
0.0
 10
186.4379072692016
 20
135.8087917841859
 30
0.0
 10
187.0762314142874
 20
134.5308348988687
 30
0.0
 10
187.9235257081505
 20
133.2332765662408
 30
0.0
 10
188.8211447476022
 20
132.2556254287529
 30
0.0
 10
189.8113491485015
 20
131.4998737044205
 30
0.0
 10
190.929870372678
 20
130.963525766205
 30
0.0
 10
191.9486925665755
 20
130.7175748403677
 30
0.0
 10
192.5685115443693
 20
130.6965125672946
 30
0.0
 10
192.7710055176699
 20
130.6896315528144
 30
0.0
  0
LINE
  5
D8
330
1F
100
AcDbEntity
  8
0
  6
Continuous
 62
     7
370
    15
100
AcDbLine
 10
157.2377449636
 20
130.6896315528
 30
0.0
 11
157.4577419822
 21
130.6896315528
 31
0.0
  0
LINE
  5
D9
330
1F
100
AcDbEntity
  8
0
  6
Continuous
 62
     7
370
    15
100
AcDbLine
 10
192.7710055177
 20
130.6896315528
 30
0.0
 11
192.92448189
 21
130.6896315528
 31
0.0
  0
LINE
  5
DA
330
1F
100
AcDbEntity
  8
0
  6
Continuous
 62
     7
370
    15
100
AcDbLine
 10
202.597743905
 20
374.6291504813
 30
0.0
 11
202.597743905
 21
383.7191568328
 31
0.0
  0
LINE
  5
DB
330
1F
100
AcDbEntity
  8
0
  6
Continuous
 62
     7
370
    15
100
AcDbLine
 10
194.0977434431
 20
383.7191568328
 30
0.0
 11
194.0977434431
 21
374.6291504813
 31
0.0
  0
SPLINE
  5
DC
330
1F
100
AcDbEntity
  8
0
  6
Continuous
 62
     7
370
    15
100
AcDbSpline
210
0.0
220
0.0
230
1.0
 70
     8
 71
     3
 72
    14
 73
    10
 74
     0
 42
0.00000001
 43
0.00000001
 40
0.0
 40
0.0
 40
0.0
 40
0.0
 40
0.0662880072205797
 40
0.2276973627319704
 40
0.3889597898636656
 40
0.5497748684322191
 40
0.709861429827355
 40
0.8688573252553313
 40
1.0
 40
1.0
 40
1.0
 40
1.0
 10
194.0957578633511
 20
159.6296833468666
 30
0.0
 10
194.094186032433
 20
159.2591387670373
 30
0.0
 10
194.0887868392801
 20
157.9863289913415
 30
0.0
 10
194.0311193664733
 20
155.8224302854088
 30
0.0
 10
193.8996894430894
 20
153.1893354207646
 30
0.0
 10
193.7050039693922
 20
150.6536674344955
 30
0.0
 10
193.4515751435367
 20
148.2633154348388
 30
0.0
 10
193.1670201961147
 20
146.1504504130131
 30
0.0
 10
192.9484098668407
 20
144.9457553757489
 30
0.0
 10
192.8495979670965
 20
144.4012330485572
 30
0.0
  0
SPLINE
  5
DD
330
1F
100
AcDbEntity
  8
0
  6
Continuous
 62
     7
370
    15
100
AcDbSpline
210
0.0
220
0.0
230
1.0
 70
     8
 71
     3
 72
    13
 73
     9
 74
     0
 42
0.00000001
 43
0.00000001
 40
0.0
 40
0.0
 40
0.0
 40
0.0
 40
0.1479712222584787
 40
0.2985608076218323
 40
0.450098452862984
 40
0.6110345666742493
 40
0.7922588018922689
 40
1.0
 40
1.0
 40
1.0
 40
1.0
 10
192.9244818900311
 20
130.6896315528144
 30
0.0
 10
193.3417331734537
 20
130.717966093029
 30
0.0
 10
194.1836190365189
 20
130.7751365555079
 30
0.0
 10
195.3469971303543
 20
131.210453028044
 30
0.0
 10
196.366035785902
 20
131.8340613422184
 30
0.0
 10
197.2470729175613
 20
132.6324658640857
 30
0.0
 10
198.0368648038031
 20
133.5962842190131
 30
0.0
 10
198.4676613687978
 20
134.349613366001
 30
0.0
 10
198.6977440108144
 20
134.7519563151588
 30
0.0
  0
LINE
  5
DE
330
1F
100
AcDbEntity
  8
0
  6
Continuous
 62
     7
370
    15
100
AcDbLine
 10
150.9977421526
 20
134.1084943725
 30
0.0
 11
151.3490072255
 21
134.6853481246
 31
0.0
  0
SPLINE
  5
DF
330
1F
100
AcDbEntity
  8
0
  6
Continuous
 62
     7
370
    15
100
AcDbSpline
210
0.0
220
0.0
230
1.0
 70
     8
 71
     3
 72
     9
 73
     5
 74
     0
 42
0.00000001
 43
0.00000001
 40
0.0
 40
0.0
 40
0.0
 40
0.0
 40
0.6260950594181945
 40
1.0
 40
1.0
 40
1.0
 40
1.0
 10
185.9977441642964
 20
132.798235268711
 30
0.0
 10
186.2780565683034
 20
133.1132862171786
 30
0.0
 10
186.7257719747585
 20
133.6164860807271
 30
0.0
 10
187.059067590694
 20
134.1968485667996
 30
0.0
 10
187.1836884681666
 20
134.4138489676704
 30
0.0
  0
SPLINE
  5
E0
330
1F
100
AcDbEntity
  8
0
  6
Continuous
 62
     7
370
    15
100
AcDbSpline
210
0.0
220
0.0
230
1.0
 70
     8
 71
     3
 72
    15
 73
    11
 74
     0
 42
0.00000001
 43
0.00000001
 40
0.0
 40
0.0
 40
0.0
 40
0.0
 40
0.0573873581308561
 40
0.1972831995322538
 40
0.3370382835568201
 40
0.4763792247577759
 40
0.6150511652907673
 40
0.7527269654878941
 40
0.8889581208229734
 40
1.0
 40
1.0
 40
1.0
 40
1.0
 10
159.0955882136309
 20
159.629713149189
 30
0.0
 10
159.0938876818279
 20
159.2607259709168
 30
0.0
 10
159.0880416842783
 20
157.9922415261387
 30
0.0
 10
159.0255890021828
 20
155.8356740396416
 30
0.0
 10
158.8833879683887
 20
153.210933041719
 30
0.0
 10
158.6723903398789
 20
150.6866528433548
 30
0.0
 10
158.3994924102225
 20
148.3003405004882
 30
0.0
 10
158.0698246567402
 20
146.1003712313023
 30
0.0
 10
157.7179738729128
 20
144.2042082774139
 30
0.0
 10
157.463240212885
 20
143.1674894607011
 30
0.0
 10
157.348848021456
 20
142.7019344283332
 30
0.0
  0
SPLINE
  5
E1
330
1F
100
AcDbEntity
  8
0
  6
Continuous
 62
     7
370
    15
100
AcDbSpline
210
0.0
220
0.0
230
1.0
 70
     8
 71
     3
 72
    13
 73
     9
 74
     0
 42
0.00000001
 43
0.00000001
 40
0.0
 40
0.0
 40
0.0
 40
0.0
 40
0.1685901914807496
 40
0.3248819577854687
 40
0.4835924959863347
 40
0.6533739960541274
 40
0.8453123034618688
 40
1.0
 40
1.0
 40
1.0
 40
1.0
 10
157.4577419821703
 20
130.6896315528144
 30
0.0
 10
157.9257763309953
 20
130.7238468114983
 30
0.0
 10
158.8277025594526
 20
130.7897813722798
 30
0.0
 10
160.0488442884977
 20
131.2681023171559
 30
0.0
 10
161.0966226222927
 20
131.922178822907
 30
0.0
 10
162.0174213695877
 20
132.768927199559
 30
0.0
 10
162.7725633264898
 20
133.6834895512163
 30
0.0
 10
163.1711383640442
 20
134.376209964569
 30
0.0
 10
163.3490091924155
 20
134.6853481246224
 30
0.0
  0
LINE
  5
E2
330
1F
100
AcDbEntity
  8
0
  6
Continuous
 62
     7
370
    15
100
AcDbLine
 10
194.0977434431
 20
339.634548278
 30
0.0
 11
194.0977434431
 21
293.1725488616
 31
0.0
  0
LINE
  5
E3
330
1F
100
AcDbEntity
  8
0
  6
Continuous
 62
     7
370
    15
100
AcDbLine
 10
194.0977434431
 20
279.6625898792
 30
0.0
 11
194.0977434431
 21
257.6896356059
 31
0.0
  0
LINE
  5
E4
330
1F
100
AcDbEntity
  8
0
  6
Continuous
 62
     7
370
    15
100
AcDbLine
 10
194.0977434431
 20
245.6896410896
 30
0.0
 11
194.0977434431
 21
233.2005904628
 31
0.0
  0
LINE
  5
E5
330
1F
100
AcDbEntity
  8
0
  6
Continuous
 62
     7
370
    15
100
AcDbLine
 10
194.0977434431
 20
219.6906314803
 30
0.0
 11
194.0977434431
 21
173.228632064
 31
0.0
  0
LINE
  5
E6
330
1F
100
AcDbEntity
  8
0
  6
Continuous
 62
     7
370
    15
100
AcDbLine
 10
215.017321593
 20
469.1191421462
 30
0.0
 11
213.7052559563
 21
479.8405872298
 31
0.0
  0
LINE
  5
E7
330
1F
100
AcDbEntity
  8
0
  6
Continuous
 62
     7
370
    15
100
AcDbLine
 10
196.9902311255
 20
479.8405872298
 30
0.0
 11
195.6781652559
 21
469.1191421462
 31
0.0
  0
ARC
  5
E8
330
1F
100
AcDbEntity
  8
0
  6
Continuous
 62
     7
370
    15
100
AcDbCircle
 10
212.7126610057
 20
479.7191327048
 30
0.0
 40
1.000000000000015
100
AcDbArc
 50
6.9770293009
 51
90.0
  0
ARC
  5
E9
330
1F
100
AcDbEntity
  8
0
  6
Continuous
 62
     7
370
    15
100
AcDbCircle
 10
197.9828263871
 20
479.7191327048
 30
0.0
 40
1.000000000000015
100
AcDbArc
 50
90.0
 51
173.0229706991
  0
LINE
  5
EA
330
1F
100
AcDbEntity
  8
0
  6
Continuous
 62
     7
370
    15
100
AcDbLine
 10
157.0977448289
 20
250.1896427585
 30
0.0
 11
159.0977451567
 21
250.1896427585
 31
0.0
  0
LINE
  5
EB
330
1F
100
AcDbEntity
  8
0
  6
Continuous
 62
     7
370
    15
100
AcDbLine
 10
191.5977439646
 20
250.1896427585
 30
0.0
 11
192.5977441285
 21
250.1896427585
 31
0.0
  0
LINE
  5
EC
330
1F
100
AcDbEntity
  8
0
  6
Continuous
 62
     7
370
    15
100
AcDbLine
 10
192.5977441285
 20
253.189633937
 30
0.0
 11
191.5977439646
 21
253.189633937
 31
0.0
  0
LINE
  5
ED
330
1F
100
AcDbEntity
  8
0
  6
Continuous
 62
     7
370
    15
100
AcDbLine
 10
159.0977451567
 20
253.189633937
 30
0.0
 11
157.0977448289
 21
253.189633937
 31
0.0
  0
LINE
  5
EE
330
1F
100
AcDbEntity
  8
0
  6
Continuous
 62
     7
370
    15
100
AcDbLine
 10
61.047743148
 20
-224.3476739513
 30
0.0
 11
358.6477442448
 21
-224.3476739513
 31
0.0
  0
ARC
  5
EF
330
1F
100
AcDbEntity
  8
0
  6
Continuous
 62
     7
370
    15
100
AcDbCircle
 10
97.3477436963
 20
307.7191327048
 30
0.0
 40
3.5
100
AcDbArc
 50
0.0
 51
64.6230664742
  0
LINE
  5
F0
330
1F
100
AcDbEntity
  8
0
  6
Continuous
 62
     7
370
    15
100
AcDbLine
 10
100.847746319
 20
50.7191376401
 30
0.0
 11
100.847746319
 21
307.7191220237
 31
0.0
  0
ARC
  5
F1
330
1F
100
AcDbEntity
  8
0
  6
Continuous
 62
     7
370
    15
100
AcDbCircle
 10
97.3477436963
 20
50.7191327048
 30
0.0
 40
3.500000000000005
100
AcDbArc
 50
295.3769335258
 51
0.0
  0
LINE
  5
F2
330
1F
100
AcDbEntity
  8
0
  6
Continuous
 62
     7
370
    15
100
AcDbLine
 10
320.8477451269
 20
22.0691369487
 30
0.0
 11
312.8477438156
 21
22.0691369487
 31
0.0
  0
LINE
  5
F3
330
1F
100
AcDbEntity
  8
0
  6
Continuous
 62
     7
370
    15
100
AcDbLine
 10
303.6977453892
 20
22.0691369487
 30
0.0
 11
302.8477459018
 21
22.0691369487
 31
0.0
  0
LINE
  5
F4
330
1F
100
AcDbEntity
  8
0
  6
Continuous
 62
     7
370
    15
100
AcDbLine
 10
302.8477459018
 20
9.3691305829
 30
0.0
 11
303.6977453892
 21
9.3691305829
 31
0.0
  0
LINE
  5
F5
330
1F
100
AcDbEntity
  8
0
  6
Continuous
 62
     7
370
    15
100
AcDbLine
 10
312.8477438156
 20
9.3691305829
 30
0.0
 11
320.8477451269
 21
9.3691305829
 31
0.0
  0
LINE
  5
F6
330
1F
100
AcDbEntity
  8
0
  6
Continuous
 62
     7
370
    15
100
AcDbLine
 10
302.8477459018
 20
22.0691369487
 30
0.0
 11
301.8477438752
 21
21.0691349221
 31
0.0
  0
LINE
  5
F7
330
1F
100
AcDbEntity
  8
0
  6
Continuous
 62
     7
370
    15
100
AcDbLine
 10
301.8477438752
 20
10.3691326095
 30
0.0
 11
302.8477459018
 21
9.3691305829
 31
0.0
  0
LINE
  5
F8
330
1F
100
AcDbEntity
  8
0
  6
Continuous
 62
     7
370
    15
100
AcDbLine
 10
358.6477442448
 20
-224.0476763235
 30
0.0
 11
359.8477496569
 21
-224.0476763235
 31
0.0
  0
LINE
  5
F9
330
1F
100
AcDbEntity
  8
0
  6
Continuous
 62
     7
370
    15
100
AcDbLine
 10
98.8477422659
 20
336.3691376163
 30
0.0
 11
106.8477435772
 21
336.3691376163
 31
0.0
  0
LINE
  5
FA
330
1F
100
AcDbEntity
  8
0
  6
Continuous
 62
     7
370
    15
100
AcDbLine
 10
116.6668041412
 20
336.3691376163
 30
0.0
 11
116.847741491
 21
336.3691376163
 31
0.0
  0
LINE
  5
FB
330
1F
100
AcDbEntity
  8
0
  6
Continuous
 62
     7
370
    15
100
AcDbLine
 10
106.8477435772
 20
349.0691290809
 30
0.0
 11
98.8477422659
 21
349.0691290809
 31
0.0
  0
LINE
  5
FC
330
1F
100
AcDbEntity
  8
0
  6
Continuous
 62
     7
370
    15
100
AcDbLine
 10
116.847741491
 20
336.3691376163
 30
0.0
 11
117.8477435176
 21
337.369154544
 31
0.0
  0
LINE
  5
FD
330
1F
100
AcDbEntity
  8
0
  6
Continuous
 62
     7
370
    15
100
AcDbLine
 10
114.8477448885
 20
-42.7808655785
 30
0.0
 11
114.8477448885
 21
-36.6319014119
 31
0.0
  0
LINE
  5
FE
330
1F
100
AcDbEntity
  8
0
  6
Continuous
 62
     7
370
    15
100
AcDbLine
 10
106.8477435772
 20
-35.8242584752
 30
0.0
 11
106.8477435772
 21
-42.7808655785
 31
0.0
  0
LINE
  5
FF
330
1F
100
AcDbEntity
  8
0
  6
Continuous
 62
     7
370
    15
100
AcDbLine
 10
297.4335281913
 20
459.7191320373
 30
0.0
 11
289.5477442805
 21
459.7191320373
 31
0.0
  0
LINE
  5
100
330
1F
100
AcDbEntity
  8
0
  6
Continuous
 62
     7
370
    15
100
AcDbLine
 10
289.5477442805
 20
424.7191058112
 30
0.0
 11
297.4335281913
 21
424.7191058112
 31
0.0
  0
LINE
  5
101
330
1F
100
AcDbEntity
  8
0
  6
Continuous
 62
     7
370
    15
100
AcDbLine
 10
300.3477408354
 20
424.7191058112
 30
0.0
 11
300.8477418487
 21
425.2191291763
 31
0.0
  0
LINE
  5
102
330
1F
100
AcDbEntity
  8
0
  6
Continuous
 62
     7
370
    15
100
AcDbLine
 10
300.8477418487
 20
459.2191086723
 30
0.0
 11
300.3477408354
 21
459.7191320373
 31
0.0
  0
LINE
  5
103
330
1F
100
AcDbEntity
  8
0
  6
Continuous
 62
     7
370
    15
100
AcDbLine
 10
300.3477408354
 20
459.7191320373
 30
0.0
 11
298.2619582478
 21
459.7191320373
 31
0.0
  0
LINE
  5
104
330
1F
100
AcDbEntity
  8
0
  6
Continuous
 62
     7
370
    15
100
AcDbLine
 10
298.2619582478
 20
424.7191058112
 30
0.0
 11
300.3477408354
 21
424.7191058112
 31
0.0
  0
LINE
  5
105
330
1F
100
AcDbEntity
  8
0
  6
Continuous
 62
     7
370
    15
100
AcDbLine
 10
298.2619582478
 20
459.7191320373
 30
0.0
 11
297.8477432196
 21
458.7191449119
 31
0.0
  0
LINE
  5
106
330
1F
100
AcDbEntity
  8
0
  6
Continuous
 62
     7
370
    15
100
AcDbLine
 10
297.8477432196
 20
425.7191525413
 30
0.0
 11
298.2619582478
 21
424.7191058112
 31
0.0
  0
LINE
  5
107
330
1F
100
AcDbEntity
  8
0
  6
Continuous
 62
     7
370
    15
100
AcDbLine
 10
297.4335281913
 20
424.7191058112
 30
0.0
 11
297.8477432196
 21
425.7191525413
 31
0.0
  0
LINE
  5
108
330
1F
100
AcDbEntity
  8
0
  6
Continuous
 62
     7
370
    15
100
AcDbLine
 10
297.8477432196
 20
458.7191449119
 30
0.0
 11
297.4335281913
 21
459.7191320373
 31
0.0
  0
LINE
  5
109
330
1F
100
AcDbEntity
  8
0
  6
Continuous
 62
     7
370
    15
100
AcDbLine
 10
231.3477444266
 20
-229.8647059487
 30
0.0
 11
231.3477444266
 21
-229.8681257652
 31
0.0
  0
LINE
  5
10A
330
1F
100
AcDbEntity
  8
0
  6
Continuous
 62
     7
370
    15
100
AcDbLine
 10
237.3477435474
 20
-229.8681257652
 30
0.0
 11
237.3477435474
 21
-229.8647059487
 31
0.0
  0
LINE
  5
10B
330
1F
100
AcDbEntity
  8
0
  6
Continuous
 62
     7
370
    15
100
AcDbLine
 10
232.3477445905
 20
-229.8647059487
 30
0.0
 11
232.3477445905
 21
-229.8681257652
 31
0.0
  0
LINE
  5
10C
330
1F
100
AcDbEntity
  8
0
  6
Continuous
 62
     7
370
    15
100
AcDbLine
 10
59.8477377359
 20
-242.9407505678
 30
0.0
 11
359.8477496569
 21
-242.9407505678
 31
0.0
  0
LINE
  5
10D
330
1F
100
AcDbEntity
  8
0
  6
Continuous
 62
     7
370
    15
100
AcDbLine
 10
286.8477432792
 20
383.7191568328
 30
0.0
 11
286.8477432792
 21
378.1253801299
 31
0.0
  0
LINE
  5
10E
330
1F
100
AcDbEntity
  8
0
  6
Continuous
 62
     7
370
    15
100
AcDbLine
 10
292.8477405374
 20
378.1253801299
 30
0.0
 11
292.8477405374
 21
424.7191058112
 31
0.0
  0
LINE
  5
10F
330
1F
100
AcDbEntity
  8
0
  6
Continuous
 62
     7
370
    15
100
AcDbLine
 10
132.8477441136
 20
378.1253801299
 30
0.0
 11
132.8477441136
 21
383.7191568328
 31
0.0
  0
LINE
  5
110
330
1F
100
AcDbEntity
  8
0
  6
Continuous
 62
     7
370
    15
100
AcDbLine
 10
126.8477468554
 20
424.7191058112
 30
0.0
 11
126.8477468554
 21
378.1253801299
 31
0.0
  0
SPLINE
  5
111
330
1F
100
AcDbEntity
  8
0
  6
Continuous
 62
     7
370
    15
100
AcDbSpline
210
0.0
220
0.0
230
1.0
 70
     8
 71
     3
 72
    15
 73
    11
 74
     0
 42
0.00000001
 43
0.00000001
 40
0.0
 40
0.0
 40
0.0
 40
0.0
 40
0.0629960485354913
 40
0.2032775147427399
 40
0.3437748348951375
 40
0.4847535224260515
 40
0.6268535439143089
 40
0.7708270102697219
 40
0.9173153626843306
 40
1.0
 40
1.0
 40
1.0
 40
1.0
 10
298.8477452461207
 20
372.68723115456
 30
0.0
 10
298.6454449205937
 20
372.692866709679
 30
0.0
 10
297.9926562400208
 20
372.7110516858072
 30
0.0
 10
296.9050687380342
 20
372.9342498738127
 30
0.0
 10
295.676848683116
 20
373.456308316118
 30
0.0
 10
294.6124655795714
 20
374.2131937064935
 30
0.0
 10
293.7607453497393
 20
375.1601779741348
 30
0.0
 10
293.1648718541121
 20
376.2532653855957
 30
0.0
 10
292.8836717167965
 20
377.2655528008015
 30
0.0
 10
292.8572671811902
 20
377.8974090793707
 30
0.0
 10
292.8477405373537
 20
378.1253801299324
 30
0.0
  0
SPLINE
  5
112
330
1F
100
AcDbEntity
  8
0
  6
Continuous
 62
     7
370
    15
100
AcDbSpline
210
0.0
220
0.0
230
1.0
 70
     8
 71
     3
 72
     9
 73
     5
 74
     0
 42
0.00000001
 43
0.00000001
 40
0.0
 40
0.0
 40
0.0
 40
0.0
 40
0.9566075257884391
 40
1.0
 40
1.0
 40
1.0
 40
1.0
 10
286.8477432791674
 20
378.1253801299324
 30
0.0
 10
286.8428494546109
 20
377.7425963888203
 30
0.0
 10
286.8377336423007
 20
377.3424492743636
 30
0.0
 10
286.9138857140996
 20
376.9515601814918
 30
0.0
 10
286.9171901409113
 20
376.9345985366096
 30
0.0
  0
SPLINE
  5
113
330
1F
100
AcDbEntity
  8
0
  6
Continuous
 62
     7
370
    15
100
AcDbSpline
210
0.0
220
0.0
230
1.0
 70
     8
 71
     3
 72
    16
 73
    12
 74
     0
 42
0.00000001
 43
0.00000001
 40
0.0
 40
0.0
 40
0.0
 40
0.0
 40
0.0012783423504724
 40
0.1414361804650916
 40
0.2818748357987275
 40
0.4227014775872002
 40
0.5639648090107031
 40
0.7056647337498656
 40
0.8477594319756069
 40
0.9829705114125907
 40
1.0
 40
1.0
 40
1.0
 40
1.0
 10
287.9037364189112
 20
373.435329051136
 30
0.0
 10
287.905722116641
 20
373.430022773459
 30
0.0
 10
288.1254203080999
 20
372.842934622289
 30
0.0
 10
288.8272798438465
 20
371.780068490056
 30
0.0
 10
290.0044285564956
 20
370.3097320081902
 30
0.0
 10
291.4490164931149
 20
369.056814509501
 30
0.0
 10
293.0795818916806
 20
368.0367726934596
 30
0.0
 10
294.8667313736017
 20
367.2810038802049
 30
0.0
 10
296.7287464093887
 20
366.8186251043837
 30
0.0
 10
298.0740412684464
 20
366.6919578592832
 30
0.0
 10
298.7699064167284
 20
366.6876689466728
 30
0.0
 10
298.8477452461207
 20
366.6871891928902
 30
0.0
  0
SPLINE
  5
114
330
1F
100
AcDbEntity
  8
0
  6
Continuous
 62
     7
370
    15
100
AcDbSpline
210
0.0
220
0.0
230
1.0
 70
     8
 71
     3
 72
    15
 73
    11
 74
     0
 42
0.00000001
 43
0.00000001
 40
0.0
 40
0.0
 40
0.0
 40
0.0
 40
0.0621488089649393
 40
0.2125427828552861
 40
0.3622259585253615
 40
0.509622821646521
 40
0.6545604111822552
 40
0.7975353112526148
 40
0.9391806937811475
 40
1.0
 40
1.0
 40
1.0
 40
1.0
 10
126.8477468554461
 20
378.1253801299324
 30
0.0
 10
126.8422628496873
 20
377.9540896595565
 30
0.0
 10
126.8235080921212
 20
377.3682931840227
 30
0.0
 10
126.5833594389507
 20
376.379848318142
 30
0.0
 10
125.9936041831455
 20
375.2382902435507
 30
0.0
 10
125.1265264677287
 20
374.2480073611845
 30
0.0
 10
124.0374187829468
 20
373.4644086071477
 30
0.0
 10
122.7867142658965
 20
372.9316794119675
 30
0.0
 10
121.693102114938
 20
372.7101126783195
 30
0.0
 10
121.0430225577854
 20
372.692516847678
 30
0.0
 10
120.8477421466792
 20
372.68723115456
 30
0.0
  0
SPLINE
  5
115
330
1F
100
AcDbEntity
  8
0
  6
Continuous
 62
     7
370
    15
100
AcDbSpline
210
0.0
220
0.0
230
1.0
 70
     8
 71
     3
 72
    15
 73
    11
 74
     0
 42
0.00000001
 43
0.00000001
 40
0.0
 40
0.0
 40
0.0
 40
0.0
 40
0.0846475530448938
 40
0.2275828778001408
 40
0.370684992155677
 40
0.5137398287030744
 40
0.6566207259054178
 40
0.7992028983026268
 40
0.941373687611886
 40
1.0
 40
1.0
 40
1.0
 40
1.0
 10
120.8477421466792
 20
366.6871891928901
 30
0.0
 10
121.2340720445636
 20
366.6978289908832
 30
0.0
 10
122.2727561739695
 20
366.726435084732
 30
0.0
 10
123.9456111281765
 20
367.0246005779467
 30
0.0
 10
125.8007717166309
 20
367.64919855152
 30
0.0
 10
127.5246937994995
 20
368.559595790903
 30
0.0
 10
129.0756257758621
 20
369.7233529150862
 30
0.0
 10
130.3883499754074
 20
371.1203034957144
 30
0.0
 10
131.2925314490746
 20
372.3722103214413
 30
0.0
 10
131.6446268945876
 20
373.1897725674704
 30
0.0
 10
131.7474274699175
 20
373.4284745169868
 30
0.0
  0
LINE
  5
116
330
1F
100
AcDbEntity
  8
0
  6
Continuous
 62
     7
370
    15
100
AcDbLine
 10
132.7456041042
 20
376.950811
 30
0.0
 11
132.8477441136
 21
378.1253801299
 31
0.0
  0
LINE
  5
117
330
1F
100
AcDbEntity
  8
0
  6
Continuous
 62
     7
370
    15
100
AcDbLine
 10
334.3477426831
 20
372.6872311546
 30
0.0
 11
298.8477452461
 21
372.6872311546
 31
0.0
  0
LINE
  5
118
330
1F
100
AcDbEntity
  8
0
  6
Continuous
 62
     7
370
    15
100
AcDbLine
 10
298.8477452461
 20
366.6871891929
 30
0.0
 11
334.3477426831
 21
366.6871891929
 31
0.0
  0
LINE
  5
119
330
1F
100
AcDbEntity
  8
0
  6
Continuous
 62
     7
370
    15
100
AcDbLine
 10
334.3477426831
 20
366.6871891929
 30
0.0
 11
334.8477436964
 21
367.1872125579
 31
0.0
  0
LINE
  5
11A
330
1F
100
AcDbEntity
  8
0
  6
Continuous
 62
     7
370
    15
100
AcDbLine
 10
334.8477436964
 20
372.1872077895
 30
0.0
 11
334.3477426831
 21
372.6872311546
 31
0.0
  0
LINE
  5
11B
330
1F
100
AcDbEntity
  8
0
  6
Continuous
 62
     7
370
    15
100
AcDbLine
 10
85.3477447097
 20
366.6871891929
 30
0.0
 11
120.8477421467
 21
366.6871891929
 31
0.0
  0
LINE
  5
11C
330
1F
100
AcDbEntity
  8
0
  6
Continuous
 62
     7
370
    15
100
AcDbLine
 10
120.8477421467
 20
372.6872311546
 30
0.0
 11
85.3477447097
 21
372.6872311546
 31
0.0
  0
LINE
  5
11D
330
1F
100
AcDbEntity
  8
0
  6
Continuous
 62
     7
370
    15
100
AcDbLine
 10
85.3477447097
 20
372.6872311546
 30
0.0
 11
84.8477436964
 21
372.1872077895
 31
0.0
  0
LINE
  5
11E
330
1F
100
AcDbEntity
  8
0
  6
Continuous
 62
     7
370
    15
100
AcDbLine
 10
84.8477436964
 20
367.1872125579
 30
0.0
 11
85.3477447097
 21
366.6871891929
 31
0.0
  0
LINE
  5
11F
330
1F
100
AcDbEntity
  8
0
  6
Continuous
 62
     7
370
    15
100
AcDbLine
 10
166.4698003594
 20
565.9191118194
 30
0.0
 11
166.4698003594
 21
560.5191098167
 31
0.0
  0
LINE
  5
120
330
1F
100
AcDbEntity
  8
0
  6
Continuous
 62
     7
370
    15
100
AcDbLine
 10
166.4698003594
 20
565.9191118194
 30
0.0
 11
182.3091461126
 21
565.9191118194
 31
0.0
  0
LINE
  5
121
330
1F
100
AcDbEntity
  8
0
  6
Continuous
 62
     7
370
    15
100
AcDbLine
 10
182.3091461126
 20
565.9191118194
 30
0.0
 11
182.3091461126
 21
560.5191098167
 31
0.0
  0
LINE
  5
122
330
1F
100
AcDbEntity
  8
0
  6
Continuous
 62
     7
370
    15
100
AcDbLine
 10
166.4698003594
 20
560.5191098167
 30
0.0
 11
182.3091461126
 21
560.5191098167
 31
0.0
  0
LINE
  5
123
330
1F
100
AcDbEntity
  8
0
  6
Continuous
 62
     7
370
    15
100
AcDbLine
 10
148.5083988671
 20
565.9191118194
 30
0.0
 11
148.5083988671
 21
560.5191098167
 31
0.0
  0
LINE
  5
124
330
1F
100
AcDbEntity
  8
0
  6
Continuous
 62
     7
370
    15
100
AcDbLine
 10
148.5083988671
 20
565.9191118194
 30
0.0
 11
166.4698003594
 21
565.9191118194
 31
0.0
  0
LINE
  5
125
330
1F
100
AcDbEntity
  8
0
  6
Continuous
 62
     7
370
    15
100
AcDbLine
 10
148.5083988671
 20
560.5191098167
 30
0.0
 11
166.4698003594
 21
560.5191098167
 31
0.0
  0
LINE
  5
126
330
1F
100
AcDbEntity
  8
0
  6
Continuous
 62
     7
370
    15
100
AcDbLine
 10
149.3632188801
 20
545.6191407157
 30
0.0
 11
149.3632188801
 21
542.2191129638
 31
0.0
  0
LINE
  5
127
330
1F
100
AcDbEntity
  8
0
  6
Continuous
 62
     7
370
    15
100
AcDbLine
 10
149.3632188801
 20
545.6191407157
 30
0.0
 11
165.9382498626
 21
545.6191407157
 31
0.0
  0
LINE
  5
128
330
1F
100
AcDbEntity
  8
0
  6
Continuous
 62
     7
370
    15
100
AcDbLine
 10
165.9382498626
 20
545.6191407157
 30
0.0
 11
165.9382498626
 21
542.2191129638
 31
0.0
  0
LINE
  5
129
330
1F
100
AcDbEntity
  8
0
  6
Continuous
 62
     7
370
    15
100
AcDbLine
 10
165.9382498626
 20
545.6191407157
 30
0.0
 11
166.874523348
 21
545.6191407157
 31
0.0
  0
LINE
  5
12A
330
1F
100
AcDbEntity
  8
0
  6
Continuous
 62
     7
370
    15
100
AcDbLine
 10
166.874523348
 20
545.6191407157
 30
0.0
 11
166.874523348
 21
542.2191129638
 31
0.0
  0
LINE
  5
12B
330
1F
100
AcDbEntity
  8
0
  6
Continuous
 62
     7
370
    15
100
AcDbLine
 10
181.4796319966
 20
545.6191407157
 30
0.0
 11
181.4796319966
 21
542.2191129638
 31
0.0
  0
LINE
  5
12C
330
1F
100
AcDbEntity
  8
0
  6
Continuous
 62
     7
370
    15
100
AcDbLine
 10
166.874523348
 20
545.6191407157
 30
0.0
 11
181.4796319966
 21
545.6191407157
 31
0.0
  0
LINE
  5
12D
330
1F
100
AcDbEntity
  8
0
  6
Continuous
 62
     7
370
    15
100
AcDbLine
 10
147.4727420871
 20
553.9191471053
 30
0.0
 11
181.2227434282
 21
553.9191471053
 31
0.0
  0
LINE
  5
12E
330
1F
100
AcDbEntity
  8
0
  6
Continuous
 62
     7
370
    15
100
AcDbLine
 10
153.7227435772
 20
574.8691068603
 30
0.0
 11
174.9727419381
 21
574.8691068603
 31
0.0
  0
LINE
  5
12F
330
1F
100
AcDbEntity
  8
0
  6
Continuous
 62
     7
370
    15
100
AcDbLine
 10
148.4977445368
 20
548.5691533996
 30
0.0
 11
180.1977428411
 21
548.5691533996
 31
0.0
  0
LINE
  5
130
330
1F
100
AcDbEntity
  8
0
  6
Continuous
 62
     7
370
    15
100
AcDbLine
 10
146.3863431279
 20
565.9191118194
 30
0.0
 11
146.3863431279
 21
560.5191098167
 31
0.0
  0
LINE
  5
131
330
1F
100
AcDbEntity
  8
0
  6
Continuous
 62
     7
370
    15
100
AcDbLine
 10
146.3863431279
 20
565.9191118194
 30
0.0
 11
148.5083988671
 21
565.9191118194
 31
0.0
  0
LINE
  5
132
330
1F
100
AcDbEntity
  8
0
  6
Continuous
 62
     7
370
    15
100
AcDbLine
 10
146.3863431279
 20
560.5191098167
 30
0.0
 11
148.5083988671
 21
560.5191098167
 31
0.0
  0
LINE
  5
133
330
1F
100
AcDbEntity
  8
0
  6
Continuous
 62
     7
370
    15
100
AcDbLine
 10
148.8063550357
 20
545.6191407157
 30
0.0
 11
148.8063550357
 21
542.2191129638
 31
0.0
  0
LINE
  5
134
330
1F
100
AcDbEntity
  8
0
  6
Continuous
 62
     7
370
    15
100
AcDbLine
 10
148.8063550357
 20
545.6191407157
 30
0.0
 11
149.3632188801
 21
545.6191407157
 31
0.0
  0
LINE
  5
135
330
1F
100
AcDbEntity
  8
0
  6
Continuous
 62
     7
370
    15
100
AcDbLine
 10
146.8364401524
 20
545.6191407157
 30
0.0
 11
146.8364401524
 21
542.2191129638
 31
0.0
  0
LINE
  5
136
330
1F
100
AcDbEntity
  8
0
  6
Continuous
 62
     7
370
    15
100
AcDbLine
 10
146.8364401524
 20
545.6191407157
 30
0.0
 11
148.8063550357
 21
545.6191407157
 31
0.0
  0
LINE
  5
137
330
1F
100
AcDbEntity
  8
0
  6
Continuous
 62
     7
370
    15
100
AcDbLine
 10
181.8590472255
 20
545.6191407157
 30
0.0
 11
181.8590472255
 21
542.2191129638
 31
0.0
  0
LINE
  5
138
330
1F
100
AcDbEntity
  8
0
  6
Continuous
 62
     7
370
    15
100
AcDbLine
 10
181.4796319966
 20
545.6191407157
 30
0.0
 11
181.8590472255
 21
545.6191407157
 31
0.0
  0
LINE
  5
139
330
1F
100
AcDbEntity
  8
0
  6
Continuous
 62
     7
370
    15
100
AcDbLine
 10
61.047743148
 20
-109.7476749109
 30
0.0
 11
59.8477377359
 21
-109.7476749109
 31
0.0
  0
LINE
  5
13A
330
1F
100
AcDbEntity
  8
0
  6
Continuous
 62
     7
370
    15
100
AcDbLine
 10
61.047743148
 20
-201.0476744162
 30
0.0
 11
59.8477377359
 21
-201.0476744162
 31
0.0
  0
LINE
  5
13B
330
1F
100
AcDbEntity
  8
0
  6
Continuous
 62
     7
370
    15
100
AcDbLine
 10
59.8477377359
 20
-201.0476744162
 30
0.0
 11
59.8477377359
 21
-109.7476749109
 31
0.0
  0
LINE
  5
13C
330
1F
100
AcDbEntity
  8
0
  6
Continuous
 62
     7
370
    15
100
AcDbLine
 10
59.8477377359
 20
-224.0476763235
 30
0.0
 11
59.8477377359
 21
-201.0476744162
 31
0.0
  0
LINE
  5
13D
330
1F
100
AcDbEntity
  8
0
  6
Continuous
 62
     7
370
    15
100
AcDbLine
 10
116.847741491
 20
9.3691305829
 30
0.0
 11
116.847741491
 21
22.0691369487
 31
0.0
  0
LINE
  5
13E
330
1F
100
AcDbEntity
  8
0
  6
Continuous
 62
     7
370
    15
100
AcDbLine
 10
117.8477435176
 20
10.3691326095
 30
0.0
 11
117.8477435176
 21
21.0691349221
 31
0.0
  0
LINE
  5
13F
330
1F
100
AcDbEntity
  8
0
  6
Continuous
 62
     7
370
    15
100
AcDbLine
 10
60.6477363769
 20
541.4691077186
 30
0.0
 11
59.8477377359
 21
541.4691077186
 31
0.0
  0
LINE
  5
140
330
1F
100
AcDbEntity
  8
0
  6
Continuous
 62
     7
370
    15
100
AcDbLine
 10
60.6477363769
 20
539.8956047012
 30
0.0
 11
59.8477377359
 21
539.8956047012
 31
0.0
  0
LINE
  5
141
330
1F
100
AcDbEntity
  8
0
  6
Continuous
 62
     7
370
    15
100
AcDbLine
 10
59.8477377359
 20
539.8956047012
 30
0.0
 11
59.8477377359
 21
541.4691077186
 31
0.0
  0
LINE
  5
142
330
1F
100
AcDbEntity
  8
0
  6
Continuous
 62
     7
370
    15
100
AcDbLine
 10
60.6477363769
 20
506.8692670776
 30
0.0
 11
59.8477377359
 21
506.8692670776
 31
0.0
  0
LINE
  5
143
330
1F
100
AcDbEntity
  8
0
  6
Continuous
 62
     7
370
    15
100
AcDbLine
 10
59.8477377359
 20
506.8692670776
 30
0.0
 11
59.8477377359
 21
539.8956047012
 31
0.0
  0
LINE
  5
144
330
1F
100
AcDbEntity
  8
0
  6
Continuous
 62
     7
370
    15
100
AcDbLine
 10
60.6477363769
 20
487.9691110564
 30
0.0
 11
59.8477377359
 21
487.9691110564
 31
0.0
  0
LINE
  5
145
330
1F
100
AcDbEntity
  8
0
  6
Continuous
 62
     7
370
    15
100
AcDbLine
 10
59.8477377359
 20
487.9691110564
 30
0.0
 11
59.8477377359
 21
506.8692670776
 31
0.0
  0
LWPOLYLINE
  5
146
330
1F
100
AcDbEntity
  8
0
  6
Continuous
 62
     7
370
    15
100
AcDbPolyline
 90
        9
 70
   128
 43
0.0
 10
208.3477436834
 20
-234.8562969254
 10
208.4619244131
 20
-235.0336803483
 10
208.7870835828
 20
-235.1840554165
 10
209.2737185455
 20
-235.284541397
 10
209.8477436964
 20
-235.3198198961
 10
210.4217688473
 20
-235.284541397
 10
210.9084039264
 20
-235.1840554165
 10
211.2335629797
 20
-235.0336803483
 10
211.3477437094
 20
-234.8562969254
  0
ARC
  5
147
330
1F
100
AcDbEntity
  8
0
  6
Continuous
 62
     7
370
    15
100
AcDbCircle
 10
225.5243719635
 20
-229.6030080305
 30
0.0
 40
6.968684768565633
100
AcDbArc
 50
136.3439892733
 51
223.6560107267
  0
ARC
  5
148
330
1F
100
AcDbEntity
  8
0
  6
Continuous
 62
     7
370
    15
100
AcDbCircle
 10
209.8477436964
 20
-180.0464591234
 30
0.0
 40
55.39759720514728
100
AcDbArc
 50
258.9320931903
 51
281.0679068097
  0
ARC
  5
149
330
1F
100
AcDbEntity
  8
0
  6
Continuous
 62
     7
370
    15
100
AcDbCircle
 10
194.1711154293
 20
-229.6030080305
 30
0.0
 40
6.968684768565633
100
AcDbArc
 50
316.3439892733
 51
43.6560107267
  0
LINE
  5
14A
330
1F
100
AcDbEntity
  8
0
  6
Continuous
 62
     7
370
    15
100
AcDbLine
 10
208.3477436834
 20
-224.3476739513
 30
0.0
 11
208.3477436834
 21
-234.8562969254
 31
0.0
  0
LINE
  5
14B
330
1F
100
AcDbEntity
  8
0
  6
Continuous
 62
     7
370
    15
100
AcDbLine
 10
211.3477437094
 20
-234.8562969254
 30
0.0
 11
211.3477437094
 21
-224.3476739513
 31
0.0
  0
ARC
  5
14C
330
1F
100
AcDbEntity
  8
0
  6
Continuous
 62
     7
370
    15
100
AcDbCircle
 10
209.3238726078
 20
-234.4058716732
 30
0.0
 40
0.976451594987579
100
AcDbArc
 50
88.5991650292
 51
178.526996008
  0
ARC
  5
14D
330
1F
100
AcDbEntity
  8
0
  6
Continuous
 62
     7
370
    15
100
AcDbCircle
 10
210.371614785
 20
-234.4058716732
 30
0.0
 40
0.9764515949876075
100
AcDbArc
 50
1.473003992
 51
91.4008349708
  0
LWPOLYLINE
  5
14E
330
1F
100
AcDbEntity
  8
0
  6
Continuous
 62
     7
370
    15
100
AcDbPolyline
 90
        9
 70
   128
 43
0.0
 10
209.3477436727
 20
-233.4297119068
 10
209.3858039159
 20
-233.4888397144
 10
209.4941903058
 20
-233.5389672207
 10
209.6564019746
 20
-233.5724575804
 10
209.8477436964
 20
-233.5842220472
 10
210.0390854182
 20
-233.5724575804
 10
210.201297087
 20
-233.5389672207
 10
210.3096834769
 20
-233.4888397144
 10
210.3477437201
 20
-233.4297119068
  0
LWPOLYLINE
  5
14F
330
1F
100
AcDbEntity
  8
0
  6
Continuous
 62
     7
370
    15
100
AcDbPolyline
 90
        3
 70
   128
 43
0.0
 10
200.1810726513
 20
-228.7682934092
 10
200.1819192235
 20
-228.6685524868
 10
200.1809292276
 20
-228.5607127832
  0
LINE
  5
150
330
1F
100
AcDbEntity
  8
0
  6
Continuous
 62
     7
370
    15
100
AcDbLine
 10
219.521908163
 20
-228.355516343
 30
0.0
 11
219.5145581652
 21
-228.5607127832
 31
0.0
  0
ARC
  5
151
330
1F
100
AcDbEntity
  8
0
  6
Continuous
 62
     7
370
    15
100
AcDbCircle
 10
199.2997935935
 20
-233.3612384358
 30
0.0
 40
1.056019557743445
100
AcDbArc
 50
182.2284791477
 51
265.2823373064
  0
ARC
  5
152
330
1F
100
AcDbEntity
  8
0
  6
Continuous
 62
     7
370
    15
100
AcDbCircle
 10
220.3956937993
 20
-233.3612384358
 30
0.0
 40
1.056019557743427
100
AcDbArc
 50
274.7176626936
 51
357.7715208524
  0
LWPOLYLINE
  5
153
330
1F
100
AcDbEntity
  8
0
  6
Continuous
 62
     7
370
    15
100
AcDbPolyline
 90
        3
 70
   128
 43
0.0
 10
198.2264128317
 20
-233.6262135195
 10
198.2244225953
 20
-233.6129961895
 10
198.2240156074
 20
-233.6099116491
  0
LWPOLYLINE
  5
154
330
1F
100
AcDbEntity
  8
0
  6
Continuous
 62
     7
370
    15
100
AcDbPolyline
 90
        9
 70
   128
 43
0.0
 10
211.3477437094
 20
-234.3807710694
 10
211.2335629797
 20
-234.5581544923
 10
210.9084039264
 20
-234.7085295604
 10
210.4217688473
 20
-234.8090080904
 10
209.8477436964
 20
-234.8442940401
 10
209.2737185455
 20
-234.8090080904
 10
208.7870835828
 20
-234.7085295604
 10
208.4619244131
 20
-234.5581544923
 10
208.3477436834
 20
-234.3807710694
  0
LINE
  5
155
330
1F
100
AcDbEntity
  8
0
  6
Continuous
 62
     7
370
    15
100
AcDbLine
 10
122.2619592015
 20
424.7191058112
 30
0.0
 11
122.2619592015
 21
459.7191320373
 31
0.0
  0
LINE
  5
156
330
1F
100
AcDbEntity
  8
0
  6
Continuous
 62
     7
370
    15
100
AcDbLine
 10
119.3477465574
 20
424.7191058112
 30
0.0
 11
119.3477465574
 21
459.7191320373
 31
0.0
  0
LINE
  5
157
330
1F
100
AcDbEntity
  8
0
  6
Continuous
 62
     7
370
    15
100
AcDbLine
 10
121.433529145
 20
424.7191058112
 30
0.0
 11
121.433529145
 21
459.7191320373
 31
0.0
  0
LINE
  5
158
330
1F
100
AcDbEntity
  8
0
  6
Continuous
 62
     7
370
    15
100
AcDbLine
 10
121.8477441732
 20
425.7191525413
 30
0.0
 11
121.8477441732
 21
458.7191449119
 31
0.0
  0
LINE
  5
159
330
1F
100
AcDbEntity
  8
0
  6
Continuous
 62
     7
370
    15
100
AcDbLine
 10
72.6477457945
 20
-109.270867555
 30
0.0
 11
72.6477457945
 21
-109.7308664011
 31
0.0
  0
LINE
  5
15A
330
1F
100
AcDbEntity
  8
0
  6
Continuous
 62
     7
370
    15
100
AcDbLine
 10
73.4477444355
 20
-109.270867555
 30
0.0
 11
73.4477444355
 21
-109.7308664011
 31
0.0
  0
LINE
  5
15B
330
1F
100
AcDbEntity
  8
0
  6
Continuous
 62
     7
370
    15
100
AcDbLine
 10
59.8477377359
 20
-109.7476749109
 30
0.0
 11
59.8477377359
 21
-109.270867555
 31
0.0
  0
SPLINE
  5
15C
330
1F
100
AcDbEntity
  8
0
  6
Continuous
 62
     7
370
    15
100
AcDbSpline
210
0.0
220
0.0
230
1.0
 70
     8
 71
     3
 72
     9
 73
     5
 74
     0
 42
0.00000001
 43
0.00000001
 40
0.0
 40
0.0
 40
0.0
 40
0.0
 40
0.2935333679087131
 40
1.0
 40
1.0
 40
1.0
 40
1.0
 10
60.64773637694954
 20
541.7701707793465
 30
0.0
 10
60.61059128402282
 20
541.7503030333185
 30
0.0
 10
60.48404658080445
 20
541.6826182376532
 30
0.0
 10
60.4082254426806
 20
541.55749975303
 30
0.0
 10
60.35466033858891
 20
541.469107718586
 30
0.0
  0
LINE
  5
15D
330
1F
100
AcDbEntity
  8
0
  6
Continuous
 62
     7
370
    15
100
AcDbLine
 10
110.8477442328
 20
-42.7808655785
 30
0.0
 11
117.5977467362
 21
-42.7808655785
 31
0.0
  0
LINE
  5
15E
330
1F
100
AcDbEntity
  8
0
  6
Continuous
 62
     7
370
    15
100
AcDbLine
 10
104.0977417294
 20
-42.7808655785
 30
0.0
 11
110.8477442328
 21
-42.7808655785
 31
0.0
  0
LINE
  5
15F
330
1F
100
AcDbEntity
  8
0
  6
Continuous
 62
     7
370
    15
100
AcDbLine
 10
112.8477408354
 20
372.6872311546
 30
0.0
 11
112.8477408354
 21
372.7572666122
 31
0.0
  0
LINE
  5
160
330
1F
100
AcDbEntity
  8
0
  6
Continuous
 62
     7
370
    15
100
AcDbLine
 10
306.8477465574
 20
372.7572666122
 30
0.0
 11
298.0282558863
 21
372.7572666122
 31
0.0
  0
LINE
  5
161
330
1F
100
AcDbEntity
  8
0
  6
Continuous
 62
     7
370
    15
100
AcDbLine
 10
288.2934837405
 20
372.7572666122
 30
0.0
 11
287.1583132808
 21
372.7572666122
 31
0.0
  0
LINE
  5
162
330
1F
100
AcDbEntity
  8
0
  6
Continuous
 62
     7
370
    15
100
AcDbLine
 10
132.537174112
 20
372.7572666122
 30
0.0
 11
131.441126651
 21
372.7572666122
 31
0.0
  0
LINE
  5
163
330
1F
100
AcDbEntity
  8
0
  6
Continuous
 62
     7
370
    15
100
AcDbLine
 10
121.6585292284
 20
372.7572666122
 30
0.0
 11
112.8477408354
 21
372.7572666122
 31
0.0
  0
LINE
  5
164
330
1F
100
AcDbEntity
  8
0
  6
Continuous
 62
     7
370
    15
100
AcDbLine
 10
306.8477465574
 20
372.7572666122
 30
0.0
 11
306.8477465574
 21
372.6872311546
 31
0.0
  0
LINE
  5
165
330
1F
100
AcDbEntity
  8
0
  6
Continuous
 62
     7
370
    15
100
AcDbLine
 10
130.175869054
 20
370.9572659446
 30
0.0
 11
136.347743756
 21
370.9572659446
 31
0.0
  0
LINE
  5
166
330
1F
100
AcDbEntity
  8
0
  6
Continuous
 62
     7
370
    15
100
AcDbLine
 10
283.3477436368
 20
370.9572659446
 30
0.0
 11
289.5441456501
 21
370.9572659446
 31
0.0
  0
ARC
  5
167
330
1F
100
AcDbEntity
  8
0
  6
Continuous
 62
     7
370
    15
100
AcDbCircle
 10
289.8496817781
 20
270.1513705087
 30
0.0
 40
100.2280559959446
100
AcDbArc
 50
89.9244228273
 51
91.1444913081
  0
LINE
  5
168
330
1F
100
AcDbEntity
  8
0
  6
Continuous
 62
     7
370
    15
100
AcDbLine
 10
287.8477453057
 20
370.1513515426
 30
0.0
 11
287.8477453057
 21
370.3594313575
 31
0.0
  0
ARC
  5
169
330
1F
100
AcDbEntity
  8
0
  6
Continuous
 62
     7
370
    15
100
AcDbCircle
 10
289.9868800999
 20
479.4011432521
 30
0.0
 40
109.2707320659768
100
AcDbArc
 50
268.8782794529
 51
270.1243976398
  0
ARC
  5
16A
330
1F
100
AcDbEntity
  8
0
  6
Continuous
 62
     7
370
    15
100
AcDbCircle
 10
129.823290169
 20
268.4894266705
 30
0.0
 40
101.890118561643
100
AcDbArc
 50
88.8615168421
 51
90.0747508507
  0
ARC
  5
16B
330
1F
100
AcDbEntity
  8
0
  6
Continuous
 62
     7
370
    15
100
AcDbCircle
 10
129.6877424121
 20
480.8764696452
 30
0.0
 40
110.7461844825259
100
AcDbArc
 50
269.8748098176
 51
271.117570899
  0
LINE
  5
16C
330
1F
100
AcDbEntity
  8
0
  6
Continuous
 62
     7
370
    15
100
AcDbLine
 10
131.8477420871
 20
370.3594313575
 30
0.0
 11
131.8477420871
 21
370.1513515426
 31
0.0
  0
LINE
  5
16D
330
1F
100
AcDbEntity
  8
0
  6
Continuous
 62
     7
370
    15
100
AcDbLine
 10
312.8343700234
 20
372.6872311546
 30
0.0
 11
312.8477438156
 21
372.9210005714
 31
0.0
  0
LINE
  5
16E
330
1F
100
AcDbEntity
  8
0
  6
Continuous
 62
     7
370
    15
100
AcDbLine
 10
312.025691456
 20
372.6872311546
 30
0.0
 11
312.0477451746
 21
372.9210005714
 31
0.0
  0
LINE
  5
16F
330
1F
100
AcDbEntity
  8
0
  6
Continuous
 62
     7
370
    15
100
AcDbLine
 10
312.8477438156
 20
372.9210005714
 30
0.0
 11
312.0477451746
 21
372.9210005714
 31
0.0
  0
LINE
  5
170
330
1F
100
AcDbEntity
  8
0
  6
Continuous
 62
     7
370
    15
100
AcDbLine
 10
312.8477438156
 20
372.6872311546
 30
0.0
 11
312.8477438156
 21
372.9210005714
 31
0.0
  0
LINE
  5
171
330
1F
100
AcDbEntity
  8
0
  6
Continuous
 62
     7
370
    15
100
AcDbLine
 10
106.8477435772
 20
372.9210005714
 30
0.0
 11
106.8611173694
 21
372.6872311546
 31
0.0
  0
LINE
  5
172
330
1F
100
AcDbEntity
  8
0
  6
Continuous
 62
     7
370
    15
100
AcDbLine
 10
106.8477435772
 20
372.9210005714
 30
0.0
 11
107.6477422182
 21
372.9210005714
 31
0.0
  0
LINE
  5
173
330
1F
100
AcDbEntity
  8
0
  6
Continuous
 62
     7
370
    15
100
AcDbLine
 10
107.6477422182
 20
372.9210005714
 30
0.0
 11
107.6697959368
 21
372.6872311546
 31
0.0
  0
LINE
  5
174
330
1F
100
AcDbEntity
  8
0
  6
Continuous
 62
     7
370
    15
100
AcDbLine
 10
106.8477435772
 20
372.9210005714
 30
0.0
 11
106.8477435772
 21
372.6872311546
 31
0.0
  0
LINE
  5
175
330
1F
100
AcDbEntity
  8
0
  6
Continuous
 62
     7
370
    15
100
AcDbLine
 10
312.8477438156
 20
407.7191458656
 30
0.0
 11
312.8477438156
 21
372.9210005714
 31
0.0
  0
LINE
  5
176
330
1F
100
AcDbEntity
  8
0
  6
Continuous
 62
     7
370
    15
100
AcDbLine
 10
312.0477451746
 20
407.7191458656
 30
0.0
 11
312.0477451746
 21
372.9210005714
 31
0.0
  0
LINE
  5
177
330
1F
100
AcDbEntity
  8
0
  6
Continuous
 62
     7
370
    15
100
AcDbLine
 10
106.8477435772
 20
372.9210005714
 30
0.0
 11
106.8477435772
 21
407.7191458656
 31
0.0
  0
LINE
  5
178
330
1F
100
AcDbEntity
  8
0
  6
Continuous
 62
     7
370
    15
100
AcDbLine
 10
107.6477422182
 20
372.9210005714
 30
0.0
 11
107.6477422182
 21
407.7191458656
 31
0.0
  0
LINE
  5
179
330
1F
100
AcDbEntity
  8
0
  6
Continuous
 62
     7
370
    15
100
AcDbLine
 10
312.8477438156
 20
366.6871891929
 30
0.0
 11
312.8477438156
 21
-35.8242584752
 31
0.0
  0
SPLINE
  5
17A
330
1F
100
AcDbEntity
  8
0
  6
Continuous
 62
     7
370
    15
100
AcDbSpline
210
0.0
220
0.0
230
1.0
 70
     8
 71
     3
 72
    18
 73
    14
 74
     0
 42
0.00000001
 43
0.00000001
 40
0.0
 40
0.0
 40
0.0
 40
0.0
 40
0.1249999999999887
 40
0.1249999999999887
 40
0.2499999999999774
 40
0.2499999999999774
 40
0.4999999999999927
 40
0.4999999999999927
 40
0.624999999999996
 40
0.624999999999996
 40
0.7499999999999993
 40
0.7499999999999993
 40
1.0
 40
1.0
 40
1.0
 40
1.0
 10
312.8477436964062
 20
-35.82425565390079
 30
0.0
 10
312.8477436964062
 20
-35.81824789728699
 30
0.0
 10
312.8322123908653
 20
-35.80666907268431
 30
0.0
 10
312.7720539075692
 20
-35.77166676067639
 30
0.0
 10
312.726612085763
 20
-35.74786838632122
 30
0.0
 10
312.5535969064669
 20
-35.65929170849785
 30
0.0
 10
312.3854587881557
 20
-35.57527726675053
 30
0.0
 10
312.0906433602843
 20
-35.41535447728164
 30
0.0
 10
311.9837496329932
 20
-35.35546215818044
 30
0.0
 10
311.7638389411705
 20
-35.22629844128245
 30
0.0
 10
311.6501932178493
 20
-35.15731724160182
 30
0.0
 10
311.2957575775427
 20
-34.94438965559851
 30
0.0
 10
311.0478557256303
 20
-34.79690290167309
 30
0.0
 10
310.7977436964061
 20
-34.64456934561577
 30
0.0
  0
LINE
  5
17B
330
1F
100
AcDbEntity
  8
0
  6
Continuous
 62
     7
370
    15
100
AcDbLine
 10
108.8977410261
 20
-34.6445633458
 30
0.0
 11
310.7977463667
 21
-34.6445633458
 31
0.0
  0
ARC
  5
17C
330
1F
100
AcDbEntity
  8
0
  6
Continuous
 62
     7
370
    15
100
AcDbCircle
 10
297.3477459316
 20
-0.6081839922
 30
0.0
 40
6.349999870915673
100
AcDbArc
 50
180.0206724954
 51
359.9793275047
  0
LINE
  5
17D
330
1F
100
AcDbEntity
  8
0
  6
Continuous
 62
     7
370
    15
100
AcDbLine
 10
303.6977453892
 20
-0.6104750918
 30
0.0
 11
303.6977453892
 21
33.6734907342
 31
0.0
  0
ARC
  5
17E
330
1F
100
AcDbEntity
  8
0
  6
Continuous
 62
     7
370
    15
100
AcDbCircle
 10
297.3477459316
 20
33.6711996346
 30
0.0
 40
6.349999870915673
100
AcDbArc
 50
0.0206724954
 51
179.9793275046
  0
LINE
  5
17F
330
1F
100
AcDbEntity
  8
0
  6
Continuous
 62
     7
370
    15
100
AcDbLine
 10
290.997746474
 20
33.6734907342
 30
0.0
 11
290.997746474
 21
-0.6104750918
 31
0.0
  0
ARC
  5
180
330
1F
100
AcDbEntity
  8
0
  6
Continuous
 62
     7
370
    15
100
AcDbCircle
 10
297.3477459316
 20
59.3637744066
 30
0.0
 40
6.349999870915673
100
AcDbArc
 50
180.0206724954
 51
359.9793275047
  0
LINE
  5
181
330
1F
100
AcDbEntity
  8
0
  6
Continuous
 62
     7
370
    15
100
AcDbLine
 10
303.6977453892
 20
59.361483307
 30
0.0
 11
303.6977453892
 21
93.6454640342
 31
0.0
  0
ARC
  5
182
330
1F
100
AcDbEntity
  8
0
  6
Continuous
 62
     7
370
    15
100
AcDbCircle
 10
297.3477459316
 20
93.6431679652
 30
0.0
 40
6.349999872710584
100
AcDbArc
 50
0.0207173338
 51
179.9792826662
  0
LINE
  5
183
330
1F
100
AcDbEntity
  8
0
  6
Continuous
 62
     7
370
    15
100
AcDbLine
 10
290.997746474
 20
93.6454640342
 30
0.0
 11
290.997746474
 21
59.361483307
 31
0.0
  0
ARC
  5
184
330
1F
100
AcDbEntity
  8
0
  6
Continuous
 62
     7
370
    15
100
AcDbCircle
 10
297.3477459316
 20
119.3357427373
 30
0.0
 40
6.349999869124656
100
AcDbArc
 50
180.020627657
 51
359.979372343
  0
LINE
  5
185
330
1F
100
AcDbEntity
  8
0
  6
Continuous
 62
     7
370
    15
100
AcDbLine
 10
303.6977453892
 20
119.333456607
 30
0.0
 11
303.6977453892
 21
153.617422433
 31
0.0
  0
ARC
  5
186
330
1F
100
AcDbEntity
  8
0
  6
Continuous
 62
     7
370
    15
100
AcDbCircle
 10
297.3477459316
 20
153.615126364
 30
0.0
 40
6.349999872710584
100
AcDbArc
 50
0.0207173338
 51
179.9792826662
  0
LINE
  5
187
330
1F
100
AcDbEntity
  8
0
  6
Continuous
 62
     7
370
    15
100
AcDbLine
 10
290.997746474
 20
153.617422433
 30
0.0
 11
290.997746474
 21
119.333456607
 31
0.0
  0
ARC
  5
188
330
1F
100
AcDbEntity
  8
0
  6
Continuous
 62
     7
370
    15
100
AcDbCircle
 10
297.3477459316
 20
179.3077110748
 30
0.0
 40
6.349999872710584
100
AcDbArc
 50
180.0207173338
 51
359.9792826662
  0
LINE
  5
189
330
1F
100
AcDbEntity
  8
0
  6
Continuous
 62
     7
370
    15
100
AcDbLine
 10
303.6977453892
 20
179.3054150058
 30
0.0
 11
303.6977453892
 21
213.5893808318
 31
0.0
  0
ARC
  5
18A
330
1F
100
AcDbEntity
  8
0
  6
Continuous
 62
     7
370
    15
100
AcDbCircle
 10
297.3477459316
 20
213.5870847628
 30
0.0
 40
6.349999872710584
100
AcDbArc
 50
0.0207173338
 51
179.9792826662
  0
LINE
  5
18B
330
1F
100
AcDbEntity
  8
0
  6
Continuous
 62
     7
370
    15
100
AcDbLine
 10
290.997746474
 20
213.5893808318
 30
0.0
 11
290.997746474
 21
179.3054150058
 31
0.0
  0
ARC
  5
18C
330
1F
100
AcDbEntity
  8
0
  6
Continuous
 62
     7
370
    15
100
AcDbCircle
 10
297.3477459316
 20
239.2796694736
 30
0.0
 40
6.349999872710584
100
AcDbArc
 50
180.0207173338
 51
359.9792826662
  0
LINE
  5
18D
330
1F
100
AcDbEntity
  8
0
  6
Continuous
 62
     7
370
    15
100
AcDbLine
 10
303.6977453892
 20
239.2773734046
 30
0.0
 11
303.6977453892
 21
273.5613392307
 31
0.0
  0
ARC
  5
18E
330
1F
100
AcDbEntity
  8
0
  6
Continuous
 62
     7
370
    15
100
AcDbCircle
 10
297.3477459316
 20
273.5590531004
 30
0.0
 40
6.349999869124656
100
AcDbArc
 50
0.020627657
 51
179.979372343
  0
LINE
  5
18F
330
1F
100
AcDbEntity
  8
0
  6
Continuous
 62
     7
370
    15
100
AcDbLine
 10
290.997746474
 20
273.5613392307
 30
0.0
 11
290.997746474
 21
239.2773734046
 31
0.0
  0
ARC
  5
190
330
1F
100
AcDbEntity
  8
0
  6
Continuous
 62
     7
370
    15
100
AcDbCircle
 10
297.3477459316
 20
299.2516278725
 30
0.0
 40
6.349999872710584
100
AcDbArc
 50
180.0207173338
 51
359.9792826662
  0
LINE
  5
191
330
1F
100
AcDbEntity
  8
0
  6
Continuous
 62
     7
370
    15
100
AcDbLine
 10
303.6977453892
 20
299.2493318034
 30
0.0
 11
303.6977453892
 21
333.5332976295
 31
0.0
  0
ARC
  5
192
330
1F
100
AcDbEntity
  8
0
  6
Continuous
 62
     7
370
    15
100
AcDbCircle
 10
297.3477459316
 20
333.5310015605
 30
0.0
 40
6.349999872710584
100
AcDbArc
 50
0.0207173338
 51
179.9792826662
  0
LINE
  5
193
330
1F
100
AcDbEntity
  8
0
  6
Continuous
 62
     7
370
    15
100
AcDbLine
 10
290.997746474
 20
333.5332976295
 30
0.0
 11
290.997746474
 21
299.2493318034
 31
0.0
  0
ARC
  5
194
330
1F
100
AcDbEntity
  8
0
  6
Continuous
 62
     7
370
    15
100
AcDbCircle
 10
262.3477439199
 20
-0.6081828199
 30
0.0
 40
6.350001733983785
100
AcDbArc
 50
180.020683067
 51
359.979316933
  0
LINE
  5
195
330
1F
100
AcDbEntity
  8
0
  6
Continuous
 62
     7
370
    15
100
AcDbLine
 10
268.6977452402
 20
-0.6104750918
 30
0.0
 11
268.6977452402
 21
33.6734907342
 31
0.0
  0
ARC
  5
196
330
1F
100
AcDbEntity
  8
0
  6
Continuous
 62
     7
370
    15
100
AcDbCircle
 10
262.3477439199
 20
33.6711984623
 30
0.0
 40
6.350001733983785
100
AcDbArc
 50
0.020683067
 51
179.979316933
  0
LINE
  5
197
330
1F
100
AcDbEntity
  8
0
  6
Continuous
 62
     7
370
    15
100
AcDbLine
 10
255.9977425997
 20
33.6734907342
 30
0.0
 11
255.9977425997
 21
-0.6104750918
 31
0.0
  0
ARC
  5
198
330
1F
100
AcDbEntity
  8
0
  6
Continuous
 62
     7
370
    15
100
AcDbCircle
 10
262.3477439199
 20
59.363775579
 30
0.0
 40
6.350001733983785
100
AcDbArc
 50
180.020683067
 51
359.979316933
  0
LINE
  5
199
330
1F
100
AcDbEntity
  8
0
  6
Continuous
 62
     7
370
    15
100
AcDbLine
 10
268.6977452402
 20
59.361483307
 30
0.0
 11
268.6977452402
 21
93.6454640342
 31
0.0
  0
ARC
  5
19A
330
1F
100
AcDbEntity
  8
0
  6
Continuous
 62
     7
370
    15
100
AcDbCircle
 10
262.3477439199
 20
93.6431667929
 30
0.0
 40
6.350001735779613
100
AcDbArc
 50
0.0207279055
 51
179.9792720945
  0
LINE
  5
19B
330
1F
100
AcDbEntity
  8
0
  6
Continuous
 62
     7
370
    15
100
AcDbLine
 10
255.9977425997
 20
93.6454640342
 30
0.0
 11
255.9977425997
 21
59.361483307
 31
0.0
  0
ARC
  5
19C
330
1F
100
AcDbEntity
  8
0
  6
Continuous
 62
     7
370
    15
100
AcDbCircle
 10
262.3477439199
 20
119.3357439096
 30
0.0
 40
6.35000173219185
100
AcDbArc
 50
180.0206382287
 51
359.9793617713
  0
LINE
  5
19D
330
1F
100
AcDbEntity
  8
0
  6
Continuous
 62
     7
370
    15
100
AcDbLine
 10
268.6977452402
 20
119.333456607
 30
0.0
 11
268.6977452402
 21
153.617422433
 31
0.0
  0
ARC
  5
19E
330
1F
100
AcDbEntity
  8
0
  6
Continuous
 62
     7
370
    15
100
AcDbCircle
 10
262.3477439199
 20
153.6151251917
 30
0.0
 40
6.350001735779613
100
AcDbArc
 50
0.0207279055
 51
179.9792720945
  0
LINE
  5
19F
330
1F
100
AcDbEntity
  8
0
  6
Continuous
 62
     7
370
    15
100
AcDbLine
 10
255.9977425997
 20
153.617422433
 30
0.0
 11
255.9977425997
 21
119.333456607
 31
0.0
  0
ARC
  5
1A0
330
1F
100
AcDbEntity
  8
0
  6
Continuous
 62
     7
370
    15
100
AcDbCircle
 10
262.3477439199
 20
179.3077122471
 30
0.0
 40
6.350001735779613
100
AcDbArc
 50
180.0207279055
 51
359.9792720945
  0
LINE
  5
1A1
330
1F
100
AcDbEntity
  8
0
  6
Continuous
 62
     7
370
    15
100
AcDbLine
 10
268.6977452402
 20
179.3054150058
 30
0.0
 11
268.6977452402
 21
213.5893808318
 31
0.0
  0
ARC
  5
1A2
330
1F
100
AcDbEntity
  8
0
  6
Continuous
 62
     7
370
    15
100
AcDbCircle
 10
262.3477439199
 20
213.5870835905
 30
0.0
 40
6.350001735779613
100
AcDbArc
 50
0.0207279055
 51
179.9792720945
  0
LINE
  5
1A3
330
1F
100
AcDbEntity
  8
0
  6
Continuous
 62
     7
370
    15
100
AcDbLine
 10
255.9977425997
 20
213.5893808318
 30
0.0
 11
255.9977425997
 21
179.3054150058
 31
0.0
  0
ARC
  5
1A4
330
1F
100
AcDbEntity
  8
0
  6
Continuous
 62
     7
370
    15
100
AcDbCircle
 10
262.3477439199
 20
239.279670646
 30
0.0
 40
6.350001735779613
100
AcDbArc
 50
180.0207279055
 51
359.9792720945
  0
LINE
  5
1A5
330
1F
100
AcDbEntity
  8
0
  6
Continuous
 62
     7
370
    15
100
AcDbLine
 10
268.6977452402
 20
239.2773734046
 30
0.0
 11
268.6977452402
 21
273.5613392307
 31
0.0
  0
ARC
  5
1A6
330
1F
100
AcDbEntity
  8
0
  6
Continuous
 62
     7
370
    15
100
AcDbCircle
 10
262.3477439199
 20
273.5590519281
 30
0.0
 40
6.35000173219185
100
AcDbArc
 50
0.0206382287
 51
179.9793617713
  0
LINE
  5
1A7
330
1F
100
AcDbEntity
  8
0
  6
Continuous
 62
     7
370
    15
100
AcDbLine
 10
255.9977425997
 20
273.5613392307
 30
0.0
 11
255.9977425997
 21
239.2773734046
 31
0.0
  0
ARC
  5
1A8
330
1F
100
AcDbEntity
  8
0
  6
Continuous
 62
     7
370
    15
100
AcDbCircle
 10
262.3477439199
 20
299.2516290448
 30
0.0
 40
6.350001735779613
100
AcDbArc
 50
180.0207279055
 51
359.9792720945
  0
LINE
  5
1A9
330
1F
100
AcDbEntity
  8
0
  6
Continuous
 62
     7
370
    15
100
AcDbLine
 10
268.6977452402
 20
299.2493318034
 30
0.0
 11
268.6977452402
 21
333.5332976295
 31
0.0
  0
ARC
  5
1AA
330
1F
100
AcDbEntity
  8
0
  6
Continuous
 62
     7
370
    15
100
AcDbCircle
 10
262.3477439199
 20
333.5310003881
 30
0.0
 40
6.350001735779613
100
AcDbArc
 50
0.0207279055
 51
179.9792720945
  0
LINE
  5
1AB
330
1F
100
AcDbEntity
  8
0
  6
Continuous
 62
     7
370
    15
100
AcDbLine
 10
255.9977425997
 20
333.5332976295
 30
0.0
 11
255.9977425997
 21
299.2493318034
 31
0.0
  0
ARC
  5
1AC
330
1F
100
AcDbEntity
  8
0
  6
Continuous
 62
     7
370
    15
100
AcDbCircle
 10
227.3477433052
 20
-0.6081843625
 30
0.0
 40
6.350000336443312
100
AcDbArc
 50
180.020669152
 51
359.979330848
  0
LINE
  5
1AD
330
1F
100
AcDbEntity
  8
0
  6
Continuous
 62
     7
370
    15
100
AcDbLine
 10
233.6977432285
 20
-0.6104750918
 30
0.0
 11
233.6977432285
 21
33.6734907342
 31
0.0
  0
ARC
  5
1AE
330
1F
100
AcDbEntity
  8
0
  6
Continuous
 62
     7
370
    15
100
AcDbCircle
 10
227.3477433052
 20
33.6711999672
 30
0.0
 40
6.350000336456917
100
AcDbArc
 50
0.0206694923
 51
179.9793305077
  0
LINE
  5
1AF
330
1F
100
AcDbEntity
  8
0
  6
Continuous
 62
     7
370
    15
100
AcDbLine
 10
220.997743382
 20
33.6734907342
 30
0.0
 11
220.997743382
 21
-0.6104750918
 31
0.0
  0
ARC
  5
1B0
330
1F
100
AcDbEntity
  8
0
  6
Continuous
 62
     7
370
    15
100
AcDbCircle
 10
227.3477433052
 20
59.3637740363
 30
0.0
 40
6.350000336443312
100
AcDbArc
 50
180.020669152
 51
359.979330848
  0
LINE
  5
1B1
330
1F
100
AcDbEntity
  8
0
  6
Continuous
 62
     7
370
    15
100
AcDbLine
 10
233.6977432285
 20
59.361483307
 30
0.0
 11
233.6977432285
 21
93.6454640342
 31
0.0
  0
ARC
  5
1B2
330
1F
100
AcDbEntity
  8
0
  6
Continuous
 62
     7
370
    15
100
AcDbCircle
 10
227.3477433052
 20
93.6431682978
 30
0.0
 40
6.350000338251567
100
AcDbArc
 50
0.0207143308
 51
179.9792856692
  0
LINE
  5
1B3
330
1F
100
AcDbEntity
  8
0
  6
Continuous
 62
     7
370
    15
100
AcDbLine
 10
220.997743382
 20
93.6454640342
 30
0.0
 11
220.997743382
 21
59.361483307
 31
0.0
  0
ARC
  5
1B4
330
1F
100
AcDbEntity
  8
0
  6
Continuous
 62
     7
370
    15
100
AcDbCircle
 10
227.3477433052
 20
119.3357423669
 30
0.0
 40
6.350000334652584
100
AcDbArc
 50
180.0206243137
 51
359.9793756863
  0
LINE
  5
1B5
330
1F
100
AcDbEntity
  8
0
  6
Continuous
 62
     7
370
    15
100
AcDbLine
 10
233.6977432285
 20
119.333456607
 30
0.0
 11
233.6977432285
 21
153.617422433
 31
0.0
  0
ARC
  5
1B6
330
1F
100
AcDbEntity
  8
0
  6
Continuous
 62
     7
370
    15
100
AcDbCircle
 10
227.3477433052
 20
153.6151266967
 30
0.0
 40
6.350000338251567
100
AcDbArc
 50
0.0207143308
 51
179.9792856692
  0
LINE
  5
1B7
330
1F
100
AcDbEntity
  8
0
  6
Continuous
 62
     7
370
    15
100
AcDbLine
 10
220.997743382
 20
153.617422433
 30
0.0
 11
220.997743382
 21
119.333456607
 31
0.0
  0
ARC
  5
1B8
330
1F
100
AcDbEntity
  8
0
  6
Continuous
 62
     7
370
    15
100
AcDbCircle
 10
227.3477433052
 20
179.3077107045
 30
0.0
 40
6.350000338237932
100
AcDbArc
 50
180.0207139905
 51
359.9792860095
  0
LINE
  5
1B9
330
1F
100
AcDbEntity
  8
0
  6
Continuous
 62
     7
370
    15
100
AcDbLine
 10
233.6977432285
 20
179.3054150058
 30
0.0
 11
233.6977432285
 21
213.5893808318
 31
0.0
  0
ARC
  5
1BA
330
1F
100
AcDbEntity
  8
0
  6
Continuous
 62
     7
370
    15
100
AcDbCircle
 10
227.3477433052
 20
213.5870850955
 30
0.0
 40
6.350000338251567
100
AcDbArc
 50
0.0207143308
 51
179.9792856692
  0
LINE
  5
1BB
330
1F
100
AcDbEntity
  8
0
  6
Continuous
 62
     7
370
    15
100
AcDbLine
 10
220.997743382
 20
213.5893808318
 30
0.0
 11
220.997743382
 21
179.3054150058
 31
0.0
  0
ARC
  5
1BC
330
1F
100
AcDbEntity
  8
0
  6
Continuous
 62
     7
370
    15
100
AcDbCircle
 10
227.3477433052
 20
239.2796691033
 30
0.0
 40
6.350000338237932
100
AcDbArc
 50
180.0207139905
 51
359.9792860095
  0
LINE
  5
1BD
330
1F
100
AcDbEntity
  8
0
  6
Continuous
 62
     7
370
    15
100
AcDbLine
 10
233.6977432285
 20
239.2773734046
 30
0.0
 11
233.6977432285
 21
273.5613392307
 31
0.0
  0
ARC
  5
1BE
330
1F
100
AcDbEntity
  8
0
  6
Continuous
 62
     7
370
    15
100
AcDbCircle
 10
227.3477433052
 20
273.559053433
 30
0.0
 40
6.350000334666159
100
AcDbArc
 50
0.0206246539
 51
179.9793753461
  0
LINE
  5
1BF
330
1F
100
AcDbEntity
  8
0
  6
Continuous
 62
     7
370
    15
100
AcDbLine
 10
220.997743382
 20
273.5613392307
 30
0.0
 11
220.997743382
 21
239.2773734046
 31
0.0
  0
ARC
  5
1C0
330
1F
100
AcDbEntity
  8
0
  6
Continuous
 62
     7
370
    15
100
AcDbCircle
 10
227.3477433052
 20
299.2516275021
 30
0.0
 40
6.350000338237932
100
AcDbArc
 50
180.0207139905
 51
359.9792860095
  0
LINE
  5
1C1
330
1F
100
AcDbEntity
  8
0
  6
Continuous
 62
     7
370
    15
100
AcDbLine
 10
233.6977432285
 20
299.2493318034
 30
0.0
 11
233.6977432285
 21
333.5332976295
 31
0.0
  0
ARC
  5
1C2
330
1F
100
AcDbEntity
  8
0
  6
Continuous
 62
     7
370
    15
100
AcDbCircle
 10
227.3477433052
 20
333.5310018931
 30
0.0
 40
6.350000338251567
100
AcDbArc
 50
0.0207143308
 51
179.9792856692
  0
LINE
  5
1C3
330
1F
100
AcDbEntity
  8
0
  6
Continuous
 62
     7
370
    15
100
AcDbLine
 10
220.997743382
 20
333.5332976295
 30
0.0
 11
220.997743382
 21
299.2493318034
 31
0.0
  0
ARC
  5
1C4
330
1F
100
AcDbEntity
  8
0
  6
Continuous
 62
     7
370
    15
100
AcDbCircle
 10
192.3477440876
 20
-0.6081843248
 30
0.0
 40
6.350000336456917
100
AcDbArc
 50
180.0206694923
 51
359.9793305077
  0
LINE
  5
1C5
330
1F
100
AcDbEntity
  8
0
  6
Continuous
 62
     7
370
    15
100
AcDbLine
 10
198.6977440108
 20
-0.6104750918
 30
0.0
 11
198.6977440108
 21
33.6734907342
 31
0.0
  0
ARC
  5
1C6
330
1F
100
AcDbEntity
  8
0
  6
Continuous
 62
     7
370
    15
100
AcDbCircle
 10
192.3477440876
 20
33.6712000049
 30
0.0
 40
6.350000336443312
100
AcDbArc
 50
0.020669152
 51
179.979330848
  0
LINE
  5
1C7
330
1F
100
AcDbEntity
  8
0
  6
Continuous
 62
     7
370
    15
100
AcDbLine
 10
185.9977441643
 20
33.6734907342
 30
0.0
 11
185.9977441643
 21
-0.6104750918
 31
0.0
  0
ARC
  5
1C8
330
1F
100
AcDbEntity
  8
0
  6
Continuous
 62
     7
370
    15
100
AcDbCircle
 10
192.3477440876
 20
59.363774074
 30
0.0
 40
6.350000336456917
100
AcDbArc
 50
180.0206694923
 51
359.9793305077
  0
LINE
  5
1C9
330
1F
100
AcDbEntity
  8
0
  6
Continuous
 62
     7
370
    15
100
AcDbLine
 10
198.6977440108
 20
59.361483307
 30
0.0
 11
198.6977440108
 21
93.6454640342
 31
0.0
  0
ARC
  5
1CA
330
1F
100
AcDbEntity
  8
0
  6
Continuous
 62
     7
370
    15
100
AcDbCircle
 10
192.3477440876
 20
93.6431683355
 30
0.0
 40
6.350000338237932
100
AcDbArc
 50
0.0207139905
 51
179.9792860095
  0
LINE
  5
1CB
330
1F
100
AcDbEntity
  8
0
  6
Continuous
 62
     7
370
    15
100
AcDbLine
 10
185.9977441643
 20
93.6454640342
 30
0.0
 11
185.9977441643
 21
59.361483307
 31
0.0
  0
ARC
  5
1CC
330
1F
100
AcDbEntity
  8
0
  6
Continuous
 62
     7
370
    15
100
AcDbCircle
 10
192.3477440876
 20
119.3357424046
 30
0.0
 40
6.350000334666159
100
AcDbArc
 50
180.0206246539
 51
359.9793753461
  0
LINE
  5
1CD
330
1F
100
AcDbEntity
  8
0
  6
Continuous
 62
     7
370
    15
100
AcDbLine
 10
198.6977440108
 20
119.333456607
 30
0.0
 11
198.6977440108
 21
153.617422433
 31
0.0
  0
ARC
  5
1CE
330
1F
100
AcDbEntity
  8
0
  6
Continuous
 62
     7
370
    15
100
AcDbCircle
 10
192.3477440876
 20
153.6151267344
 30
0.0
 40
6.350000338237932
100
AcDbArc
 50
0.0207139905
 51
179.9792860095
  0
LINE
  5
1CF
330
1F
100
AcDbEntity
  8
0
  6
Continuous
 62
     7
370
    15
100
AcDbLine
 10
185.9977441643
 20
153.617422433
 30
0.0
 11
185.9977441643
 21
119.333456607
 31
0.0
  0
ARC
  5
1D0
330
1F
100
AcDbEntity
  8
0
  6
Continuous
 62
     7
370
    15
100
AcDbCircle
 10
192.3477440876
 20
179.3077107422
 30
0.0
 40
6.350000338251567
100
AcDbArc
 50
180.0207143308
 51
359.9792856692
  0
LINE
  5
1D1
330
1F
100
AcDbEntity
  8
0
  6
Continuous
 62
     7
370
    15
100
AcDbLine
 10
198.6977440108
 20
179.3054150058
 30
0.0
 11
198.6977440108
 21
213.5893808318
 31
0.0
  0
ARC
  5
1D2
330
1F
100
AcDbEntity
  8
0
  6
Continuous
 62
     7
370
    15
100
AcDbCircle
 10
192.3477440876
 20
213.5870851332
 30
0.0
 40
6.350000338237932
100
AcDbArc
 50
0.0207139905
 51
179.9792860095
  0
LINE
  5
1D3
330
1F
100
AcDbEntity
  8
0
  6
Continuous
 62
     7
370
    15
100
AcDbLine
 10
185.9977441643
 20
213.5893808318
 30
0.0
 11
185.9977441643
 21
179.3054150058
 31
0.0
  0
ARC
  5
1D4
330
1F
100
AcDbEntity
  8
0
  6
Continuous
 62
     7
370
    15
100
AcDbCircle
 10
192.3477440876
 20
239.279669141
 30
0.0
 40
6.350000338251567
100
AcDbArc
 50
180.0207143308
 51
359.9792856692
  0
LINE
  5
1D5
330
1F
100
AcDbEntity
  8
0
  6
Continuous
 62
     7
370
    15
100
AcDbLine
 10
198.6977440108
 20
239.2773734046
 30
0.0
 11
198.6977440108
 21
273.5613392307
 31
0.0
  0
ARC
  5
1D6
330
1F
100
AcDbEntity
  8
0
  6
Continuous
 62
     7
370
    15
100
AcDbCircle
 10
192.3477440876
 20
273.5590534707
 30
0.0
 40
6.350000334652584
100
AcDbArc
 50
0.0206243137
 51
179.9793756863
  0
LINE
  5
1D7
330
1F
100
AcDbEntity
  8
0
  6
Continuous
 62
     7
370
    15
100
AcDbLine
 10
185.9977441643
 20
273.5613392307
 30
0.0
 11
185.9977441643
 21
239.2773734046
 31
0.0
  0
ARC
  5
1D8
330
1F
100
AcDbEntity
  8
0
  6
Continuous
 62
     7
370
    15
100
AcDbCircle
 10
192.3477440876
 20
299.2516275398
 30
0.0
 40
6.350000338251567
100
AcDbArc
 50
180.0207143308
 51
359.9792856692
  0
LINE
  5
1D9
330
1F
100
AcDbEntity
  8
0
  6
Continuous
 62
     7
370
    15
100
AcDbLine
 10
198.6977440108
 20
299.2493318034
 30
0.0
 11
198.6977440108
 21
333.5332976295
 31
0.0
  0
ARC
  5
1DA
330
1F
100
AcDbEntity
  8
0
  6
Continuous
 62
     7
370
    15
100
AcDbCircle
 10
192.3477440876
 20
333.5310019308
 30
0.0
 40
6.350000338237932
100
AcDbArc
 50
0.0207139905
 51
179.9792860095
  0
LINE
  5
1DB
330
1F
100
AcDbEntity
  8
0
  6
Continuous
 62
     7
370
    15
100
AcDbLine
 10
185.9977441643
 20
333.5332976295
 30
0.0
 11
185.9977441643
 21
299.2493318034
 31
0.0
  0
ARC
  5
1DC
330
1F
100
AcDbEntity
  8
0
  6
Continuous
 62
     7
370
    15
100
AcDbCircle
 10
157.3477434729
 20
-0.6081828199
 30
0.0
 40
6.350001733983785
100
AcDbArc
 50
180.020683067
 51
359.979316933
  0
LINE
  5
1DD
330
1F
100
AcDbEntity
  8
0
  6
Continuous
 62
     7
370
    15
100
AcDbLine
 10
163.6977447931
 20
-0.6104750918
 30
0.0
 11
163.6977447931
 21
33.6734907342
 31
0.0
  0
ARC
  5
1DE
330
1F
100
AcDbEntity
  8
0
  6
Continuous
 62
     7
370
    15
100
AcDbCircle
 10
157.3477434729
 20
33.6711984623
 30
0.0
 40
6.350001733983785
100
AcDbArc
 50
0.020683067
 51
179.979316933
  0
LINE
  5
1DF
330
1F
100
AcDbEntity
  8
0
  6
Continuous
 62
     7
370
    15
100
AcDbLine
 10
150.9977421526
 20
33.6734907342
 30
0.0
 11
150.9977421526
 21
-0.6104750918
 31
0.0
  0
ARC
  5
1E0
330
1F
100
AcDbEntity
  8
0
  6
Continuous
 62
     7
370
    15
100
AcDbCircle
 10
157.3477434729
 20
59.363775579
 30
0.0
 40
6.350001733983785
100
AcDbArc
 50
180.020683067
 51
359.979316933
  0
LINE
  5
1E1
330
1F
100
AcDbEntity
  8
0
  6
Continuous
 62
     7
370
    15
100
AcDbLine
 10
163.6977447931
 20
59.361483307
 30
0.0
 11
163.6977447931
 21
93.6454640342
 31
0.0
  0
ARC
  5
1E2
330
1F
100
AcDbEntity
  8
0
  6
Continuous
 62
     7
370
    15
100
AcDbCircle
 10
157.3477434729
 20
93.6431667929
 30
0.0
 40
6.350001735779613
100
AcDbArc
 50
0.0207279055
 51
179.9792720945
  0
LINE
  5
1E3
330
1F
100
AcDbEntity
  8
0
  6
Continuous
 62
     7
370
    15
100
AcDbLine
 10
150.9977421526
 20
93.6454640342
 30
0.0
 11
150.9977421526
 21
59.361483307
 31
0.0
  0
ARC
  5
1E4
330
1F
100
AcDbEntity
  8
0
  6
Continuous
 62
     7
370
    15
100
AcDbCircle
 10
157.3477434729
 20
119.3357439096
 30
0.0
 40
6.35000173219185
100
AcDbArc
 50
180.0206382287
 51
359.9793617713
  0
LINE
  5
1E5
330
1F
100
AcDbEntity
  8
0
  6
Continuous
 62
     7
370
    15
100
AcDbLine
 10
163.6977447931
 20
119.333456607
 30
0.0
 11
163.6977447931
 21
153.617422433
 31
0.0
  0
ARC
  5
1E6
330
1F
100
AcDbEntity
  8
0
  6
Continuous
 62
     7
370
    15
100
AcDbCircle
 10
157.3477434729
 20
153.6151251917
 30
0.0
 40
6.350001735779613
100
AcDbArc
 50
0.0207279055
 51
179.9792720945
  0
LINE
  5
1E7
330
1F
100
AcDbEntity
  8
0
  6
Continuous
 62
     7
370
    15
100
AcDbLine
 10
150.9977421526
 20
153.617422433
 30
0.0
 11
150.9977421526
 21
119.333456607
 31
0.0
  0
ARC
  5
1E8
330
1F
100
AcDbEntity
  8
0
  6
Continuous
 62
     7
370
    15
100
AcDbCircle
 10
157.3477434729
 20
179.3077122471
 30
0.0
 40
6.350001735779613
100
AcDbArc
 50
180.0207279055
 51
359.9792720945
  0
LINE
  5
1E9
330
1F
100
AcDbEntity
  8
0
  6
Continuous
 62
     7
370
    15
100
AcDbLine
 10
163.6977447931
 20
179.3054150058
 30
0.0
 11
163.6977447931
 21
213.5893808318
 31
0.0
  0
ARC
  5
1EA
330
1F
100
AcDbEntity
  8
0
  6
Continuous
 62
     7
370
    15
100
AcDbCircle
 10
157.3477434729
 20
213.5870835905
 30
0.0
 40
6.350001735779613
100
AcDbArc
 50
0.0207279055
 51
179.9792720945
  0
LINE
  5
1EB
330
1F
100
AcDbEntity
  8
0
  6
Continuous
 62
     7
370
    15
100
AcDbLine
 10
150.9977421526
 20
213.5893808318
 30
0.0
 11
150.9977421526
 21
179.3054150058
 31
0.0
  0
ARC
  5
1EC
330
1F
100
AcDbEntity
  8
0
  6
Continuous
 62
     7
370
    15
100
AcDbCircle
 10
157.3477434729
 20
239.279670646
 30
0.0
 40
6.350001735779613
100
AcDbArc
 50
180.0207279055
 51
359.9792720945
  0
LINE
  5
1ED
330
1F
100
AcDbEntity
  8
0
  6
Continuous
 62
     7
370
    15
100
AcDbLine
 10
163.6977447931
 20
239.2773734046
 30
0.0
 11
163.6977447931
 21
273.5613392307
 31
0.0
  0
ARC
  5
1EE
330
1F
100
AcDbEntity
  8
0
  6
Continuous
 62
     7
370
    15
100
AcDbCircle
 10
157.3477434729
 20
273.5590519281
 30
0.0
 40
6.35000173219185
100
AcDbArc
 50
0.0206382287
 51
179.9793617713
  0
LINE
  5
1EF
330
1F
100
AcDbEntity
  8
0
  6
Continuous
 62
     7
370
    15
100
AcDbLine
 10
150.9977421526
 20
273.5613392307
 30
0.0
 11
150.9977421526
 21
239.2773734046
 31
0.0
  0
ARC
  5
1F0
330
1F
100
AcDbEntity
  8
0
  6
Continuous
 62
     7
370
    15
100
AcDbCircle
 10
157.3477434729
 20
299.2516290448
 30
0.0
 40
6.350001735779613
100
AcDbArc
 50
180.0207279055
 51
359.9792720945
  0
LINE
  5
1F1
330
1F
100
AcDbEntity
  8
0
  6
Continuous
 62
     7
370
    15
100
AcDbLine
 10
163.6977447931
 20
299.2493318034
 30
0.0
 11
163.6977447931
 21
333.5332976295
 31
0.0
  0
ARC
  5
1F2
330
1F
100
AcDbEntity
  8
0
  6
Continuous
 62
     7
370
    15
100
AcDbCircle
 10
157.3477434729
 20
333.5310003881
 30
0.0
 40
6.350001735779613
100
AcDbArc
 50
0.0207279055
 51
179.9792720945
  0
LINE
  5
1F3
330
1F
100
AcDbEntity
  8
0
  6
Continuous
 62
     7
370
    15
100
AcDbLine
 10
150.9977421526
 20
333.5332976295
 30
0.0
 11
150.9977421526
 21
299.2493318034
 31
0.0
  0
ARC
  5
1F4
330
1F
100
AcDbEntity
  8
0
  6
Continuous
 62
     7
370
    15
100
AcDbCircle
 10
122.3477414612
 20
-0.6081839922
 30
0.0
 40
6.349999870915673
100
AcDbArc
 50
180.0206724954
 51
359.9793275047
  0
LINE
  5
1F5
330
1F
100
AcDbEntity
  8
0
  6
Continuous
 62
     7
370
    15
100
AcDbLine
 10
128.6977409188
 20
-0.6104750918
 30
0.0
 11
128.6977409188
 21
33.6734907342
 31
0.0
  0
ARC
  5
1F6
330
1F
100
AcDbEntity
  8
0
  6
Continuous
 62
     7
370
    15
100
AcDbCircle
 10
122.3477414612
 20
33.6711996346
 30
0.0
 40
6.349999870915673
100
AcDbArc
 50
0.0206724954
 51
179.9793275046
  0
LINE
  5
1F7
330
1F
100
AcDbEntity
  8
0
  6
Continuous
 62
     7
370
    15
100
AcDbLine
 10
115.9977420036
 20
33.6734907342
 30
0.0
 11
115.9977420036
 21
-0.6104750918
 31
0.0
  0
ARC
  5
1F8
330
1F
100
AcDbEntity
  8
0
  6
Continuous
 62
     7
370
    15
100
AcDbCircle
 10
122.3477414612
 20
59.3637744066
 30
0.0
 40
6.349999870915673
100
AcDbArc
 50
180.0206724954
 51
359.9793275047
  0
LINE
  5
1F9
330
1F
100
AcDbEntity
  8
0
  6
Continuous
 62
     7
370
    15
100
AcDbLine
 10
128.6977409188
 20
59.361483307
 30
0.0
 11
128.6977409188
 21
93.6454640342
 31
0.0
  0
ARC
  5
1FA
330
1F
100
AcDbEntity
  8
0
  6
Continuous
 62
     7
370
    15
100
AcDbCircle
 10
122.3477414612
 20
93.6431679652
 30
0.0
 40
6.349999872710584
100
AcDbArc
 50
0.0207173338
 51
179.9792826662
  0
LINE
  5
1FB
330
1F
100
AcDbEntity
  8
0
  6
Continuous
 62
     7
370
    15
100
AcDbLine
 10
115.9977420036
 20
93.6454640342
 30
0.0
 11
115.9977420036
 21
59.361483307
 31
0.0
  0
ARC
  5
1FC
330
1F
100
AcDbEntity
  8
0
  6
Continuous
 62
     7
370
    15
100
AcDbCircle
 10
122.3477414612
 20
119.3357427373
 30
0.0
 40
6.349999869124656
100
AcDbArc
 50
180.020627657
 51
359.979372343
  0
LINE
  5
1FD
330
1F
100
AcDbEntity
  8
0
  6
Continuous
 62
     7
370
    15
100
AcDbLine
 10
128.6977409188
 20
119.333456607
 30
0.0
 11
128.6977409188
 21
153.617422433
 31
0.0
  0
ARC
  5
1FE
330
1F
100
AcDbEntity
  8
0
  6
Continuous
 62
     7
370
    15
100
AcDbCircle
 10
122.3477414612
 20
153.615126364
 30
0.0
 40
6.349999872710584
100
AcDbArc
 50
0.0207173338
 51
179.9792826662
  0
LINE
  5
1FF
330
1F
100
AcDbEntity
  8
0
  6
Continuous
 62
     7
370
    15
100
AcDbLine
 10
115.9977420036
 20
153.617422433
 30
0.0
 11
115.9977420036
 21
119.333456607
 31
0.0
  0
CIRCLE
  5
200
330
1F
100
AcDbEntity
  8
0
  6
Continuous
 62
     7
370
    15
100
AcDbCircle
 10
279.8455576819
 20
-13.4549324185
 30
0.0
 40
6.347816887100874
  0
CIRCLE
  5
201
330
1F
100
AcDbEntity
  8
0
  6
Continuous
 62
     7
370
    15
100
AcDbCircle
 10
279.8455576818
 20
46.517040886
 30
0.0
 40
6.347816885967003
  0
CIRCLE
  5
202
330
1F
100
AcDbEntity
  8
0
  6
Continuous
 62
     7
370
    15
100
AcDbCircle
 10
279.8455626102
 20
106.4889986816
 30
0.0
 40
6.347821815451961
  0
CIRCLE
  5
203
330
1F
100
AcDbEntity
  8
0
  6
Continuous
 62
     7
370
    15
100
AcDbCircle
 10
279.8455527536
 20
166.4609582779
 30
0.0
 40
6.347811958758653
  0
CIRCLE
  5
204
330
1F
100
AcDbEntity
  8
0
  6
Continuous
 62
     7
370
    15
100
AcDbCircle
 10
279.8455527536
 20
226.4329166767
 30
0.0
 40
6.347811958758653
  0
CIRCLE
  5
205
330
1F
100
AcDbEntity
  8
0
  6
Continuous
 62
     7
370
    15
100
AcDbCircle
 10
279.8455626101
 20
286.4049036892
 30
0.0
 40
6.347821813219261
  0
ARC
  5
206
330
1F
100
AcDbEntity
  8
0
  6
Continuous
 62
     7
370
    15
100
AcDbCircle
 10
279.8467113585
 20
346.3767636159
 30
0.0
 40
6.348970571636674
100
AcDbArc
 50
179.9949454011
 51
56.5346173888
  0
ARC
  5
207
330
1F
100
AcDbEntity
  8
0
  6
Continuous
 62
     7
370
    15
100
AcDbCircle
 10
279.8431652005
 20
346.3770756269
 30
0.0
 40
6.345424393824422
100
AcDbArc
 50
140.2006947677
 51
179.9977598683
  0
CIRCLE
  5
208
330
1F
100
AcDbEntity
  8
0
  6
Continuous
 62
     7
370
    15
100
AcDbCircle
 10
244.845559913
 20
-13.4549246971
 30
0.0
 40
6.34781554140535
  0
CIRCLE
  5
209
330
1F
100
AcDbEntity
  8
0
  6
Continuous
 62
     7
370
    15
100
AcDbCircle
 10
244.845559913
 20
46.5170486073
 30
0.0
 40
6.347815540291262
  0
CIRCLE
  5
20A
330
1F
100
AcDbEntity
  8
0
  6
Continuous
 62
     7
370
    15
100
AcDbCircle
 10
244.8455648414
 20
106.489006403
 30
0.0
 40
6.347820469772648
  0
CIRCLE
  5
20B
330
1F
100
AcDbEntity
  8
0
  6
Continuous
 62
     7
370
    15
100
AcDbCircle
 10
244.8455549847
 20
166.4609659992
 30
0.0
 40
6.347810613046974
  0
CIRCLE
  5
20C
330
1F
100
AcDbEntity
  8
0
  6
Continuous
 62
     7
370
    15
100
AcDbCircle
 10
244.8455549847
 20
226.432924398
 30
0.0
 40
6.347810613046974
  0
CIRCLE
  5
20D
330
1F
100
AcDbEntity
  8
0
  6
Continuous
 62
     7
370
    15
100
AcDbCircle
 10
244.8455648412
 20
286.4049114104
 30
0.0
 40
6.347820467579431
  0
ARC
  5
20E
330
1F
100
AcDbEntity
  8
0
  6
Continuous
 62
     7
370
    15
100
AcDbCircle
 10
244.8468580408
 20
346.3778730817
 30
0.0
 40
6.349113676759742
100
AcDbArc
 50
180.0049575752
 51
39.7622105614
  0
ARC
  5
20F
330
1F
100
AcDbEntity
  8
0
  6
Continuous
 62
     7
370
    15
100
AcDbCircle
 10
244.8431663695
 20
346.3770809699
 30
0.0
 40
6.345421986336397
100
AcDbArc
 50
140.2007394518
 51
179.9978081126
  0
CIRCLE
  5
210
330
1F
100
AcDbEntity
  8
0
  6
Continuous
 62
     7
370
    15
100
AcDbCircle
 10
209.8455592809
 20
-13.454924695
 30
0.0
 40
6.347815523906179
  0
CIRCLE
  5
211
330
1F
100
AcDbEntity
  8
0
  6
Continuous
 62
     7
370
    15
100
AcDbCircle
 10
209.8455592808
 20
46.5170486094
 30
0.0
 40
6.347815522792124
  0
CIRCLE
  5
212
330
1F
100
AcDbEntity
  8
0
  6
Continuous
 62
     7
370
    15
100
AcDbCircle
 10
209.8455642092
 20
106.4890064051
 30
0.0
 40
6.347820452272113
  0
CIRCLE
  5
213
330
1F
100
AcDbEntity
  8
0
  6
Continuous
 62
     7
370
    15
100
AcDbCircle
 10
209.8455543525
 20
166.4609660013
 30
0.0
 40
6.347810595549253
  0
CIRCLE
  5
214
330
1F
100
AcDbEntity
  8
0
  6
Continuous
 62
     7
370
    15
100
AcDbCircle
 10
209.8455543525
 20
226.4329244002
 30
0.0
 40
6.347810595549253
  0
CIRCLE
  5
215
330
1F
100
AcDbEntity
  8
0
  6
Continuous
 62
     7
370
    15
100
AcDbCircle
 10
209.8455642091
 20
286.4049114125
 30
0.0
 40
6.347820450078904
  0
ARC
  5
216
330
1F
100
AcDbEntity
  8
0
  6
Continuous
 62
     7
370
    15
100
AcDbCircle
 10
209.8468576405
 20
346.377873608
 30
0.0
 40
6.349113891212315
100
AcDbArc
 50
180.0049623247
 51
39.7622027723
  0
ARC
  5
217
330
1F
100
AcDbEntity
  8
0
  6
Continuous
 62
     7
370
    15
100
AcDbCircle
 10
209.8431695974
 20
346.3770795789
 30
0.0
 40
6.345425828939748
100
AcDbArc
 50
140.2007520108
 51
179.9977955536
  0
CIRCLE
  5
218
330
1F
100
AcDbEntity
  8
0
  6
Continuous
 62
     7
370
    15
100
AcDbCircle
 10
174.8455588208
 20
-13.4549170427
 30
0.0
 40
6.347814746626881
  0
CIRCLE
  5
219
330
1F
100
AcDbEntity
  8
0
  6
Continuous
 62
     7
370
    15
100
AcDbCircle
 10
174.8455588207
 20
46.5170562616
 30
0.0
 40
6.347814745532421
  0
CIRCLE
  5
21A
330
1F
100
AcDbEntity
  8
0
  6
Continuous
 62
     7
370
    15
100
AcDbCircle
 10
174.8455637491
 20
106.4890140574
 30
0.0
 40
6.347819675004656
  0
CIRCLE
  5
21B
330
1F
100
AcDbEntity
  8
0
  6
Continuous
 62
     7
370
    15
100
AcDbCircle
 10
174.8455538924
 20
166.4609736536
 30
0.0
 40
6.347809818258029
  0
CIRCLE
  5
21C
330
1F
100
AcDbEntity
  8
0
  6
Continuous
 62
     7
370
    15
100
AcDbCircle
 10
174.8455538924
 20
226.4329320525
 30
0.0
 40
6.347809818258029
  0
CIRCLE
  5
21D
330
1F
100
AcDbEntity
  8
0
  6
Continuous
 62
     7
370
    15
100
AcDbCircle
 10
174.845563749
 20
286.4049190647
 30
0.0
 40
6.347819672850749
  0
ARC
  5
21E
330
1F
100
AcDbEntity
  8
0
  6
Continuous
 62
     7
370
    15
100
AcDbCircle
 10
174.8468575138
 20
346.3778737149
 30
0.0
 40
6.34911344779246
100
AcDbArc
 50
180.0049632898
 51
39.7622048468
  0
ARC
  5
21F
330
1F
100
AcDbEntity
  8
0
  6
Continuous
 62
     7
370
    15
100
AcDbCircle
 10
174.843165737
 20
346.377081091
 30
0.0
 40
6.345421651805473
100
AcDbArc
 50
140.2007383585
 51
179.9978092059
  0
CIRCLE
  5
220
330
1F
100
AcDbEntity
  8
0
  6
Continuous
 62
     7
370
    15
100
AcDbCircle
 10
139.8455570858
 20
-13.4549324185
 30
0.0
 40
6.34781688710093
  0
CIRCLE
  5
221
330
1F
100
AcDbEntity
  8
0
  6
Continuous
 62
     7
370
    15
100
AcDbCircle
 10
139.8455570858
 20
46.517040886
 30
0.0
 40
6.34781688596703
  0
CIRCLE
  5
222
330
1F
100
AcDbEntity
  8
0
  6
Continuous
 62
     7
370
    15
100
AcDbCircle
 10
139.8455620142
 20
106.4889986816
 30
0.0
 40
6.347821815452019
  0
CIRCLE
  5
223
330
1F
100
AcDbEntity
  8
0
  6
Continuous
 62
     7
370
    15
100
AcDbCircle
 10
139.8455521575
 20
166.4609582779
 30
0.0
 40
6.347811958758681
  0
CIRCLE
  5
224
330
1F
100
AcDbEntity
  8
0
  6
Continuous
 62
     7
370
    15
100
AcDbCircle
 10
139.8455521575
 20
226.4329166767
 30
0.0
 40
6.347811958758681
  0
CIRCLE
  5
225
330
1F
100
AcDbEntity
  8
0
  6
Continuous
 62
     7
370
    15
100
AcDbCircle
 10
139.845562014
 20
286.4049036892
 30
0.0
 40
6.347821813219317
  0
ARC
  5
226
330
1F
100
AcDbEntity
  8
0
  6
Continuous
 62
     7
370
    15
100
AcDbCircle
 10
122.3477414612
 20
179.3077110748
 30
0.0
 40
6.349999872710584
100
AcDbArc
 50
180.0207173338
 51
359.9792826662
  0
LINE
  5
227
330
1F
100
AcDbEntity
  8
0
  6
Continuous
 62
     7
370
    15
100
AcDbLine
 10
128.6977409188
 20
179.3054150058
 30
0.0
 11
128.6977409188
 21
213.5893808318
 31
0.0
  0
ARC
  5
228
330
1F
100
AcDbEntity
  8
0
  6
Continuous
 62
     7
370
    15
100
AcDbCircle
 10
122.3477414612
 20
213.5870847628
 30
0.0
 40
6.349999872710584
100
AcDbArc
 50
0.0207173338
 51
179.9792826662
  0
LINE
  5
229
330
1F
100
AcDbEntity
  8
0
  6
Continuous
 62
     7
370
    15
100
AcDbLine
 10
115.9977420036
 20
213.5893808318
 30
0.0
 11
115.9977420036
 21
179.3054150058
 31
0.0
  0
ARC
  5
22A
330
1F
100
AcDbEntity
  8
0
  6
Continuous
 62
     7
370
    15
100
AcDbCircle
 10
122.3477414612
 20
239.2796694736
 30
0.0
 40
6.349999872710584
100
AcDbArc
 50
180.0207173338
 51
359.9792826662
  0
LINE
  5
22B
330
1F
100
AcDbEntity
  8
0
  6
Continuous
 62
     7
370
    15
100
AcDbLine
 10
128.6977409188
 20
239.2773734046
 30
0.0
 11
128.6977409188
 21
273.5613392307
 31
0.0
  0
ARC
  5
22C
330
1F
100
AcDbEntity
  8
0
  6
Continuous
 62
     7
370
    15
100
AcDbCircle
 10
122.3477414612
 20
273.5590531004
 30
0.0
 40
6.349999869124656
100
AcDbArc
 50
0.020627657
 51
179.979372343
  0
LINE
  5
22D
330
1F
100
AcDbEntity
  8
0
  6
Continuous
 62
     7
370
    15
100
AcDbLine
 10
115.9977420036
 20
273.5613392307
 30
0.0
 11
115.9977420036
 21
239.2773734046
 31
0.0
  0
ARC
  5
22E
330
1F
100
AcDbEntity
  8
0
  6
Continuous
 62
     7
370
    15
100
AcDbCircle
 10
139.8468554935
 20
346.3778730652
 30
0.0
 40
6.349115301778729
100
AcDbArc
 50
180.0049574253
 51
39.762198553
  0
ARC
  5
22F
330
1F
100
AcDbEntity
  8
0
  6
Continuous
 62
     7
370
    15
100
AcDbCircle
 10
139.8440311116
 20
346.3768407633
 30
0.0
 40
6.346290914510605
100
AcDbArc
 50
123.4300301905
 51
179.9956397722
  0
ARC
  5
230
330
1F
100
AcDbEntity
  8
0
  6
Continuous
 62
     7
370
    15
100
AcDbCircle
 10
122.3477414612
 20
299.2516278725
 30
0.0
 40
6.349999872710584
100
AcDbArc
 50
180.0207173338
 51
359.9792826662
  0
LINE
  5
231
330
1F
100
AcDbEntity
  8
0
  6
Continuous
 62
     7
370
    15
100
AcDbLine
 10
128.6977409188
 20
299.2493318034
 30
0.0
 11
128.6977409188
 21
333.5332976295
 31
0.0
  0
ARC
  5
232
330
1F
100
AcDbEntity
  8
0
  6
Continuous
 62
     7
370
    15
100
AcDbCircle
 10
122.3477414612
 20
333.5310015605
 30
0.0
 40
6.349999872710584
100
AcDbArc
 50
0.0207173338
 51
179.9792826662
  0
LINE
  5
233
330
1F
100
AcDbEntity
  8
0
  6
Continuous
 62
     7
370
    15
100
AcDbLine
 10
115.9977420036
 20
333.5332976295
 30
0.0
 11
115.9977420036
 21
299.2493318034
 31
0.0
  0
SPLINE
  5
234
330
1F
100
AcDbEntity
  8
0
  6
Continuous
 62
     7
370
    15
100
AcDbSpline
210
0.0
220
0.0
230
1.0
 70
     8
 71
     3
 72
    16
 73
    12
 74
     0
 42
0.00000001
 43
0.00000001
 40
0.0
 40
0.0
 40
0.0
 40
0.0
 40
0.25
 40
0.25
 40
0.5
 40
0.5
 40
0.75
 40
0.75
 40
0.875
 40
0.875
 40
1.0
 40
1.0
 40
1.0
 40
1.0
 10
108.8977436964061
 20
-34.64456934561405
 30
0.0
 10
108.6472640293505
 20
-34.79712681561725
 30
0.0
 10
108.4000720792906
 20
-34.94418343409422
 30
0.0
 10
107.9262077553426
 20
-35.22885914088356
 30
0.0
 10
107.7078333036295
 20
-35.35943753845297
 30
0.0
 10
107.3092756233941
 20
-35.57573557648089
 30
0.0
 10
107.1448127344465
 20
-35.65780859754744
 30
0.0
 10
106.9691180387489
 20
-35.74773773170967
 30
0.0
 10
106.9245306847337
 20
-35.77107421001188
 30
0.0
 10
106.8637812762935
 20
-35.806329865824
 30
0.0
 10
106.8477436964061
 20
-35.81822770395785
 30
0.0
 10
106.8477436964061
 20
-35.82425565389913
 30
0.0
  0
LINE
  5
235
330
1F
100
AcDbEntity
  8
0
  6
Continuous
 62
     7
370
    15
100
AcDbLine
 10
106.8477435772
 20
-35.8242584752
 30
0.0
 11
106.8477435772
 21
366.6871891929
 31
0.0
  0
ARC
  5
236
330
1F
100
AcDbEntity
  8
0
  6
Continuous
 62
     7
370
    15
100
AcDbCircle
 10
279.8477439944
 20
346.4040600362
 30
0.0
 40
6.350003598848859
100
AcDbArc
 50
180.0207384772
 51
359.9792615228
  0
ARC
  5
237
330
1F
100
AcDbEntity
  8
0
  6
Continuous
 62
     7
370
    15
100
AcDbCircle
 10
244.8477438454
 20
346.4040569904
 30
0.0
 40
6.349999872457095
100
AcDbArc
 50
180.0207110073
 51
359.9792889927
  0
ARC
  5
238
330
1F
100
AcDbEntity
  8
0
  6
Continuous
 62
     7
370
    15
100
AcDbCircle
 10
209.8477436964
 20
346.4040573212
 30
0.0
 40
6.350000338237933
100
AcDbArc
 50
180.0207139905
 51
359.9792860095
  0
ARC
  5
239
330
1F
100
AcDbEntity
  8
0
  6
Continuous
 62
     7
370
    15
100
AcDbCircle
 10
174.8477435474
 20
346.4040569904
 30
0.0
 40
6.349999872457095
100
AcDbArc
 50
180.0207110073
 51
359.9792889927
  0
ARC
  5
23A
330
1F
100
AcDbEntity
  8
0
  6
Continuous
 62
     7
370
    15
100
AcDbCircle
 10
139.8477433984
 20
346.4040600362
 30
0.0
 40
6.350003598848859
100
AcDbArc
 50
180.0207384772
 51
359.9792615228
  0
SPLINE
  5
23B
330
1F
100
AcDbEntity
  8
0
  6
Continuous
 62
     7
370
    15
100
AcDbSpline
210
0.0
220
0.0
230
1.0
 70
     8
 71
     3
 72
    18
 73
    14
 74
     0
 42
0.00000001
 43
0.00000001
 40
0.0
 40
0.0
 40
0.0
 40
0.0
 40
0.1250000000000117
 40
0.1250000000000117
 40
0.2500000000000233
 40
0.2500000000000233
 40
0.375000000000035
 40
0.375000000000035
 40
0.5000000000000466
 40
0.5000000000000466
 40
0.7500000000000233
 40
0.7500000000000233
 40
1.0
 40
1.0
 40
1.0
 40
1.0
 10
312.0477436964062
 20
-35.82425565390079
 30
0.0
 10
312.0477436964061
 20
-35.81562564718391
 30
0.0
 10
312.0360510162688
 20
-35.80024460713141
 30
0.0
 10
311.9920384851329
 20
-35.75573306556673
 30
0.0
 10
311.9591919906607
 20
-35.72621721613792
 30
0.0
 10
311.8784529247375
 20
-35.65550967882375
 30
0.0
 10
311.8296745720519
 20
-35.61349635971664
 30
0.0
 10
311.7224882488532
 20
-35.51956811352497
 30
0.0
 10
311.6641777625549
 20
-35.46773614934249
 30
0.0
 10
311.4789684367207
 20
-35.29707857346076
 30
0.0
 10
311.3502449314933
 20
-35.16736151800131
 30
0.0
 10
311.0788866849813
 20
-34.89829795588764
 30
0.0
 10
310.9383225638167
 20
-34.76053462635692
 30
0.0
 10
310.7977436964061
 20
-34.62011594554914
 30
0.0
  0
SPLINE
  5
23C
330
1F
100
AcDbEntity
  8
0
  6
Continuous
 62
     7
370
    15
100
AcDbSpline
210
0.0
220
0.0
230
1.0
 70
     8
 71
     3
 72
    18
 73
    14
 74
     0
 42
0.00000001
 43
0.00000001
 40
0.0
 40
0.0
 40
0.0
 40
0.0
 40
0.25
 40
0.25
 40
0.5
 40
0.5
 40
0.625
 40
0.625
 40
0.75
 40
0.75
 40
0.875
 40
0.875
 40
1.0
 40
1.0
 40
1.0
 40
1.0
 10
108.8977436964061
 20
-34.62011594554743
 30
0.0
 10
108.7568842824831
 20
-34.76081485316588
 30
0.0
 10
108.6179176742111
 20
-34.89700237441873
 30
0.0
 10
108.3482060290472
 20
-35.16441292433561
 30
0.0
 10
108.2164794170959
 20
-35.29707488246572
 30
0.0
 10
108.0328376097295
 20
-35.46634803781376
 30
0.0
 10
107.9733864432791
 20
-35.51922485160225
 30
0.0
 10
107.8662792321555
 20
-35.61309147748992
 30
0.0
 10
107.8182273911267
 20
-35.65447273431752
 30
0.0
 10
107.7364307567858
 20
-35.72609104194244
 30
0.0
 10
107.7041432847848
 20
-35.75509258124915
 30
0.0
 10
107.6598704967873
 20
-35.7997453607517
 30
0.0
 10
107.6477436964061
 20
-35.81560857535717
 30
0.0
 10
107.6477436964061
 20
-35.82425565389913
 30
0.0
  0
ARC
  5
23D
330
1F
100
AcDbEntity
  8
0
  6
Continuous
 62
     7
370
    15
100
AcDbCircle
 10
297.3477459316
 20
299.2760856404
 30
0.0
 40
6.349999869124656
100
AcDbArc
 50
180.020627657
 51
359.979372343
  0
ARC
  5
23E
330
1F
100
AcDbEntity
  8
0
  6
Continuous
 62
     7
370
    15
100
AcDbCircle
 10
262.3477439199
 20
299.2760868127
 30
0.0
 40
6.35000173219185
100
AcDbArc
 50
180.0206382287
 51
359.9793617713
  0
ARC
  5
23F
330
1F
100
AcDbEntity
  8
0
  6
Continuous
 62
     7
370
    15
100
AcDbCircle
 10
227.3477433052
 20
299.27608527
 30
0.0
 40
6.350000334652584
100
AcDbArc
 50
180.0206243137
 51
359.9793756863
  0
ARC
  5
240
330
1F
100
AcDbEntity
  8
0
  6
Continuous
 62
     7
370
    15
100
AcDbCircle
 10
192.3477440876
 20
299.2760853077
 30
0.0
 40
6.350000334666159
100
AcDbArc
 50
180.0206246539
 51
359.9793753461
  0
ARC
  5
241
330
1F
100
AcDbEntity
  8
0
  6
Continuous
 62
     7
370
    15
100
AcDbCircle
 10
157.3477434729
 20
299.2760868127
 30
0.0
 40
6.35000173219185
100
AcDbArc
 50
180.0206382287
 51
359.9793617713
  0
ARC
  5
242
330
1F
100
AcDbEntity
  8
0
  6
Continuous
 62
     7
370
    15
100
AcDbCircle
 10
122.3477414612
 20
299.2760856404
 30
0.0
 40
6.349999869124656
100
AcDbArc
 50
180.020627657
 51
359.979372343
  0
ARC
  5
243
330
1F
100
AcDbEntity
  8
0
  6
Continuous
 62
     7
370
    15
100
AcDbCircle
 10
279.8477439944
 20
286.4320916986
 30
0.0
 40
6.35000359525926
100
AcDbArc
 50
180.0206488004
 51
359.9793511996
  0
ARC
  5
244
330
1F
100
AcDbEntity
  8
0
  6
Continuous
 62
     7
370
    15
100
AcDbCircle
 10
244.8477438454
 20
286.4320886528
 30
0.0
 40
6.349999868872263
100
AcDbArc
 50
180.0206213305
 51
359.9793786695
  0
ARC
  5
245
330
1F
100
AcDbEntity
  8
0
  6
Continuous
 62
     7
370
    15
100
AcDbCircle
 10
209.8477436964
 20
286.4320889836
 30
0.0
 40
6.350000334652584
100
AcDbArc
 50
180.0206243137
 51
359.9793756863
  0
ARC
  5
246
330
1F
100
AcDbEntity
  8
0
  6
Continuous
 62
     7
370
    15
100
AcDbCircle
 10
174.8477435474
 20
286.4320886528
 30
0.0
 40
6.349999868872263
100
AcDbArc
 50
180.0206213305
 51
359.9793786695
  0
ARC
  5
247
330
1F
100
AcDbEntity
  8
0
  6
Continuous
 62
     7
370
    15
100
AcDbCircle
 10
139.8477433984
 20
286.4320916986
 30
0.0
 40
6.35000359525926
100
AcDbArc
 50
180.0206488004
 51
359.9793511996
  0
ARC
  5
248
330
1F
100
AcDbEntity
  8
0
  6
Continuous
 62
     7
370
    15
100
AcDbCircle
 10
297.3477459316
 20
239.3041272416
 30
0.0
 40
6.349999869124656
100
AcDbArc
 50
180.020627657
 51
359.979372343
  0
ARC
  5
249
330
1F
100
AcDbEntity
  8
0
  6
Continuous
 62
     7
370
    15
100
AcDbCircle
 10
262.3477439199
 20
239.3041284139
 30
0.0
 40
6.35000173219185
100
AcDbArc
 50
180.0206382287
 51
359.9793617713
  0
ARC
  5
24A
330
1F
100
AcDbEntity
  8
0
  6
Continuous
 62
     7
370
    15
100
AcDbCircle
 10
227.3477433052
 20
239.3041268712
 30
0.0
 40
6.350000334652584
100
AcDbArc
 50
180.0206243137
 51
359.9793756863
  0
ARC
  5
24B
330
1F
100
AcDbEntity
  8
0
  6
Continuous
 62
     7
370
    15
100
AcDbCircle
 10
192.3477440876
 20
239.3041269089
 30
0.0
 40
6.350000334666159
100
AcDbArc
 50
180.0206246539
 51
359.9793753461
  0
ARC
  5
24C
330
1F
100
AcDbEntity
  8
0
  6
Continuous
 62
     7
370
    15
100
AcDbCircle
 10
157.3477434729
 20
239.3041284139
 30
0.0
 40
6.35000173219185
100
AcDbArc
 50
180.0206382287
 51
359.9793617713
  0
ARC
  5
24D
330
1F
100
AcDbEntity
  8
0
  6
Continuous
 62
     7
370
    15
100
AcDbCircle
 10
122.3477414612
 20
239.3041272416
 30
0.0
 40
6.349999869124656
100
AcDbArc
 50
180.020627657
 51
359.979372343
  0
ARC
  5
24E
330
1F
100
AcDbEntity
  8
0
  6
Continuous
 62
     7
370
    15
100
AcDbCircle
 10
279.8477439944
 20
226.4601332998
 30
0.0
 40
6.35000359525926
100
AcDbArc
 50
180.0206488004
 51
359.9793511996
  0
ARC
  5
24F
330
1F
100
AcDbEntity
  8
0
  6
Continuous
 62
     7
370
    15
100
AcDbCircle
 10
244.8477438454
 20
226.460130254
 30
0.0
 40
6.349999868872263
100
AcDbArc
 50
180.0206213305
 51
359.9793786695
  0
ARC
  5
250
330
1F
100
AcDbEntity
  8
0
  6
Continuous
 62
     7
370
    15
100
AcDbCircle
 10
209.8477436964
 20
226.4601305848
 30
0.0
 40
6.350000334652584
100
AcDbArc
 50
180.0206243137
 51
359.9793756863
  0
ARC
  5
251
330
1F
100
AcDbEntity
  8
0
  6
Continuous
 62
     7
370
    15
100
AcDbCircle
 10
174.8477435474
 20
226.460130254
 30
0.0
 40
6.349999868872263
100
AcDbArc
 50
180.0206213305
 51
359.9793786695
  0
ARC
  5
252
330
1F
100
AcDbEntity
  8
0
  6
Continuous
 62
     7
370
    15
100
AcDbCircle
 10
139.8477433984
 20
226.4601332998
 30
0.0
 40
6.35000359525926
100
AcDbArc
 50
180.0206488004
 51
359.9793511996
  0
ARC
  5
253
330
1F
100
AcDbEntity
  8
0
  6
Continuous
 62
     7
370
    15
100
AcDbCircle
 10
297.3477459316
 20
179.3321489792
 30
0.0
 40
6.349999872710584
100
AcDbArc
 50
180.0207173338
 51
359.9792826662
  0
ARC
  5
254
330
1F
100
AcDbEntity
  8
0
  6
Continuous
 62
     7
370
    15
100
AcDbCircle
 10
262.3477439199
 20
179.3321501515
 30
0.0
 40
6.350001735779613
100
AcDbArc
 50
180.0207279055
 51
359.9792720945
  0
ARC
  5
255
330
1F
100
AcDbEntity
  8
0
  6
Continuous
 62
     7
370
    15
100
AcDbCircle
 10
227.3477433052
 20
179.3321486088
 30
0.0
 40
6.350000338237932
100
AcDbArc
 50
180.0207139905
 51
359.9792860095
  0
ARC
  5
256
330
1F
100
AcDbEntity
  8
0
  6
Continuous
 62
     7
370
    15
100
AcDbCircle
 10
192.3477440876
 20
179.3321486465
 30
0.0
 40
6.350000338251567
100
AcDbArc
 50
180.0207143308
 51
359.9792856692
  0
ARC
  5
257
330
1F
100
AcDbEntity
  8
0
  6
Continuous
 62
     7
370
    15
100
AcDbCircle
 10
157.3477434729
 20
179.3321501515
 30
0.0
 40
6.350001735779613
100
AcDbArc
 50
180.0207279055
 51
359.9792720945
  0
ARC
  5
258
330
1F
100
AcDbEntity
  8
0
  6
Continuous
 62
     7
370
    15
100
AcDbCircle
 10
122.3477414612
 20
179.3321489792
 30
0.0
 40
6.349999872710584
100
AcDbArc
 50
180.0207173338
 51
359.9792826662
  0
ARC
  5
259
330
1F
100
AcDbEntity
  8
0
  6
Continuous
 62
     7
370
    15
100
AcDbCircle
 10
279.8477439944
 20
166.4881550374
 30
0.0
 40
6.350003598848859
100
AcDbArc
 50
180.0207384772
 51
359.9792615228
  0
ARC
  5
25A
330
1F
100
AcDbEntity
  8
0
  6
Continuous
 62
     7
370
    15
100
AcDbCircle
 10
244.8477438454
 20
166.4881519916
 30
0.0
 40
6.349999872457095
100
AcDbArc
 50
180.0207110073
 51
359.9792889927
  0
ARC
  5
25B
330
1F
100
AcDbEntity
  8
0
  6
Continuous
 62
     7
370
    15
100
AcDbCircle
 10
209.8477436964
 20
166.4881523224
 30
0.0
 40
6.350000338237933
100
AcDbArc
 50
180.0207139905
 51
359.9792860095
  0
ARC
  5
25C
330
1F
100
AcDbEntity
  8
0
  6
Continuous
 62
     7
370
    15
100
AcDbCircle
 10
174.8477435474
 20
166.4881519916
 30
0.0
 40
6.349999872457095
100
AcDbArc
 50
180.0207110073
 51
359.9792889927
  0
ARC
  5
25D
330
1F
100
AcDbEntity
  8
0
  6
Continuous
 62
     7
370
    15
100
AcDbCircle
 10
139.8477433984
 20
166.4881550374
 30
0.0
 40
6.350003598848859
100
AcDbArc
 50
180.0207384772
 51
359.9792615228
  0
ARC
  5
25E
330
1F
100
AcDbEntity
  8
0
  6
Continuous
 62
     7
370
    15
100
AcDbCircle
 10
297.3477459316
 20
119.3601905804
 30
0.0
 40
6.349999872710584
100
AcDbArc
 50
180.0207173338
 51
359.9792826662
  0
ARC
  5
25F
330
1F
100
AcDbEntity
  8
0
  6
Continuous
 62
     7
370
    15
100
AcDbCircle
 10
262.3477439199
 20
119.3601917527
 30
0.0
 40
6.350001735779613
100
AcDbArc
 50
180.0207279055
 51
359.9792720945
  0
ARC
  5
260
330
1F
100
AcDbEntity
  8
0
  6
Continuous
 62
     7
370
    15
100
AcDbCircle
 10
227.3477433052
 20
119.36019021
 30
0.0
 40
6.350000338237932
100
AcDbArc
 50
180.0207139905
 51
359.9792860095
  0
ARC
  5
261
330
1F
100
AcDbEntity
  8
0
  6
Continuous
 62
     7
370
    15
100
AcDbCircle
 10
192.3477440876
 20
119.3601902477
 30
0.0
 40
6.350000338251567
100
AcDbArc
 50
180.0207143308
 51
359.9792856692
  0
ARC
  5
262
330
1F
100
AcDbEntity
  8
0
  6
Continuous
 62
     7
370
    15
100
AcDbCircle
 10
157.3477434729
 20
119.3601917527
 30
0.0
 40
6.350001735779613
100
AcDbArc
 50
180.0207279055
 51
359.9792720945
  0
ARC
  5
263
330
1F
100
AcDbEntity
  8
0
  6
Continuous
 62
     7
370
    15
100
AcDbCircle
 10
122.3477414612
 20
119.3601905804
 30
0.0
 40
6.349999872710584
100
AcDbArc
 50
180.0207173338
 51
359.9792826662
  0
ARC
  5
264
330
1F
100
AcDbEntity
  8
0
  6
Continuous
 62
     7
370
    15
100
AcDbCircle
 10
279.8477439944
 20
106.5161966386
 30
0.0
 40
6.350003598848859
100
AcDbArc
 50
180.0207384772
 51
359.9792615228
  0
ARC
  5
265
330
1F
100
AcDbEntity
  8
0
  6
Continuous
 62
     7
370
    15
100
AcDbCircle
 10
244.8477438454
 20
106.5161935928
 30
0.0
 40
6.349999872457095
100
AcDbArc
 50
180.0207110073
 51
359.9792889927
  0
ARC
  5
266
330
1F
100
AcDbEntity
  8
0
  6
Continuous
 62
     7
370
    15
100
AcDbCircle
 10
209.8477436964
 20
106.5161939236
 30
0.0
 40
6.350000338237933
100
AcDbArc
 50
180.0207139905
 51
359.9792860095
  0
ARC
  5
267
330
1F
100
AcDbEntity
  8
0
  6
Continuous
 62
     7
370
    15
100
AcDbCircle
 10
174.8477435474
 20
106.5161935928
 30
0.0
 40
6.349999872457095
100
AcDbArc
 50
180.0207110073
 51
359.9792889927
  0
ARC
  5
268
330
1F
100
AcDbEntity
  8
0
  6
Continuous
 62
     7
370
    15
100
AcDbCircle
 10
139.8477433984
 20
106.5161966386
 30
0.0
 40
6.350003598848859
100
AcDbArc
 50
180.0207384772
 51
359.9792615228
  0
ARC
  5
269
330
1F
100
AcDbEntity
  8
0
  6
Continuous
 62
     7
370
    15
100
AcDbCircle
 10
297.3477459316
 20
59.3882321815
 30
0.0
 40
6.349999872710584
100
AcDbArc
 50
180.0207173338
 51
359.9792826662
  0
ARC
  5
26A
330
1F
100
AcDbEntity
  8
0
  6
Continuous
 62
     7
370
    15
100
AcDbCircle
 10
262.3477439199
 20
59.3882333539
 30
0.0
 40
6.350001735779613
100
AcDbArc
 50
180.0207279055
 51
359.9792720945
  0
ARC
  5
26B
330
1F
100
AcDbEntity
  8
0
  6
Continuous
 62
     7
370
    15
100
AcDbCircle
 10
227.3477433052
 20
59.3882318112
 30
0.0
 40
6.350000338237932
100
AcDbArc
 50
180.0207139905
 51
359.9792860095
  0
ARC
  5
26C
330
1F
100
AcDbEntity
  8
0
  6
Continuous
 62
     7
370
    15
100
AcDbCircle
 10
192.3477440876
 20
59.3882318489
 30
0.0
 40
6.350000338251567
100
AcDbArc
 50
180.0207143308
 51
359.9792856692
  0
ARC
  5
26D
330
1F
100
AcDbEntity
  8
0
  6
Continuous
 62
     7
370
    15
100
AcDbCircle
 10
157.3477434729
 20
59.3882333539
 30
0.0
 40
6.350001735779613
100
AcDbArc
 50
180.0207279055
 51
359.9792720945
  0
ARC
  5
26E
330
1F
100
AcDbEntity
  8
0
  6
Continuous
 62
     7
370
    15
100
AcDbCircle
 10
122.3477414612
 20
59.3882321815
 30
0.0
 40
6.349999872710584
100
AcDbArc
 50
180.0207173338
 51
359.9792826662
  0
ARC
  5
26F
330
1F
100
AcDbEntity
  8
0
  6
Continuous
 62
     7
370
    15
100
AcDbCircle
 10
279.8477439944
 20
46.5442382398
 30
0.0
 40
6.350003598848859
100
AcDbArc
 50
180.0207384772
 51
359.9792615228
  0
ARC
  5
270
330
1F
100
AcDbEntity
  8
0
  6
Continuous
 62
     7
370
    15
100
AcDbCircle
 10
244.8477438454
 20
46.544235194
 30
0.0
 40
6.349999872457095
100
AcDbArc
 50
180.0207110073
 51
359.9792889927
  0
ARC
  5
271
330
1F
100
AcDbEntity
  8
0
  6
Continuous
 62
     7
370
    15
100
AcDbCircle
 10
209.8477436964
 20
46.5442355248
 30
0.0
 40
6.350000338237933
100
AcDbArc
 50
180.0207139905
 51
359.9792860095
  0
ARC
  5
272
330
1F
100
AcDbEntity
  8
0
  6
Continuous
 62
     7
370
    15
100
AcDbCircle
 10
174.8477435474
 20
46.544235194
 30
0.0
 40
6.349999872457095
100
AcDbArc
 50
180.0207110073
 51
359.9792889927
  0
ARC
  5
273
330
1F
100
AcDbEntity
  8
0
  6
Continuous
 62
     7
370
    15
100
AcDbCircle
 10
139.8477433984
 20
46.5442382398
 30
0.0
 40
6.350003598848859
100
AcDbArc
 50
180.0207384772
 51
359.9792615228
  0
ARC
  5
274
330
1F
100
AcDbEntity
  8
0
  6
Continuous
 62
     7
370
    15
100
AcDbCircle
 10
297.3477459316
 20
-0.5837311867
 30
0.0
 40
6.349999870915673
100
AcDbArc
 50
180.0206724954
 51
359.9793275047
  0
ARC
  5
275
330
1F
100
AcDbEntity
  8
0
  6
Continuous
 62
     7
370
    15
100
AcDbCircle
 10
262.3477439199
 20
-0.5837300143
 30
0.0
 40
6.350001733983785
100
AcDbArc
 50
180.020683067
 51
359.979316933
  0
ARC
  5
276
330
1F
100
AcDbEntity
  8
0
  6
Continuous
 62
     7
370
    15
100
AcDbCircle
 10
227.3477433052
 20
-0.583731557
 30
0.0
 40
6.350000336443312
100
AcDbArc
 50
180.020669152
 51
359.979330848
  0
ARC
  5
277
330
1F
100
AcDbEntity
  8
0
  6
Continuous
 62
     7
370
    15
100
AcDbCircle
 10
192.3477440876
 20
-0.5837315193
 30
0.0
 40
6.350000336456917
100
AcDbArc
 50
180.0206694923
 51
359.9793305077
  0
ARC
  5
278
330
1F
100
AcDbEntity
  8
0
  6
Continuous
 62
     7
370
    15
100
AcDbCircle
 10
157.3477434729
 20
-0.5837300143
 30
0.0
 40
6.350001733983785
100
AcDbArc
 50
180.020683067
 51
359.979316933
  0
ARC
  5
279
330
1F
100
AcDbEntity
  8
0
  6
Continuous
 62
     7
370
    15
100
AcDbCircle
 10
122.3477414612
 20
-0.5837311867
 30
0.0
 40
6.349999870915673
100
AcDbArc
 50
180.0206724954
 51
359.9793275047
  0
ARC
  5
27A
330
1F
100
AcDbEntity
  8
0
  6
Continuous
 62
     7
370
    15
100
AcDbCircle
 10
279.8477439944
 20
-13.4277251284
 30
0.0
 40
6.350003597052112
100
AcDbArc
 50
180.0206936387
 51
359.9793063613
  0
ARC
  5
27B
330
1F
100
AcDbEntity
  8
0
  6
Continuous
 62
     7
370
    15
100
AcDbCircle
 10
244.8477438454
 20
-13.4277281742
 30
0.0
 40
6.349999870662732
100
AcDbArc
 50
180.0206661688
 51
359.9793338312
  0
ARC
  5
27C
330
1F
100
AcDbEntity
  8
0
  6
Continuous
 62
     7
370
    15
100
AcDbCircle
 10
209.8477436964
 20
-13.4277278434
 30
0.0
 40
6.350000336443312
100
AcDbArc
 50
180.020669152
 51
359.979330848
  0
ARC
  5
27D
330
1F
100
AcDbEntity
  8
0
  6
Continuous
 62
     7
370
    15
100
AcDbCircle
 10
174.8477435474
 20
-13.4277281742
 30
0.0
 40
6.349999870662732
100
AcDbArc
 50
180.0206661688
 51
359.9793338312
  0
ARC
  5
27E
330
1F
100
AcDbEntity
  8
0
  6
Continuous
 62
     7
370
    15
100
AcDbCircle
 10
139.8477433984
 20
-13.4277251284
 30
0.0
 40
6.350003597052112
100
AcDbArc
 50
180.0206936387
 51
359.9793063613
  0
LINE
  5
27F
330
1F
100
AcDbEntity
  8
0
  6
Continuous
 62
     7
370
    15
100
AcDbLine
 10
106.8477435772
 20
-35.8242584752
 30
0.0
 11
107.6477422182
 21
-35.8242584752
 31
0.0
  0
LINE
  5
280
330
1F
100
AcDbEntity
  8
0
  6
Continuous
 62
     7
370
    15
100
AcDbLine
 10
312.8477438156
 20
-35.8242584752
 30
0.0
 11
312.0477451746
 21
-35.8242584752
 31
0.0
  0
SPLINE
  5
281
330
1F
100
AcDbEntity
  8
0
  6
Continuous
 62
     7
370
    15
100
AcDbSpline
210
0.0
220
0.0
230
1.0
 70
     8
 71
     3
 72
    14
 73
    10
 74
     0
 42
0.00000001
 43
0.00000001
 40
0.0
 40
0.0
 40
0.0
 40
0.0
 40
0.25
 40
0.25
 40
0.5
 40
0.5
 40
0.75
 40
0.75
 40
1.0
 40
1.0
 40
1.0
 40
1.0
 10
310.7977436964061
 20
-34.6201159455492
 30
0.0
 10
310.9013211074218
 20
-34.78366410567612
 30
0.0
 10
311.0048985184375
 20
-34.94615345322629
 30
0.0
 10
311.2120533404688
 20
-35.24452308712281
 30
0.0
 10
311.3156307514845
 20
-35.38028597775908
 30
0.0
 10
311.5227855735159
 20
-35.60450485326486
 30
0.0
 10
311.6263629845316
 20
-35.69287261758153
 30
0.0
 10
311.833517806563
 20
-35.80880544345008
 30
0.0
 10
311.9370952175786
 20
-35.83632489038558
 30
0.0
 10
312.0406726285943
 20
-35.83132341759882
 30
0.0
  0
LINE
  5
282
330
1F
100
AcDbEntity
  8
0
  6
Continuous
 62
     7
370
    15
100
AcDbLine
 10
312.0406745736
 20
-35.8313216256
 30
0.0
 11
312.0406745736
 21
-36.6309477376
 31
0.0
  0
SPLINE
  5
283
330
1F
100
AcDbEntity
  8
0
  6
Continuous
 62
     7
370
    15
100
AcDbSpline
210
0.0
220
0.0
230
1.0
 70
     8
 71
     3
 72
    14
 73
    10
 74
     0
 42
0.00000001
 43
0.00000001
 40
0.0
 40
0.0
 40
0.0
 40
0.0
 40
0.25
 40
0.25
 40
0.5
 40
0.5
 40
0.75
 40
0.75
 40
1.0
 40
1.0
 40
1.0
 40
1.0
 10
310.7977436964061
 20
-34.64456934561577
 30
0.0
 10
310.9013373606461
 20
-34.91283041677617
 30
0.0
 10
311.0048985184374
 20
-35.17927085820638
 30
0.0
 10
311.2120533404688
 20
-35.66859705779657
 30
0.0
 10
311.3156307514845
 20
-35.89124819844003
 30
0.0
 10
311.5227855735159
 20
-36.25896715426952
 30
0.0
 10
311.6263629845316
 20
-36.40389028774887
 30
0.0
 10
311.833517806563
 20
-36.59402012217322
 30
0.0
 10
311.9370789643544
 20
-36.6391533022592
 30
0.0
 10
312.0406726285943
 20
-36.6309495997772
 30
0.0
  0
SPLINE
  5
284
330
1F
100
AcDbEntity
  8
0
  6
Continuous
 62
     7
370
    15
100
AcDbSpline
210
0.0
220
0.0
230
1.0
 70
     8
 71
     3
 72
    14
 73
    10
 74
     0
 42
0.00000001
 43
0.00000001
 40
0.0
 40
0.0
 40
0.0
 40
0.0
 40
0.25
 40
0.25
 40
0.5
 40
0.5
 40
0.75
 40
0.75
 40
1.0
 40
1.0
 40
1.0
 40
1.0
 10
107.654814764218
 20
-36.63094959977542
 30
0.0
 10
107.7584084284579
 20
-36.63915330225742
 30
0.0
 10
107.8619695862493
 20
-36.59402012217144
 30
0.0
 10
108.0691244082807
 20
-36.4038902877471
 30
0.0
 10
108.1727018192964
 20
-36.25896715426774
 30
0.0
 10
108.3798566413277
 20
-35.89124819843826
 30
0.0
 10
108.4834340523434
 20
-35.66859705779479
 30
0.0
 10
108.6905888743748
 20
-35.1792708582046
 30
0.0
 10
108.7941500321662
 20
-34.91283041677434
 30
0.0
 10
108.8977436964061
 20
-34.64456934561405
 30
0.0
  0
LINE
  5
285
330
1F
100
AcDbEntity
  8
0
  6
Continuous
 62
     7
370
    15
100
AcDbLine
 10
107.6548128192
 20
-36.6309477376
 30
0.0
 11
107.6548128192
 21
-35.8313216256
 31
0.0
  0
SPLINE
  5
286
330
1F
100
AcDbEntity
  8
0
  6
Continuous
 62
     7
370
    15
100
AcDbSpline
210
0.0
220
0.0
230
1.0
 70
     8
 71
     3
 72
    14
 73
    10
 74
     0
 42
0.00000001
 43
0.00000001
 40
0.0
 40
0.0
 40
0.0
 40
0.0
 40
0.25
 40
0.25
 40
0.5
 40
0.5
 40
0.75
 40
0.75
 40
1.0
 40
1.0
 40
1.0
 40
1.0
 10
107.654814764218
 20
-35.83132341759707
 30
0.0
 10
107.7583921752337
 20
-35.8363248903838
 30
0.0
 10
107.8619695862493
 20
-35.80880544344828
 30
0.0
 10
108.0691244082807
 20
-35.69287261757978
 30
0.0
 10
108.1727018192964
 20
-35.60450485326317
 30
0.0
 10
108.3798566413278
 20
-35.3802859777573
 30
0.0
 10
108.4834340523434
 20
-35.24452308712109
 30
0.0
 10
108.6905888743748
 20
-34.94615345322458
 30
0.0
 10
108.7941662853904
 20
-34.78366410567438
 30
0.0
 10
108.8977436964061
 20
-34.62011594554745
 30
0.0
  0
LINE
  5
287
330
1F
100
AcDbEntity
  8
0
  6
Continuous
 62
     7
370
    15
100
AcDbLine
 10
107.9217969243
 20
-35.5638606833
 30
0.0
 11
108.1903531019
 21
-35.5638606833
 31
0.0
  0
LINE
  5
288
330
1F
100
AcDbEntity
  8
0
  6
Continuous
 62
     7
370
    15
100
AcDbLine
 10
311.5051342909
 20
-35.5638606833
 30
0.0
 11
311.7742716138
 21
-35.5638606833
 31
0.0
  0
SPLINE
  5
289
330
1F
100
AcDbEntity
  8
0
  6
Continuous
 62
     7
370
    15
100
AcDbSpline
210
0.0
220
0.0
230
1.0
 70
     8
 71
     3
 72
    12
 73
     8
 74
     0
 42
0.00000001
 43
0.00000001
 40
0.0
 40
0.0
 40
0.0
 40
0.0
 40
0.2256566652479823
 40
0.451336003331626
 40
0.6770224237606571
 40
0.9027132520509669
 40
1.0
 40
1.0
 40
1.0
 40
1.0
 10
118.8477455441439
 20
412.9191146804084
 30
0.0
 10
118.8178056102132
 20
412.8256003335928
 30
0.0
 10
118.7579227341391
 20
412.638562244115
 30
0.0
 10
118.2925123760331
 20
412.3579013296411
 30
0.0
 10
117.6137658075828
 20
412.0774223665149
 30
0.0
 10
116.9345620715644
 20
411.8496166426389
 30
0.0
 10
116.5220096518115
 20
411.7163279982654
 30
0.0
 10
116.3977413241351
 20
411.6761790229072
 30
0.0
  0
LINE
  5
28A
330
1F
100
AcDbEntity
  8
0
  6
Continuous
 62
     7
370
    15
100
AcDbLine
 10
116.3977413241
 20
472.7620588256
 30
0.0
 11
116.3977413241
 21
411.6761790229
 31
0.0
  0
SPLINE
  5
28B
330
1F
100
AcDbEntity
  8
0
  6
Continuous
 62
     7
370
    15
100
AcDbSpline
210
0.0
220
0.0
230
1.0
 70
     8
 71
     3
 72
    12
 73
     8
 74
     0
 42
0.00000001
 43
0.00000001
 40
0.0
 40
0.0
 40
0.0
 40
0.0
 40
0.2256438274721798
 40
0.4513342324707046
 40
0.6770237813545237
 40
0.9027032936636302
 40
1.0
 40
1.0
 40
1.0
 40
1.0
 10
116.3977413241351
 20
472.7620588256111
 30
0.0
 10
116.68723799511
 20
472.6685418029975
 30
0.0
 10
117.2662910951262
 20
472.4814884539335
 30
0.0
 10
118.0276857858731
 20
472.2008511510386
 30
0.0
 10
118.5827477462817
 20
471.9203808460157
 30
0.0
 10
118.8228921495238
 20
471.6925417922683
 30
0.0
 10
118.841991774881
 20
471.5592710338061
 30
0.0
 10
118.8477455441439
 20
471.5191231681098
 30
0.0
  0
LINE
  5
28C
330
1F
100
AcDbEntity
  8
0
  6
Continuous
 62
     7
370
    15
100
AcDbLine
 10
118.8477455441
 20
471.5191231681
 30
0.0
 11
118.8477455441
 21
412.9191146804
 31
0.0
  0
LINE
  5
28D
330
1F
100
AcDbEntity
  8
0
  6
Continuous
 62
     7
370
    15
100
AcDbLine
 10
84.0477450554
 20
472.7620588256
 30
0.0
 11
84.0477450554
 21
411.6761790229
 31
0.0
  0
LINE
  5
28E
330
1F
100
AcDbEntity
  8
0
  6
Continuous
 62
     7
370
    15
100
AcDbLine
 10
116.3977413241
 20
472.7620588256
 30
0.0
 11
84.0477450554
 21
472.7620588256
 31
0.0
  0
LINE
  5
28F
330
1F
100
AcDbEntity
  8
0
  6
Continuous
 62
     7
370
    15
100
AcDbLine
 10
116.3977413241
 20
411.6761790229
 30
0.0
 11
84.0477450554
 21
411.6761790229
 31
0.0
  0
SPLINE
  5
290
330
1F
100
AcDbEntity
  8
0
  6
Continuous
 62
     7
370
    15
100
AcDbSpline
210
0.0
220
0.0
230
1.0
 70
     8
 71
     3
 72
    12
 73
     8
 74
     0
 42
0.00000001
 43
0.00000001
 40
0.0
 40
0.0
 40
0.0
 40
0.0
 40
0.2256480046555211
 40
0.4513401037441688
 40
0.6770271510067111
 40
0.9027186061427744
 40
1.0
 40
1.0
 40
1.0
 40
1.0
 10
118.8477455441439
 20
471.51912316811
 30
0.0
 10
118.8178004084428
 20
471.8086138989707
 30
0.0
 10
118.7579042853877
 20
472.3876519307905
 30
0.0
 10
118.2925330314471
 20
473.1490813159493
 30
0.0
 10
117.613758681348
 20
473.7041210547176
 30
0.0
 10
116.9345839009841
 20
473.94432752713
 30
0.0
 10
116.522010846802
 20
473.9633752089174
 30
0.0
 10
116.3977413241351
 20
473.9691124869575
 30
0.0
  0
SPLINE
  5
291
330
1F
100
AcDbEntity
  8
0
  6
Continuous
 62
     7
370
    15
100
AcDbSpline
210
0.0
220
0.0
230
1.0
 70
     8
 71
     3
 72
     9
 73
     5
 74
     0
 42
0.00000001
 43
0.00000001
 40
0.0
 40
0.0
 40
0.0
 40
0.0
 40
0.4104808067665247
 40
0.9999999999999999
 40
0.9999999999999999
 40
0.9999999999999999
 40
0.9999999999999999
 10
117.083194739052
 20
472.535978407978
 30
0.0
 10
116.9999905787214
 20
472.595744860873
 30
0.0
 10
116.7972913076251
 20
472.7413459508874
 30
0.0
 10
116.5459259984229
 20
472.7588391825328
 30
0.0
 10
116.3977413241351
 20
472.7691517783393
 30
0.0
  0
LINE
  5
292
330
1F
100
AcDbEntity
  8
0
  6
Continuous
 62
     7
370
    15
100
AcDbLine
 10
116.3977413241
 20
473.969112487
 30
0.0
 11
116.3977413241
 21
472.7691517783
 31
0.0
  0
SPLINE
  5
293
330
1F
100
AcDbEntity
  8
0
  6
Continuous
 62
     7
370
    15
100
AcDbSpline
210
0.0
220
0.0
230
1.0
 70
     8
 71
     3
 72
    12
 73
     8
 74
     0
 42
0.00000001
 43
0.00000001
 40
0.0
 40
0.0
 40
0.0
 40
0.0
 40
0.2256469964650622
 40
0.4513405711106149
 40
0.6770332896294382
 40
0.9027159714325931
 40
1.0
 40
1.0
 40
1.0
 40
1.0
 10
116.3977413241351
 20
410.4691253615608
 30
0.0
 10
116.6872379998484
 20
410.4990683607888
 30
0.0
 10
117.2662911093424
 20
410.5589605400961
 30
0.0
 10
118.0276857289946
 20
411.024372215034
 30
0.0
 10
118.5827479595699
 20
411.7031270969097
 30
0.0
 10
118.8228853978336
 20
412.3823178743553
 30
0.0
 10
118.8419906579301
 20
412.7948513514567
 30
0.0
 10
118.8477455441439
 20
412.9191146804084
 30
0.0
  0
LINE
  5
294
330
1F
100
AcDbEntity
  8
0
  6
Continuous
 62
     7
370
    15
100
AcDbLine
 10
116.3977413241
 20
410.4691253616
 30
0.0
 11
116.3977413241
 21
411.6691456748
 31
0.0
  0
SPLINE
  5
295
330
1F
100
AcDbEntity
  8
0
  6
Continuous
 62
     7
370
    15
100
AcDbSpline
210
0.0
220
0.0
230
1.0
 70
     8
 71
     3
 72
     9
 73
     5
 74
     0
 42
0.00000001
 43
0.00000001
 40
0.0
 40
0.0
 40
0.0
 40
0.0
 40
0.7065209920177058
 40
0.9999999999999999
 40
0.9999999999999999
 40
0.9999999999999999
 40
0.9999999999999999
 10
116.3977413241351
 20
411.6691456748237
 30
0.0
 10
116.5785628933615
 20
411.6826513437516
 30
0.0
 10
116.8344952312105
 20
411.7017670799864
 30
0.0
 10
117.0293302572542
 20
411.8593039358295
 30
0.0
 10
117.0865102474177
 20
411.9055376960029
 30
0.0
  0
LINE
  5
296
330
1F
100
AcDbEntity
  8
0
  6
Continuous
 62
     7
370
    15
100
AcDbLine
 10
84.0477450554
 20
473.969112487
 30
0.0
 11
84.0477450554
 21
472.7691517783
 31
0.0
  0
LINE
  5
297
330
1F
100
AcDbEntity
  8
0
  6
Continuous
 62
     7
370
    15
100
AcDbLine
 10
116.3977413241
 20
473.969112487
 30
0.0
 11
84.0477450554
 21
473.969112487
 31
0.0
  0
LINE
  5
298
330
1F
100
AcDbEntity
  8
0
  6
Continuous
 62
     7
370
    15
100
AcDbLine
 10
116.3977413241
 20
472.7691517783
 30
0.0
 11
84.0477450554
 21
472.7691517783
 31
0.0
  0
LINE
  5
299
330
1F
100
AcDbEntity
  8
0
  6
Continuous
 62
     7
370
    15
100
AcDbLine
 10
116.3977413241
 20
411.6691456748
 30
0.0
 11
84.0477450554
 21
411.6691456748
 31
0.0
  0
LINE
  5
29A
330
1F
100
AcDbEntity
  8
0
  6
Continuous
 62
     7
370
    15
100
AcDbLine
 10
116.3977413241
 20
410.4691253616
 30
0.0
 11
84.0477450554
 21
410.4691253616
 31
0.0
  0
LINE
  5
29B
330
1F
100
AcDbEntity
  8
0
  6
Continuous
 62
     7
370
    15
100
AcDbLine
 10
84.0477450554
 20
410.4691253616
 30
0.0
 11
84.0477450554
 21
411.6691456748
 31
0.0
  0
LWPOLYLINE
  5
29C
330
1F
100
AcDbEntity
  8
0
  6
Continuous
 62
     7
370
    15
100
AcDbPolyline
 90
        3
 70
   128
 43
0.0
 10
266.3190803294
 20
383.7191568328
 10
267.168312407
 20
383.7004409744
 10
267.376407123
 20
383.7191568328
  0
LINE
  5
29D
330
1F
100
AcDbEntity
  8
0
  6
Continuous
 62
     7
370
    15
100
AcDbLine
 10
227.5977442775
 20
245.6896410896
 30
0.0
 11
227.5977442775
 21
257.6896356059
 31
0.0
  0
LINE
  5
29E
330
1F
100
AcDbEntity
  8
0
  6
Continuous
 62
     7
370
    15
100
AcDbLine
 10
227.5977442775
 20
245.6896410896
 30
0.0
 11
229.0977435921
 21
245.6896410896
 31
0.0
  0
LINE
  5
29F
330
1F
100
AcDbEntity
  8
0
  6
Continuous
 62
     7
370
    15
100
AcDbLine
 10
227.5977442775
 20
257.6896356059
 30
0.0
 11
229.0977435921
 21
257.6896356059
 31
0.0
  0
LINE
  5
2A0
330
1F
100
AcDbEntity
  8
0
  6
Continuous
 62
     7
370
    15
100
AcDbLine
 10
320.8477451269
 20
-49.28086385
 30
0.0
 11
321.8477471535
 21
-49.28086385
 31
0.0
  0
LINE
  5
2A1
330
1F
100
AcDbEntity
  8
0
  6
Continuous
 62
     7
370
    15
100
AcDbLine
 10
320.8477451269
 20
-49.28086385
 30
0.0
 11
320.8477451269
 21
366.6871891929
 31
0.0
  0
LINE
  5
2A2
330
1F
100
AcDbEntity
  8
0
  6
Continuous
 62
     7
370
    15
100
AcDbLine
 10
320.8477451269
 20
372.6872311546
 30
0.0
 11
320.8477451269
 21
407.7191458656
 31
0.0
  0
LINE
  5
2A3
330
1F
100
AcDbEntity
  8
0
  6
Continuous
 62
     7
370
    15
100
AcDbLine
 10
320.8477451269
 20
407.7191458656
 30
0.0
 11
321.8477471535
 21
407.7191458656
 31
0.0
  0
LINE
  5
2A4
330
1F
100
AcDbEntity
  8
0
  6
Continuous
 62
     7
370
    15
100
AcDbLine
 10
98.8477422659
 20
-49.28086385
 30
0.0
 11
98.8477422659
 21
-50.2808658766
 31
0.0
  0
LINE
  5
2A5
330
1F
100
AcDbEntity
  8
0
  6
Continuous
 62
     7
370
    15
100
AcDbLine
 10
320.8477451269
 20
-49.28086385
 30
0.0
 11
320.8477451269
 21
-50.2808658766
 31
0.0
  0
LINE
  5
2A6
330
1F
100
AcDbEntity
  8
0
  6
Continuous
 62
     7
370
    15
100
AcDbLine
 10
320.8477451269
 20
-49.28086385
 30
0.0
 11
98.8477422659
 21
-49.28086385
 31
0.0
  0
LINE
  5
2A7
330
1F
100
AcDbEntity
  8
0
  6
Continuous
 62
     7
370
    15
100
AcDbLine
 10
302.8477459018
 20
336.7055760337
 30
0.0
 11
302.8477459018
 21
336.3691376163
 31
0.0
  0
LINE
  5
2A8
330
1F
100
AcDbEntity
  8
0
  6
Continuous
 62
     7
370
    15
100
AcDbLine
 10
301.8477438752
 20
338.0114541961
 30
0.0
 11
301.8477438752
 21
337.369154544
 31
0.0
  0
LINE
  5
2A9
330
1F
100
AcDbEntity
  8
0
  6
Continuous
 62
     7
370
    15
100
AcDbLine
 10
129.3477444713
 20
412.6291976882
 30
0.0
 11
129.3477444713
 21
414.629171939
 31
0.0
  0
LINE
  5
2AA
330
1F
100
AcDbEntity
  8
0
  6
Continuous
 62
     7
370
    15
100
AcDbLine
 10
129.3477444713
 20
414.629171939
 30
0.0
 11
130.1477431123
 21
414.629171939
 31
0.0
  0
LINE
  5
2AB
330
1F
100
AcDbEntity
  8
0
  6
Continuous
 62
     7
370
    15
100
AcDbLine
 10
129.3477444713
 20
391.6291700317
 30
0.0
 11
129.3477444713
 21
412.6291976882
 31
0.0
  0
LINE
  5
2AC
330
1F
100
AcDbEntity
  8
0
  6
Continuous
 62
     7
370
    15
100
AcDbLine
 10
129.3477444713
 20
389.6291957809
 30
0.0
 11
130.1477431123
 21
389.6291957809
 31
0.0
  0
LINE
  5
2AD
330
1F
100
AcDbEntity
  8
0
  6
Continuous
 62
     7
370
    15
100
AcDbLine
 10
129.3477444713
 20
389.6291957809
 30
0.0
 11
129.3477444713
 21
391.6291700317
 31
0.0
  0
LINE
  5
2AE
330
1F
100
AcDbEntity
  8
0
  6
Continuous
 62
     7
370
    15
100
AcDbLine
 10
290.3477429215
 20
412.6291976882
 30
0.0
 11
290.3477429215
 21
391.6291700317
 31
0.0
  0
LINE
  5
2AF
330
1F
100
AcDbEntity
  8
0
  6
Continuous
 62
     7
370
    15
100
AcDbLine
 10
290.3477429215
 20
414.629171939
 30
0.0
 11
289.5477442805
 21
414.629171939
 31
0.0
  0
LINE
  5
2B0
330
1F
100
AcDbEntity
  8
0
  6
Continuous
 62
     7
370
    15
100
AcDbLine
 10
290.3477429215
 20
414.629171939
 30
0.0
 11
290.3477429215
 21
412.6291976882
 31
0.0
  0
LINE
  5
2B1
330
1F
100
AcDbEntity
  8
0
  6
Continuous
 62
     7
370
    15
100
AcDbLine
 10
290.3477429215
 20
389.6291957809
 30
0.0
 11
289.5477442805
 21
389.6291957809
 31
0.0
  0
LINE
  5
2B2
330
1F
100
AcDbEntity
  8
0
  6
Continuous
 62
     7
370
    15
100
AcDbLine
 10
290.3477429215
 20
391.6291700317
 30
0.0
 11
290.3477429215
 21
389.6291957809
 31
0.0
  0
LINE
  5
2B3
330
1F
100
AcDbEntity
  8
0
  6
Continuous
 62
     7
370
    15
100
AcDbLine
 10
129.3477444713
 20
387.6291619254
 30
0.0
 11
129.3477444713
 21
389.6291957809
 31
0.0
  0
LINE
  5
2B4
330
1F
100
AcDbEntity
  8
0
  6
Continuous
 62
     7
370
    15
100
AcDbLine
 10
290.3477429215
 20
389.6291957809
 30
0.0
 11
290.3477429215
 21
387.6291619254
 31
0.0
  0
LINE
  5
2B5
330
1F
100
AcDbEntity
  8
0
  6
Continuous
 62
     7
370
    15
100
AcDbLine
 10
132.3477431004
 20
378.6291585876
 30
0.0
 11
129.3477444713
 21
378.6291585876
 31
0.0
  0
LINE
  5
2B6
330
1F
100
AcDbEntity
  8
0
  6
Continuous
 62
     7
370
    15
100
AcDbLine
 10
129.3477444713
 20
378.6291585876
 30
0.0
 11
129.3477444713
 21
387.6291619254
 31
0.0
  0
LINE
  5
2B7
330
1F
100
AcDbEntity
  8
0
  6
Continuous
 62
     7
370
    15
100
AcDbLine
 10
132.3477431004
 20
378.6291585876
 30
0.0
 11
132.3477431004
 21
383.7191568328
 31
0.0
  0
LINE
  5
2B8
330
1F
100
AcDbEntity
  8
0
  6
Continuous
 62
     7
370
    15
100
AcDbLine
 10
132.3477431004
 20
385.6787191344
 30
0.0
 11
132.3477431004
 21
386.0958324386
 31
0.0
  0
LINE
  5
2B9
330
1F
100
AcDbEntity
  8
0
  6
Continuous
 62
     7
370
    15
100
AcDbLine
 10
136.347743756
 20
374.6291504813
 30
0.0
 11
136.347743756
 21
371.6291891052
 31
0.0
  0
ARC
  5
2BA
330
1F
100
AcDbEntity
  8
0
  6
Continuous
 62
     7
370
    15
100
AcDbCircle
 10
136.3477436964
 20
378.6291708201
 30
0.0
 40
7.0
100
AcDbArc
 50
180.0
 51
270.0
  0
ARC
  5
2BB
330
1F
100
AcDbEntity
  8
0
  6
Continuous
 62
     7
370
    15
100
AcDbCircle
 10
136.3477436964
 20
378.6291708201
 30
0.0
 40
4.0
100
AcDbArc
 50
180.0
 51
270.0
  0
LINE
  5
2BC
330
1F
100
AcDbEntity
  8
0
  6
Continuous
 62
     7
370
    15
100
AcDbLine
 10
283.3477436368
 20
374.6291504813
 30
0.0
 11
283.3477436368
 21
371.6291891052
 31
0.0
  0
LINE
  5
2BD
330
1F
100
AcDbEntity
  8
0
  6
Continuous
 62
     7
370
    15
100
AcDbLine
 10
283.3477436368
 20
371.6291891052
 30
0.0
 11
136.347743756
 21
371.6291891052
 31
0.0
  0
LINE
  5
2BE
330
1F
100
AcDbEntity
  8
0
  6
Continuous
 62
     7
370
    15
100
AcDbLine
 10
283.3477436368
 20
374.6291504813
 30
0.0
 11
136.347743756
 21
374.6291504813
 31
0.0
  0
LINE
  5
2BF
330
1F
100
AcDbEntity
  8
0
  6
Continuous
 62
     7
370
    15
100
AcDbLine
 10
287.3477442924
 20
378.6291585876
 30
0.0
 11
290.3477429215
 21
378.6291585876
 31
0.0
  0
LINE
  5
2C0
330
1F
100
AcDbEntity
  8
0
  6
Continuous
 62
     7
370
    15
100
AcDbLine
 10
287.3477442924
 20
386.0927329971
 30
0.0
 11
287.3477442924
 21
385.6811033202
 31
0.0
  0
LINE
  5
2C1
330
1F
100
AcDbEntity
  8
0
  6
Continuous
 62
     7
370
    15
100
AcDbLine
 10
287.3477442924
 20
383.7191568328
 30
0.0
 11
287.3477442924
 21
378.6291585876
 31
0.0
  0
LINE
  5
2C2
330
1F
100
AcDbEntity
  8
0
  6
Continuous
 62
     7
370
    15
100
AcDbLine
 10
290.3477429215
 20
387.6291619254
 30
0.0
 11
290.3477429215
 21
378.6291585876
 31
0.0
  0
ARC
  5
2C3
330
1F
100
AcDbEntity
  8
0
  6
Continuous
 62
     7
370
    15
100
AcDbCircle
 10
283.3477436964
 20
378.6291708201
 30
0.0
 40
7.000000000000057
100
AcDbArc
 50
270.0
 51
360.0
  0
ARC
  5
2C4
330
1F
100
AcDbEntity
  8
0
  6
Continuous
 62
     7
370
    15
100
AcDbCircle
 10
283.3477436964
 20
378.6291708201
 30
0.0
 40
4.000000000000057
100
AcDbArc
 50
270.0
 51
360.0
  0
LINE
  5
2C5
330
1F
100
AcDbEntity
  8
0
  6
Continuous
 62
     7
370
    15
100
AcDbLine
 10
283.3477436368
 20
368.3237539245
 30
0.0
 11
283.3477436368
 21
371.6291891052
 31
0.0
  0
LINE
  5
2C6
330
1F
100
AcDbEntity
  8
0
  6
Continuous
 62
     7
370
    15
100
AcDbLine
 10
136.347743756
 20
368.3237539245
 30
0.0
 11
283.3477436368
 21
368.3237539245
 31
0.0
  0
LINE
  5
2C7
330
1F
100
AcDbEntity
  8
0
  6
Continuous
 62
     7
370
    15
100
AcDbLine
 10
136.347743756
 20
371.6291891052
 30
0.0
 11
136.347743756
 21
368.3237539245
 31
0.0
  0
LINE
  5
2C8
330
1F
100
AcDbEntity
  8
0
  6
Continuous
 62
     7
370
    15
100
AcDbLine
 10
283.3477436368
 20
368.3237539245
 30
0.0
 11
283.3477436368
 21
356.2232361747
 31
0.0
  0
LINE
  5
2C9
330
1F
100
AcDbEntity
  8
0
  6
Continuous
 62
     7
370
    15
100
AcDbLine
 10
136.347743756
 20
356.2232361747
 30
0.0
 11
283.3477436368
 21
356.2232361747
 31
0.0
  0
LINE
  5
2CA
330
1F
100
AcDbEntity
  8
0
  6
Continuous
 62
     7
370
    15
100
AcDbLine
 10
136.347743756
 20
356.2232361747
 30
0.0
 11
136.347743756
 21
368.3237539245
 31
0.0
  0
LINE
  5
2CB
330
1F
100
AcDbEntity
  8
0
  6
Continuous
 62
     7
370
    15
100
AcDbLine
 10
283.3477436368
 20
356.2232361747
 30
0.0
 11
283.3477436368
 21
350.4387842132
 31
0.0
  0
LINE
  5
2CC
330
1F
100
AcDbEntity
  8
0
  6
Continuous
 62
     7
370
    15
100
AcDbLine
 10
136.347743756
 20
350.4387842132
 30
0.0
 11
283.3477436368
 21
350.4387842132
 31
0.0
  0
LINE
  5
2CD
330
1F
100
AcDbEntity
  8
0
  6
Continuous
 62
     7
370
    15
100
AcDbLine
 10
136.347743756
 20
350.4387842132
 30
0.0
 11
136.347743756
 21
356.2232361747
 31
0.0
  0
SPLINE
  5
2CE
330
1F
100
AcDbEntity
  8
0
  6
Continuous
 62
     7
370
    15
100
AcDbSpline
210
0.0
220
0.0
230
1.0
 70
     8
 71
     3
 72
    12
 73
     8
 74
     0
 42
0.00000001
 43
0.00000001
 40
0.0
 40
0.0
 40
0.0
 40
0.0
 40
0.2276399416540941
 40
0.4553444620470039
 40
0.6830513827819973
 40
0.9107499876905352
 40
1.0
 40
1.0
 40
1.0
 40
1.0
 10
130.1477431122744
 20
467.9120884848823
 30
0.0
 10
130.1813324809778
 20
467.7987585390204
 30
0.0
 10
130.2485207472883
 20
467.5720664969414
 30
0.0
 10
130.7702488975484
 20
467.2320408362853
 30
0.0
 10
131.5298861674698
 20
466.8920883415726
 30
0.0
 10
132.2760097781785
 20
466.6204201717098
 30
0.0
 10
132.722122575873
 20
466.4633894512936
 30
0.0
 10
132.8477441136324
 20
466.4191709471931
 30
0.0
  0
LINE
  5
2CF
330
1F
100
AcDbEntity
  8
0
  6
Continuous
 62
     7
370
    15
100
AcDbLine
 10
130.1477431123
 20
467.9120884849
 30
0.0
 11
131.3477410738
 21
467.9120884849
 31
0.0
  0
SPLINE
  5
2D0
330
1F
100
AcDbEntity
  8
0
  6
Continuous
 62
     7
370
    15
100
AcDbSpline
210
0.0
220
0.0
230
1.0
 70
     8
 71
     3
 72
    11
 73
     7
 74
     0
 42
0.00000001
 43
0.00000001
 40
0.0
 40
0.0
 40
0.0
 40
0.0
 40
0.2225443898539183
 40
0.4770162905775899
 40
0.7315844650571052
 40
1.0
 40
1.0
 40
1.0
 40
1.0
 10
131.3477410737955
 20
467.9120884848823
 30
0.0
 10
131.3656523467633
 20
467.8014992765178
 30
0.0
 10
131.4040445479607
 20
467.5644550895735
 30
0.0
 10
131.7222709261804
 20
467.2001256766459
 30
0.0
 10
132.2251056400496
 20
466.8132982694113
 30
0.0
 10
132.6365664556391
 20
466.5528454443347
 30
0.0
 10
132.8477441136324
 20
466.4191709471931
 30
0.0
  0
SPLINE
  5
2D1
330
1F
100
AcDbEntity
  8
0
  6
Continuous
 62
     7
370
    15
100
AcDbSpline
210
0.0
220
0.0
230
1.0
 70
     8
 71
     3
 72
    12
 73
     8
 74
     0
 42
0.00000001
 43
0.00000001
 40
0.0
 40
0.0
 40
0.0
 40
0.0
 40
0.2276390694451046
 40
0.4553466310609503
 40
0.683045738340256
 40
0.9107433703867432
 40
1.0
 40
1.0
 40
1.0
 40
1.0
 10
132.8477441136324
 20
386.419128031849
 30
0.0
 10
132.525886372015
 20
386.3058305750162
 30
0.0
 10
131.8820740480426
 20
386.0792015723484
 30
0.0
 10
131.0377321463316
 20
385.7390476527967
 30
0.0
 10
130.4262167283231
 20
385.3991957364577
 30
0.0
 10
130.1721446484411
 20
385.1275508093441
 30
0.0
 10
130.1531048564383
 20
384.9704509572412
 30
0.0
 10
130.1477431122744
 20
384.9262104941596
 30
0.0
  0
LINE
  5
2D2
330
1F
100
AcDbEntity
  8
0
  6
Continuous
 62
     7
370
    15
100
AcDbLine
 10
130.1477431123
 20
467.9120884849
 30
0.0
 11
130.1477431123
 21
384.9262104942
 31
0.0
  0
LINE
  5
2D3
330
1F
100
AcDbEntity
  8
0
  6
Continuous
 62
     7
370
    15
100
AcDbLine
 10
132.8477441136
 20
466.4191709472
 30
0.0
 11
132.8477441136
 21
386.4191280318
 31
0.0
  0
SPLINE
  5
2D4
330
1F
100
AcDbEntity
  8
0
  6
Continuous
 62
     7
370
    15
100
AcDbSpline
210
0.0
220
0.0
230
1.0
 70
     8
 71
     3
 72
    12
 73
     8
 74
     0
 42
0.00000001
 43
0.00000001
 40
0.0
 40
0.0
 40
0.0
 40
0.0
 40
0.2276404506592334
 40
0.4553493087422071
 40
0.6830447715848532
 40
0.9107461265556053
 40
1.0
 40
1.0
 40
1.0
 40
1.0
 10
132.8477441136324
 20
466.4191709471931
 30
0.0
 10
132.7344190169943
 20
466.7410185512824
 30
0.0
 10
132.5077347687956
 20
467.3848104767418
 30
0.0
 10
132.1676851134213
 20
468.2292087643185
 30
0.0
 10
131.8277780835889
 20
468.8406398126425
 30
0.0
 10
131.5560923478881
 20
469.094768169615
 30
0.0
 10
131.3990378618418
 20
469.1137865995064
 30
0.0
 10
131.354811674782
 20
469.1191421462287
 30
0.0
  0
SPLINE
  5
2D5
330
1F
100
AcDbEntity
  8
0
  6
Continuous
 62
     7
370
    15
100
AcDbSpline
210
0.0
220
0.0
230
1.0
 70
     8
 71
     3
 72
    11
 73
     7
 74
     0
 42
0.00000001
 43
0.00000001
 40
0.0
 40
0.0
 40
0.0
 40
0.0
 40
0.2225307586173035
 40
0.4770148084693919
 40
0.7315840295396965
 40
1.0
 40
1.0
 40
1.0
 40
1.0
 10
132.8477441136324
 20
466.4191709471931
 30
0.0
 10
132.7371408698026
 20
466.5939157498392
 30
0.0
 10
132.5000528128553
 20
466.9684970395592
 30
0.0
 10
132.1357943264601
 20
467.4651918801663
 30
0.0
 10
131.7489895227996
 20
467.8424752004768
 30
0.0
 10
131.488503201521
 20
467.8931653283736
 30
0.0
 10
131.354811674782
 20
467.9191814376106
 30
0.0
  0
LINE
  5
2D6
330
1F
100
AcDbEntity
  8
0
  6
Continuous
 62
     7
370
    15
100
AcDbLine
 10
131.3548116748
 20
469.1191421462
 30
0.0
 11
131.3548116748
 21
467.9191814376
 31
0.0
  0
SPLINE
  5
2D7
330
1F
100
AcDbEntity
  8
0
  6
Continuous
 62
     7
370
    15
100
AcDbSpline
210
0.0
220
0.0
230
1.0
 70
     8
 71
     3
 72
    12
 73
     8
 74
     0
 42
0.00000001
 43
0.00000001
 40
0.0
 40
0.0
 40
0.0
 40
0.0
 40
0.2276395570105868
 40
0.455348076424411
 40
0.6830499474135173
 40
0.9107464769397439
 40
1.0
 40
1.0
 40
1.0
 40
1.0
 10
288.3406757180178
 20
469.1191421462287
 30
0.0
 10
288.2273519846883
 20
469.085559309333
 30
0.0
 10
288.0006701871023
 20
469.0183834617687
 30
0.0
 10
287.660596162731
 20
468.4966428976841
 30
0.0
 10
287.3207251952682
 20
467.7370067462683
 30
0.0
 10
287.0490206815408
 20
466.990901015461
 30
0.0
 10
286.8919691756175
 20
466.5447949591214
 30
0.0
 10
286.8477432791674
 20
466.4191709471931
 30
0.0
  0
LINE
  5
2D8
330
1F
100
AcDbEntity
  8
0
  6
Continuous
 62
     7
370
    15
100
AcDbLine
 10
288.340675718
 20
469.1191421462
 30
0.0
 11
288.340675718
 21
467.9191814376
 31
0.0
  0
SPLINE
  5
2D9
330
1F
100
AcDbEntity
  8
0
  6
Continuous
 62
     7
370
    15
100
AcDbSpline
210
0.0
220
0.0
230
1.0
 70
     8
 71
     3
 72
    11
 73
     7
 74
     0
 42
0.00000001
 43
0.00000001
 40
0.0
 40
0.0
 40
0.0
 40
0.0
 40
0.2225480584921698
 40
0.4770160607582321
 40
0.7315861157515191
 40
1.0
 40
1.0
 40
1.0
 40
1.0
 10
288.3406757180178
 20
467.9191814376106
 30
0.0
 10
288.2300766891128
 20
467.9012713032242
 30
0.0
 10
287.9930154743378
 20
467.8628821938764
 30
0.0
 10
287.6287090724376
 20
467.544644418719
 30
0.0
 10
287.2419147109401
 20
467.0417792284954
 30
0.0
 10
286.9814321546248
 20
466.6303374454943
 30
0.0
 10
286.8477432791674
 20
466.4191709471931
 30
0.0
  0
LINE
  5
2DA
330
1F
100
AcDbEntity
  8
0
  6
Continuous
 62
     7
370
    15
100
AcDbLine
 10
288.340675718
 20
469.1191421462
 30
0.0
 11
131.3548116748
 21
469.1191421462
 31
0.0
  0
LINE
  5
2DB
330
1F
100
AcDbEntity
  8
0
  6
Continuous
 62
     7
370
    15
100
AcDbLine
 10
286.8477432792
 20
466.4191709472
 30
0.0
 11
132.8477441136
 21
466.4191709472
 31
0.0
  0
SPLINE
  5
2DC
330
1F
100
AcDbEntity
  8
0
  6
Continuous
 62
     7
370
    15
100
AcDbSpline
210
0.0
220
0.0
230
1.0
 70
     8
 71
     3
 72
    12
 73
     8
 74
     0
 42
0.00000001
 43
0.00000001
 40
0.0
 40
0.0
 40
0.0
 40
0.0
 40
0.2276390653947915
 40
0.4553466229591052
 40
0.6830457261870294
 40
0.9107477964882088
 40
1.0
 40
1.0
 40
1.0
 40
1.0
 10
286.8477432791674
 20
466.4191709471931
 30
0.0
 10
287.1696010623938
 20
466.5324676101178
 30
0.0
 10
287.8134134695969
 20
466.7590950247305
 30
0.0
 10
288.6577547469419
 20
467.0992608572955
 30
0.0
 10
289.2692765143694
 20
467.4390697128853
 30
0.0
 10
289.5233392554968
 20
467.7108495387362
 30
0.0
 10
289.5423819774059
 20
467.867872007848
 30
0.0
 10
289.5477442805254
 20
467.9120884848824
 30
0.0
  0
SPLINE
  5
2DD
330
1F
100
AcDbEntity
  8
0
  6
Continuous
 62
     7
370
    15
100
AcDbSpline
210
0.0
220
0.0
230
1.0
 70
     8
 71
     3
 72
    11
 73
     7
 74
     0
 42
0.00000001
 43
0.00000001
 40
0.0
 40
0.0
 40
0.0
 40
0.0
 40
0.2225375839115209
 40
0.4770221086072653
 40
0.7315801658114358
 40
1.0
 40
1.0
 40
1.0
 40
1.0
 10
286.8477432791674
 20
466.4191709471931
 30
0.0
 10
287.022503737082
 20
466.5297614377921
 30
0.0
 10
287.3971128285904
 20
466.7668185141305
 30
0.0
 10
287.893774028331
 20
467.1311340700641
 30
0.0
 10
288.2710530941299
 20
467.5178813078073
 30
0.0
 10
288.3217341357004
 20
467.7783845055985
 30
0.0
 10
288.3477463190043
 20
467.9120884848823
 30
0.0
  0
LINE
  5
2DE
330
1F
100
AcDbEntity
  8
0
  6
Continuous
 62
     7
370
    15
100
AcDbLine
 10
289.5477442805
 20
467.9120884849
 30
0.0
 11
288.347746319
 21
467.9120884849
 31
0.0
  0
LINE
  5
2DF
330
1F
100
AcDbEntity
  8
0
  6
Continuous
 62
     7
370
    15
100
AcDbLine
 10
289.5477442805
 20
384.9262104942
 30
0.0
 11
289.5477442805
 21
467.9120884849
 31
0.0
  0
SPLINE
  5
2E0
330
1F
100
AcDbEntity
  8
0
  6
Continuous
 62
     7
370
    15
100
AcDbSpline
210
0.0
220
0.0
230
1.0
 70
     8
 71
     3
 72
    12
 73
     8
 74
     0
 42
0.00000001
 43
0.00000001
 40
0.0
 40
0.0
 40
0.0
 40
0.0
 40
0.2276399416540941
 40
0.4553444620470039
 40
0.6830513827819973
 40
0.9107499876905352
 40
1.0
 40
1.0
 40
1.0
 40
1.0
 10
289.5477442805254
 20
384.9262104941596
 30
0.0
 10
289.514154911822
 20
385.0395404400215
 30
0.0
 10
289.4469666455115
 20
385.2662324821006
 30
0.0
 10
288.9252384952515
 20
385.6062581427565
 30
0.0
 10
288.16560122533
 20
385.9462106374697
 30
0.0
 10
287.4194776146213
 20
386.2178788073318
 30
0.0
 10
286.9733648169268
 20
386.3749095277483
 30
0.0
 10
286.8477432791674
 20
386.4191280318489
 30
0.0
  0
LINE
  5
2E1
330
1F
100
AcDbEntity
  8
0
  6
Continuous
 62
     7
370
    15
100
AcDbLine
 10
286.8477432792
 20
386.4191280318
 30
0.0
 11
286.8477432792
 21
466.4191709472
 31
0.0
  0
LINE
  5
2E2
330
1F
100
AcDbEntity
  8
0
  6
Continuous
 62
     7
370
    15
100
AcDbLine
 10
132.8477441136
 20
386.4191280318
 30
0.0
 11
286.8477432792
 21
386.4191280318
 31
0.0
  0
CIRCLE
  5
2E3
330
1F
100
AcDbEntity
  8
0
  6
Continuous
 62
     7
370
    15
100
AcDbCircle
 10
252.8477436964
 20
395.4191517625
 30
0.0
 40
3.0
  0
CIRCLE
  5
2E4
330
1F
100
AcDbEntity
  8
0
  6
Continuous
 62
     7
370
    15
100
AcDbCircle
 10
252.8477436964
 20
457.4191517625
 30
0.0
 40
3.0
  0
CIRCLE
  5
2E5
330
1F
100
AcDbEntity
  8
0
  6
Continuous
 62
     7
370
    15
100
AcDbCircle
 10
166.8477436964
 20
395.4191517625
 30
0.0
 40
3.0
  0
CIRCLE
  5
2E6
330
1F
100
AcDbEntity
  8
0
  6
Continuous
 62
     7
370
    15
100
AcDbCircle
 10
166.8477436964
 20
457.4191517625
 30
0.0
 40
3.0
  0
SPLINE
  5
2E7
330
1F
100
AcDbEntity
  8
0
  6
Continuous
 62
     7
370
    15
100
AcDbSpline
210
0.0
220
0.0
230
1.0
 70
     8
 71
     3
 72
    11
 73
     7
 74
     0
 42
0.00000001
 43
0.00000001
 40
0.0
 40
0.0
 40
0.0
 40
0.0
 40
0.2225375839115209
 40
0.4770221086072653
 40
0.7315801658114358
 40
1.0
 40
1.0
 40
1.0
 40
1.0
 10
132.8477441136324
 20
386.4191280318489
 30
0.0
 10
132.6729836557178
 20
386.3085375412497
 30
0.0
 10
132.2983745642094
 20
386.0714804649111
 30
0.0
 10
131.8017133644688
 20
385.7071649089779
 30
0.0
 10
131.4244342986699
 20
385.3204176712348
 30
0.0
 10
131.3737532570995
 20
385.0599144734437
 30
0.0
 10
131.3477410737955
 20
384.9262104941596
 30
0.0
  0
LINE
  5
2E8
330
1F
100
AcDbEntity
  8
0
  6
Continuous
 62
     7
370
    15
100
AcDbLine
 10
130.1477431123
 20
384.9262104942
 30
0.0
 11
131.3477410738
 21
384.9262104942
 31
0.0
  0
SPLINE
  5
2E9
330
1F
100
AcDbEntity
  8
0
  6
Continuous
 62
     7
370
    15
100
AcDbSpline
210
0.0
220
0.0
230
1.0
 70
     8
 71
     3
 72
    12
 73
     8
 74
     0
 42
0.00000001
 43
0.00000001
 40
0.0
 40
0.0
 40
0.0
 40
0.0
 40
0.2276396952019741
 40
0.4553483528490501
 40
0.6830503620673722
 40
0.9107589504217625
 40
1.0
 40
1.0
 40
1.0
 40
1.0
 10
131.354811674782
 20
383.7191568328132
 30
0.0
 10
131.468135679748
 20
383.7527395413834
 30
0.0
 10
131.694818020689
 20
383.819915132258
 30
0.0
 10
132.0348879689901
 20
384.3416576219444
 30
0.0
 10
132.3747803571409
 20
385.1012997118231
 30
0.0
 10
132.6464384360135
 20
385.8474300895188
 30
0.0
 10
132.8035167827035
 20
386.2935246490438
 30
0.0
 10
132.8477441136324
 20
386.419128031849
 30
0.0
  0
LINE
  5
2EA
330
1F
100
AcDbEntity
  8
0
  6
Continuous
 62
     7
370
    15
100
AcDbLine
 10
131.3548116748
 20
383.7191568328
 30
0.0
 11
131.3548116748
 21
384.9191771461
 31
0.0
  0
SPLINE
  5
2EB
330
1F
100
AcDbEntity
  8
0
  6
Continuous
 62
     7
370
    15
100
AcDbSpline
210
0.0
220
0.0
230
1.0
 70
     8
 71
     3
 72
    11
 73
     7
 74
     0
 42
0.00000001
 43
0.00000001
 40
0.0
 40
0.0
 40
0.0
 40
0.0
 40
0.2225456136226637
 40
0.4770144161196159
 40
0.7315852716647202
 40
1.0
 40
1.0
 40
1.0
 40
1.0
 10
131.354811674782
 20
384.9191771460762
 30
0.0
 10
131.4654110969578
 20
384.9370627902156
 30
0.0
 10
131.7024749416841
 20
384.9753996954334
 30
0.0
 10
132.0667779105744
 20
385.2936597507126
 30
0.0
 10
132.4535727908491
 20
385.7965183700824
 30
0.0
 10
132.7140552751403
 20
386.2079610653437
 30
0.0
 10
132.8477441136324
 20
386.4191280318489
 30
0.0
  0
SPLINE
  5
2EC
330
1F
100
AcDbEntity
  8
0
  6
Continuous
 62
     7
370
    15
100
AcDbSpline
210
0.0
220
0.0
230
1.0
 70
     8
 71
     3
 72
    12
 73
     8
 74
     0
 42
0.00000001
 43
0.00000001
 40
0.0
 40
0.0
 40
0.0
 40
0.0
 40
0.2276411177571841
 40
0.4553398553212328
 40
0.6830438427508838
 40
0.9107458649980663
 40
1.0
 40
1.0
 40
1.0
 40
1.0
 10
286.8477432791674
 20
386.4191280318489
 30
0.0
 10
286.9610661925699
 20
386.0972766235298
 30
0.0
 10
287.187740703316
 20
385.4534923408712
 30
0.0
 10
287.527821658748
 20
384.6091518840308
 30
0.0
 10
287.8676993949293
 20
383.9976475677486
 30
0.0
 10
288.1393955468369
 20
383.7435320874864
 30
0.0
 10
288.296449641243
 20
383.7245126603557
 30
0.0
 10
288.3406757180178
 20
383.7191568328132
 30
0.0
  0
LINE
  5
2ED
330
1F
100
AcDbEntity
  8
0
  6
Continuous
 62
     7
370
    15
100
AcDbLine
 10
131.3548116748
 20
383.7191568328
 30
0.0
 11
288.340675718
 21
383.7191568328
 31
0.0
  0
SPLINE
  5
2EE
330
1F
100
AcDbEntity
  8
0
  6
Continuous
 62
     7
370
    15
100
AcDbSpline
210
0.0
220
0.0
230
1.0
 70
     8
 71
     3
 72
    11
 73
     7
 74
     0
 42
0.00000001
 43
0.00000001
 40
0.0
 40
0.0
 40
0.0
 40
0.0
 40
0.2225316017173777
 40
0.4770166157306574
 40
0.7315868012848407
 40
1.0
 40
1.0
 40
1.0
 40
1.0
 10
286.8477432791674
 20
386.4191280318489
 30
0.0
 10
286.9583464975472
 20
386.2443829628546
 30
0.0
 10
287.1954344999398
 20
385.869801102193
 30
0.0
 10
287.5596934407212
 20
385.3731110169684
 30
0.0
 10
287.9464945547517
 20
384.9958106481275
 30
0.0
 10
288.2069836738767
 20
384.9451684680715
 30
0.0
 10
288.3406757180178
 20
384.9191771460762
 30
0.0
  0
LINE
  5
2EF
330
1F
100
AcDbEntity
  8
0
  6
Continuous
 62
     7
370
    15
100
AcDbLine
 10
288.340675718
 20
383.7191568328
 30
0.0
 11
288.340675718
 21
384.9191771461
 31
0.0
  0
LINE
  5
2F0
330
1F
100
AcDbEntity
  8
0
  6
Continuous
 62
     7
370
    15
100
AcDbLine
 10
289.5477442805
 20
384.9262104942
 30
0.0
 11
288.347746319
 21
384.9262104942
 31
0.0
  0
SPLINE
  5
2F1
330
1F
100
AcDbEntity
  8
0
  6
Continuous
 62
     7
370
    15
100
AcDbSpline
210
0.0
220
0.0
230
1.0
 70
     8
 71
     3
 72
    11
 73
     7
 74
     0
 42
0.00000001
 43
0.00000001
 40
0.0
 40
0.0
 40
0.0
 40
0.0
 40
0.2225559247109441
 40
0.4770162835492226
 40
0.7315844614498744
 40
1.0
 40
1.0
 40
1.0
 40
1.0
 10
288.3477463190043
 20
384.9262104941596
 30
0.0
 10
288.3298380173145
 20
385.036827043501
 30
0.0
 10
288.2914541750158
 20
385.2739175425942
 30
0.0
 10
287.973204700137
 20
385.6381599546414
 30
0.0
 10
287.4703828962516
 20
386.0250057876182
 30
0.0
 10
287.0589213249973
 20
386.2854552569868
 30
0.0
 10
286.8477432791674
 20
386.4191280318489
 30
0.0
  0
LINE
  5
2F2
330
1F
100
AcDbEntity
  8
0
  6
Continuous
 62
     7
370
    15
100
AcDbLine
 10
208.1600323588
 20
480.7191596938
 30
0.0
 11
197.9828263436
 21
480.7191596938
 31
0.0
  0
LINE
  5
2F3
330
1F
100
AcDbEntity
  8
0
  6
Continuous
 62
     7
370
    15
100
AcDbLine
 10
212.712660971
 20
480.7191596938
 30
0.0
 11
208.1600323588
 21
480.7191596938
 31
0.0
  0
LINE
  5
2F4
330
1F
100
AcDbEntity
  8
0
  6
Continuous
 62
     7
370
    15
100
AcDbLine
 10
157.0977448289
 20
245.6896410896
 30
0.0
 11
157.0977448289
 21
257.6896356059
 31
0.0
  0
LINE
  5
2F5
330
1F
100
AcDbEntity
  8
0
  6
Continuous
 62
     7
370
    15
100
AcDbLine
 10
155.5977455143
 20
257.6896356059
 30
0.0
 11
157.0977448289
 21
257.6896356059
 31
0.0
  0
LINE
  5
2F6
330
1F
100
AcDbEntity
  8
0
  6
Continuous
 62
     7
370
    15
100
AcDbLine
 10
155.5977455143
 20
245.6896410896
 30
0.0
 11
157.0977448289
 21
245.6896410896
 31
0.0
  0
LINE
  5
2F7
330
1F
100
AcDbEntity
  8
0
  6
Continuous
 62
     7
370
    15
100
AcDbLine
 10
192.5977441285
 20
245.6896410896
 30
0.0
 11
192.5977441285
 21
257.6896356059
 31
0.0
  0
LINE
  5
2F8
330
1F
100
AcDbEntity
  8
0
  6
Continuous
 62
     7
370
    15
100
AcDbLine
 10
192.5977441285
 20
257.6896356059
 30
0.0
 11
198.6977440108
 21
257.6896356059
 31
0.0
  0
LINE
  5
2F9
330
1F
100
AcDbEntity
  8
0
  6
Continuous
 62
     7
370
    15
100
AcDbLine
 10
192.5977441285
 20
245.6896410896
 30
0.0
 11
198.6977440108
 21
245.6896410896
 31
0.0
  0
LINE
  5
2FA
330
1F
100
AcDbEntity
  8
0
  6
Continuous
 62
     7
370
    15
100
AcDbLine
 10
359.0477510159
 20
542.2191129638
 30
0.0
 11
60.6477363769
 21
542.2191129638
 31
0.0
  0
LINE
  5
2FB
330
1F
100
AcDbEntity
  8
0
  6
Continuous
 62
     7
370
    15
100
AcDbLine
 10
359.0477510159
 20
542.2191129638
 30
0.0
 11
359.0477510159
 21
539.6385298682
 31
0.0
  0
LINE
  5
2FC
330
1F
100
AcDbEntity
  8
0
  6
Continuous
 62
     7
370
    15
100
AcDbLine
 10
359.0477510159
 20
539.6385298682
 30
0.0
 11
60.6477363769
 21
539.6385298682
 31
0.0
  0
LINE
  5
2FD
330
1F
100
AcDbEntity
  8
0
  6
Continuous
 62
     7
370
    15
100
AcDbLine
 10
60.6477363769
 20
542.2191129638
 30
0.0
 11
60.6477363769
 21
539.6385298682
 31
0.0
  0
LINE
  5
2FE
330
1F
100
AcDbEntity
  8
0
  6
Continuous
 62
     7
370
    15
100
AcDbLine
 10
359.0477510159
 20
539.6385298682
 30
0.0
 11
359.0477510159
 21
506.3415871574
 31
0.0
  0
LINE
  5
2FF
330
1F
100
AcDbEntity
  8
0
  6
Continuous
 62
     7
370
    15
100
AcDbLine
 10
359.0477510159
 20
506.3415871574
 30
0.0
 11
60.6477363769
 21
506.3415871574
 31
0.0
  0
LINE
  5
300
330
1F
100
AcDbEntity
  8
0
  6
Continuous
 62
     7
370
    15
100
AcDbLine
 10
60.6477363769
 20
539.6385298682
 30
0.0
 11
60.6477363769
 21
506.3415871574
 31
0.0
  0
LINE
  5
301
330
1F
100
AcDbEntity
  8
0
  6
Continuous
 62
     7
370
    15
100
AcDbLine
 10
359.0477510159
 20
506.3415871574
 30
0.0
 11
359.0477510159
 21
487.2191058112
 31
0.0
  0
LINE
  5
302
330
1F
100
AcDbEntity
  8
0
  6
Continuous
 62
     7
370
    15
100
AcDbLine
 10
359.0477510159
 20
487.2191058112
 30
0.0
 11
60.6477363769
 21
487.2191058112
 31
0.0
  0
LINE
  5
303
330
1F
100
AcDbEntity
  8
0
  6
Continuous
 62
     7
370
    15
100
AcDbLine
 10
60.6477363769
 20
506.3415871574
 30
0.0
 11
60.6477363769
 21
487.2191058112
 31
0.0
  0
LINE
  5
304
330
1F
100
AcDbEntity
  8
0
  6
Continuous
 62
     7
370
    15
100
AcDbLine
 10
336.8477477495
 20
411.2191306068
 30
0.0
 11
336.8477477495
 21
411.6691456748
 31
0.0
  0
LINE
  5
305
330
1F
100
AcDbEntity
  8
0
  6
Continuous
 62
     7
370
    15
100
AcDbLine
 10
336.8477477495
 20
472.7691517783
 30
0.0
 11
336.8477477495
 21
473.2191072417
 31
0.0
  0
LINE
  5
306
330
1F
100
AcDbEntity
  8
0
  6
Continuous
 62
     7
370
    15
100
AcDbLine
 10
300.8477418487
 20
411.2191306068
 30
0.0
 11
301.5665664141
 21
411.2191306068
 31
0.0
  0
LINE
  5
307
330
1F
100
AcDbEntity
  8
0
  6
Continuous
 62
     7
370
    15
100
AcDbLine
 10
335.6477423374
 20
411.2191306068
 30
0.0
 11
336.8477477495
 21
411.2191306068
 31
0.0
  0
LINE
  5
308
330
1F
100
AcDbEntity
  8
0
  6
Continuous
 62
     7
370
    15
100
AcDbLine
 10
300.8477418487
 20
473.2191072417
 30
0.0
 11
300.8477418487
 21
471.5191231681
 31
0.0
  0
LINE
  5
309
330
1F
100
AcDbEntity
  8
0
  6
Continuous
 62
     7
370
    15
100
AcDbLine
 10
300.8477418487
 20
412.9191146804
 30
0.0
 11
300.8477418487
 21
411.2191306068
 31
0.0
  0
LINE
  5
30A
330
1F
100
AcDbEntity
  8
0
  6
Continuous
 62
     7
370
    15
100
AcDbLine
 10
336.8477477495
 20
473.2191072417
 30
0.0
 11
335.6477423374
 21
473.2191072417
 31
0.0
  0
LINE
  5
30B
330
1F
100
AcDbEntity
  8
0
  6
Continuous
 62
     7
370
    15
100
AcDbLine
 10
301.5723108117
 20
473.2191072417
 30
0.0
 11
300.8477418487
 21
473.2191072417
 31
0.0
  0
LINE
  5
30C
330
1F
100
AcDbEntity
  8
0
  6
Continuous
 62
     7
370
    15
100
AcDbLine
 10
344.2977472012
 20
-109.270867555
 30
0.0
 11
357.3977454369
 21
-109.270867555
 31
0.0
  0
LINE
  5
30D
330
1F
100
AcDbEntity
  8
0
  6
Continuous
 62
     7
370
    15
100
AcDbLine
 10
344.2977472012
 20
-107.2708672272
 30
0.0
 11
344.2977472012
 21
-109.270867555
 31
0.0
  0
LINE
  5
30E
330
1F
100
AcDbEntity
  8
0
  6
Continuous
 62
     7
370
    15
100
AcDbLine
 10
359.8477496569
 20
-109.270867555
 30
0.0
 11
359.8477496569
 21
487.9691110564
 31
0.0
  0
LINE
  5
30F
330
1F
100
AcDbEntity
  8
0
  6
Continuous
 62
     7
370
    15
100
AcDbLine
 10
357.3977454369
 20
-109.270867555
 30
0.0
 11
359.8477496569
 21
-109.270867555
 31
0.0
  0
LINE
  5
310
330
1F
100
AcDbEntity
  8
0
  6
Continuous
 62
     7
370
    15
100
AcDbLine
 10
75.3977401916
 20
-109.270867555
 30
0.0
 11
75.3977401916
 21
-107.2708672272
 31
0.0
  0
LINE
  5
311
330
1F
100
AcDbEntity
  8
0
  6
Continuous
 62
     7
370
    15
100
AcDbLine
 10
62.2977419559
 20
-109.270867555
 30
0.0
 11
75.3977401916
 21
-109.270867555
 31
0.0
  0
LINE
  5
312
330
1F
100
AcDbEntity
  8
0
  6
Continuous
 62
     7
370
    15
100
AcDbLine
 10
59.8477377359
 20
-109.270867555
 30
0.0
 11
62.2977419559
 21
-109.270867555
 31
0.0
  0
LINE
  5
313
330
1F
100
AcDbEntity
  8
0
  6
Continuous
 62
     7
370
    15
100
AcDbLine
 10
59.8477377359
 20
487.9691110564
 30
0.0
 11
59.8477377359
 21
-109.270867555
 31
0.0
  0
LINE
  5
314
330
1F
100
AcDbEntity
  8
0
  6
Continuous
 62
     7
370
    15
100
AcDbLine
 10
344.2977472012
 20
-107.2708672272
 30
0.0
 11
341.8477429811
 21
-107.2708672272
 31
0.0
  0
LINE
  5
315
330
1F
100
AcDbEntity
  8
0
  6
Continuous
 62
     7
370
    15
100
AcDbLine
 10
341.8477429811
 20
-107.2708672272
 30
0.0
 11
341.8477429811
 21
487.2191058112
 31
0.0
  0
LINE
  5
316
330
1F
100
AcDbEntity
  8
0
  6
Continuous
 62
     7
370
    15
100
AcDbLine
 10
77.8477444117
 20
-107.2708672272
 30
0.0
 11
75.3977401916
 21
-107.2708672272
 31
0.0
  0
LINE
  5
317
330
1F
100
AcDbEntity
  8
0
  6
Continuous
 62
     7
370
    15
100
AcDbLine
 10
77.8477444117
 20
487.2191058112
 30
0.0
 11
77.8477444117
 21
-107.2708672272
 31
0.0
  0
LINE
  5
318
330
1F
100
AcDbEntity
  8
0
  6
Continuous
 62
     7
370
    15
100
AcDbLine
 10
61.047743148
 20
-109.7308664011
 30
0.0
 11
77.8477444117
 21
-109.7308664011
 31
0.0
  0
LINE
  5
319
330
1F
100
AcDbEntity
  8
0
  6
Continuous
 62
     7
370
    15
100
AcDbLine
 10
341.8477429811
 20
-109.7308664011
 30
0.0
 11
77.8477444117
 21
-109.7308664011
 31
0.0
  0
LINE
  5
31A
330
1F
100
AcDbEntity
  8
0
  6
Continuous
 62
     7
370
    15
100
AcDbLine
 10
358.6477442448
 20
-109.7308664011
 30
0.0
 11
341.8477429811
 21
-109.7308664011
 31
0.0
  0
LINE
  5
31B
330
1F
100
AcDbEntity
  8
0
  6
Continuous
 62
     7
370
    15
100
AcDbLine
 10
358.6477442448
 20
-201.0476744162
 30
0.0
 11
358.6477442448
 21
-109.7308664011
 31
0.0
  0
LINE
  5
31C
330
1F
100
AcDbEntity
  8
0
  6
Continuous
 62
     7
370
    15
100
AcDbLine
 10
358.6477442448
 20
-201.0476744162
 30
0.0
 11
61.047743148
 21
-201.0476744162
 31
0.0
  0
LINE
  5
31D
330
1F
100
AcDbEntity
  8
0
  6
Continuous
 62
     7
370
    15
100
AcDbLine
 10
61.047743148
 20
-201.0476744162
 30
0.0
 11
61.047743148
 21
-109.7308664011
 31
0.0
  0
LINE
  5
31E
330
1F
100
AcDbEntity
  8
0
  6
Continuous
 62
     7
370
    15
100
AcDbLine
 10
77.8477444117
 20
-109.7308664011
 30
0.0
 11
77.8477444117
 21
-107.2808659064
 31
0.0
  0
LINE
  5
31F
330
1F
100
AcDbEntity
  8
0
  6
Continuous
 62
     7
370
    15
100
AcDbLine
 10
341.8477429811
 20
-107.2808659064
 30
0.0
 11
77.8477444117
 21
-107.2808659064
 31
0.0
  0
LINE
  5
320
330
1F
100
AcDbEntity
  8
0
  6
Continuous
 62
     7
370
    15
100
AcDbLine
 10
341.8477429811
 20
-107.2808659064
 30
0.0
 11
341.8477429811
 21
-109.7308664011
 31
0.0
  0
LINE
  5
321
330
1F
100
AcDbEntity
  8
0
  6
Continuous
 62
     7
370
    15
100
AcDbLine
 10
61.047743148
 20
-224.3476739513
 30
0.0
 11
61.047743148
 21
-201.0476744162
 31
0.0
  0
LINE
  5
322
330
1F
100
AcDbEntity
  8
0
  6
Continuous
 62
     7
370
    15
100
AcDbLine
 10
358.6477442448
 20
-224.3476739513
 30
0.0
 11
358.6477442448
 21
-201.0476744162
 31
0.0
  0
LINE
  5
323
330
1F
100
AcDbEntity
  8
0
  6
Continuous
 62
     7
370
    15
100
AcDbLine
 10
340.5977441732
 20
-106.0308670985
 30
0.0
 11
341.8477429811
 21
-106.0308670985
 31
0.0
  0
LINE
  5
324
330
1F
100
AcDbEntity
  8
0
  6
Continuous
 62
     7
370
    15
100
AcDbLine
 10
77.8477444117
 20
-106.0308670985
 30
0.0
 11
79.0977432196
 21
-106.0308670985
 31
0.0
  0
LINE
  5
325
330
1F
100
AcDbEntity
  8
0
  6
Continuous
 62
     7
370
    15
100
AcDbLine
 10
340.5977441732
 20
-106.0308670985
 30
0.0
 11
79.0977432196
 21
-106.0308670985
 31
0.0
  0
LINE
  5
326
330
1F
100
AcDbEntity
  8
0
  6
Continuous
 62
     7
370
    15
100
AcDbLine
 10
79.0977432196
 20
-107.2808659064
 30
0.0
 11
79.0977432196
 21
-106.0308670985
 31
0.0
  0
LINE
  5
327
330
1F
100
AcDbEntity
  8
0
  6
Continuous
 62
     7
370
    15
100
AcDbLine
 10
340.5977441732
 20
-106.0308670985
 30
0.0
 11
340.5977441732
 21
-107.2808659064
 31
0.0
  0
LINE
  5
328
330
1F
100
AcDbEntity
  8
0
  6
Continuous
 62
     7
370
    15
100
AcDbLine
 10
97.8477402393
 20
-50.2808658766
 30
0.0
 11
321.8477471535
 21
-50.2808658766
 31
0.0
  0
LINE
  5
329
330
1F
100
AcDbEntity
  8
0
  6
Continuous
 62
     7
370
    15
100
AcDbLine
 10
321.8477471535
 20
-50.2808658766
 30
0.0
 11
321.8477471535
 21
366.6871891929
 31
0.0
  0
LINE
  5
32A
330
1F
100
AcDbEntity
  8
0
  6
Continuous
 62
     7
370
    15
100
AcDbLine
 10
321.8477471535
 20
372.6872311546
 30
0.0
 11
321.8477471535
 21
408.719132991
 31
0.0
  0
LINE
  5
32B
330
1F
100
AcDbEntity
  8
0
  6
Continuous
 62
     7
370
    15
100
AcDbLine
 10
321.8477471535
 20
408.719132991
 30
0.0
 11
292.8477405374
 21
408.719132991
 31
0.0
  0
LINE
  5
32C
330
1F
100
AcDbEntity
  8
0
  6
Continuous
 62
     7
370
    15
100
AcDbLine
 10
126.8477468554
 20
408.719132991
 30
0.0
 11
97.8477402393
 21
408.719132991
 31
0.0
  0
LINE
  5
32D
330
1F
100
AcDbEntity
  8
0
  6
Continuous
 62
     7
370
    15
100
AcDbLine
 10
97.8477402393
 20
408.719132991
 30
0.0
 11
97.8477402393
 21
372.6872311546
 31
0.0
  0
LINE
  5
32E
330
1F
100
AcDbEntity
  8
0
  6
Continuous
 62
     7
370
    15
100
AcDbLine
 10
97.8477402393
 20
366.6871891929
 30
0.0
 11
97.8477402393
 21
-50.2808658766
 31
0.0
  0
LINE
  5
32F
330
1F
100
AcDbEntity
  8
0
  6
Continuous
 62
     7
370
    15
100
AcDbLine
 10
320.8477451269
 20
407.7191458656
 30
0.0
 11
320.8477451269
 21
408.719132991
 31
0.0
  0
LINE
  5
330
330
1F
100
AcDbEntity
  8
0
  6
Continuous
 62
     7
370
    15
100
AcDbLine
 10
320.8477451269
 20
407.7191458656
 30
0.0
 11
292.8477405374
 21
407.7191458656
 31
0.0
  0
LINE
  5
331
330
1F
100
AcDbEntity
  8
0
  6
Continuous
 62
     7
370
    15
100
AcDbLine
 10
126.8477468554
 20
407.7191458656
 30
0.0
 11
98.8477422659
 21
407.7191458656
 31
0.0
  0
LINE
  5
332
330
1F
100
AcDbEntity
  8
0
  6
Continuous
 62
     7
370
    15
100
AcDbLine
 10
98.8477422659
 20
407.7191458656
 30
0.0
 11
98.8477422659
 21
408.719132991
 31
0.0
  0
LINE
  5
333
330
1F
100
AcDbEntity
  8
0
  6
Continuous
 62
     7
370
    15
100
AcDbLine
 10
97.8477402393
 20
-49.28086385
 30
0.0
 11
98.8477422659
 21
-49.28086385
 31
0.0
  0
LINE
  5
334
330
1F
100
AcDbEntity
  8
0
  6
Continuous
 62
     7
370
    15
100
AcDbLine
 10
97.8477402393
 20
407.7191458656
 30
0.0
 11
98.8477422659
 21
407.7191458656
 31
0.0
  0
LINE
  5
335
330
1F
100
AcDbEntity
  8
0
  6
Continuous
 62
     7
370
    15
100
AcDbLine
 10
98.8477422659
 20
-49.28086385
 30
0.0
 11
98.8477422659
 21
366.6871891929
 31
0.0
  0
LINE
  5
336
330
1F
100
AcDbEntity
  8
0
  6
Continuous
 62
     7
370
    15
100
AcDbLine
 10
98.8477422659
 20
372.6872311546
 30
0.0
 11
98.8477422659
 21
407.7191458656
 31
0.0
  0
LINE
  5
337
330
1F
100
AcDbEntity
  8
0
  6
Continuous
 62
     7
370
    15
100
AcDbLine
 10
302.8477459018
 20
22.0691369487
 30
0.0
 11
302.8477459018
 21
9.3691305829
 31
0.0
  0
LINE
  5
338
330
1F
100
AcDbEntity
  8
0
  6
Continuous
 62
     7
370
    15
100
AcDbLine
 10
301.8477438752
 20
21.0691349221
 30
0.0
 11
301.8477438752
 21
10.3691326095
 31
0.0
  0
LINE
  5
339
330
1F
100
AcDbEntity
  8
0
  6
Continuous
 62
     7
370
    15
100
AcDbLine
 10
359.8477496569
 20
541.4691077186
 30
0.0
 11
359.0477510159
 21
541.4691077186
 31
0.0
  0
LINE
  5
33A
330
1F
100
AcDbEntity
  8
0
  6
Continuous
 62
     7
370
    15
100
AcDbLine
 10
359.8477496569
 20
539.8956047012
 30
0.0
 11
359.0477510159
 21
539.8956047012
 31
0.0
  0
LINE
  5
33B
330
1F
100
AcDbEntity
  8
0
  6
Continuous
 62
     7
370
    15
100
AcDbLine
 10
359.8477496569
 20
539.8956047012
 30
0.0
 11
359.8477496569
 21
541.4691077186
 31
0.0
  0
LINE
  5
33C
330
1F
100
AcDbEntity
  8
0
  6
Continuous
 62
     7
370
    15
100
AcDbLine
 10
359.8477496569
 20
506.8692670776
 30
0.0
 11
359.0477510159
 21
506.8692670776
 31
0.0
  0
LINE
  5
33D
330
1F
100
AcDbEntity
  8
0
  6
Continuous
 62
     7
370
    15
100
AcDbLine
 10
359.8477496569
 20
506.8692670776
 30
0.0
 11
359.8477496569
 21
539.8956047012
 31
0.0
  0
LINE
  5
33E
330
1F
100
AcDbEntity
  8
0
  6
Continuous
 62
     7
370
    15
100
AcDbLine
 10
359.8477496569
 20
487.9691110564
 30
0.0
 11
359.0477510159
 21
487.9691110564
 31
0.0
  0
LINE
  5
33F
330
1F
100
AcDbEntity
  8
0
  6
Continuous
 62
     7
370
    15
100
AcDbLine
 10
359.8477496569
 20
487.9691110564
 30
0.0
 11
359.8477496569
 21
506.8692670776
 31
0.0
  0
LINE
  5
340
330
1F
100
AcDbEntity
  8
0
  6
Continuous
 62
     7
370
    15
100
AcDbLine
 10
335.6477423374
 20
411.6691456748
 30
0.0
 11
336.8477477495
 21
411.6691456748
 31
0.0
  0
LINE
  5
341
330
1F
100
AcDbEntity
  8
0
  6
Continuous
 62
     7
370
    15
100
AcDbLine
 10
335.6477423374
 20
472.7691517783
 30
0.0
 11
336.8477477495
 21
472.7691517783
 31
0.0
  0
LINE
  5
342
330
1F
100
AcDbEntity
  8
0
  6
Continuous
 62
     7
370
    15
100
AcDbLine
 10
336.8477477495
 20
472.7691517783
 30
0.0
 11
336.8477477495
 21
411.6691456748
 31
0.0
  0
LINE
  5
343
330
1F
100
AcDbEntity
  8
0
  6
Continuous
 62
     7
370
    15
100
AcDbLine
 10
335.6477423374
 20
472.7691517783
 30
0.0
 11
335.6477423374
 21
472.7620588256
 31
0.0
  0
LINE
  5
344
330
1F
100
AcDbEntity
  8
0
  6
Continuous
 62
     7
370
    15
100
AcDbLine
 10
335.6477423374
 20
411.6761790229
 30
0.0
 11
335.6477423374
 21
411.6691456748
 31
0.0
  0
CIRCLE
  5
345
330
1F
100
AcDbEntity
  8
0
  6
Continuous
 62
     7
370
    15
100
AcDbCircle
 10
166.8477436964
 20
457.2191327048
 30
0.0
 40
2.199999999999989
  0
CIRCLE
  5
346
330
1F
100
AcDbEntity
  8
0
  6
Continuous
 62
     7
370
    15
100
AcDbCircle
 10
252.8477436964
 20
457.2191327048
 30
0.0
 40
2.199999999999932
  0
CIRCLE
  5
347
330
1F
100
AcDbEntity
  8
0
  6
Continuous
 62
     7
370
    15
100
AcDbCircle
 10
166.8477436964
 20
395.6191708201
 30
0.0
 40
2.199999999999989
  0
CIRCLE
  5
348
330
1F
100
AcDbEntity
  8
0
  6
Continuous
 62
     7
370
    15
100
AcDbCircle
 10
252.8477436964
 20
395.6191708201
 30
0.0
 40
2.199999999999989
  0
LINE
  5
349
330
1F
100
AcDbEntity
  8
0
  6
Continuous
 62
     7
370
    15
100
AcDbLine
 10
359.8477496569
 20
-201.0476744162
 30
0.0
 11
358.6477442448
 21
-201.0476744162
 31
0.0
  0
LINE
  5
34A
330
1F
100
AcDbEntity
  8
0
  6
Continuous
 62
     7
370
    15
100
AcDbLine
 10
359.8477496569
 20
-201.0476744162
 30
0.0
 11
359.8477496569
 21
-109.7476749109
 31
0.0
  0
LINE
  5
34B
330
1F
100
AcDbEntity
  8
0
  6
Continuous
 62
     7
370
    15
100
AcDbLine
 10
359.8477496569
 20
-109.7476749109
 30
0.0
 11
358.6477442448
 21
-109.7476749109
 31
0.0
  0
LINE
  5
34C
330
1F
100
AcDbEntity
  8
0
  6
Continuous
 62
     7
370
    15
100
AcDbLine
 10
359.8477496569
 20
-224.0476763235
 30
0.0
 11
359.8477496569
 21
-201.0476744162
 31
0.0
  0
LINE
  5
34D
330
1F
100
AcDbEntity
  8
0
  6
Continuous
 62
     7
370
    15
100
AcDbLine
 10
115.9977420036
 20
135.7191310836
 30
0.0
 11
118.0477469031
 21
135.7191310836
 31
0.0
  0
LINE
  5
34E
330
1F
100
AcDbEntity
  8
0
  6
Continuous
 62
     7
370
    15
100
AcDbLine
 10
118.0477469031
 20
135.7191310836
 30
0.0
 11
118.0477469031
 21
134.5191405727
 31
0.0
  0
LINE
  5
34F
330
1F
100
AcDbEntity
  8
0
  6
Continuous
 62
     7
370
    15
100
AcDbLine
 10
115.9977420036
 20
134.5191405727
 30
0.0
 11
118.0477469031
 21
134.5191405727
 31
0.0
  0
LINE
  5
350
330
1F
100
AcDbEntity
  8
0
  6
Continuous
 62
     7
370
    15
100
AcDbLine
 10
101.5477432672
 20
135.7191310836
 30
0.0
 11
106.8477435772
 21
135.7191310836
 31
0.0
  0
LINE
  5
351
330
1F
100
AcDbEntity
  8
0
  6
Continuous
 62
     7
370
    15
100
AcDbLine
 10
101.5477432672
 20
134.5191405727
 30
0.0
 11
101.5477432672
 21
135.7191310836
 31
0.0
  0
LINE
  5
352
330
1F
100
AcDbEntity
  8
0
  6
Continuous
 62
     7
370
    15
100
AcDbLine
 10
101.5477432672
 20
134.5191405727
 30
0.0
 11
106.8477435772
 21
134.5191405727
 31
0.0
  0
LWPOLYLINE
  5
353
330
1F
100
AcDbEntity
  8
0
  6
Continuous
 62
     7
370
    15
100
AcDbPolyline
 90
        3
 70
   128
 43
0.0
 10
101.5477432672
 20
135.7191310836
 10
101.0210021202
 20
135.6672452403
 10
100.847746319
 20
135.6268034888
  0
ARC
  5
354
330
1F
100
AcDbEntity
  8
0
  6
Continuous
 62
     7
370
    15
100
AcDbCircle
 10
101.5477436964
 20
133.0191327048
 30
0.0
 40
1.500000000000026
100
AcDbArc
 50
90.0
 51
117.8181392864
  0
LINE
  5
355
330
1F
100
AcDbEntity
  8
0
  6
Continuous
 62
     7
370
    15
100
AcDbLine
 10
116.847741491
 20
336.3691376163
 30
0.0
 11
116.847741491
 21
336.7055760337
 31
0.0
  0
LINE
  5
356
330
1F
100
AcDbEntity
  8
0
  6
Continuous
 62
     7
370
    15
100
AcDbLine
 10
117.8477435176
 20
337.369154544
 30
0.0
 11
117.8477435176
 21
338.0114541961
 31
0.0
  0
LINE
  5
357
330
1F
100
AcDbEntity
  8
0
  6
Continuous
 62
     7
370
    15
100
AcDbLine
 10
303.2977460687
 20
411.6761790229
 30
0.0
 11
335.6477423374
 21
411.6761790229
 31
0.0
  0
LINE
  5
358
330
1F
100
AcDbEntity
  8
0
  6
Continuous
 62
     7
370
    15
100
AcDbLine
 10
303.2977460687
 20
411.6761790229
 30
0.0
 11
303.2977460687
 21
472.7620588256
 31
0.0
  0
LINE
  5
359
330
1F
100
AcDbEntity
  8
0
  6
Continuous
 62
     7
370
    15
100
AcDbLine
 10
303.2977460687
 20
472.7620588256
 30
0.0
 11
335.6477423374
 21
472.7620588256
 31
0.0
  0
LINE
  5
35A
330
1F
100
AcDbEntity
  8
0
  6
Continuous
 62
     7
370
    15
100
AcDbLine
 10
335.6477423374
 20
411.6761790229
 30
0.0
 11
335.6477423374
 21
472.7620588256
 31
0.0
  0
SPLINE
  5
35B
330
1F
100
AcDbEntity
  8
0
  6
Continuous
 62
     7
370
    15
100
AcDbSpline
210
0.0
220
0.0
230
1.0
 70
     8
 71
     3
 72
    12
 73
     8
 74
     0
 42
0.00000001
 43
0.00000001
 40
0.0
 40
0.0
 40
0.0
 40
0.0
 40
0.2256566652479823
 40
0.451336003331626
 40
0.6770224237606571
 40
0.9027132520509669
 40
1.0
 40
1.0
 40
1.0
 40
1.0
 10
300.8477418486559
 20
471.5191231681098
 30
0.0
 10
300.8776817825866
 20
471.6126375149256
 30
0.0
 10
300.9375646586607
 20
471.7996756044037
 30
0.0
 10
301.4029750167667
 20
472.0803365188767
 30
0.0
 10
302.0817215852171
 20
472.3608154820037
 30
0.0
 10
302.7609253212354
 20
472.588621205879
 30
0.0
 10
303.1734777409883
 20
472.7219098502532
 30
0.0
 10
303.2977460686648
 20
472.7620588256111
 30
0.0
  0
SPLINE
  5
35C
330
1F
100
AcDbEntity
  8
0
  6
Continuous
 62
     7
370
    15
100
AcDbSpline
210
0.0
220
0.0
230
1.0
 70
     8
 71
     3
 72
    12
 73
     8
 74
     0
 42
0.00000001
 43
0.00000001
 40
0.0
 40
0.0
 40
0.0
 40
0.0
 40
0.2256483946656925
 40
0.4513387954520514
 40
0.6770283401237205
 40
0.9027078482208644
 40
1.0
 40
1.0
 40
1.0
 40
1.0
 10
303.2977460686648
 20
411.6761790229072
 30
0.0
 10
303.0082507587695
 20
411.7697204426148
 30
0.0
 10
302.429206247282
 20
411.9568206954581
 30
0.0
 10
301.667800333518
 20
412.2374458701751
 30
0.0
 10
301.1127399312588
 20
412.5179047432068
 30
0.0
 10
300.8725973988415
 20
412.7457903254296
 30
0.0
 10
300.8534959723614
 20
412.8789896470747
 30
0.0
 10
300.8477418486559
 20
412.9191146804084
 30
0.0
  0
LINE
  5
35D
330
1F
100
AcDbEntity
  8
0
  6
Continuous
 62
     7
370
    15
100
AcDbLine
 10
300.8477418487
 20
412.9191146804
 30
0.0
 11
300.8477418487
 21
471.5191231681
 31
0.0
  0
SPLINE
  5
35E
330
1F
100
AcDbEntity
  8
0
  6
Continuous
 62
     7
370
    15
100
AcDbSpline
210
0.0
220
0.0
230
1.0
 70
     8
 71
     3
 72
    12
 73
     8
 74
     0
 42
0.00000001
 43
0.00000001
 40
0.0
 40
0.0
 40
0.0
 40
0.0
 40
0.2256456017569007
 40
0.4513306407594789
 40
0.6770219642875358
 40
0.9027165727383085
 40
1.0
 40
1.0
 40
1.0
 40
1.0
 10
303.2977460686648
 20
473.9691124869576
 30
0.0
 10
303.0082518183827
 20
473.9391647428701
 30
0.0
 10
302.4292127214153
 20
473.8792640205735
 30
0.0
 10
301.6677880461341
 20
473.4139343855177
 30
0.0
 10
301.1127259765828
 20
472.7351559843256
 30
0.0
 10
300.8726054604448
 20
472.0559358107609
 30
0.0
 10
300.8534973546493
 20
471.6433862240298
 30
0.0
 10
300.8477418486559
 20
471.5191231681098
 30
0.0
  0
LINE
  5
35F
330
1F
100
AcDbEntity
  8
0
  6
Continuous
 62
     7
370
    15
100
AcDbLine
 10
303.2977460687
 20
473.969112487
 30
0.0
 11
303.2977460687
 21
472.7691517783
 31
0.0
  0
SPLINE
  5
360
330
1F
100
AcDbEntity
  8
0
  6
Continuous
 62
     7
370
    15
100
AcDbSpline
210
0.0
220
0.0
230
1.0
 70
     8
 71
     3
 72
     9
 73
     5
 74
     0
 42
0.00000001
 43
0.00000001
 40
0.0
 40
0.0
 40
0.0
 40
0.0
 40
0.7065480512122471
 40
0.9999999999999999
 40
0.9999999999999999
 40
0.9999999999999999
 40
0.9999999999999999
 10
303.2977460686648
 20
472.7691517783393
 30
0.0
 10
303.1169306516147
 20
472.7556078955371
 30
0.0
 10
302.8610168227677
 20
472.7364388060761
 30
0.0
 10
302.6661586545754
 20
472.5789694473521
 30
0.0
 10
302.6089771453821
 20
472.5327597571601
 30
0.0
  0
SPLINE
  5
361
330
1F
100
AcDbEntity
  8
0
  6
Continuous
 62
     7
370
    15
100
AcDbSpline
210
0.0
220
0.0
230
1.0
 70
     8
 71
     3
 72
     9
 73
     5
 74
     0
 42
0.00000001
 43
0.00000001
 40
0.0
 40
0.0
 40
0.0
 40
0.0
 40
0.4104849139863816
 40
1.0
 40
1.0
 40
1.0
 40
1.0
 10
302.6122926537478
 20
411.9022594405404
 30
0.0
 10
302.6954964409647
 20
411.8424901372518
 30
0.0
 10
302.8981927749392
 20
411.696883560123
 30
0.0
 10
303.1495608161999
 20
411.6794330272256
 30
0.0
 10
303.2977460686648
 20
411.6691456748237
 30
0.0
  0
LINE
  5
362
330
1F
100
AcDbEntity
  8
0
  6
Continuous
 62
     7
370
    15
100
AcDbLine
 10
303.2977460687
 20
410.4691253616
 30
0.0
 11
303.2977460687
 21
411.6691456748
 31
0.0
  0
SPLINE
  5
363
330
1F
100
AcDbEntity
  8
0
  6
Continuous
 62
     7
370
    15
100
AcDbSpline
210
0.0
220
0.0
230
1.0
 70
     8
 71
     3
 72
    12
 73
     8
 74
     0
 42
0.00000001
 43
0.00000001
 40
0.0
 40
0.0
 40
0.0
 40
0.0
 40
0.2256487912540352
 40
0.4513416770949082
 40
0.6770295110920653
 40
0.90271719596821
 40
1.0
 40
1.0
 40
1.0
 40
1.0
 10
300.8477418486559
 20
412.9191146804084
 30
0.0
 10
300.8776868100969
 20
412.6296231428947
 30
0.0
 10
300.9375825845976
 20
412.0505834976119
 30
0.0
 10
301.4029564530679
 20
411.2891662151489
 30
0.0
 10
302.0817162993083
 20
410.7340842209522
 30
0.0
 10
302.7609155464721
 20
410.4940164259948
 30
0.0
 10
303.1734772541994
 20
410.4748872974793
 30
0.0
 10
303.2977460686648
 20
410.4691253615608
 30
0.0
  0
LINE
  5
364
330
1F
100
AcDbEntity
  8
0
  6
Continuous
 62
     7
370
    15
100
AcDbLine
 10
303.2977460687
 20
473.969112487
 30
0.0
 11
335.6477423374
 21
473.969112487
 31
0.0
  0
LINE
  5
365
330
1F
100
AcDbEntity
  8
0
  6
Continuous
 62
     7
370
    15
100
AcDbLine
 10
335.6477423374
 20
473.969112487
 30
0.0
 11
335.6477423374
 21
472.7691517783
 31
0.0
  0
LINE
  5
366
330
1F
100
AcDbEntity
  8
0
  6
Continuous
 62
     7
370
    15
100
AcDbLine
 10
303.2977460687
 20
472.7691517783
 30
0.0
 11
335.6477423374
 21
472.7691517783
 31
0.0
  0
LINE
  5
367
330
1F
100
AcDbEntity
  8
0
  6
Continuous
 62
     7
370
    15
100
AcDbLine
 10
303.2977460687
 20
410.4691253616
 30
0.0
 11
335.6477423374
 21
410.4691253616
 31
0.0
  0
LINE
  5
368
330
1F
100
AcDbEntity
  8
0
  6
Continuous
 62
     7
370
    15
100
AcDbLine
 10
303.2977460687
 20
411.6691456748
 30
0.0
 11
335.6477423374
 21
411.6691456748
 31
0.0
  0
LINE
  5
369
330
1F
100
AcDbEntity
  8
0
  6
Continuous
 62
     7
370
    15
100
AcDbLine
 10
335.6477423374
 20
410.4691253616
 30
0.0
 11
335.6477423374
 21
411.6691456748
 31
0.0
  0
LINE
  5
36A
330
1F
100
AcDbEntity
  8
0
  6
Continuous
 62
     7
370
    15
100
AcDbLine
 10
346.2477429573
 20
-109.7308664011
 30
0.0
 11
346.2477429573
 21
-109.270867555
 31
0.0
  0
LINE
  5
36B
330
1F
100
AcDbEntity
  8
0
  6
Continuous
 62
     7
370
    15
100
AcDbLine
 10
347.0477415983
 20
-109.7308664011
 30
0.0
 11
347.0477415983
 21
-109.270867555
 31
0.0
  0
LINE
  5
36C
330
1F
100
AcDbEntity
  8
0
  6
Continuous
 62
     7
370
    15
100
AcDbLine
 10
359.8477496569
 20
-109.270867555
 30
0.0
 11
359.8477496569
 21
-109.7476749109
 31
0.0
  0
SPLINE
  5
36D
330
1F
100
AcDbEntity
  8
0
  6
Continuous
 62
     7
370
    15
100
AcDbSpline
210
0.0
220
0.0
230
1.0
 70
     8
 71
     3
 72
     9
 73
     5
 74
     0
 42
0.00000001
 43
0.00000001
 40
0.0
 40
0.0
 40
0.0
 40
0.0
 40
0.2935333679087131
 40
1.0
 40
1.0
 40
1.0
 40
1.0
 10
359.0477510158503
 20
541.7701707793465
 30
0.0
 10
359.084896108777
 20
541.7503030333185
 30
0.0
 10
359.2114408119954
 20
541.6826182376532
 30
0.0
 10
359.2872619501192
 20
541.55749975303
 30
0.0
 10
359.3408270542109
 20
541.469107718586
 30
0.0
  0
LINE
  5
36E
330
1F
100
AcDbEntity
  8
0
  6
Continuous
 62
     7
370
    15
100
AcDbLine
 10
297.4335281913
 20
459.7191320373
 30
0.0
 11
297.4335281913
 21
424.7191058112
 31
0.0
  0
LINE
  5
36F
330
1F
100
AcDbEntity
  8
0
  6
Continuous
 62
     7
370
    15
100
AcDbLine
 10
300.3477408354
 20
459.7191320373
 30
0.0
 11
300.3477408354
 21
424.7191058112
 31
0.0
  0
LINE
  5
370
330
1F
100
AcDbEntity
  8
0
  6
Continuous
 62
     7
370
    15
100
AcDbLine
 10
298.2619582478
 20
459.7191320373
 30
0.0
 11
298.2619582478
 21
424.7191058112
 31
0.0
  0
LINE
  5
371
330
1F
100
AcDbEntity
  8
0
  6
Continuous
 62
     7
370
    15
100
AcDbLine
 10
297.8477432196
 20
458.7191449119
 30
0.0
 11
297.8477432196
 21
425.7191525413
 31
0.0
  0
LWPOLYLINE
  5
372
330
1F
100
AcDbEntity
  8
0
  6
Continuous
 62
     7
370
    15
100
AcDbPolyline
 90
       17
 70
   128
 43
0.0
 10
236.3477601473
 20
-226.8965660023
 10
237.3098461692
 20
-227.5305731581
 10
237.9944055144
 20
-228.4280626463
 10
238.3242725198
 20
-229.4878779339
 10
238.2622650628
 20
-230.5905564116
 10
237.8153736506
 20
-231.611807494
 10
237.0339697961
 20
-232.4365048097
 10
236.0061342631
 20
-232.9716949152
 10
234.8477254425
 20
-233.1570504593
 10
233.6893184845
 20
-232.9716874646
 10
232.6614904021
 20
-232.436482458
 10
231.8800958608
 20
-231.6117776917
 10
231.4332137619
 20
-230.5905266093
 10
231.3712193434
 20
-229.4878481315
 10
231.7010975246
 20
-228.4280328439
 10
232.3856661831
 20
-227.5305433558
 10
233.3477596555
 20
-226.8965511011
  0
LINE
  5
373
330
1F
100
AcDbEntity
  8
0
  6
Continuous
 62
     7
370
    15
100
AcDbLine
 10
236.3477601473
 20
-226.8965660023
 30
0.0
 11
236.3477731858
 21
-224.3476739513
 31
0.0
  0
LINE
  5
374
330
1F
100
AcDbEntity
  8
0
  6
Continuous
 62
     7
370
    15
100
AcDbLine
 10
233.3477596555
 20
-226.8965511011
 30
0.0
 11
233.3477745567
 21
-224.3476739513
 31
0.0
  0
LINE
  5
375
330
1F
100
AcDbEntity
  8
0
  6
Continuous
 62
     7
370
    15
100
AcDbLine
 10
359.8477496569
 20
-235.8345656084
 30
0.0
 11
59.8477377359
 21
-235.8345656084
 31
0.0
  0
LINE
  5
376
330
1F
100
AcDbEntity
  8
0
  6
Continuous
 62
     7
370
    15
100
AcDbLine
 10
59.8477377359
 20
-235.8345656084
 30
0.0
 11
59.8477377359
 21
-224.0476763235
 31
0.0
  0
LINE
  5
377
330
1F
100
AcDbEntity
  8
0
  6
Continuous
 62
     7
370
    15
100
AcDbLine
 10
359.8477496569
 20
-235.8345656084
 30
0.0
 11
359.8477496569
 21
-224.0476763235
 31
0.0
  0
LINE
  5
378
330
1F
100
AcDbEntity
  8
0
  6
Continuous
 62
     7
370
    15
100
AcDbLine
 10
236.3477601473
 20
-226.8931461858
 30
0.0
 11
236.3477731858
 21
-224.3476739513
 31
0.0
  0
ARC
  5
379
330
1F
100
AcDbEntity
  8
0
  6
Continuous
 62
     7
370
    15
100
AcDbCircle
 10
234.8477440689
 20
-229.7150957159
 30
0.0
 40
3.503195786475569
100
AcDbArc
 50
182.447663017
 51
357.552336983
  0
LINE
  5
37A
330
1F
100
AcDbEntity
  8
0
  6
Continuous
 62
     7
370
    15
100
AcDbLine
 10
234.3477560942
 20
-227.5629384803
 30
0.0
 11
234.347772858
 21
-224.6083623158
 31
0.0
  0
ARC
  5
37B
330
1F
100
AcDbEntity
  8
0
  6
Continuous
 62
     7
370
    15
100
AcDbCircle
 10
234.9673298612
 20
-229.913265723
 30
0.0
 40
2.380908937552482
100
AcDbArc
 50
1.1686558048
 51
80.8057569255
  0
ARC
  5
37C
330
1F
100
AcDbEntity
  8
0
  6
Continuous
 62
     7
370
    15
100
AcDbCircle
 10
234.7281600878
 20
-229.9132636909
 30
0.0
 40
2.380910706917954
100
AcDbArc
 50
99.1936900412
 51
178.8313939753
  0
LINE
  5
37D
330
1F
100
AcDbEntity
  8
0
  6
Continuous
 62
     7
370
    15
100
AcDbLine
 10
233.9477716748
 20
-224.604938774
 30
0.0
 11
233.9477735375
 21
-224.3476739513
 31
0.0
  0
LINE
  5
37E
330
1F
100
AcDbEntity
  8
0
  6
Continuous
 62
     7
370
    15
100
AcDbLine
 10
235.7477723424
 20
-224.6083697664
 30
0.0
 11
235.747774205
 21
-224.3476739513
 31
0.0
  0
LINE
  5
37F
330
1F
100
AcDbEntity
  8
0
  6
Continuous
 62
     7
370
    15
100
AcDbLine
 10
235.3477730219
 20
-224.6083660411
 30
0.0
 11
235.7477723424
 21
-224.6083697664
 31
0.0
  0
LINE
  5
380
330
1F
100
AcDbEntity
  8
0
  6
Continuous
 62
     7
370
    15
100
AcDbLine
 10
235.3477562581
 20
-227.5663657473
 30
0.0
 11
235.3477730219
 21
-224.6083660411
 31
0.0
  0
LWPOLYLINE
  5
381
330
1F
100
AcDbEntity
  8
0
  6
Continuous
 62
     7
370
    15
100
AcDbPolyline
 90
       16
 70
   128
 43
0.0
 10
235.3477562581
 20
-227.5663657473
 10
236.2456890557
 20
-227.9205067443
 10
236.9315112744
 20
-228.5701601194
 10
237.3011643801
 20
-229.4167546915
 10
237.2985585396
 20
-230.3318350004
 10
236.9240886335
 20
-231.1765594767
 10
236.2345765148
 20
-231.8227557825
 10
235.3346376483
 20
-232.172374277
 10
234.3608244125
 20
-232.172374277
 10
233.460891134
 20
-231.8227408813
 10
232.7713846032
 20
-231.1765445756
 10
232.3969240103
 20
-230.3318126487
 10
232.394327483
 20
-229.4167323397
 10
232.763989902
 20
-228.5701377677
 10
233.4498195712
 20
-227.9204918431
 10
234.3477560942
 20
-227.5663582968
  0
LINE
  5
382
330
1F
100
AcDbEntity
  8
0
  6
Continuous
 62
     7
370
    15
100
AcDbLine
 10
234.3477560942
 20
-227.5663582968
 30
0.0
 11
234.347772858
 21
-224.6083623158
 31
0.0
  0
LINE
  5
383
330
1F
100
AcDbEntity
  8
0
  6
Continuous
 62
     7
370
    15
100
AcDbLine
 10
233.9477716748
 20
-224.6083623158
 30
0.0
 11
234.347772858
 21
-224.6083623158
 31
0.0
  0
LINE
  5
384
330
1F
100
AcDbEntity
  8
0
  6
Continuous
 62
     7
370
    15
100
AcDbLine
 10
233.9477716748
 20
-224.6083623158
 30
0.0
 11
233.9477735375
 21
-224.3476739513
 31
0.0
  0
LINE
  5
385
330
1F
100
AcDbEntity
  8
0
  6
Continuous
 62
     7
370
    15
100
AcDbLine
 10
233.9477716748
 20
-224.604938774
 30
0.0
 11
233.9477716748
 21
-224.6083623158
 31
0.0
  0
LINE
  5
386
330
1F
100
AcDbEntity
  8
0
  6
Continuous
 62
     7
370
    15
100
AcDbLine
 10
236.3477601473
 20
-226.8931461858
 30
0.0
 11
236.3477601473
 21
-226.8965660023
 31
0.0
  0
LINE
  5
387
330
1F
100
AcDbEntity
  8
0
  6
Continuous
 62
     7
370
    15
100
AcDbLine
 10
234.3477560942
 20
-227.5629384803
 30
0.0
 11
234.3477560942
 21
-227.5663582968
 31
0.0
  0
LINE
  5
388
330
1F
100
AcDbEntity
  8
0
  6
Continuous
 62
     7
370
    15
100
AcDbLine
 10
359.8477496569
 20
-242.9407505678
 30
0.0
 11
359.8477496569
 21
-235.8345656084
 31
0.0
  0
LINE
  5
389
330
1F
100
AcDbEntity
  8
0
  6
Continuous
 62
     7
370
    15
100
AcDbLine
 10
59.8477377359
 20
-242.9407505678
 30
0.0
 11
59.8477377359
 21
-235.8345656084
 31
0.0
  0
LINE
  5
38A
330
1F
100
AcDbEntity
  8
0
  6
Continuous
 62
     7
370
    15
100
AcDbLine
 10
82.8477396433
 20
473.2191072417
 30
0.0
 11
82.8477396433
 21
472.7691517783
 31
0.0
  0
LINE
  5
38B
330
1F
100
AcDbEntity
  8
0
  6
Continuous
 62
     7
370
    15
100
AcDbLine
 10
82.8477396433
 20
411.6691456748
 30
0.0
 11
82.8477396433
 21
411.2191306068
 31
0.0
  0
LINE
  5
38C
330
1F
100
AcDbEntity
  8
0
  6
Continuous
 62
     7
370
    15
100
AcDbLine
 10
82.8477396433
 20
411.2191306068
 30
0.0
 11
84.0477450554
 21
411.2191306068
 31
0.0
  0
LINE
  5
38D
330
1F
100
AcDbEntity
  8
0
  6
Continuous
 62
     7
370
    15
100
AcDbLine
 10
118.1231765811
 20
411.2191306068
 30
0.0
 11
118.8477455441
 21
411.2191306068
 31
0.0
  0
LINE
  5
38E
330
1F
100
AcDbEntity
  8
0
  6
Continuous
 62
     7
370
    15
100
AcDbLine
 10
118.8477455441
 20
411.2191306068
 30
0.0
 11
118.8477455441
 21
412.9191146804
 31
0.0
  0
LINE
  5
38F
330
1F
100
AcDbEntity
  8
0
  6
Continuous
 62
     7
370
    15
100
AcDbLine
 10
118.8477455441
 20
471.5191231681
 30
0.0
 11
118.8477455441
 21
473.2191072417
 31
0.0
  0
LINE
  5
390
330
1F
100
AcDbEntity
  8
0
  6
Continuous
 62
     7
370
    15
100
AcDbLine
 10
118.8477455441
 20
473.2191072417
 30
0.0
 11
118.1289209787
 21
473.2191072417
 31
0.0
  0
LINE
  5
391
330
1F
100
AcDbEntity
  8
0
  6
Continuous
 62
     7
370
    15
100
AcDbLine
 10
84.0477450554
 20
473.2191072417
 30
0.0
 11
82.8477396433
 21
473.2191072417
 31
0.0
  0
LINE
  5
392
330
1F
100
AcDbEntity
  8
0
  6
Continuous
 62
     7
370
    15
100
AcDbLine
 10
84.0477450554
 20
411.6691456748
 30
0.0
 11
82.8477396433
 21
411.6691456748
 31
0.0
  0
LINE
  5
393
330
1F
100
AcDbEntity
  8
0
  6
Continuous
 62
     7
370
    15
100
AcDbLine
 10
82.8477396433
 20
411.6691456748
 30
0.0
 11
82.8477396433
 21
472.7691517783
 31
0.0
  0
LINE
  5
394
330
1F
100
AcDbEntity
  8
0
  6
Continuous
 62
     7
370
    15
100
AcDbLine
 10
84.0477450554
 20
472.7691517783
 30
0.0
 11
82.8477396433
 21
472.7691517783
 31
0.0
  0
LINE
  5
395
330
1F
100
AcDbEntity
  8
0
  6
Continuous
 62
     7
370
    15
100
AcDbLine
 10
84.0477450554
 20
411.6691456748
 30
0.0
 11
84.0477450554
 21
411.6761790229
 31
0.0
  0
LINE
  5
396
330
1F
100
AcDbEntity
  8
0
  6
Continuous
 62
     7
370
    15
100
AcDbLine
 10
84.0477450554
 20
472.7620588256
 30
0.0
 11
84.0477450554
 21
472.7691517783
 31
0.0
  0
LINE
  5
397
330
1F
100
AcDbEntity
  8
0
  6
Continuous
 62
     7
370
    15
100
AcDbLine
 10
334.3477426831
 20
368.6438904716
 30
0.0
 11
334.3477426831
 21
372.6872311546
 31
0.0
  0
LINE
  5
398
330
1F
100
AcDbEntity
  8
0
  6
Continuous
 62
     7
370
    15
100
AcDbLine
 10
334.3477426831
 20
366.6871891929
 30
0.0
 11
334.3477426831
 21
368.6438904716
 31
0.0
  0
LINE
  5
399
330
1F
100
AcDbEntity
  8
0
  6
Continuous
 62
     7
370
    15
100
AcDbLine
 10
334.8477436964
 20
368.8177572204
 30
0.0
 11
334.8477436964
 21
367.1872125579
 31
0.0
  0
LINE
  5
39A
330
1F
100
AcDbEntity
  8
0
  6
Continuous
 62
     7
370
    15
100
AcDbLine
 10
334.8477436964
 20
372.1872077895
 30
0.0
 11
334.8477436964
 21
368.8177572204
 31
0.0
  0
LINE
  5
39B
330
1F
100
AcDbEntity
  8
0
  6
Continuous
 62
     7
370
    15
100
AcDbLine
 10
85.3477447097
 20
372.4999533607
 30
0.0
 11
85.3477447097
 21
366.6871891929
 31
0.0
  0
LINE
  5
39C
330
1F
100
AcDbEntity
  8
0
  6
Continuous
 62
     7
370
    15
100
AcDbLine
 10
85.3477447097
 20
372.6872311546
 30
0.0
 11
85.3477447097
 21
372.4999533607
 31
0.0
  0
LINE
  5
39D
330
1F
100
AcDbEntity
  8
0
  6
Continuous
 62
     7
370
    15
100
AcDbLine
 10
84.8477436964
 20
368.8177572204
 30
0.0
 11
84.8477436964
 21
372.1872077895
 31
0.0
  0
LINE
  5
39E
330
1F
100
AcDbEntity
  8
0
  6
Continuous
 62
     7
370
    15
100
AcDbLine
 10
84.8477436964
 20
367.1872125579
 30
0.0
 11
84.8477436964
 21
368.8177572204
 31
0.0
  0
LWPOLYLINE
  5
39F
330
1F
100
AcDbEntity
  8
0
  6
Continuous
 62
     7
370
    15
100
AcDbPolyline
 90
        3
 70
   128
 43
0.0
 10
184.3190817897
 20
383.7191568328
 10
185.1683138673
 20
383.7004409744
 10
185.3764048581
 20
383.7191568328
  0
LINE
  5
3A0
330
1F
100
AcDbEntity
  8
0
  6
Continuous
 62
     8
370
    15
100
AcDbLine
 10
345.0977458422
 20
-109.270867555
 30
0.0
 11
345.0977458422
 21
-109.7308664011
 31
0.0
  0
LINE
  5
3A1
330
1F
100
AcDbEntity
  8
0
  6
Continuous
 62
     8
370
    15
100
AcDbLine
 10
74.5977415506
 20
-109.7308664011
 30
0.0
 11
74.5977415506
 21
-109.270867555
 31
0.0
  0
LINE
  5
3A2
330
1F
100
AcDbEntity
  8
0
  6
Continuous
 62
     8
370
    15
100
AcDbLine
 10
181.2227434282
 20
567.062865348
 30
0.0
 11
147.4727420871
 21
567.062865348
 31
0.0
  0
ARC
  5
3A3
330
1F
100
AcDbEntity
  8
0
  6
Continuous
 62
     8
370
    15
100
AcDbCircle
 10
220.0210621338
 20
-223.9902434087
 30
0.0
 40
0.9253757971308654
100
AcDbArc
 50
299.914020309
 51
337.278358298
  0
ARC
  5
3A4
330
1F
100
AcDbEntity
  8
0
  6
Continuous
 62
     8
370
    15
100
AcDbCircle
 10
211.8823597832
 20
-265.8512643956
 30
0.0
 40
41.9499563516111
100
AcDbArc
 50
78.1698784766
 51
81.6342819097
  0
ARC
  5
3A5
330
1F
100
AcDbEntity
  8
0
  6
Continuous
 62
     8
370
    15
100
AcDbCircle
 10
207.8131276096
 20
-265.8512643956
 30
0.0
 40
41.9499563516111
100
AcDbArc
 50
98.3657180903
 51
101.8301215234
  0
ARC
  5
3A6
330
1F
100
AcDbEntity
  8
0
  6
Continuous
 62
     8
370
    15
100
AcDbCircle
 10
199.674425259
 20
-223.9902434087
 30
0.0
 40
0.9253757971308846
100
AcDbArc
 50
202.721641702
 51
240.085979691
  0
LINE
  5
3A7
330
1F
100
AcDbEntity
  8
0
  6
Continuous
 62
     8
370
    15
100
AcDbLine
 10
209.3477436727
 20
-224.3476739513
 30
0.0
 11
209.3477436727
 21
-233.4297119068
 31
0.0
  0
LINE
  5
3A8
330
1F
100
AcDbEntity
  8
0
  6
Continuous
 62
     8
370
    15
100
AcDbLine
 10
210.3477437201
 20
-233.4297119068
 30
0.0
 11
210.3477437201
 21
-224.3476739513
 31
0.0
  0
ARC
  5
3A9
330
1F
100
AcDbEntity
  8
0
  6
Continuous
 62
     8
370
    15
100
AcDbCircle
 10
192.7164246651
 20
-228.370525352
 30
0.0
 40
7.475238389803207
100
AcDbArc
 50
317.6912231195
 51
356.9497695651
  0
LINE
  5
3AA
330
1F
100
AcDbEntity
  8
0
  6
Continuous
 62
     8
370
    15
100
AcDbLine
 10
196.5314355482
 20
-224.3476739513
 30
0.0
 11
198.2445726906
 21
-233.4023012208
 31
0.0
  0
LINE
  5
3AB
330
1F
100
AcDbEntity
  8
0
  6
Continuous
 62
     8
370
    15
100
AcDbLine
 10
221.4509147022
 20
-233.4023012208
 30
0.0
 11
223.1640518446
 21
-224.3476739513
 31
0.0
  0
ARC
  5
3AC
330
1F
100
AcDbEntity
  8
0
  6
Continuous
 62
     8
370
    15
100
AcDbCircle
 10
226.8341496674
 20
-228.4413075007
 30
0.0
 40
7.32056537302027
100
AcDbArc
 50
180.9345893088
 51
222.6625402528
  0
ARC
  5
3AD
330
1F
100
AcDbEntity
  8
0
  6
Continuous
 62
     8
370
    15
100
AcDbCircle
 10
199.1268081211
 20
-223.9005724334
 30
0.0
 40
0.8959133021924808
100
AcDbArc
 50
220.3619603199
 51
275.5168896357
  0
ARC
  5
3AE
330
1F
100
AcDbEntity
  8
0
  6
Continuous
 62
     8
370
    15
100
AcDbCircle
 10
220.5672239533
 20
-223.8969813296
 30
0.0
 40
0.8993496475519112
100
AcDbArc
 50
264.5973913388
 51
319.5237587056
  0
LWPOLYLINE
  5
3AF
330
1F
100
AcDbEntity
  8
0
  6
Continuous
 62
     8
370
    15
100
AcDbPolyline
 90
        3
 70
   128
 43
0.0
 10
198.2240156074
 20
-233.6099116491
 10
198.2224835817
 20
-233.5082037734
 10
198.2445726906
 20
-233.4023012208
  0
ARC
  5
3B0
330
1F
100
AcDbEntity
  8
0
  6
Continuous
 62
     8
370
    15
100
AcDbCircle
 10
199.0687826257
 20
-234.1189624126
 30
0.0
 40
0.3280855247809502
100
AcDbArc
 50
259.0376668532
 51
296.0650369713
  0
ARC
  5
3B1
330
1F
100
AcDbEntity
  8
0
  6
Continuous
 62
     8
370
    15
100
AcDbCircle
 10
220.6267047671
 20
-234.1189624126
 30
0.0
 40
0.3280855247809567
100
AcDbArc
 50
243.9349630287
 51
280.9623331468
  0
ARC
  5
3B2
330
1F
100
AcDbEntity
  8
0
  6
Continuous
 62
     8
370
    15
100
AcDbCircle
 10
221.0060873546
 20
-233.5510704087
 30
0.0
 40
0.4690454567551169
100
AcDbArc
 50
350.7812438391
 51
18.4921273453
  0
LINE
  5
3B3
330
1F
100
AcDbEntity
  8
0
  6
Continuous
 62
     8
370
    15
100
AcDbLine
 10
71.3977469866
 20
-109.270867555
 30
0.0
 11
71.3977469866
 21
-109.7308664011
 31
0.0
  0
LINE
  5
3B4
330
1F
100
AcDbEntity
  8
0
  6
Continuous
 62
     8
370
    15
100
AcDbLine
 10
61.897750086
 20
-109.7308664011
 30
0.0
 11
61.897750086
 21
-109.270867555
 31
0.0
  0
LWPOLYLINE
  5
3B5
330
1F
100
AcDbEntity
  8
0
  6
Continuous
 62
     8
370
    15
100
AcDbPolyline
 90
        9
 70
   128
 43
0.0
 10
228.5460038845
 20
374.6291504813
 10
227.8242195759
 20
375.1044975234
 10
226.7879369472
 20
375.7869111015
 10
225.7347675775
 20
376.4804707481
 10
224.7582898278
 20
377.1235452605
 10
223.9452685033
 20
377.6589141799
 10
223.3679444332
 20
378.0391322089
 10
223.0776139338
 20
378.2302843047
 10
223.0484085892
 20
378.249536605
  0
ARC
  5
3B6
330
1F
100
AcDbEntity
  8
0
  6
Continuous
 62
     8
370
    15
100
AcDbCircle
 10
227.1272418203
 20
134.9524071776
 30
0.0
 40
4.264208682053609
100
AcDbArc
 50
271.485464722
 51
64.066530686
  0
ARC
  5
3B7
330
1F
100
AcDbEntity
  8
0
  6
Continuous
 62
     8
370
    15
100
AcDbCircle
 10
263.1314533163
 20
134.9509888159
 30
0.0
 40
4.262678472872106
100
AcDbArc
 50
271.426571212
 51
67.9389609908
  0
ARC
  5
3B8
330
1F
100
AcDbEntity
  8
0
  6
Continuous
 62
     8
370
    15
100
AcDbCircle
 10
227.3517972841
 20
134.9501543979
 30
0.0
 40
4.261839890951543
100
AcDbArc
 50
271.4244614221
 51
71.1073583026
  0
ARC
  5
3B9
330
1F
100
AcDbEntity
  8
0
  6
Continuous
 62
     8
370
    15
100
AcDbCircle
 10
263.3540089603
 20
134.9495927701
 30
0.0
 40
4.261224076006635
100
AcDbArc
 50
271.3949497115
 51
71.9437430147
  0
LINE
  5
3BA
330
1F
100
AcDbEntity
  8
0
  6
Continuous
 62
     8
370
    15
100
AcDbLine
 10
290.3552084033
 20
370.0785742713
 30
0.0
 11
283.3477436368
 21
370.0785742713
 31
0.0
  0
LINE
  5
3BB
330
1F
100
AcDbEntity
  8
0
  6
Continuous
 62
     8
370
    15
100
AcDbLine
 10
136.347743756
 20
370.0785742713
 30
0.0
 11
129.3378501002
 21
370.0785742713
 31
0.0
  0
LINE
  5
3BC
330
1F
100
AcDbEntity
  8
0
  6
Continuous
 62
     8
370
    15
100
AcDbLine
 10
291.8468146388
 20
368.866811843
 30
0.0
 11
283.3477436368
 21
368.866811843
 31
0.0
  0
LINE
  5
3BD
330
1F
100
AcDbEntity
  8
0
  6
Continuous
 62
     8
370
    15
100
AcDbLine
 10
136.347743756
 20
368.866811843
 30
0.0
 11
127.8475700681
 21
368.866811843
 31
0.0
  0
LINE
  5
3BE
330
1F
100
AcDbEntity
  8
0
  6
Continuous
 62
     8
370
    15
100
AcDbLine
 10
310.7977463667
 20
-34.6445633458
 30
0.0
 11
310.7977463667
 21
366.6871891929
 31
0.0
  0
LINE
  5
3BF
330
1F
100
AcDbEntity
  8
0
  6
Continuous
 62
     8
370
    15
100
AcDbLine
 10
108.8977410261
 20
366.6871891929
 30
0.0
 11
108.8977410261
 21
-34.6445633458
 31
0.0
  0
LINE
  5
3C0
330
1F
100
AcDbEntity
  8
0
  6
Continuous
 62
     8
370
    15
100
AcDbLine
 10
318.8477410738
 20
307.7191220237
 30
0.0
 11
320.8477451269
 21
307.7191220237
 31
0.0
  0
LINE
  5
3C1
330
1F
100
AcDbEntity
  8
0
  6
Continuous
 62
     8
370
    15
100
AcDbLine
 10
318.8477410738
 20
50.7191376401
 30
0.0
 11
320.8477451269
 21
50.7191376401
 31
0.0
  0
LINE
  5
3C2
330
1F
100
AcDbEntity
  8
0
  6
Continuous
 62
     8
370
    15
100
AcDbLine
 10
129.3477444713
 20
412.6291976882
 30
0.0
 11
130.1477431123
 21
412.6291976882
 31
0.0
  0
LINE
  5
3C3
330
1F
100
AcDbEntity
  8
0
  6
Continuous
 62
     8
370
    15
100
AcDbLine
 10
129.3477444713
 20
391.6291700317
 30
0.0
 11
130.1477431123
 21
391.6291700317
 31
0.0
  0
LINE
  5
3C4
330
1F
100
AcDbEntity
  8
0
  6
Continuous
 62
     8
370
    15
100
AcDbLine
 10
290.3477429215
 20
412.6291976882
 30
0.0
 11
289.5477442805
 21
412.6291976882
 31
0.0
  0
LINE
  5
3C5
330
1F
100
AcDbEntity
  8
0
  6
Continuous
 62
     8
370
    15
100
AcDbLine
 10
290.3477429215
 20
391.6291700317
 30
0.0
 11
289.5477442805
 21
391.6291700317
 31
0.0
  0
LINE
  5
3C6
330
1F
100
AcDbEntity
  8
0
  6
Continuous
 62
     8
370
    15
100
AcDbLine
 10
129.3477444713
 20
387.6291619254
 30
0.0
 11
130.1477431123
 21
387.6291619254
 31
0.0
  0
LINE
  5
3C7
330
1F
100
AcDbEntity
  8
0
  6
Continuous
 62
     8
370
    15
100
AcDbLine
 10
290.3477429215
 20
387.6291619254
 30
0.0
 11
289.5477442805
 21
387.6291619254
 31
0.0
  0
LWPOLYLINE
  5
3C8
330
1F
100
AcDbEntity
  8
0
  6
Continuous
 62
     8
370
    15
100
AcDbPolyline
 90
        9
 70
   128
 43
0.0
 10
146.5460016195
 20
374.6291504813
 10
145.8242191736
 20
375.1044975234
 10
144.7879328196
 20
375.7869111015
 10
143.7347709004
 20
376.4804707481
 10
142.7582903568
 20
377.1235452605
 10
141.9452681009
 20
377.6589141799
 10
141.3679449622
 20
378.0391322089
 10
141.0776107375
 20
378.2302843047
 10
141.0484119122
 20
378.249536605
  0
ARC
  5
3C9
330
1F
100
AcDbEntity
  8
0
  6
Continuous
 62
     8
370
    15
100
AcDbCircle
 10
157.131415441
 20
134.9515152184
 30
0.0
 40
4.263112041186808
100
AcDbArc
 50
271.3754673231
 51
64.5730640698
  0
ARC
  5
3CA
330
1F
100
AcDbEntity
  8
0
  6
Continuous
 62
     8
370
    15
100
AcDbCircle
 10
192.6832533976
 20
134.9489460897
 30
0.0
 40
4.260843334610726
100
AcDbArc
 50
271.5936148772
 51
63.7899547144
  0
ARC
  5
3CB
330
1F
100
AcDbEntity
  8
0
  6
Continuous
 62
     8
370
    15
100
AcDbCircle
 10
157.3550421937
 20
134.9496580839
 30
0.0
 40
4.261264283273173
100
AcDbArc
 50
271.3810066297
 51
71.1481498199
  0
ARC
  5
3CC
330
1F
100
AcDbEntity
  8
0
  6
Continuous
 62
     8
370
    15
100
AcDbCircle
 10
192.8385759287
 20
134.9486819012
 30
0.0
 40
4.259916631117289
100
AcDbArc
 50
271.1555115082
 51
67.1418459061
  0
LINE
  5
3CD
330
1F
100
AcDbEntity
  8
0
  6
Continuous
 62
     8
370
    15
100
AcDbLine
 10
208.539054104
 20
479.8405872298
 30
0.0
 11
196.9902311255
 21
479.8405872298
 31
0.0
  0
LINE
  5
3CE
330
1F
100
AcDbEntity
  8
0
  6
Continuous
 62
     8
370
    15
100
AcDbLine
 10
213.7052559563
 20
479.8405872298
 30
0.0
 11
208.539054104
 21
479.8405872298
 31
0.0
  0
LINE
  5
3CF
330
1F
100
AcDbEntity
  8
0
  6
Continuous
 62
     8
370
    15
100
AcDbLine
 10
357.3977454369
 20
-109.270867555
 30
0.0
 11
357.3977454369
 21
487.2191058112
 31
0.0
  0
LINE
  5
3D0
330
1F
100
AcDbEntity
  8
0
  6
Continuous
 62
     8
370
    15
100
AcDbLine
 10
344.2977472012
 20
487.2191058112
 30
0.0
 11
344.2977472012
 21
-107.2708672272
 31
0.0
  0
LINE
  5
3D1
330
1F
100
AcDbEntity
  8
0
  6
Continuous
 62
     8
370
    15
100
AcDbLine
 10
75.3977401916
 20
487.2191058112
 30
0.0
 11
75.3977401916
 21
-107.2708672272
 31
0.0
  0
LINE
  5
3D2
330
1F
100
AcDbEntity
  8
0
  6
Continuous
 62
     8
370
    15
100
AcDbLine
 10
62.2977419559
 20
487.2191058112
 30
0.0
 11
62.2977419559
 21
-109.270867555
 31
0.0
  0
LINE
  5
3D3
330
1F
100
AcDbEntity
  8
0
  6
Continuous
 62
     8
370
    15
100
AcDbLine
 10
340.5977441732
 20
487.2191058112
 30
0.0
 11
340.5977441732
 21
-106.0308670985
 31
0.0
  0
LINE
  5
3D4
330
1F
100
AcDbEntity
  8
0
  6
Continuous
 62
     8
370
    15
100
AcDbLine
 10
79.0977432196
 20
-106.0308670985
 30
0.0
 11
79.0977432196
 21
487.2191058112
 31
0.0
  0
LINE
  5
3D5
330
1F
100
AcDbEntity
  8
0
  6
Continuous
 62
     8
370
    15
100
AcDbLine
 10
320.8477451269
 20
406.303058715
 30
0.0
 11
312.8477438156
 21
406.303058715
 31
0.0
  0
LINE
  5
3D6
330
1F
100
AcDbEntity
  8
0
  6
Continuous
 62
     8
370
    15
100
AcDbLine
 10
312.0477451746
 20
406.303058715
 30
0.0
 11
292.8477405374
 21
406.303058715
 31
0.0
  0
LINE
  5
3D7
330
1F
100
AcDbEntity
  8
0
  6
Continuous
 62
     8
370
    15
100
AcDbLine
 10
126.8477468554
 20
406.303058715
 30
0.0
 11
107.6477422182
 21
406.303058715
 31
0.0
  0
LINE
  5
3D8
330
1F
100
AcDbEntity
  8
0
  6
Continuous
 62
     8
370
    15
100
AcDbLine
 10
106.8477435772
 20
406.303058715
 30
0.0
 11
98.8477422659
 21
406.303058715
 31
0.0
  0
LINE
  5
3D9
330
1F
100
AcDbEntity
  8
0
  6
Continuous
 62
     8
370
    15
100
AcDbLine
 10
318.8477410738
 20
52.4073795987
 30
0.0
 11
312.8477438156
 21
52.4073795987
 31
0.0
  0
LINE
  5
3DA
330
1F
100
AcDbEntity
  8
0
  6
Continuous
 62
     8
370
    15
100
AcDbLine
 10
282.2140036885
 20
52.4073795987
 30
0.0
 11
277.4814843003
 21
52.4073795987
 31
0.0
  0
LINE
  5
3DB
330
1F
100
AcDbEntity
  8
0
  6
Continuous
 62
     8
370
    15
100
AcDbLine
 10
247.2140072648
 20
52.4073795987
 30
0.0
 11
242.481480426
 21
52.4073795987
 31
0.0
  0
LINE
  5
3DC
330
1F
100
AcDbEntity
  8
0
  6
Continuous
 62
     8
370
    15
100
AcDbLine
 10
212.2140066501
 20
52.4073795987
 30
0.0
 11
207.4814807427
 21
52.4073795987
 31
0.0
  0
LINE
  5
3DD
330
1F
100
AcDbEntity
  8
0
  6
Continuous
 62
     8
370
    15
100
AcDbLine
 10
177.2140069668
 20
52.4073795987
 30
0.0
 11
172.481480128
 21
52.4073795987
 31
0.0
  0
LINE
  5
3DE
330
1F
100
AcDbEntity
  8
0
  6
Continuous
 62
     8
370
    15
100
AcDbLine
 10
142.2140030925
 20
52.4073795987
 30
0.0
 11
137.4814837043
 21
52.4073795987
 31
0.0
  0
LINE
  5
3DF
330
1F
100
AcDbEntity
  8
0
  6
Continuous
 62
     8
370
    15
100
AcDbLine
 10
106.8477435772
 20
52.4073795987
 30
0.0
 11
100.847746319
 21
52.4073795987
 31
0.0
  0
LINE
  5
3E0
330
1F
100
AcDbEntity
  8
0
  6
Continuous
 62
     8
370
    15
100
AcDbLine
 10
318.9388318722
 20
49.9258445216
 30
0.0
 11
312.8477438156
 21
49.9258445216
 31
0.0
  0
LINE
  5
3E1
330
1F
100
AcDbEntity
  8
0
  6
Continuous
 62
     8
370
    15
100
AcDbLine
 10
285.2044953768
 20
49.9258445216
 30
0.0
 11
274.4909926121
 21
49.9258445216
 31
0.0
  0
LINE
  5
3E2
330
1F
100
AcDbEntity
  8
0
  6
Continuous
 62
     8
370
    15
100
AcDbLine
 10
250.2044952278
 20
49.9258445216
 30
0.0
 11
239.4909924631
 21
49.9258445216
 31
0.0
  0
LINE
  5
3E3
330
1F
100
AcDbEntity
  8
0
  6
Continuous
 62
     8
370
    15
100
AcDbLine
 10
215.2044941474
 20
49.9258445216
 30
0.0
 11
204.4909932454
 21
49.9258445216
 31
0.0
  0
LINE
  5
3E4
330
1F
100
AcDbEntity
  8
0
  6
Continuous
 62
     8
370
    15
100
AcDbLine
 10
180.2044949297
 20
49.9258445216
 30
0.0
 11
169.490992165
 21
49.9258445216
 31
0.0
  0
LINE
  5
3E5
330
1F
100
AcDbEntity
  8
0
  6
Continuous
 62
     8
370
    15
100
AcDbLine
 10
145.2044947807
 20
49.9258445216
 30
0.0
 11
134.490992016
 21
49.9258445216
 31
0.0
  0
LINE
  5
3E6
330
1F
100
AcDbEntity
  8
0
  6
Continuous
 62
     8
370
    15
100
AcDbLine
 10
106.8477435772
 20
49.9258445216
 30
0.0
 11
100.7566555206
 21
49.9258445216
 31
0.0
  0
LINE
  5
3E7
330
1F
100
AcDbEntity
  8
0
  6
Continuous
 62
     8
370
    15
100
AcDbLine
 10
320.8477451269
 20
-16.991768627
 30
0.0
 11
312.8477438156
 21
-16.991768627
 31
0.0
  0
LINE
  5
3E8
330
1F
100
AcDbEntity
  8
0
  6
Continuous
 62
     8
370
    15
100
AcDbLine
 10
285.1036517684
 20
-16.991768627
 30
0.0
 11
274.5918362205
 21
-16.991768627
 31
0.0
  0
LINE
  5
3E9
330
1F
100
AcDbEntity
  8
0
  6
Continuous
 62
     8
370
    15
100
AcDbLine
 10
250.1036553447
 20
-16.991768627
 30
0.0
 11
239.5918323461
 21
-16.991768627
 31
0.0
  0
LINE
  5
3EA
330
1F
100
AcDbEntity
  8
0
  6
Continuous
 62
     8
370
    15
100
AcDbLine
 10
215.10365473
 20
-16.991768627
 30
0.0
 11
204.5918326628
 21
-16.991768627
 31
0.0
  0
LINE
  5
3EB
330
1F
100
AcDbEntity
  8
0
  6
Continuous
 62
     8
370
    15
100
AcDbLine
 10
180.1036550467
 20
-16.991768627
 30
0.0
 11
169.5918320481
 21
-16.991768627
 31
0.0
  0
LINE
  5
3EC
330
1F
100
AcDbEntity
  8
0
  6
Continuous
 62
     8
370
    15
100
AcDbLine
 10
145.1036511723
 20
-16.991768627
 30
0.0
 11
134.5918356244
 21
-16.991768627
 31
0.0
  0
LINE
  5
3ED
330
1F
100
AcDbEntity
  8
0
  6
Continuous
 62
     8
370
    15
100
AcDbLine
 10
106.8477435772
 20
-16.991768627
 30
0.0
 11
98.8477422659
 21
-16.991768627
 31
0.0
  0
LINE
  5
3EE
330
1F
100
AcDbEntity
  8
0
  6
Continuous
 62
     8
370
    15
100
AcDbLine
 10
320.8477451269
 20
-17.8690297889
 30
0.0
 11
312.8477438156
 21
-17.8690297889
 31
0.0
  0
LINE
  5
3EF
330
1F
100
AcDbEntity
  8
0
  6
Continuous
 62
     8
370
    15
100
AcDbLine
 10
284.3863843743
 20
-17.8690297889
 30
0.0
 11
275.3091036145
 21
-17.8690297889
 31
0.0
  0
LINE
  5
3F0
330
1F
100
AcDbEntity
  8
0
  6
Continuous
 62
     8
370
    15
100
AcDbLine
 10
249.3863879506
 20
-17.8690297889
 30
0.0
 11
240.3090997402
 21
-17.8690297889
 31
0.0
  0
LINE
  5
3F1
330
1F
100
AcDbEntity
  8
0
  6
Continuous
 62
     8
370
    15
100
AcDbLine
 10
214.3863873359
 20
-17.8690297889
 30
0.0
 11
205.3091000569
 21
-17.8690297889
 31
0.0
  0
LINE
  5
3F2
330
1F
100
AcDbEntity
  8
0
  6
Continuous
 62
     8
370
    15
100
AcDbLine
 10
179.3863876526
 20
-17.8690297889
 30
0.0
 11
170.3090994422
 21
-17.8690297889
 31
0.0
  0
LINE
  5
3F3
330
1F
100
AcDbEntity
  8
0
  6
Continuous
 62
     8
370
    15
100
AcDbLine
 10
144.3863837783
 20
-17.8690297889
 30
0.0
 11
135.3091030185
 21
-17.8690297889
 31
0.0
  0
LINE
  5
3F4
330
1F
100
AcDbEntity
  8
0
  6
Continuous
 62
     8
370
    15
100
AcDbLine
 10
106.8477435772
 20
-17.8690297889
 30
0.0
 11
98.8477422659
 21
-17.8690297889
 31
0.0
  0
LINE
  5
3F5
330
1F
100
AcDbEntity
  8
0
  6
Continuous
 62
     8
370
    15
100
AcDbLine
 10
100.847746319
 20
307.7191220237
 30
0.0
 11
98.8477422659
 21
307.7191220237
 31
0.0
  0
LINE
  5
3F6
330
1F
100
AcDbEntity
  8
0
  6
Continuous
 62
     8
370
    15
100
AcDbLine
 10
100.847746319
 20
50.7191376401
 30
0.0
 11
98.8477422659
 21
50.7191376401
 31
0.0
  0
LINE
  5
3F7
330
1F
100
AcDbEntity
  8
0
  6
Continuous
 62
     8
370
    15
100
AcDbLine
 10
348.2977404062
 20
-109.7308664011
 30
0.0
 11
348.2977404062
 21
-109.270867555
 31
0.0
  0
LINE
  5
3F8
330
1F
100
AcDbEntity
  8
0
  6
Continuous
 62
     8
370
    15
100
AcDbLine
 10
357.7977373068
 20
-109.270867555
 30
0.0
 11
357.7977373068
 21
-109.7308664011
 31
0.0
  0
LWPOLYLINE
  5
3F9
330
1F
100
AcDbEntity
  8
0
  6
Continuous
 62
     8
370
    15
100
AcDbPolyline
 90
        6
 70
   128
 43
0.0
 10
290.1760517423
 20
377.0883189155
 10
290.8738060657
 20
377.1450029327
 10
291.7761086289
 20
377.3261414481
 10
292.4458189671
 20
377.6037202789
 10
292.8021653358
 20
377.9442416145
 10
292.8477405374
 20
378.1253801299
  0
LWPOLYLINE
  5
3FA
330
1F
100
AcDbEntity
  8
0
  6
Continuous
 62
     8
370
    15
100
AcDbPolyline
 90
        3
 70
   128
 43
0.0
 10
286.8477432792
 20
378.1253801299
 10
286.8933184807
 20
377.9442416145
 10
287.2190355126
 20
377.6226149513
  0
LWPOLYLINE
  5
3FB
330
1F
100
AcDbEntity
  8
0
  6
Continuous
 62
     8
370
    15
100
AcDbPolyline
 90
        6
 70
   128
 43
0.0
 10
129.5194356505
 20
377.0883189155
 10
128.8216813271
 20
377.1450029327
 10
127.9193787639
 20
377.3261414481
 10
127.2496684257
 20
377.6037202789
 10
126.893322057
 20
377.9442416145
 10
126.8477468554
 20
378.1253801299
  0
LWPOLYLINE
  5
3FC
330
1F
100
AcDbEntity
  8
0
  6
Continuous
 62
     8
370
    15
100
AcDbPolyline
 90
        3
 70
   128
 43
0.0
 10
132.8477441136
 20
378.1253801299
 10
132.8021689121
 20
377.9442416145
 10
132.4764518802
 20
377.6226149513
  0
LINE
  5
3FD
330
1F
100
AcDbEntity
  8
0
  6
Continuous
 62
     8
370
    15
100
AcDbLine
 10
298.8477452461
 20
368.6438904716
 30
0.0
 11
298.8477452461
 21
372.6872311546
 31
0.0
  0
LINE
  5
3FE
330
1F
100
AcDbEntity
  8
0
  6
Continuous
 62
     8
370
    15
100
AcDbLine
 10
298.8477452461
 20
366.6871891929
 30
0.0
 11
298.8477452461
 21
368.6438904716
 31
0.0
  0
LINE
  5
3FF
330
1F
100
AcDbEntity
  8
0
  6
Continuous
 62
     8
370
    15
100
AcDbLine
 10
120.8477421467
 20
368.6438904716
 30
0.0
 11
120.8477421467
 21
372.6872311546
 31
0.0
  0
LINE
  5
400
330
1F
100
AcDbEntity
  8
0
  6
Continuous
 62
     8
370
    15
100
AcDbLine
 10
120.8477421467
 20
366.6871891929
 30
0.0
 11
120.8477421467
 21
368.6438904716
 31
0.0
  0
ENDSEC
  0
SECTION
  2
OBJECTS
  0
DICTIONARY
  5
C
330
0
100
AcDbDictionary
281
     1
  3
ACAD_GROUP
350
D
  3
ACAD_LAYOUT
350
1A
  3
ACAD_MATERIAL
350
3B
  3
ACAD_MLEADERSTYLE
350
402
  3
ACAD_MLINESTYLE
350
17
  3
ACAD_PLOTSETTINGS
350
19
  3
ACAD_PLOTSTYLENAME
350
E
  3
ACAD_TABLESTYLE
350
401
  3
ACAD_VISUALSTYLE
350
2A
  0
DICTIONARY
  5
D
102
{ACAD_REACTORS
330
C
102
}
330
C
100
AcDbDictionary
281
     1
  0
DICTIONARY
  5
1A
102
{ACAD_REACTORS
330
C
102
}
330
C
100
AcDbDictionary
281
     1
  3
Layout1
350
1E
  3
Layout2
350
26
  3
Model
350
22
  0
DICTIONARY
  5
3B
102
{ACAD_REACTORS
330
C
102
}
330
C
100
AcDbDictionary
281
     1
  3
ByBlock
350
3D
  3
ByLayer
350
3C
  3
Global
350
3E
  0
DICTIONARY
  5
402
102
{ACAD_REACTORS
330
C
102
}
330
C
100
AcDbDictionary
281
     1
  0
DICTIONARY
  5
17
102
{ACAD_REACTORS
330
C
102
}
330
C
100
AcDbDictionary
281
     1
  3
Standard
350
18
  0
DICTIONARY
  5
19
102
{ACAD_REACTORS
330
C
102
}
330
C
100
AcDbDictionary
281
     1
  0
ACDBDICTIONARYWDFLT
  5
E
102
{ACAD_REACTORS
330
C
102
}
330
C
100
AcDbDictionary
281
     1
  3
Normal
350
F
100
AcDbDictionaryWithDefault
340
F
  0
DICTIONARY
  5
401
102
{ACAD_REACTORS
330
C
102
}
330
C
100
AcDbDictionary
281
     1
  0
DICTIONARY
  5
2A
102
{ACAD_REACTORS
330
C
102
}
330
C
100
AcDbDictionary
281
     1
  3
2dWireframe
350
2F
  3
3D Hidden
350
31
  3
3dWireframe
350
30
  3
Basic
350
32
  3
Brighten
350
36
  3
ColorChange
350
3A
  3
Conceptual
350
34
  3
Dim
350
35
  3
Facepattern
350
39
  3
Flat
350
2B
  3
FlatWithEdges
350
2C
  3
Gouraud
350
2D
  3
GouraudWithEdges
350
2E
  3
Linepattern
350
38
  3
Realistic
350
33
  3
Thicken
350
37
  0
LAYOUT
  5
1E
102
{ACAD_REACTORS
330
1A
102
}
330
1A
100
AcDbPlotSettings
  1

  2
none_device
  4

  6

 40
0.0
 41
0.0
 42
0.0
 43
0.0
 44
0.0
 45
0.0
 46
0.0
 47
0.0
 48
0.0
 49
0.0
140
0.0
141
0.0
142
1.0
143
1.0
 70
   688
 72
     0
 73
     0
 74
     5
  7

 75
    16
 76
     0
 77
     2
 78
   300
147
1.0
148
0.0
149
0.0
100
AcDbLayout
  1
Layout1
 70
     1
 71
     1
 10
0.0
 20
0.0
 11
420.0
 21
297.0
 12
0.0
 22
0.0
 32
0.0
 14
1.0000000000E+20
 24
1.0000000000E+20
 34
1.0000000000E+20
 15
-1.0000000000E+20
 25
-1.0000000000E+20
 35
-1.0000000000E+20
146
0.0
 13
0.0
 23
0.0
 33
0.0
 16
1.0
 26
0.0
 36
0.0
 17
0.0
 27
1.0
 37
0.0
 76
     0
330
1B
  0
LAYOUT
  5
26
102
{ACAD_REACTORS
330
1A
102
}
330
1A
100
AcDbPlotSettings
  1

  2
none_device
  4

  6

 40
0.0
 41
0.0
 42
0.0
 43
0.0
 44
0.0
 45
0.0
 46
0.0
 47
0.0
 48
0.0
 49
0.0
140
0.0
141
0.0
142
1.0
143
1.0
 70
   688
 72
     0
 73
     0
 74
     5
  7

 75
    16
 76
     0
 77
     2
 78
   300
147
1.0
148
0.0
149
0.0
100
AcDbLayout
  1
Layout2
 70
     1
 71
     2
 10
0.0
 20
0.0
 11
0.0
 21
0.0
 12
0.0
 22
0.0
 32
0.0
 14
0.0
 24
0.0
 34
0.0
 15
0.0
 25
0.0
 35
0.0
146
0.0
 13
0.0
 23
0.0
 33
0.0
 16
1.0
 26
0.0
 36
0.0
 17
0.0
 27
1.0
 37
0.0
 76
     0
330
23
  0
LAYOUT
  5
22
102
{ACAD_REACTORS
330
1A
102
}
330
1A
100
AcDbPlotSettings
  1

  2
none_device
  4

  6

 40
0.0
 41
0.0
 42
0.0
 43
0.0
 44
0.0
 45
0.0
 46
0.0
 47
0.0
 48
0.0
 49
0.0
140
0.0
141
0.0
142
1.0
143
1.0
 70
  1712
 72
     0
 73
     0
 74
     0
  7

 75
     0
 76
     0
 77
     2
 78
   300
147
1.0
148
0.0
149
0.0
100
AcDbLayout
  1
Model
 70
     1
 71
     0
 10
0.0
 20
0.0
 11
420.0
 21
297.0
 12
0.0
 22
0.0
 32
0.0
 14
0.0
 24
0.0
 34
0.0
 15
420.0
 25
297.0
 35
0.0
146
0.0
 13
0.0
 23
0.0
 33
0.0
 16
1.0
 26
0.0
 36
0.0
 17
0.0
 27
1.0
 37
0.0
 76
     0
330
1F
331
29
  0
MATERIAL
  5
3D
102
{ACAD_REACTORS
330
3B
102
}
330
3B
100
AcDbMaterial
  1
ByBlock
 72
     1
 94
      127
  0
MATERIAL
  5
3C
102
{ACAD_REACTORS
330
3B
102
}
330
3B
100
AcDbMaterial
  1
ByLayer
 72
     1
 94
      127
  0
MATERIAL
  5
3E
102
{ACAD_REACTORS
330
3B
102
}
330
3B
100
AcDbMaterial
  1
Global
 72
     1
 94
      127
  0
MLINESTYLE
  5
18
102
{ACAD_REACTORS
330
17
102
}
330
17
100
AcDbMlineStyle
  2
Standard
 70
     0
  3

 62
   256
 51
90.0
 52
90.0
 71
     2
 49
0.5
 62
   256
  6
BYLAYER
 49
-0.5
 62
   256
  6
BYLAYER
  0
ACDBPLACEHOLDER
  5
F
102
{ACAD_REACTORS
330
E
102
}
330
E
  0
VISUALSTYLE
  5
2F
102
{ACAD_REACTORS
330
2A
102
}
330
2A
100
AcDbVisualStyle
  2
2dWireframe
 70
     4
 71
     0
 72
     2
 73
     0
 90
        0
 40
-0.6
 41
-30.0
 62
     5
 63
     7
421
 16777215
 74
     1
 91
        4
 64
     7
 65
   257
 75
     1
175
     1
 42
1.0
 92
        0
 66
   257
 43
1.0
 76
     1
 77
     6
 78
     2
 67
     7
 79
     5
170
     0
171
     0
290
     0
174
     0
 93
        1
 44
0.0
173
     0
291
     0
 45
0.0
  0
VISUALSTYLE
  5
31
102
{ACAD_REACTORS
330
2A
102
}
330
2A
100
AcDbVisualStyle
  2
3D Hidden
 70
     6
 71
     1
 72
     2
 73
     2
 90
        0
 40
-0.6
 41
-30.0
 62
     5
 63
     7
421
 16777215
 74
     2
 91
        2
 64
     7
 65
   257
 75
     2
175
     1
 42
40.0
 92
        0
 66
   257
 43
1.0
 76
     1
 77
     6
 78
     2
 67
     7
 79
     3
170
     0
171
     0
290
     0
174
     0
 93
        1
 44
0.0
173
     0
291
     0
 45
0.0
  0
VISUALSTYLE
  5
30
102
{ACAD_REACTORS
330
2A
102
}
330
2A
100
AcDbVisualStyle
  2
3dWireframe
 70
     5
 71
     0
 72
     2
 73
     0
 90
        0
 40
-0.6
 41
-30.0
 62
     5
 63
     7
421
 16777215
 74
     1
 91
        4
 64
     7
 65
   257
 75
     1
175
     1
 42
1.0
 92
        0
 66
   257
 43
1.0
 76
     1
 77
     6
 78
     2
 67
     7
 79
     5
170
     0
171
     0
290
     0
174
     0
 93
        1
 44
0.0
173
     0
291
     0
 45
0.0
  0
VISUALSTYLE
  5
32
102
{ACAD_REACTORS
330
2A
102
}
330
2A
100
AcDbVisualStyle
  2
Basic
 70
     7
 71
     1
 72
     0
 73
     1
 90
        0
 40
-0.6
 41
-30.0
 62
     5
 63
     7
421
 16777215
 74
     0
 91
        4
 64
     7
 65
   257
 75
     1
175
     1
 42
1.0
 92
        8
 66
     7
 43
1.0
 76
     1
 77
     6
 78
     2
 67
     7
 79
     5
170
     0
171
     0
290
     0
174
     0
 93
        1
 44
0.0
173
     0
291
     1
 45
0.0
  0
VISUALSTYLE
  5
36
102
{ACAD_REACTORS
330
2A
102
}
330
2A
100
AcDbVisualStyle
  2
Brighten
 70
    12
 71
     2
 72
     2
 73
     0
 90
        0
 40
-0.6
 41
-30.0
 62
     5
 63
     7
421
 16777215
 74
     1
 91
        4
 64
     7
 65
   257
 75
     1
175
     1
 42
1.0
 92
        8
 66
     7
 43
1.0
 76
     1
 77
     6
 78
     2
 67
     7
 79
     5
170
     0
171
     0
290
     0
174
     0
 93
        1
 44
50.0
173
     0
291
     1
 45
0.0
  0
VISUALSTYLE
  5
3A
102
{ACAD_REACTORS
330
2A
102
}
330
2A
100
AcDbVisualStyle
  2
ColorChange
 70
    16
 71
     2
 72
     2
 73
     3
 90
        0
 40
-0.6
 41
-30.0
 62
     5
 63
     8
421
  8421504
 74
     1
 91
        4
 64
     7
 65
   257
 75
     1
175
     1
 42
1.0
 92
        8
 66
     8
424
  8421504
 43
1.0
 76
     1
 77
     6
 78
     2
 67
     7
 79
     5
170
     0
171
     0
290
     0
174
     0
 93
        1
 44
0.0
173
     0
291
     1
 45
0.0
  0
VISUALSTYLE
  5
34
102
{ACAD_REACTORS
330
2A
102
}
330
2A
100
AcDbVisualStyle
  2
Conceptual
 70
     9
 71
     3
 72
     2
 73
     0
 90
        0
 40
-0.6
 41
-30.0
 62
     5
 63
     7
421
 16777215
 74
     2
 91
        2
 64
     7
 65
   257
 75
     1
175
     1
 42
40.0
 92
        8
 66
     7
 43
1.0
 76
     1
 77
     6
 78
     2
 67
     7
 79
     3
170
     0
171
     0
290
     0
174
     0
 93
        1
 44
0.0
173
     0
291
     0
 45
0.0
  0
VISUALSTYLE
  5
35
102
{ACAD_REACTORS
330
2A
102
}
330
2A
100
AcDbVisualStyle
  2
Dim
 70
    11
 71
     2
 72
     2
 73
     0
 90
        0
 40
-0.6
 41
-30.0
 62
     5
 63
     7
421
 16777215
 74
     1
 91
        4
 64
     7
 65
   257
 75
     1
175
     1
 42
1.0
 92
        8
 66
     7
 43
1.0
 76
     1
 77
     6
 78
     2
 67
     7
 79
     5
170
     0
171
     0
290
     0
174
     0
 93
        1
 44
-50.0
173
     0
291
     1
 45
0.0
  0
VISUALSTYLE
  5
39
102
{ACAD_REACTORS
330
2A
102
}
330
2A
100
AcDbVisualStyle
  2
Facepattern
 70
    15
 71
     2
 72
     2
 73
     0
 90
        0
 40
-0.6
 41
-30.0
 62
     5
 63
     7
421
 16777215
 74
     1
 91
        4
 64
     7
 65
   257
 75
     1
175
     1
 42
1.0
 92
        8
 66
     7
 43
1.0
 76
     1
 77
     6
 78
     2
 67
     7
 79
     5
170
     0
171
     0
290
     0
174
     0
 93
        1
 44
0.0
173
     0
291
     1
 45
0.0
  0
VISUALSTYLE
  5
2B
102
{ACAD_REACTORS
330
2A
102
}
330
2A
100
AcDbVisualStyle
  2
Flat
 70
     0
 71
     2
 72
     1
 73
     1
 90
        2
 40
-0.6
 41
30.0
 62
     5
 63
     7
421
 16777215
 74
     0
 91
        4
 64
     7
 65
   257
 75
     1
175
     1
 42
1.0
 92
        8
 66
     7
 43
1.0
 76
     1
 77
     6
 78
     2
 67
     7
 79
     5
170
     0
171
     0
290
     0
174
     0
 93
       13
 44
0.0
173
     0
291
     1
 45
0.0
  0
VISUALSTYLE
  5
2C
102
{ACAD_REACTORS
330
2A
102
}
330
2A
100
AcDbVisualStyle
  2
FlatWithEdges
 70
     1
 71
     2
 72
     1
 73
     1
 90
        2
 40
-0.6
 41
30.0
 62
     5
 63
     7
421
 16777215
 74
     1
 91
        4
 64
     7
 65
   257
 75
     1
175
     1
 42
1.0
 92
        0
 66
   257
 43
1.0
 76
     1
 77
     6
 78
     2
 67
     7
 79
     5
170
     0
171
     0
290
     0
174
     0
 93
       13
 44
0.0
173
     0
291
     1
 45
0.0
  0
VISUALSTYLE
  5
2D
102
{ACAD_REACTORS
330
2A
102
}
330
2A
100
AcDbVisualStyle
  2
Gouraud
 70
     2
 71
     2
 72
     2
 73
     1
 90
        2
 40
-0.6
 41
30.0
 62
     5
 63
     7
421
 16777215
 74
     0
 91
        4
 64
     7
 65
   257
 75
     1
175
     1
 42
1.0
 92
        0
 66
     7
 43
1.0
 76
     1
 77
     6
 78
     2
 67
     7
 79
     5
170
     0
171
     0
290
     0
174
     0
 93
       13
 44
0.0
173
     0
291
     1
 45
0.0
  0
VISUALSTYLE
  5
2E
102
{ACAD_REACTORS
330
2A
102
}
330
2A
100
AcDbVisualStyle
  2
GouraudWithEdges
 70
     3
 71
     2
 72
     2
 73
     1
 90
        2
 40
-0.6
 41
30.0
 62
     5
 63
     7
421
 16777215
 74
     1
 91
        4
 64
     7
 65
   257
 75
     1
175
     1
 42
1.0
 92
        0
 66
   257
 43
1.0
 76
     1
 77
     6
 78
     2
 67
     7
 79
     5
170
     0
171
     0
290
     0
174
     0
 93
       13
 44
0.0
173
     0
291
     1
 45
0.0
  0
VISUALSTYLE
  5
38
102
{ACAD_REACTORS
330
2A
102
}
330
2A
100
AcDbVisualStyle
  2
Linepattern
 70
    14
 71
     2
 72
     2
 73
     0
 90
        0
 40
-0.6
 41
-30.0
 62
     5
 63
     7
421
 16777215
 74
     1
 91
        4
 64
     7
 65
   257
 75
     7
175
     7
 42
1.0
 92
        8
 66
     7
 43
1.0
 76
     1
 77
     6
 78
     2
 67
     7
 79
     5
170
     0
171
     0
290
     0
174
     0
 93
        1
 44
0.0
173
     0
291
     1
 45
0.0
  0
VISUALSTYLE
  5
33
102
{ACAD_REACTORS
330
2A
102
}
330
2A
100
AcDbVisualStyle
  2
Realistic
 70
     8
 71
     2
 72
     2
 73
     0
 90
        0
 40
-0.6
 41
-30.0
 62
     5
 63
     7
421
 16777215
 74
     1
 91
        0
 64
     7
 65
   257
 75
     1
175
     1
 42
1.0
 92
        8
 66
     8
424
  7895160
 43
1.0
 76
     1
 77
     6
 78
     2
 67
     7
 79
     5
170
     0
171
     0
290
     0
174
     0
 93
       13
 44
0.0
173
     0
291
     0
 45
0.0
  0
VISUALSTYLE
  5
37
102
{ACAD_REACTORS
330
2A
102
}
330
2A
100
AcDbVisualStyle
  2
Thicken
 70
    13
 71
     2
 72
     2
 73
     0
 90
        0
 40
-0.6
 41
-30.0
 62
     5
 63
     7
421
 16777215
 74
     1
 91
        4
 64
     7
 65
   257
 75
     1
175
     1
 42
1.0
 92
       12
 66
     7
 43
1.0
 76
     1
 77
     6
 78
     2
 67
     7
 79
     5
170
     0
171
     0
290
     0
174
     0
 93
        1
 44
0.0
173
     0
291
     1
 45
0.0
  0
ENDSEC
  0
EOF
