  0
SECTION
  2
HEADER
  9
$ACADVER
  1
AC1015
  9
$ACADMAINTVER
 70
     6
  9
$DWGCODEPAGE
  3
ANSI_1252
  9
$INSBASE
 10
0.0
 20
0.0
 30
0.0
  9
$EXTMIN
 10
0.0
 20
0.0
 30
0.0
  9
$EXTMAX
 10
420.0
 20
297.0
 30
0.0
  9
$LIMMIN
 10
0.0
 20
0.0
  9
$LIMMAX
 10
420.0
 20
297.0
  9
$ORTHOMODE
 70
     0
  9
$REGENMODE
 70
     1
  9
$FILLMODE
 70
     1
  9
$QTEXTMODE
 70
     0
  9
$MIRRTEXT
 70
     1
  9
$LTSCALE
 40
1.0
  9
$ATTMODE
 70
     1
  9
$TEXTSIZE
 40
3.5
  9
$TRACEWID
 40
1.0
  9
$TEXTSTYLE
  7
Standard
  9
$CLAYER
  8
0
  9
$CELTYPE
  6
ByLayer
  9
$CECOLOR
 62
   256
  9
$CELTSCALE
 40
1.0
  9
$DISPSILH
 70
     0
  9
$DIMSCALE
 40
1.0
  9
$DIMASZ
 40
3.302
  9
$DIMEXO
 40
1.0
  9
$DIMDLI
 40
3.75
  9
$DIMRND
 40
0.0
  9
$DIMDLE
 40
0.0
  9
$DIMEXE
 40
1.0
  9
$DIMTP
 40
0.0
  9
$DIMTM
 40
0.0
  9
$DIMTXT
 40
3.5
  9
$DIMCEN
 40
2.5
  9
$DIMTSZ
 40
0.0
  9
$DIMTOL
 70
     0
  9
$DIMLIM
 70
     0
  9
$DIMTIH
 70
     1
  9
$DIMTOH
 70
     1
  9
$DIMSE1
 70
     0
  9
$DIMSE2
 70
     0
  9
$DIMTAD
 70
     1
  9
$DIMZIN
 70
     0
  9
$DIMBLK
  1

  9
$DIMASO
 70
     1
  9
$DIMSHO
 70
     1
  9
$DIMPOST
  1

  9
$DIMAPOST
  1

  9
$DIMALT
 70
     0
  9
$DIMALTD
 70
     3
  9
$DIMALTF
 40
0.0393700787
  9
$DIMLFAC
 40
5.0
  9
$DIMTOFL
 70
     1
  9
$DIMTVP
 40
0.0
  9
$DIMTIX
 70
     0
  9
$DIMSOXD
 70
     0
  9
$DIMSAH
 70
     0
  9
$DIMBLK1
  1

  9
$DIMBLK2
  1

  9
$DIMSTYLE
  2
ISO-25
  9
$DIMCLRD
 70
     0
  9
$DIMCLRE
 70
     0
  9
$DIMCLRT
 70
     0
  9
$DIMTFAC
 40
1.0
  9
$DIMGAP
 40
5.0
  9
$DIMJUST
 70
     0
  9
$DIMSD1
 70
     0
  9
$DIMSD2
 70
     0
  9
$DIMTOLJ
 70
     0
  9
$DIMTZIN
 70
     0
  9
$DIMALTZ
 70
     0
  9
$DIMALTTZ
 70
     0
  9
$DIMUPT
 70
     0
  9
$DIMDEC
 70
     1
  9
$DIMTDEC
 70
     1
  9
$DIMALTU
 70
     2
  9
$DIMALTTD
 70
     3
  9
$DIMTXSTY
  7
Standard
  9
$DIMAUNIT
 70
     0
  9
$DIMADEC
 70
     1
  9
$DIMALTRND
 40
0.0
  9
$DIMAZIN
 70
     0
  9
$DIMDSEP
 70
    44
  9
$DIMATFIT
 70
     3
  9
$DIMFRAC
 70
     0
  9
$DIMLDRBLK
  1

  9
$DIMLUNIT
 70
     2
  9
$DIMLWD
 70
    -2
  9
$DIMLWE
 70
    -2
  9
$DIMTMOVE
 70
     0
  9
$LUNITS
 70
     2
  9
$LUPREC
 70
     1
  9
$SKETCHINC
 40
1.0
  9
$FILLETRAD
 40
10.0
  9
$AUNITS
 70
     0
  9
$AUPREC
 70
     1
  9
$MENU
  1
.
  9
$ELEVATION
 40
0.0
  9
$PELEVATION
 40
0.0
  9
$THICKNESS
 40
0.0
  9
$LIMCHECK
 70
     0
  9
$CHAMFERA
 40
0.0
  9
$CHAMFERB
 40
0.0
  9
$CHAMFERC
 40
0.0
  9
$CHAMFERD
 40
0.0
  9
$SKPOLY
 70
     0
  9
$TDCREATE
 40
2460438.642387234
  9
$TDUCREATE
 40
2460438.600720567
  9
$TDUPDATE
 40
2460438.642387627
  9
$TDUUPDATE
 40
2460438.600720961
  9
$TDINDWG
 40
0.0000000116
  9
$TDUSRTIMER
 40
0.0000000116
  9
$USRTIMER
 70
     1
  9
$ANGBASE
 50
0.0
  9
$ANGDIR
 70
     0
  9
$PDMODE
 70
     0
  9
$PDSIZE
 40
-1.0
  9
$PLINEWID
 40
0.0
  9
$SPLFRAME
 70
     0
  9
$SPLINETYPE
 70
     6
  9
$SPLINESEGS
 70
     8
  9
$HANDSEED
  5
40E
  9
$SURFTAB1
 70
     6
  9
$SURFTAB2
 70
     6
  9
$SURFTYPE
 70
     6
  9
$SURFU
 70
     6
  9
$SURFV
 70
     6
  9
$UCSBASE
  2

  9
$UCSNAME
  2

  9
$UCSORG
 10
0.0
 20
0.0
 30
0.0
  9
$UCSXDIR
 10
1.0
 20
0.0
 30
0.0
  9
$UCSYDIR
 10
0.0
 20
1.0
 30
0.0
  9
$UCSORTHOREF
  2

  9
$UCSORTHOVIEW
 70
     0
  9
$UCSORGTOP
 10
0.0
 20
0.0
 30
0.0
  9
$UCSORGBOTTOM
 10
0.0
 20
0.0
 30
0.0
  9
$UCSORGLEFT
 10
0.0
 20
0.0
 30
0.0
  9
$UCSORGRIGHT
 10
0.0
 20
0.0
 30
0.0
  9
$UCSORGFRONT
 10
0.0
 20
0.0
 30
0.0
  9
$UCSORGBACK
 10
0.0
 20
0.0
 30
0.0
  9
$PUCSBASE
  2

  9
$PUCSNAME
  2

  9
$PUCSORG
 10
0.0
 20
0.0
 30
0.0
  9
$PUCSXDIR
 10
1.0
 20
0.0
 30
0.0
  9
$PUCSYDIR
 10
0.0
 20
1.0
 30
0.0
  9
$PUCSORTHOREF
  2

  9
$PUCSORTHOVIEW
 70
     0
  9
$PUCSORGTOP
 10
0.0
 20
0.0
 30
0.0
  9
$PUCSORGBOTTOM
 10
0.0
 20
0.0
 30
0.0
  9
$PUCSORGLEFT
 10
0.0
 20
0.0
 30
0.0
  9
$PUCSORGRIGHT
 10
0.0
 20
0.0
 30
0.0
  9
$PUCSORGFRONT
 10
0.0
 20
0.0
 30
0.0
  9
$PUCSORGBACK
 10
0.0
 20
0.0
 30
0.0
  9
$USERI1
 70
     0
  9
$USERI2
 70
     0
  9
$USERI3
 70
     0
  9
$USERI4
 70
     0
  9
$USERI5
 70
     0
  9
$USERR1
 40
0.0
  9
$USERR2
 40
0.0
  9
$USERR3
 40
0.0
  9
$USERR4
 40
0.0
  9
$USERR5
 40
0.0
  9
$WORLDVIEW
 70
     1
  9
$SHADEDGE
 70
     3
  9
$SHADEDIF
 70
    70
  9
$TILEMODE
 70
     1
  9
$MAXACTVP
 70
    64
  9
$PINSBASE
 10
0.0
 20
0.0
 30
0.0
  9
$PLIMCHECK
 70
     0
  9
$PEXTMIN
 10
1.0000000000E+20
 20
1.0000000000E+20
 30
1.0000000000E+20
  9
$PEXTMAX
 10
-1.0000000000E+20
 20
-1.0000000000E+20
 30
-1.0000000000E+20
  9
$PLIMMIN
 10
0.0
 20
0.0
  9
$PLIMMAX
 10
420.0
 20
297.0
  9
$UNITMODE
 70
     0
  9
$VISRETAIN
 70
     1
  9
$PLINEGEN
 70
     0
  9
$PSLTSCALE
 70
     1
  9
$TREEDEPTH
 70
  3020
  9
$CMLSTYLE
  2
Standard
  9
$CMLJUST
 70
     0
  9
$CMLSCALE
 40
20.0
  9
$PROXYGRAPHICS
 70
     1
  9
$MEASUREMENT
 70
     1
  9
$CELWEIGHT
370
    -1
  9
$ENDCAPS
280
     0
  9
$JOINSTYLE
280
     0
  9
$LWDISPLAY
290
     1
  9
$INSUNITS
 70
     4
  9
$HYPERLINKBASE
  1

  9
$STYLESHEET
  1

  9
$XEDIT
290
     1
  9
$CEPSNTYPE
380
     0
  9
$PSTYLEMODE
290
     1
  9
$FINGERPRINTGUID
  2
{7aa2fc9f-5528-4fce-b289-2f9860b98011}
  9
$VERSIONGUID
  2
{FAEB1C32-E019-11D5-929B-00C0DF256EC4}
  9
$EXTNAMES
290
     1
  9
$PSVPSCALE
 40
0.0
  9
$OLESTARTUP
290
     0
  0
ENDSEC
  0
SECTION
  2
CLASSES
  0
CLASS
  1
ACDBDICTIONARYWDFLT
  2
AcDbDictionaryWithDefault
  3
ObjectDBX Classes
 90
        0
280
     0
281
     0
  0
CLASS
  1
VISUALSTYLE
  2
AcDbVisualStyle
  3
ObjectDBX Classes
 90
     4095
280
     0
281
     0
  0
CLASS
  1
MATERIAL
  2
AcDbMaterial
  3
ObjectDBX Classes
 90
     1153
280
     0
281
     0
  0
CLASS
  1
SCALE
  2
AcDbScale
  3
ObjectDBX Classes
 90
     1153
280
     0
281
     0
  0
CLASS
  1
TABLESTYLE
  2
AcDbTableStyle
  3
ObjectDBX Classes
 90
     4095
280
     0
281
     0
  0
CLASS
  1
MLEADERSTYLE
  2
AcDbMLeaderStyle
  3
ACDB_MLEADERSTYLE_CLASS
 90
     4095
280
     0
281
     0
  0
CLASS
  1
SUN
  2
AcDbSun
  3
SCENEOE
 90
     1153
280
     0
281
     0
  0
CLASS
  1
ACDBPLACEHOLDER
  2
AcDbPlaceHolder
  3
ObjectDBX Classes
 90
        0
280
     0
281
     0
  0
CLASS
  1
LAYOUT
  2
AcDbLayout
  3
ObjectDBX Classes
 90
        0
280
     0
281
     0
  0
ENDSEC
  0
SECTION
  2
TABLES
  0
TABLE
  2
VPORT
  5
8
330
0
100
AcDbSymbolTable
 70
     1
  0
VPORT
  5
29
330
8
100
AcDbSymbolTableRecord
100
AcDbViewportTableRecord
  2
*Active
 70
     0
 10
0.0
 20
0.0
 11
1.0
 21
1.0
 12
210.0
 22
148.5
 13
0.0
 23
0.0
 14
10.0
 24
10.0
 15
10.0
 25
10.0
 16
0.0
 26
0.0
 36
1.0
 17
0.0
 27
0.0
 37
0.0
 40
297.0
 41
1.4141414141
 42
50.0
 43
0.0
 44
0.0
 50
0.0
 51
0.0
 71
     0
 72
  2000
 73
     1
 74
     3
 75
     0
 76
     0
 77
     0
 78
     0
281
     0
 65
     1
110
0.0
120
0.0
130
0.0
111
1.0
121
0.0
131
0.0
112
0.0
122
1.0
132
0.0
 79
     0
146
0.0
  0
ENDTAB
  0
TABLE
  2
LTYPE
  5
5
330
0
100
AcDbSymbolTable
 70
     6
  0
LTYPE
  5
14
330
5
100
AcDbSymbolTableRecord
100
AcDbLinetypeTableRecord
  2
ByBlock
 70
     0
  3

 72
    65
 73
     0
 40
0.0
  0
LTYPE
  5
15
330
5
100
AcDbSymbolTableRecord
100
AcDbLinetypeTableRecord
  2
ByLayer
 70
     0
  3

 72
    65
 73
     0
 40
0.0
  0
LTYPE
  5
16
330
5
100
AcDbSymbolTableRecord
100
AcDbLinetypeTableRecord
  2
Continuous
 70
     0
  3
Solid line
 72
    65
 73
     0
 40
0.0
  0
LTYPE
  5
6E
330
5
100
AcDbSymbolTableRecord
100
AcDbLinetypeTableRecord
  2
HIDDEN
 70
     0
  3
Hidden __ __ __ __ __ __ __ __ __ __ __ __ __ __
 72
    65
 73
     2
 40
1.905
 49
1.27
 74
     0
 49
-0.635
 74
     0
  0
LTYPE
  5
6F
330
5
100
AcDbSymbolTableRecord
100
AcDbLinetypeTableRecord
  2
PHANTOM
 70
     0
  3
Phantom ______  __  __  ______  __  __  ______
 72
    65
 73
     6
 40
12.7
 49
6.35
 74
     0
 49
-1.27
 74
     0
 49
1.27
 74
     0
 49
-1.27
 74
     0
 49
1.27
 74
     0
 49
-1.27
 74
     0
  0
LTYPE
  5
70
330
5
100
AcDbSymbolTableRecord
100
AcDbLinetypeTableRecord
  2
CENTER
 70
     0
  3
Center ____ _ ____ _ ____ _ ____ _ ____ _ ____
 72
    65
 73
     4
 40
10.16
 49
6.35
 74
     0
 49
-1.27
 74
     0
 49
1.27
 74
     0
 49
-1.27
 74
     0
  0
LTYPE
  5
71
330
5
100
AcDbSymbolTableRecord
100
AcDbLinetypeTableRecord
  2
CENTERX2
 70
     0
  3
Center (2x) ________  __  ________  __  _____
 72
    65
 73
     4
 40
20.32
 49
12.7
 74
     0
 49
-2.54
 74
     0
 49
2.54
 74
     0
 49
-2.54
 74
     0
  0
LTYPE
  5
72
330
5
100
AcDbSymbolTableRecord
100
AcDbLinetypeTableRecord
  2
DOT2
 70
     0
  3
Dot (.5x) ........................................
 72
    65
 73
     2
 40
0.635
 49
0.0
 74
     0
 49
-0.635
 74
     0
  0
ENDTAB
  0
TABLE
  2
LAYER
  5
2
330
0
100
AcDbSymbolTable
 70
     5
  0
LAYER
  5
10
330
2
100
AcDbSymbolTableRecord
100
AcDbLayerTableRecord
  2
0
 70
     0
 62
     7
  6
Continuous
370
    -3
390
F
  0
LAYER
  5
73
330
2
100
AcDbSymbolTableRecord
100
AcDbLayerTableRecord
  2
FORMAT
 70
     0
 62
     7
  6
Continuous
370
    -3
390
F
  0
LAYER
  5
74
330
2
100
AcDbSymbolTableRecord
100
AcDbLayerTableRecord
  2
SLD-0
 70
     0
 62
     1
  6
Continuous
370
    -3
390
F
  0
LAYER
  5
75
330
2
100
AcDbSymbolTableRecord
100
AcDbLayerTableRecord
  2
WATERMARK
 70
     0
 62
    20
  6
Continuous
370
    -3
390
F
  0
LAYER
  5
76
330
2
100
AcDbSymbolTableRecord
100
AcDbLayerTableRecord
  2
PRIMARY
 70
     0
 62
   179
  6
Continuous
370
    -3
390
F
  0
ENDTAB
  0
TABLE
  2
STYLE
  5
3
330
0
100
AcDbSymbolTable
 70
     1
  0
STYLE
  5
11
330
3
100
AcDbSymbolTableRecord
100
AcDbTextStyleTableRecord
  2
Standard
 70
     0
 40
0.0
 41
1.0
 50
0.0
 71
     0
 42
3.5
  3
txt
  4

  0
ENDTAB
  0
TABLE
  2
VIEW
  5
6
330
0
100
AcDbSymbolTable
 70
     0
  0
ENDTAB
  0
TABLE
  2
UCS
  5
7
330
0
100
AcDbSymbolTable
 70
     0
  0
ENDTAB
  0
TABLE
  2
APPID
  5
9
330
0
100
AcDbSymbolTable
 70
     1
  0
APPID
  5
12
330
9
100
AcDbSymbolTableRecord
100
AcDbRegAppTableRecord
  2
ACAD
 70
     0
  0
ENDTAB
  0
TABLE
  2
DIMSTYLE
  5
A
330
0
100
AcDbSymbolTable
 70
     1
100
AcDbDimStyleTable
  0
DIMSTYLE
105
27
330
A
100
AcDbSymbolTableRecord
100
AcDbDimStyleTableRecord
  2
ISO-25
 70
     0
 41
2.5
 42
0.625
 43
3.75
 44
1.25
 73
     0
 74
     0
 77
     1
 78
     8
140
2.5
141
2.5
143
0.0393700787
147
0.625
171
     3
172
     1
178
     0
271
     2
272
     2
274
     3
278
    44
283
     0
284
     8
340
11
  0
ENDTAB
  0
TABLE
  2
BLOCK_RECORD
  5
1
330
0
100
AcDbSymbolTable
 70
     2
  0
BLOCK_RECORD
  5
1F
330
1
100
AcDbSymbolTableRecord
100
AcDbBlockTableRecord
  2
*Model_Space
340
22
  0
BLOCK_RECORD
  5
1B
330
1
100
AcDbSymbolTableRecord
100
AcDbBlockTableRecord
  2
*Paper_Space
340
1E
  0
BLOCK_RECORD
  5
23
330
1
100
AcDbSymbolTableRecord
100
AcDbBlockTableRecord
  2
*Paper_Space0
340
26
  0
BLOCK_RECORD
  5
77
330
1
100
AcDbSymbolTableRecord
100
AcDbBlockTableRecord
  2
Falcon Logo 2020
340
0
  0
ENDTAB
  0
ENDSEC
  0
SECTION
  2
BLOCKS
  0
BLOCK
  5
20
330
1F
100
AcDbEntity
  8
0
100
AcDbBlockBegin
  2
*Model_Space
 70
     0
 10
0.0
 20
0.0
 30
0.0
  3
*Model_Space
  1

  0
ENDBLK
  5
21
330
1F
100
AcDbEntity
  8
0
100
AcDbBlockEnd
  0
BLOCK
  5
1C
330
1B
100
AcDbEntity
 67
     1
  8
0
100
AcDbBlockBegin
  2
*Paper_Space
 70
     0
 10
0.0
 20
0.0
 30
0.0
  3
*Paper_Space
  1

  0
ENDBLK
  5
1D
330
1B
100
AcDbEntity
 67
     1
  8
0
100
AcDbBlockEnd
  0
BLOCK
  5
24
330
23
100
AcDbEntity
  8
0
100
AcDbBlockBegin
  2
*Paper_Space0
 70
     0
 10
0.0
 20
0.0
 30
0.0
  3
*Paper_Space0
  1

  0
ENDBLK
  5
25
330
23
100
AcDbEntity
  8
0
100
AcDbBlockEnd
  0
BLOCK
  5
78
330
77
100
AcDbEntity
  8
0
100
AcDbBlockBegin
  2
Falcon Logo 2020
 70
     0
 10
0.0
 20
0.0
 30
0.0
  3
Falcon Logo 2020
  1

  0
LINE
  5
7A
330
77
100
AcDbEntity
  8
0
  6
Continuous
 62
     7
370
    18
100
AcDbLine
 10
0.2366362149
 20
-25.099120703
 30
0.0
 11
0.1890676051
 21
-25.1850754693
 31
0.0
  0
LINE
  5
7B
330
77
100
AcDbEntity
  8
0
  6
Continuous
 62
     7
370
    18
100
AcDbLine
 10
-8.9546345587
 20
-34.8305583248
 30
0.0
 11
-8.8845902523
 21
-34.8534799981
 31
0.0
  0
LINE
  5
7C
330
77
100
AcDbEntity
  8
0
  6
Continuous
 62
     7
370
    18
100
AcDbLine
 10
1.3975224119
 20
-24.3176861209
 30
0.0
 11
1.0342487254
 21
-24.0430667658
 31
0.0
  0
LINE
  5
7D
330
77
100
AcDbEntity
  8
0
  6
Continuous
 62
     7
370
    18
100
AcDbLine
 10
-1.344635895
 20
-16.4400365624
 30
0.0
 11
-1.3491582948
 21
-16.4379044226
 31
0.0
  0
LINE
  5
7E
330
77
100
AcDbEntity
  8
0
  6
Continuous
 62
     7
370
    18
100
AcDbLine
 10
7.8090812831
 20
-19.1315273814
 30
0.0
 11
7.8091802885
 21
-19.1313230883
 31
0.0
  0
LINE
  5
7F
330
77
100
AcDbEntity
  8
0
  6
Continuous
 62
     7
370
    18
100
AcDbLine
 10
0.0
 20
-1.0296983168
 30
0.0
 11
0.0
 21
1.0296983168
 31
0.0
  0
LINE
  5
80
330
77
100
AcDbEntity
  8
0
  6
Continuous
 62
     7
370
    18
100
AcDbLine
 10
10.0154752928
 20
-30.4004736372
 30
0.0
 11
9.1539977041
 21
-32.0953773775
 31
0.0
  0
LINE
  5
81
330
77
100
AcDbEntity
  8
0
  6
Continuous
 62
     7
370
    18
100
AcDbLine
 10
9.1830081219
 20
-32.1843475956
 30
0.0
 11
9.481427996
 21
-32.3361036526
 31
0.0
  0
LINE
  5
82
330
77
100
AcDbEntity
  8
0
  6
Continuous
 62
     7
370
    18
100
AcDbLine
 10
9.5704389671
 20
-32.3070676322
 30
0.0
 11
10.4992725169
 21
-30.4794480227
 31
0.0
  0
LINE
  5
83
330
77
100
AcDbEntity
  8
0
  6
Continuous
 62
     7
370
    18
100
AcDbLine
 10
12.5467888882
 20
-29.3625787572
 30
0.0
 11
12.3419088888
 21
-29.0978910313
 31
0.0
  0
LINE
  5
84
330
77
100
AcDbEntity
  8
0
  6
Continuous
 62
     7
370
    18
100
AcDbLine
 10
12.8223724068
 20
-30.9599942873
 30
0.0
 11
13.2708466106
 21
-31.0149510216
 31
0.0
  0
LINE
  5
85
330
77
100
AcDbEntity
  8
0
  6
Continuous
 62
     7
370
    18
100
AcDbLine
 10
17.1692492954
 20
-27.2721969661
 30
0.0
 11
17.0622662115
 21
-26.8332975819
 31
0.0
  0
LINE
  5
86
330
77
100
AcDbEntity
  8
0
  6
Continuous
 62
     7
370
    18
100
AcDbLine
 10
9.2674260365
 20
-23.8703966174
 30
0.0
 11
9.2820724332
 21
-23.832346426
 31
0.0
  0
LINE
  5
87
330
77
100
AcDbEntity
  8
0
  6
Continuous
 62
     7
370
    18
100
AcDbLine
 10
7.0444852887
 20
-17.62223308
 30
0.0
 11
7.0437472733
 21
-17.6218725853
 31
0.0
  0
LINE
  5
88
330
77
100
AcDbEntity
  8
0
  6
Continuous
 62
     7
370
    18
100
AcDbLine
 10
3.3695709323
 20
-18.7150893908
 30
0.0
 11
3.3652686317
 21
-18.7077888488
 31
0.0
  0
LINE
  5
89
330
77
100
AcDbEntity
  8
0
  6
Continuous
 62
     7
370
    18
100
AcDbLine
 10
3.3652686317
 20
-18.7077888488
 30
0.0
 11
3.3711671796
 21
-18.8025827031
 31
0.0
  0
LINE
  5
8A
330
77
100
AcDbEntity
  8
0
  6
Continuous
 62
     7
370
    18
100
AcDbLine
 10
3.3963759391
 20
-19.2069459167
 30
0.0
 11
3.4149125726
 21
-19.5041559716
 31
0.0
  0
SPLINE
  5
8B
330
77
100
AcDbEntity
  8
0
  6
Continuous
 62
     7
370
    18
100
AcDbSpline
210
0.0
220
0.0
230
1.0
 70
     8
 71
     3
 72
     8
 73
     4
 74
     0
 42
0.00000001
 43
0.00000001
 40
0.0
 40
0.0
 40
0.0
 40
0.0
 40
1.0
 40
1.0
 40
1.0
 40
1.0
 10
5.852229029515427
 20
-28.4276388766053
 30
0.0
 10
5.825666155886172
 20
-28.53479889167665
 30
0.0
 10
5.788722307073408
 20
-28.64641728306218
 30
0.0
 10
5.745235939283002
 20
-28.75809747055379
 30
0.0
  0
SPLINE
  5
8C
330
77
100
AcDbEntity
  8
0
  6
Continuous
 62
     7
370
    18
100
AcDbSpline
210
0.0
220
0.0
230
1.0
 70
     8
 71
     2
 72
     6
 73
     3
 74
     0
 42
0.00000001
 43
0.00000001
 40
1.0
 40
1.0
 40
1.0
 40
2.0
 40
2.0
 40
2.0
 10
5.745235939283002
 20
-28.75809747055379
 30
0.0
 10
5.531735298312616
 20
-29.30641496529977
 30
0.0
 10
5.166807901578401
 20
-29.85360333242915
 30
0.0
  0
SPLINE
  5
8D
330
77
100
AcDbEntity
  8
0
  6
Continuous
 62
     7
370
    18
100
AcDbSpline
210
0.0
220
0.0
230
1.0
 70
     8
 71
     3
 72
     8
 73
     4
 74
     0
 42
0.00000001
 43
0.00000001
 40
2.0
 40
2.0
 40
2.0
 40
2.0
 40
3.0
 40
3.0
 40
3.0
 40
3.0
 10
5.166807901578401
 20
-29.85360333242915
 30
0.0
 10
6.311772697024359
 20
-30.87441642829223
 30
0.0
 10
9.719836507960874
 20
-30.34731494120714
 30
0.0
 10
10.01547729021294
 20
-30.40048416895655
 30
0.0
  0
SPLINE
  5
8E
330
77
100
AcDbEntity
  8
0
  6
Continuous
 62
     7
370
    18
100
AcDbSpline
210
0.0
220
0.0
230
1.0
 70
     8
 71
     3
 72
     8
 73
     4
 74
     0
 42
0.00000001
 43
0.00000001
 40
3.0
 40
3.0
 40
3.0
 40
3.0
 40
3.996689690837188
 40
3.996689690837188
 40
3.996689690837188
 40
3.996689690837188
 10
10.01547729021294
 20
-30.40048416895655
 30
0.0
 10
8.977607483441508
 20
-29.99967069988004
 30
0.0
 10
7.814529315873817
 20
-28.89614101828137
 30
0.0
 10
7.081020323903868
 20
-28.0410800019856
 30
0.0
  0
SPLINE
  5
8F
330
77
100
AcDbEntity
  8
0
  6
Continuous
 62
     7
370
    18
100
AcDbSpline
210
0.0
220
0.0
230
1.0
 70
     8
 71
     3
 72
    14
 73
    10
 74
     0
 42
0.00000001
 43
0.00000001
 40
7.0
 40
7.0
 40
7.0
 40
7.0
 40
8.0
 40
9.0
 40
10.0
 40
11.0
 40
12.0
 40
13.0
 40
14.0
 40
14.0
 40
14.0
 40
14.0
 10
12.78899862649789
 20
-20.9206021766667
 30
0.0
 10
12.75298627797974
 20
-20.92674765647992
 30
0.0
 10
12.68640696953537
 20
-20.93826917416036
 30
0.0
 10
12.46146607510041
 20
-20.9609736022742
 30
0.0
 10
12.36316736583912
 20
-20.81710288078964
 30
0.0
 10
12.19029292109663
 20
-20.56395973963105
 30
0.0
 10
12.22319183016533
 20
-20.44637053703358
 30
0.0
 10
12.12701487946805
 20
-20.29328089794294
 30
0.0
 10
12.03084102575803
 20
-20.14019618848106
 30
0.0
 10
11.83537120556004
 20
-19.86366120251053
 30
0.0
  0
SPLINE
  5
90
330
77
100
AcDbEntity
  8
0
  6
Continuous
 62
     7
370
    18
100
AcDbSpline
210
0.0
220
0.0
230
1.0
 70
     8
 71
     3
 72
    14
 73
    10
 74
     0
 42
0.00000001
 43
0.00000001
 40
0.0
 40
0.0
 40
0.0
 40
0.0
 40
1.0
 40
2.0
 40
3.0
 40
4.0
 40
5.0
 40
6.0
 40
7.0
 40
7.0
 40
7.0
 40
7.0
 10
11.83537120556004
 20
-19.86366120251053
 30
0.0
 10
12.96786884091336
 20
-20.09916183373696
 30
0.0
 10
13.13102812036816
 20
-20.67672009866099
 30
0.0
 10
13.16182644407878
 20
-20.79181058502865
 30
0.0
 10
13.18921773799899
 20
-20.89522906612286
 30
0.0
 10
13.07031240695495
 20
-20.89476265907842
 30
0.0
 10
12.9537126753755
 20
-20.89486911556055
 30
0.0
 10
12.90248106064455
 20
-20.90139629528142
 30
0.0
 10
12.82501097501607
 20
-20.91445669685353
 30
0.0
 10
12.78899862649789
 20
-20.9206021766667
 30
0.0
  0
SPLINE
  5
91
330
77
100
AcDbEntity
  8
0
  6
Continuous
 62
     7
370
    18
100
AcDbSpline
210
0.0
220
0.0
230
1.0
 70
     8
 71
     3
 72
     8
 73
     4
 74
     0
 42
0.00000001
 43
0.00000001
 40
1.0
 40
1.0
 40
1.0
 40
1.0
 40
2.0
 40
2.0
 40
2.0
 40
2.0
 10
0.1890676050530227
 20
-25.18507546927273
 30
0.0
 10
-0.4758636182598079
 20
-26.36818656978759
 30
0.0
 10
-1.071372957931268
 20
-27.62135929727155
 30
0.0
 10
-1.848916090944628
 20
-28.7321574116595
 30
0.0
  0
SPLINE
  5
92
330
77
100
AcDbEntity
  8
0
  6
Continuous
 62
     7
370
    18
100
AcDbSpline
210
0.0
220
0.0
230
1.0
 70
     8
 71
     3
 72
     8
 73
     4
 74
     0
 42
0.00000001
 43
0.00000001
 40
5.0
 40
5.0
 40
5.0
 40
5.0
 40
6.0
 40
6.0
 40
6.0
 40
6.0
 10
5.741387158368082
 20
-27.62554423736086
 30
0.0
 10
5.846722846369613
 20
-27.83071469821159
 30
0.0
 10
5.917083786139072
 20
-28.10116493603904
 30
0.0
 10
5.852229029515427
 20
-28.4276388766053
 30
0.0
  0
SPLINE
  5
93
330
77
100
AcDbEntity
  8
0
  6
Continuous
 62
     7
370
    18
100
AcDbSpline
210
0.0
220
0.0
230
1.0
 70
     8
 71
     3
 72
     8
 73
     4
 74
     0
 42
0.00000001
 43
0.00000001
 40
2.0
 40
2.0
 40
2.0
 40
2.0
 40
3.0
 40
3.0
 40
3.0
 40
3.0
 10
-1.848916090944628
 20
-28.7321574116595
 30
0.0
 10
-2.58099700615287
 20
-29.77807514316875
 30
0.0
 10
-3.400555133943328
 20
-30.75794226768769
 30
0.0
 10
-4.320163121001804
 20
-31.64441810803642
 30
0.0
  0
SPLINE
  5
94
330
77
100
AcDbEntity
  8
0
  6
Continuous
 62
     7
370
    18
100
AcDbSpline
210
0.0
220
0.0
230
1.0
 70
     8
 71
     3
 72
     8
 73
     4
 74
     0
 42
0.00000001
 43
0.00000001
 40
3.0
 40
3.0
 40
3.0
 40
3.0
 40
4.0
 40
4.0
 40
4.0
 40
4.0
 10
-4.320163121001804
 20
-31.64441810803642
 30
0.0
 10
-5.502285688120724
 20
-32.78397107599655
 30
0.0
 10
-6.842602889403164
 20
-33.79629665674205
 30
0.0
 10
-8.312643520423714
 20
-34.53636241310925
 30
0.0
  0
SPLINE
  5
95
330
77
100
AcDbEntity
  8
0
  6
Continuous
 62
     7
370
    18
100
AcDbSpline
210
0.0
220
0.0
230
1.0
 70
     8
 71
     3
 72
     8
 73
     4
 74
     0
 42
0.00000001
 43
0.00000001
 40
0.0
 40
0.0
 40
0.0
 40
0.0
 40
1.0
 40
1.0
 40
1.0
 40
1.0
 10
13.16248097184179
 20
-22.77811969809535
 30
0.0
 10
13.32158274024408
 20
-22.71852038409298
 30
0.0
 10
13.49557540158558
 20
-22.54791198237409
 30
0.0
 10
13.60867884934522
 20
-22.41373778363303
 30
0.0
  0
SPLINE
  5
96
330
77
100
AcDbEntity
  8
0
  6
Continuous
 62
     7
370
    18
100
AcDbSpline
210
0.0
220
0.0
230
1.0
 70
     8
 71
     3
 72
     8
 73
     4
 74
     0
 42
0.00000001
 43
0.00000001
 40
1.0
 40
1.0
 40
1.0
 40
1.0
 40
2.0
 40
2.0
 40
2.0
 40
2.0
 10
13.60867884934522
 20
-22.41373778363303
 30
0.0
 10
14.06883090410567
 20
-21.86791668638103
 30
0.0
 10
13.93824647055738
 20
-21.10927008942834
 30
0.0
 10
13.63564806322252
 20
-20.52311487241799
 30
0.0
  0
SPLINE
  5
97
330
77
100
AcDbEntity
  8
0
  6
Continuous
 62
     7
370
    18
100
AcDbSpline
210
0.0
220
0.0
230
1.0
 70
     8
 71
     3
 72
     8
 73
     4
 74
     0
 42
0.00000001
 43
0.00000001
 40
2.0
 40
2.0
 40
2.0
 40
2.0
 40
3.0
 40
3.0
 40
3.0
 40
3.0
 10
13.63564806322252
 20
-20.52311487241799
 30
0.0
 10
13.28964627126481
 20
-19.85285410357718
 30
0.0
 10
12.67648338579735
 20
-19.35824964276486
 30
0.0
 10
12.02812778214086
 20
-18.99653111143571
 30
0.0
  0
SPLINE
  5
98
330
77
100
AcDbEntity
  8
0
  6
Continuous
 62
     7
370
    18
100
AcDbSpline
210
0.0
220
0.0
230
1.0
 70
     8
 71
     3
 72
     8
 73
     4
 74
     0
 42
0.00000001
 43
0.00000001
 40
3.0
 40
3.0
 40
3.0
 40
3.0
 40
4.0
 40
4.0
 40
4.0
 40
4.0
 10
12.02812778214086
 20
-18.99653111143571
 30
0.0
 10
11.39165828893943
 20
-18.64115679256055
 30
0.0
 10
10.65675821014571
 20
-18.52555054647402
 30
0.0
 10
9.935944716227333
 20
-18.57712058838266
 30
0.0
  0
SPLINE
  5
99
330
77
100
AcDbEntity
  8
0
  6
Continuous
 62
     7
370
    18
100
AcDbSpline
210
0.0
220
0.0
230
1.0
 70
     8
 71
     3
 72
     8
 73
     4
 74
     0
 42
0.00000001
 43
0.00000001
 40
4.0
 40
4.0
 40
4.0
 40
4.0
 40
5.0
 40
5.0
 40
5.0
 40
5.0
 10
9.935944716227333
 20
-18.57712058838266
 30
0.0
 10
9.765303020833768
 20
-18.58949090353762
 30
0.0
 10
9.595649831281627
 20
-18.61121519850877
 30
0.0
 10
9.427025317953943
 20
-18.6398242200312
 30
0.0
  0
SPLINE
  5
9A
330
77
100
AcDbEntity
  8
0
  6
Continuous
 62
     7
370
    18
100
AcDbSpline
210
0.0
220
0.0
230
1.0
 70
     8
 71
     3
 72
     8
 73
     4
 74
     0
 42
0.00000001
 43
0.00000001
 40
5.0
 40
5.0
 40
5.0
 40
5.0
 40
6.0
 40
6.0
 40
6.0
 40
6.0
 10
9.427025317953943
 20
-18.6398242200312
 30
0.0
 10
9.401841746024298
 20
-18.64325493737991
 30
0.0
 10
9.375930374221884
 20
-18.6474270753044
 30
0.0
 10
9.347977710247896
 20
-18.65350684706063
 30
0.0
  0
SPLINE
  5
9B
330
77
100
AcDbEntity
  8
0
  6
Continuous
 62
     7
370
    18
100
AcDbSpline
210
0.0
220
0.0
230
1.0
 70
     8
 71
     3
 72
     8
 73
     4
 74
     0
 42
0.00000001
 43
0.00000001
 40
6.0
 40
6.0
 40
6.0
 40
6.0
 40
7.0
 40
7.0
 40
7.0
 40
7.0
 10
9.347977710247896
 20
-18.65350684706063
 30
0.0
 10
9.3154844368747
 20
-18.66059198688143
 30
0.0
 10
9.281612371694376
 20
-18.66928222686759
 30
0.0
 10
9.248401750735159
 20
-18.67721589591814
 30
0.0
  0
SPLINE
  5
9C
330
77
100
AcDbEntity
  8
0
  6
Continuous
 62
     7
370
    18
100
AcDbSpline
210
0.0
220
0.0
230
1.0
 70
     8
 71
     3
 72
     8
 73
     4
 74
     0
 42
0.00000001
 43
0.00000001
 40
7.0
 40
7.0
 40
7.0
 40
7.0
 40
8.0
 40
8.0
 40
8.0
 40
8.0
 10
9.248401750735159
 20
-18.67721589591814
 30
0.0
 10
8.828729172017946
 20
-18.76183233709977
 30
0.0
 10
8.416325576603711
 20
-18.88669856103988
 30
0.0
 10
8.018919595305736
 20
-19.04403200074751
 30
0.0
  0
SPLINE
  5
9D
330
77
100
AcDbEntity
  8
0
  6
Continuous
 62
     7
370
    18
100
AcDbSpline
210
0.0
220
0.0
230
1.0
 70
     8
 71
     3
 72
     8
 73
     4
 74
     0
 42
0.00000001
 43
0.00000001
 40
8.0
 40
8.0
 40
8.0
 40
8.0
 40
9.0
 40
9.0
 40
9.0
 40
9.0
 10
8.018919595305736
 20
-19.04403200074751
 30
0.0
 10
7.948718757678904
 20
-19.07224882816383
 30
0.0
 10
7.878767955532004
 20
-19.10158741935046
 30
0.0
 10
7.809081283087698
 20
-19.13152738138843
 30
0.0
  0
SPLINE
  5
9E
330
77
100
AcDbEntity
  8
0
  6
Continuous
 62
     7
370
    18
100
AcDbSpline
210
0.0
220
0.0
230
1.0
 70
     8
 71
     3
 72
     8
 73
     4
 74
     0
 42
0.00000001
 43
0.00000001
 40
10.0
 40
10.0
 40
10.0
 40
10.0
 40
11.0
 40
11.0
 40
11.0
 40
11.0
 10
7.809180288493772
 20
-19.13132308829617
 30
0.0
 10
7.802761398942892
 20
-19.13413367961332
 30
0.0
 10
7.796378564323003
 20
-19.1370921325915
 30
0.0
 10
7.789959674772166
 20
-19.13990272390857
 30
0.0
  0
SPLINE
  5
9F
330
77
100
AcDbEntity
  8
0
  6
Continuous
 62
     7
370
    18
100
AcDbSpline
210
0.0
220
0.0
230
1.0
 70
     8
 71
     3
 72
     8
 73
     4
 74
     0
 42
0.00000001
 43
0.00000001
 40
11.0
 40
11.0
 40
11.0
 40
11.0
 40
12.0
 40
12.0
 40
12.0
 40
12.0
 10
7.789959674772166
 20
-19.13990272390857
 30
0.0
 10
7.727199483469478
 20
-19.16702581234913
 30
0.0
 10
7.664805832448564
 20
-19.19491328366098
 30
0.0
 10
7.602701913775588
 20
-19.22344287883286
 30
0.0
  0
SPLINE
  5
A0
330
77
100
AcDbEntity
  8
0
  6
Continuous
 62
     7
370
    18
100
AcDbSpline
210
0.0
220
0.0
230
1.0
 70
     8
 71
     3
 72
     8
 73
     4
 74
     0
 42
0.00000001
 43
0.00000001
 40
12.0
 40
12.0
 40
12.0
 40
12.0
 40
13.0
 40
13.0
 40
13.0
 40
13.0
 10
7.602701913775588
 20
-19.22344287883286
 30
0.0
 10
7.217113319687935
 20
-19.39705344743212
 30
0.0
 10
5.997001551904617
 20
-20.08735799660829
 30
0.0
 10
5.62103742160189
 20
-20.28524495509878
 30
0.0
  0
SPLINE
  5
A1
330
77
100
AcDbEntity
  8
0
  6
Continuous
 62
     7
370
    18
100
AcDbSpline
210
0.0
220
0.0
230
1.0
 70
     8
 71
     3
 72
     8
 73
     4
 74
     0
 42
0.00000001
 43
0.00000001
 40
4.0
 40
4.0
 40
4.0
 40
4.0
 40
5.0
 40
5.0
 40
5.0
 40
5.0
 10
-8.312643520423714
 20
-34.53636241310925
 30
0.0
 10
-8.411034639160002
 20
-34.58584183701119
 30
0.0
 10
-8.836966871753177
 20
-34.8700258468235
 30
0.0
 10
-8.954634558748669
 20
-34.83055832481292
 30
0.0
  0
SPLINE
  5
A2
330
77
100
AcDbEntity
  8
0
  6
Continuous
 62
     7
370
    18
100
AcDbSpline
210
0.0
220
0.0
230
1.0
 70
     8
 71
     3
 72
     8
 73
     4
 74
     0
 42
0.00000001
 43
0.00000001
 40
6.0
 40
6.0
 40
6.0
 40
6.0
 40
7.0
 40
7.0
 40
7.0
 40
7.0
 10
-8.884590252340216
 20
-34.8534799981297
 30
0.0
 10
-1.619323899915008
 20
-33.84056501948026
 30
0.0
 10
-0.8849007908736523
 20
-28.48090738365391
 30
0.0
 10
1.39752241185063
 20
-24.31768612090927
 30
0.0
  0
SPLINE
  5
A3
330
77
100
AcDbEntity
  8
0
  6
Continuous
 62
     7
370
    18
100
AcDbSpline
210
0.0
220
0.0
230
1.0
 70
     8
 71
     3
 72
     8
 73
     4
 74
     0
 42
0.00000001
 43
0.00000001
 40
15.0
 40
15.0
 40
15.0
 40
15.0
 40
16.0
 40
16.0
 40
16.0
 40
16.0
 10
7.61666402024219
 20
-16.14061015178518
 30
0.0
 10
6.37712430883088
 20
-11.21974897891878
 30
0.0
 10
0.5014966551233776
 20
-9.115775052417424
 30
0.0
 10
1.502064263494276
 20
-1.771589632457653
 30
0.0
  0
SPLINE
  5
A4
330
77
100
AcDbEntity
  8
0
  6
Continuous
 62
     7
370
    18
100
AcDbSpline
210
0.0
220
0.0
230
1.0
 70
     8
 71
     2
 72
     6
 73
     3
 74
     0
 42
0.00000001
 43
0.00000001
 40
16.0
 40
16.0
 40
16.0
 40
17.0
 40
17.0
 40
17.0
 10
1.502064263494301
 20
-1.771589632457637
 30
0.0
 10
0.8988127122367296
 20
-1.387303972091294
 30
0.0
 10
0.394445507708313
 20
-2.906964564311894
 30
0.0
  0
SPLINE
  5
A5
330
77
100
AcDbEntity
  8
0
  6
Continuous
 62
     7
370
    18
100
AcDbSpline
210
0.0
220
0.0
230
1.0
 70
     8
 71
     3
 72
     8
 73
     4
 74
     0
 42
0.00000001
 43
0.00000001
 40
17.0
 40
17.0
 40
17.0
 40
17.0
 40
18.0
 40
18.0
 40
18.0
 40
18.0
 10
0.3944455077083129
 20
-2.906964564311893
 30
0.0
 10
0.1589062916464202
 20
-2.432255303561799
 30
0.0
 10
0.0481326418671805
 20
-1.719165557923681
 30
0.0
 10
-0.0000000000000111
 20
-1.029698316824825
 30
0.0
  0
SPLINE
  5
A6
330
77
100
AcDbEntity
  8
0
  6
Continuous
 62
     7
370
    18
100
AcDbSpline
210
0.0
220
0.0
230
1.0
 70
     8
 71
     3
 72
     8
 73
     4
 74
     0
 42
0.00000001
 43
0.00000001
 40
19.0
 40
19.0
 40
19.0
 40
19.0
 40
20.0
 40
20.0
 40
20.0
 40
20.0
 10
-0.000000000000011
 20
1.029698316824825
 30
0.0
 10
-0.247605001678439
 20
0.9563586700206326
 30
0.0
 10
-0.4965992125871336
 20
0.8376424291228968
 30
0.0
 10
-0.7423932761695102
 20
0.6788199880206746
 30
0.0
  0
SPLINE
  5
A7
330
77
100
AcDbEntity
  8
0
  6
Continuous
 62
     7
370
    18
100
AcDbSpline
210
0.0
220
0.0
230
1.0
 70
     8
 71
     3
 72
     8
 73
     4
 74
     0
 42
0.00000001
 43
0.00000001
 40
20.0
 40
20.0
 40
20.0
 40
20.0
 40
21.0
 40
21.0
 40
21.0
 40
21.0
 10
-0.7423932761695041
 20
0.6788199880206758
 30
0.0
 10
-3.773706502500729
 20
-1.088364608817558
 30
0.0
 10
-5.828023551311025
 20
-6.502648922742776
 30
0.0
 10
-6.373622392678747
 20
-10.44545216301364
 30
0.0
  0
SPLINE
  5
A8
330
77
100
AcDbEntity
  8
0
  6
Continuous
 62
     7
370
    18
100
AcDbSpline
210
0.0
220
0.0
230
1.0
 70
     8
 71
     3
 72
     8
 73
     4
 74
     0
 42
0.00000001
 43
0.00000001
 40
21.0
 40
21.0
 40
21.0
 40
21.0
 40
22.0
 40
22.0
 40
22.0
 40
22.0
 10
-6.373622392678747
 20
-10.44545216301364
 30
0.0
 10
-6.534387006384851
 20
-11.6072393176462
 30
0.0
 10
-6.110986063680238
 20
-12.77235598421836
 30
0.0
 10
-5.239490498328086
 20
-13.55729186389973
 30
0.0
  0
SPLINE
  5
A9
330
77
100
AcDbEntity
  8
0
  6
Continuous
 62
     7
370
    18
100
AcDbSpline
210
0.0
220
0.0
230
1.0
 70
     8
 71
     3
 72
     8
 73
     4
 74
     0
 42
0.00000001
 43
0.00000001
 40
22.0
 40
22.0
 40
22.0
 40
22.0
 40
23.0
 40
23.0
 40
23.0
 40
23.0
 10
-5.239490498328086
 20
-13.55729186389973
 30
0.0
 10
-5.069093162935886
 20
-13.71072824031157
 30
0.0
 10
-4.812594020154235
 20
-13.94204896363468
 30
0.0
 10
-4.497635623981145
 20
-14.22616249222083
 30
0.0
  0
SPLINE
  5
AA
330
77
100
AcDbEntity
  8
0
  6
Continuous
 62
     7
370
    18
100
AcDbSpline
210
0.0
220
0.0
230
1.0
 70
     8
 71
     3
 72
     8
 73
     4
 74
     0
 42
0.00000001
 43
0.00000001
 40
23.0
 40
23.0
 40
23.0
 40
23.0
 40
24.0
 40
24.0
 40
24.0
 40
24.0
 10
-4.497635623981145
 20
-14.22616249222083
 30
0.0
 10
-7.377206548962273
 20
-14.3610427235814
 30
0.0
 10
-10.37603432623049
 20
-14.41258052682769
 30
0.0
 10
-13.47142906384564
 20
-11.50579972895087
 30
0.0
  0
SPLINE
  5
AB
330
77
100
AcDbEntity
  8
0
  6
Continuous
 62
     7
370
    18
100
AcDbSpline
210
0.0
220
0.0
230
1.0
 70
     8
 71
     2
 72
     6
 73
     3
 74
     0
 42
0.00000001
 43
0.00000001
 40
24.0
 40
24.0
 40
24.0
 40
25.0
 40
25.0
 40
25.0
 10
-13.47142906384564
 20
-11.50579972895087
 30
0.0
 10
-14.10688605414107
 20
-11.76335116991974
 30
0.0
 10
-13.20042236989913
 20
-13.00202096164688
 30
0.0
  0
SPLINE
  5
AC
330
77
100
AcDbEntity
  8
0
  6
Continuous
 62
     7
370
    18
100
AcDbSpline
210
0.0
220
0.0
230
1.0
 70
     8
 71
     3
 72
     8
 73
     4
 74
     0
 42
0.00000001
 43
0.00000001
 40
25.0
 40
25.0
 40
25.0
 40
25.0
 40
26.0
 40
26.0
 40
26.0
 40
26.0
 10
-13.20042236989913
 20
-13.00202096164688
 30
0.0
 10
-13.70207232315818
 20
-12.92204228168365
 30
0.0
 10
-14.32058558561591
 20
-12.6121679091681
 30
0.0
 10
-14.88582480126041
 20
-12.26649433731928
 30
0.0
  0
SPLINE
  5
AD
330
77
100
AcDbEntity
  8
0
  6
Continuous
 62
     7
370
    18
100
AcDbSpline
210
0.0
220
0.0
230
1.0
 70
     8
 71
     3
 72
     8
 73
     4
 74
     0
 42
0.00000001
 43
0.00000001
 40
26.0
 40
26.0
 40
26.0
 40
26.0
 40
27.0
 40
27.0
 40
27.0
 40
27.0
 10
-14.88582480126041
 20
-12.26649433731928
 30
0.0
 10
-15.11439138607148
 20
-12.10379107541082
 30
0.0
 10
-15.34298592256308
 20
-11.9411337926506
 30
0.0
 10
-15.57155250737237
 20
-11.77843053074102
 30
0.0
  0
SPLINE
  5
AE
330
77
100
AcDbEntity
  8
0
  6
Continuous
 62
     7
370
    18
100
AcDbSpline
210
0.0
220
0.0
230
1.0
 70
     8
 71
     3
 72
     8
 73
     4
 74
     0
 42
0.00000001
 43
0.00000001
 40
27.0
 40
27.0
 40
27.0
 40
27.0
 40
28.0
 40
28.0
 40
28.0
 40
28.0
 10
-15.57155250737237
 20
-11.77843053074102
 30
0.0
 10
-15.54626988054684
 20
-12.43496417244951
 30
0.0
 10
-15.44651697844639
 20
-13.43368074094347
 30
0.0
 10
-15.07122586658969
 20
-14.58147725173132
 30
0.0
  0
SPLINE
  5
AF
330
77
100
AcDbEntity
  8
0
  6
Continuous
 62
     7
370
    18
100
AcDbSpline
210
0.0
220
0.0
230
1.0
 70
     8
 71
     3
 72
     8
 73
     4
 74
     0
 42
0.00000001
 43
0.00000001
 40
28.0
 40
28.0
 40
28.0
 40
28.0
 40
29.0
 40
29.0
 40
29.0
 40
29.0
 10
-15.07122586658969
 20
-14.58147725173132
 30
0.0
 10
-14.14101186928763
 20
-17.42663227492847
 30
0.0
 10
-12.21890524301946
 20
-19.04448598632376
 30
0.0
 10
-11.57411800959374
 20
-19.5729627316439
 30
0.0
  0
SPLINE
  5
B0
330
77
100
AcDbEntity
  8
0
  6
Continuous
 62
     7
370
    18
100
AcDbSpline
210
0.0
220
0.0
230
1.0
 70
     8
 71
     3
 72
     8
 73
     4
 74
     0
 42
0.00000001
 43
0.00000001
 40
29.0
 40
29.0
 40
29.0
 40
29.0
 40
30.0
 40
30.0
 40
30.0
 40
30.0
 10
-11.57411800959374
 20
-19.5729627316439
 30
0.0
 10
-10.2278360673758
 20
-20.67639225726875
 30
0.0
 10
-8.968626575135383
 20
-21.18705865057519
 30
0.0
 10
-8.289256857954726
 20
-21.45628499958021
 30
0.0
  0
SPLINE
  5
B1
330
77
100
AcDbEntity
  8
0
  6
Continuous
 62
     7
370
    18
100
AcDbSpline
210
0.0
220
0.0
230
1.0
 70
     8
 71
     3
 72
     8
 73
     4
 74
     0
 42
0.00000001
 43
0.00000001
 40
30.0
 40
30.0
 40
30.0
 40
30.0
 40
31.0
 40
31.0
 40
31.0
 40
31.0
 10
-8.289256857954726
 20
-21.45628499958021
 30
0.0
 10
-6.483682376184763
 20
-22.17184513279697
 30
0.0
 10
-4.87477560776411
 20
-22.35351920351825
 30
0.0
 10
-3.81330444415229
 20
-22.39201571571204
 30
0.0
  0
SPLINE
  5
B2
330
77
100
AcDbEntity
  8
0
  6
Continuous
 62
     7
370
    18
100
AcDbSpline
210
0.0
220
0.0
230
1.0
 70
     8
 71
     3
 72
     8
 73
     4
 74
     0
 42
0.00000001
 43
0.00000001
 40
31.0
 40
31.0
 40
31.0
 40
31.0
 40
32.0
 40
32.0
 40
32.0
 40
32.0
 10
-3.81330444415229
 20
-22.39201571571204
 30
0.0
 10
-2.745750888684706
 20
-24.06170974884294
 30
0.0
 10
-1.264629867395483
 20
-24.91818512638145
 30
0.0
 10
0.2366295532190317
 20
-25.09914029792422
 30
0.0
  0
SPLINE
  5
B3
330
77
100
AcDbEntity
  8
0
  6
Continuous
 62
     7
370
    18
100
AcDbSpline
210
0.0
220
0.0
230
1.0
 70
     8
 71
     3
 72
     8
 73
     4
 74
     0
 42
0.00000001
 43
0.00000001
 40
32.0
 40
32.0
 40
32.0
 40
32.0
 40
33.0
 40
33.0
 40
33.0
 40
33.0
 10
0.2366295532190317
 20
-25.09914029792422
 30
0.0
 10
0.2368448266661417
 20
-25.0995734306171
 30
0.0
 10
0.2368448266661417
 20
-25.0995734306171
 30
0.0
 10
0.2370729014386109
 20
-25.10002693981265
 30
0.0
  0
SPLINE
  5
B4
330
77
100
AcDbEntity
  8
0
  6
Continuous
 62
     7
370
    18
100
AcDbSpline
210
0.0
220
0.0
230
1.0
 70
     8
 71
     3
 72
     8
 73
     4
 74
     0
 42
0.00000001
 43
0.00000001
 40
33.0
 40
33.0
 40
33.0
 40
33.0
 40
34.0
 40
34.0
 40
34.0
 40
34.0
 10
0.2370729014386109
 20
-25.10002693981265
 30
0.0
 10
-0.4473726928542233
 20
-26.30798726564406
 30
0.0
 10
-1.052723993388068
 20
-27.59471040392042
 30
0.0
 10
-1.848922752625017
 20
-28.73217700654635
 30
0.0
  0
SPLINE
  5
B5
330
77
100
AcDbEntity
  8
0
  6
Continuous
 62
     7
370
    18
100
AcDbSpline
210
0.0
220
0.0
230
1.0
 70
     8
 71
     3
 72
     8
 73
     4
 74
     0
 42
0.00000001
 43
0.00000001
 40
34.0
 40
34.0
 40
34.0
 40
34.0
 40
35.0
 40
35.0
 40
35.0
 40
35.0
 10
-1.848922752625017
 20
-28.73217700654635
 30
0.0
 10
-2.581016469155664
 20
-29.77807436155356
 30
0.0
 10
-3.400574596946121
 20
-30.75794148607251
 30
0.0
 10
-4.320169782681019
 20
-31.64443770292509
 30
0.0
  0
SPLINE
  5
B6
330
77
100
AcDbEntity
  8
0
  6
Continuous
 62
     7
370
    18
100
AcDbSpline
210
0.0
220
0.0
230
1.0
 70
     8
 71
     3
 72
     8
 73
     4
 74
     0
 42
0.00000001
 43
0.00000001
 40
35.0
 40
35.0
 40
35.0
 40
35.0
 40
36.0
 40
36.0
 40
36.0
 40
36.0
 10
-4.320169782681019
 20
-31.64443770292509
 30
0.0
 10
-5.502292349801121
 20
-32.78399067088333
 30
0.0
 10
-6.842609551083555
 20
-33.79631625162889
 30
0.0
 10
-8.312622230422718
 20
-34.53633602884937
 30
0.0
  0
SPLINE
  5
B7
330
77
100
AcDbEntity
  8
0
  6
Continuous
 62
     7
370
    18
100
AcDbSpline
210
0.0
220
0.0
230
1.0
 70
     8
 71
     3
 72
     8
 73
     4
 74
     0
 42
0.00000001
 43
0.00000001
 40
36.0
 40
36.0
 40
36.0
 40
36.0
 40
37.0
 40
37.0
 40
37.0
 40
37.0
 10
-8.312622230422718
 20
-34.53633602884937
 30
0.0
 10
-8.41100054783539
 20
-34.58583582925527
 30
0.0
 10
-8.836986334755972
 20
-34.87002506520831
 30
0.0
 10
-8.95464122042903
 20
-34.83057791969982
 30
0.0
  0
SPLINE
  5
B8
330
77
100
AcDbEntity
  8
0
  6
Continuous
 62
     7
370
    18
100
AcDbSpline
210
0.0
220
0.0
230
1.0
 70
     8
 71
     3
 72
     8
 73
     4
 74
     0
 42
0.00000001
 43
0.00000001
 40
37.0
 40
37.0
 40
37.0
 40
37.0
 40
38.0
 40
38.0
 40
38.0
 40
38.0
 10
-8.95464122042903
 20
-34.83057791969982
 30
0.0
 10
-7.855316701000916
 20
-35.19902224220693
 30
0.0
 10
-6.670985849771815
 20
-35.31257295399734
 30
0.0
 10
-5.520530485207503
 20
-35.38070666342594
 30
0.0
  0
SPLINE
  5
B9
330
77
100
AcDbEntity
  8
0
  6
Continuous
 62
     7
370
    18
100
AcDbSpline
210
0.0
220
0.0
230
1.0
 70
     8
 71
     3
 72
     8
 73
     4
 74
     0
 42
0.00000001
 43
0.00000001
 40
38.0
 40
38.0
 40
38.0
 40
38.0
 40
39.0
 40
39.0
 40
39.0
 40
39.0
 10
-5.520530485207503
 20
-35.38070666342594
 30
0.0
 10
-4.24400827120937
 20
-35.45626070172416
 30
0.0
 10
-2.850018941515092
 20
-35.37210723674404
 30
0.0
 10
-1.633497186371029
 20
-34.95381072794466
 30
0.0
  0
SPLINE
  5
BA
330
77
100
AcDbEntity
  8
0
  6
Continuous
 62
     7
370
    18
100
AcDbSpline
210
0.0
220
0.0
230
1.0
 70
     8
 71
     3
 72
     8
 73
     4
 74
     0
 42
0.00000001
 43
0.00000001
 40
39.0
 40
39.0
 40
39.0
 40
39.0
 40
40.0
 40
40.0
 40
40.0
 40
40.0
 10
-1.633497186371029
 20
-34.95381072794466
 30
0.0
 10
-1.161647758417268
 20
-34.79156986805435
 30
0.0
 10
-0.6998897419386533
 20
-34.60060003392512
 30
0.0
 10
-0.2417020015756544
 20
-34.40340438622162
 30
0.0
  0
SPLINE
  5
BB
330
77
100
AcDbEntity
  8
0
  6
Continuous
 62
     7
370
    18
100
AcDbSpline
210
0.0
220
0.0
230
1.0
 70
     8
 71
     3
 72
     8
 73
     4
 74
     0
 42
0.00000001
 43
0.00000001
 40
40.0
 40
40.0
 40
40.0
 40
40.0
 40
41.0
 40
41.0
 40
41.0
 40
41.0
 10
-0.2417020015756544
 20
-34.40340438622162
 30
0.0
 10
-0.1816605164030941
 20
-34.37756301425404
 30
0.0
 10
0.5680618153143264
 20
-34.09824266291977
 30
0.0
 10
0.5619671856328979
 20
-34.03977754396634
 30
0.0
  0
SPLINE
  5
BC
330
77
100
AcDbEntity
  8
0
  6
Continuous
 62
     7
370
    18
100
AcDbSpline
210
0.0
220
0.0
230
1.0
 70
     8
 71
     3
 72
     8
 73
     4
 74
     0
 42
0.00000001
 43
0.00000001
 40
41.0
 40
41.0
 40
41.0
 40
41.0
 40
42.0
 40
42.0
 40
42.0
 40
42.0
 10
0.5619671856328945
 20
-34.03977754396634
 30
0.0
 10
0.5009923545267035
 20
-33.45272868294924
 30
0.0
 10
0.3892408997618144
 20
-32.91033974047543
 30
0.0
 10
0.4097333630990446
 20
-32.31246460469481
 30
0.0
  0
SPLINE
  5
BD
330
77
100
AcDbEntity
  8
0
  6
Continuous
 62
     7
370
    18
100
AcDbSpline
210
0.0
220
0.0
230
1.0
 70
     8
 71
     3
 72
     8
 73
     4
 74
     0
 42
0.00000001
 43
0.00000001
 40
42.0
 40
42.0
 40
42.0
 40
42.0
 40
43.0
 40
43.0
 40
43.0
 40
43.0
 10
0.4097333630990446
 20
-32.31246460469481
 30
0.0
 10
0.4361451972772317
 20
-31.54089785432373
 30
0.0
 10
0.5999347140878322
 20
-30.80335021591472
 30
0.0
 10
0.781068330884661
 20
-30.05649778236755
 30
0.0
  0
SPLINE
  5
BE
330
77
100
AcDbEntity
  8
0
  6
Continuous
 62
     7
370
    18
100
AcDbSpline
210
0.0
220
0.0
230
1.0
 70
     8
 71
     2
 72
     6
 73
     3
 74
     0
 42
0.00000001
 43
0.00000001
 40
43.0
 40
43.0
 40
43.0
 40
44.0
 40
44.0
 40
44.0
 10
0.7810683308846645
 20
-30.05649778236755
 30
0.0
 10
2.019861532240659
 20
-29.56825285869967
 30
0.0
 10
2.258068961108365
 20
-29.47606436460191
 30
0.0
  0
SPLINE
  5
BF
330
77
100
AcDbEntity
  8
0
  6
Continuous
 62
     7
370
    18
100
AcDbSpline
210
0.0
220
0.0
230
1.0
 70
     8
 71
     3
 72
     8
 73
     4
 74
     0
 42
0.00000001
 43
0.00000001
 40
44.0
 40
44.0
 40
44.0
 40
44.0
 40
45.0
 40
45.0
 40
45.0
 40
45.0
 10
2.258068961108342
 20
-29.47606436460192
 30
0.0
 10
3.006698264126698
 20
-29.1863189469019
 30
0.0
 10
3.728021454602016
 20
-28.82750567245856
 30
0.0
 10
4.423057775498144
 20
-28.42657886572963
 30
0.0
  0
SPLINE
  5
C0
330
77
100
AcDbEntity
  8
0
  6
Continuous
 62
     7
370
    18
100
AcDbSpline
210
0.0
220
0.0
230
1.0
 70
     8
 71
     3
 72
     8
 73
     4
 74
     0
 42
0.00000001
 43
0.00000001
 40
45.0
 40
45.0
 40
45.0
 40
45.0
 40
46.0
 40
46.0
 40
46.0
 40
46.0
 10
4.423057775498167
 20
-28.42657886572961
 30
0.0
 10
4.868536225754158
 20
-28.16961728043866
 30
0.0
 10
5.301864108552885
 20
-27.8924103198887
 30
0.0
 10
5.741401688969919
 20
-27.62554000024407
 30
0.0
  0
SPLINE
  5
C1
330
77
100
AcDbEntity
  8
0
  6
Continuous
 62
     7
370
    18
100
AcDbSpline
210
0.0
220
0.0
230
1.0
 70
     8
 71
     3
 72
     8
 73
     4
 74
     0
 42
0.00000001
 43
0.00000001
 40
46.0
 40
46.0
 40
46.0
 40
46.0
 40
47.0
 40
47.0
 40
47.0
 40
47.0
 10
5.741401688969916
 20
-27.62554000024407
 30
0.0
 10
5.846716220532924
 20
-27.83071994248106
 30
0.0
 10
5.91709395351037
 20
-28.10115880837991
 30
0.0
 10
5.852221678941643
 20
-28.42763672804736
 30
0.0
  0
SPLINE
  5
C2
330
77
100
AcDbEntity
  8
0
  6
Continuous
 62
     7
370
    18
100
AcDbSpline
210
0.0
220
0.0
230
1.0
 70
     8
 71
     3
 72
     8
 73
     4
 74
     0
 42
0.00000001
 43
0.00000001
 40
47.0
 40
47.0
 40
47.0
 40
47.0
 40
48.0
 40
48.0
 40
48.0
 40
48.0
 10
5.852221678941643
 20
-28.42763672804736
 30
0.0
 10
5.825697879445541
 20
-28.53478547887384
 30
0.0
 10
5.788744133302801
 20
-28.64641216137642
 30
0.0
 10
5.745232449477395
 20
-28.75809491089348
 30
0.0
  0
SPLINE
  5
C3
330
77
100
AcDbEntity
  8
0
  6
Continuous
 62
     7
370
    18
100
AcDbSpline
210
0.0
220
0.0
230
1.0
 70
     8
 71
     2
 72
     6
 73
     3
 74
     0
 42
0.00000001
 43
0.00000001
 40
48.0
 40
48.0
 40
48.0
 40
49.0
 40
49.0
 40
49.0
 10
5.745232449477399
 20
-28.75809491089347
 30
0.0
 10
5.531726678391706
 20
-29.30640322476907
 30
0.0
 10
5.166798660391799
 20
-29.85361491693775
 30
0.0
  0
SPLINE
  5
C4
330
77
100
AcDbEntity
  8
0
  6
Continuous
 62
     7
370
    18
100
AcDbSpline
210
0.0
220
0.0
230
1.0
 70
     8
 71
     3
 72
     8
 73
     4
 74
     0
 42
0.00000001
 43
0.00000001
 40
49.0
 40
49.0
 40
49.0
 40
49.0
 40
50.0
 40
50.0
 40
50.0
 40
50.0
 10
5.166798660391799
 20
-29.85361491693775
 30
0.0
 10
6.311748821301538
 20
-30.87442349267374
 30
0.0
 10
9.719833011058038
 20
-30.34731936373517
 30
0.0
 10
10.01547529282146
 20
-30.40047363722643
 30
0.0
  0
SPLINE
  5
C5
330
77
100
AcDbEntity
  8
0
  6
Continuous
 62
     7
370
    18
100
AcDbSpline
210
0.0
220
0.0
230
1.0
 70
     8
 71
     3
 72
     8
 73
     4
 74
     0
 42
0.00000001
 43
0.00000001
 40
51.0
 40
51.0
 40
51.0
 40
51.0
 40
52.0
 40
52.0
 40
52.0
 40
52.0
 10
9.153997704124192
 20
-32.09537737749855
 30
0.0
 10
9.13746533104106
 20
-32.12795874790397
 30
0.0
 10
9.15043432665133
 20
-32.16778204466993
 30
0.0
 10
9.183008121878673
 20
-32.18434759557922
 30
0.0
  0
SPLINE
  5
C6
330
77
100
AcDbEntity
  8
0
  6
Continuous
 62
     7
370
    18
100
AcDbSpline
210
0.0
220
0.0
230
1.0
 70
     8
 71
     3
 72
     8
 73
     4
 74
     0
 42
0.00000001
 43
0.00000001
 40
53.0
 40
53.0
 40
53.0
 40
53.0
 40
54.0
 40
54.0
 40
54.0
 40
54.0
 10
9.481427995968861
 20
-32.33610365259894
 30
0.0
 10
9.51400179119618
 20
-32.35266920350812
 30
0.0
 10
9.553865840967733
 20
-32.33967460525203
 30
0.0
 10
9.570438967056274
 20
-32.30706763220036
 30
0.0
  0
SPLINE
  5
C7
330
77
100
AcDbEntity
  8
0
  6
Continuous
 62
     7
370
    18
100
AcDbSpline
210
0.0
220
0.0
230
1.0
 70
     8
 71
     3
 72
     8
 73
     4
 74
     0
 42
0.00000001
 43
0.00000001
 40
55.0
 40
55.0
 40
55.0
 40
55.0
 40
56.0
 40
56.0
 40
56.0
 40
56.0
 10
10.49927251692245
 20
-30.47944802269659
 30
0.0
 10
10.51193120516501
 20
-30.46811349836248
 30
0.0
 10
10.52226333020525
 20
-30.4588658263786
 30
0.0
 10
10.53488126544412
 20
-30.44755690468914
 30
0.0
  0
SPLINE
  5
C8
330
77
100
AcDbEntity
  8
0
  6
Continuous
 62
     7
370
    18
100
AcDbSpline
210
0.0
220
0.0
230
1.0
 70
     8
 71
     3
 72
     8
 73
     4
 74
     0
 42
0.00000001
 43
0.00000001
 40
56.0
 40
56.0
 40
56.0
 40
56.0
 40
57.0
 40
57.0
 40
57.0
 40
57.0
 10
10.53488126544413
 20
-30.44755690468914
 30
0.0
 10
10.94397733100252
 20
-30.30331240881152
 30
0.0
 10
11.82966874715053
 20
-29.98429676100319
 30
0.0
 10
12.53432218047716
 20
-29.45754287024319
 30
0.0
  0
SPLINE
  5
C9
330
77
100
AcDbEntity
  8
0
  6
Continuous
 62
     7
370
    18
100
AcDbSpline
210
0.0
220
0.0
230
1.0
 70
     8
 71
     3
 72
     8
 73
     4
 74
     0
 42
0.00000001
 43
0.00000001
 40
57.0
 40
57.0
 40
57.0
 40
57.0
 40
58.0
 40
58.0
 40
58.0
 40
58.0
 10
12.53432218047716
 20
-29.45754287024319
 30
0.0
 10
12.5642240877841
 20
-29.43520496265615
 30
0.0
 10
12.56963855743016
 20
-29.39207389927418
 30
0.0
 10
12.54678888824712
 20
-29.36257875718611
 30
0.0
  0
SPLINE
  5
CA
330
77
100
AcDbEntity
  8
0
  6
Continuous
 62
     7
370
    18
100
AcDbSpline
210
0.0
220
0.0
230
1.0
 70
     8
 71
     3
 72
     8
 73
     4
 74
     0
 42
0.00000001
 43
0.00000001
 40
59.0
 40
59.0
 40
59.0
 40
59.0
 40
60.0
 40
60.0
 40
60.0
 40
60.0
 10
12.34190888882302
 20
-29.09789103127773
 30
0.0
 10
12.31997516065779
 20
-29.06958242439806
 30
0.0
 10
12.28012241966975
 20
-29.06441030595369
 30
0.0
 10
12.25140704757306
 20
-29.08583227252173
 30
0.0
  0
SPLINE
  5
CB
330
77
100
AcDbEntity
  8
0
  6
Continuous
 62
     7
370
    18
100
AcDbSpline
210
0.0
220
0.0
230
1.0
 70
     8
 71
     3
 72
     8
 73
     4
 74
     0
 42
0.00000001
 43
0.00000001
 40
60.0
 40
60.0
 40
60.0
 40
60.0
 40
61.0
 40
61.0
 40
61.0
 40
61.0
 10
12.25140704757306
 20
-29.08583227252173
 30
0.0
 10
11.61813304861152
 20
-29.55810881407591
 30
0.0
 10
10.80862034190002
 20
-29.85498500376039
 30
0.0
 10
10.41032416844674
 20
-29.99588325594667
 30
0.0
  0
SPLINE
  5
CC
330
77
100
AcDbEntity
  8
0
  6
Continuous
 62
     7
370
    18
100
AcDbSpline
210
0.0
220
0.0
230
1.0
 70
     8
 71
     3
 72
     8
 73
     4
 74
     0
 42
0.00000001
 43
0.00000001
 40
61.0
 40
61.0
 40
61.0
 40
61.0
 40
62.0
 40
62.0
 40
62.0
 40
62.0
 10
10.41032416844674
 20
-29.99588325594667
 30
0.0
 10
10.11835353580004
 20
-29.93880243613075
 30
0.0
 10
9.785406052735285
 20
-29.78148435767264
 30
0.0
 10
9.416902124193346
 20
-29.50966772742371
 30
0.0
  0
SPLINE
  5
CD
330
77
100
AcDbEntity
  8
0
  6
Continuous
 62
     7
370
    18
100
AcDbSpline
210
0.0
220
0.0
230
1.0
 70
     8
 71
     3
 72
     8
 73
     4
 74
     0
 42
0.00000001
 43
0.00000001
 40
62.0
 40
62.0
 40
62.0
 40
62.0
 40
63.0
 40
63.0
 40
63.0
 40
63.0
 10
9.416902124193346
 20
-29.50966772742371
 30
0.0
 10
9.407944475865712
 20
-29.50119955155471
 30
0.0
 10
9.394588799105467
 20
-29.49143050250025
 30
0.0
 10
9.376572020348016
 20
-29.48021324667389
 30
0.0
  0
SPLINE
  5
CE
330
77
100
AcDbEntity
  8
0
  6
Continuous
 62
     7
370
    18
100
AcDbSpline
210
0.0
220
0.0
230
1.0
 70
     8
 71
     3
 72
     8
 73
     4
 74
     0
 42
0.00000001
 43
0.00000001
 40
63.0
 40
63.0
 40
63.0
 40
63.0
 40
64.0
 40
64.0
 40
64.0
 40
64.0
 10
9.376572020348016
 20
-29.48021324667389
 30
0.0
 10
9.145324806072944
 20
-29.30555303878837
 30
0.0
 10
8.900259957859191
 20
-29.0859189225671
 30
0.0
 10
8.642485564221985
 20
-28.81737501008692
 30
0.0
  0
SPLINE
  5
CF
330
77
100
AcDbEntity
  8
0
  6
Continuous
 62
     7
370
    18
100
AcDbSpline
210
0.0
220
0.0
230
1.0
 70
     8
 71
     2
 72
     6
 73
     3
 74
     0
 42
0.00000001
 43
0.00000001
 40
64.0
 40
64.0
 40
64.0
 40
65.0
 40
65.0
 40
65.0
 10
8.642485564221984
 20
-28.81737501008692
 30
0.0
 10
8.62781779716172
 20
-28.81266466885932
 30
0.0
 10
8.605249246441485
 20
-28.80533009248483
 30
0.0
  0
SPLINE
  5
D0
330
77
100
AcDbEntity
  8
0
  6
Continuous
 62
     7
370
    18
100
AcDbSpline
210
0.0
220
0.0
230
1.0
 70
     8
 71
     3
 72
     8
 73
     4
 74
     0
 42
0.00000001
 43
0.00000001
 40
65.0
 40
65.0
 40
65.0
 40
65.0
 40
66.0
 40
66.0
 40
66.0
 40
66.0
 10
8.605249246441483
 20
-28.80533009248483
 30
0.0
 10
8.441756705356795
 20
-28.62769111192185
 30
0.0
 10
8.288445022476992
 20
-28.44047320919115
 30
0.0
 10
8.160507965772787
 20
-28.26397079802058
 30
0.0
  0
SPLINE
  5
D1
330
77
100
AcDbEntity
  8
0
  6
Continuous
 62
     7
370
    18
100
AcDbSpline
210
0.0
220
0.0
230
1.0
 70
     8
 71
     3
 72
     8
 73
     4
 74
     0
 42
0.00000001
 43
0.00000001
 40
66.0
 40
66.0
 40
66.0
 40
66.0
 40
67.0
 40
67.0
 40
67.0
 40
67.0
 10
8.160507965772789
 20
-28.26397079802058
 30
0.0
 10
8.607151503975404
 20
-28.41906030303154
 30
0.0
 10
9.19232914263821
 20
-28.57237361567124
 30
0.0
 10
9.863974170124614
 20
-28.62737240380984
 30
0.0
  0
SPLINE
  5
D2
330
77
100
AcDbEntity
  8
0
  6
Continuous
 62
     7
370
    18
100
AcDbSpline
210
0.0
220
0.0
230
1.0
 70
     8
 71
     3
 72
     8
 73
     4
 74
     0
 42
0.00000001
 43
0.00000001
 40
67.0
 40
67.0
 40
67.0
 40
67.0
 40
68.0
 40
68.0
 40
68.0
 40
68.0
 10
9.863974170124614
 20
-28.62737240380984
 30
0.0
 10
9.929750373961975
 20
-28.63137718087538
 30
0.0
 10
9.995567330801844
 20
-28.63535635529414
 30
0.0
 10
10.05958246956674
 20
-28.63782455467626
 30
0.0
  0
SPLINE
  5
D3
330
77
100
AcDbEntity
  8
0
  6
Continuous
 62
     7
370
    18
100
AcDbSpline
210
0.0
220
0.0
230
1.0
 70
     8
 71
     3
 72
     8
 73
     4
 74
     0
 42
0.00000001
 43
0.00000001
 40
68.0
 40
68.0
 40
68.0
 40
68.0
 40
69.0
 40
69.0
 40
69.0
 40
69.0
 10
10.05958246956674
 20
-28.63782455467626
 30
0.0
 10
10.11127119041664
 20
-28.63985208217537
 30
0.0
 10
10.16294064545186
 20
-28.64456308025562
 30
0.0
 10
10.21460035848199
 20
-28.64618254964
 30
0.0
  0
SPLINE
  5
D4
330
77
100
AcDbEntity
  8
0
  6
Continuous
 62
     7
370
    18
100
AcDbSpline
210
0.0
220
0.0
230
1.0
 70
     8
 71
     3
 72
     8
 73
     4
 74
     0
 42
0.00000001
 43
0.00000001
 40
69.0
 40
69.0
 40
69.0
 40
69.0
 40
70.0
 40
70.0
 40
70.0
 40
70.0
 10
10.21460035848199
 20
-28.64618254964
 30
0.0
 10
10.21915118340657
 20
-28.64627909690886
 30
0.0
 10
10.22372526194017
 20
-28.64650312933368
 30
0.0
 10
10.22972170784432
 20
-28.64302011343959
 30
0.0
  0
SPLINE
  5
D5
330
77
100
AcDbEntity
  8
0
  6
Continuous
 62
     7
370
    18
100
AcDbSpline
210
0.0
220
0.0
230
1.0
 70
     8
 71
     3
 72
     8
 73
     4
 74
     0
 42
0.00000001
 43
0.00000001
 40
70.0
 40
70.0
 40
70.0
 40
70.0
 40
71.0
 40
71.0
 40
71.0
 40
71.0
 10
10.22972170784433
 20
-28.64302011343959
 30
0.0
 10
10.39542110854619
 20
-28.64648636439826
 30
0.0
 10
10.55222592049436
 20
-28.64556554872323
 30
0.0
 10
10.69525541603271
 20
-28.64198824855314
 30
0.0
  0
SPLINE
  5
D6
330
77
100
AcDbEntity
  8
0
  6
Continuous
 62
     7
370
    18
100
AcDbSpline
210
0.0
220
0.0
230
1.0
 70
     8
 71
     3
 72
     8
 73
     4
 74
     0
 42
0.00000001
 43
0.00000001
 40
71.0
 40
71.0
 40
71.0
 40
71.0
 40
72.0
 40
72.0
 40
72.0
 40
72.0
 10
10.6952554160327
 20
-28.64198824855314
 30
0.0
 10
10.93874918772079
 20
-28.62923420583628
 30
0.0
 10
12.86255814414376
 20
-28.44580125262167
 30
0.0
 10
13.43053046157378
 20
-28.5046888169102
 30
0.0
  0
SPLINE
  5
D7
330
77
100
AcDbEntity
  8
0
  6
Continuous
 62
     7
370
    18
100
AcDbSpline
210
0.0
220
0.0
230
1.0
 70
     8
 71
     3
 72
     8
 73
     4
 74
     0
 42
0.00000001
 43
0.00000001
 40
72.0
 40
72.0
 40
72.0
 40
72.0
 40
73.0
 40
73.0
 40
73.0
 40
73.0
 10
13.43053046157378
 20
-28.5046888169102
 30
0.0
 10
12.97694821790165
 20
-29.54354095615899
 30
0.0
 10
12.80375507038257
 20
-30.61054434437692
 30
0.0
 10
12.76467963112437
 20
-30.88580371497291
 30
0.0
  0
SPLINE
  5
D8
330
77
100
AcDbEntity
  8
0
  6
Continuous
 62
     7
370
    18
100
AcDbSpline
210
0.0
220
0.0
230
1.0
 70
     8
 71
     3
 72
     8
 73
     4
 74
     0
 42
0.00000001
 43
0.00000001
 40
73.0
 40
73.0
 40
73.0
 40
73.0
 40
74.0
 40
74.0
 40
74.0
 40
74.0
 10
12.76467963112437
 20
-30.88580371497291
 30
0.0
 10
12.75946694188426
 20
-30.92247061993447
 30
0.0
 10
12.78562558003658
 20
-30.95551385922744
 30
0.0
 10
12.8223724068011
 20
-30.95999428728276
 30
0.0
  0
SPLINE
  5
D9
330
77
100
AcDbEntity
  8
0
  6
Continuous
 62
     7
370
    18
100
AcDbSpline
210
0.0
220
0.0
230
1.0
 70
     8
 71
     3
 72
     8
 73
     4
 74
     0
 42
0.00000001
 43
0.00000001
 40
75.0
 40
75.0
 40
75.0
 40
75.0
 40
76.0
 40
76.0
 40
76.0
 40
76.0
 10
13.27084661062346
 20
-31.0149510216448
 30
0.0
 10
13.30643509061805
 20
-31.01930660488938
 30
0.0
 10
13.33913039971426
 20
-30.99490116531647
 30
0.0
 10
13.34433815412196
 20
-30.95940253133898
 30
0.0
  0
SPLINE
  5
DA
330
77
100
AcDbEntity
  8
0
  6
Continuous
 62
     7
370
    18
100
AcDbSpline
210
0.0
220
0.0
230
1.0
 70
     8
 71
     3
 72
     8
 73
     4
 74
     0
 42
0.00000001
 43
0.00000001
 40
76.0
 40
76.0
 40
76.0
 40
76.0
 40
77.0
 40
77.0
 40
77.0
 40
77.0
 10
13.34433815412196
 20
-30.95940253133898
 30
0.0
 10
13.3839863568229
 20
-30.68912606222256
 30
0.0
 10
13.56408992520232
 20
-29.60362871347513
 30
0.0
 10
14.02078503742013
 20
-28.61451474141115
 30
0.0
  0
SPLINE
  5
DB
330
77
100
AcDbEntity
  8
0
  6
Continuous
 62
     7
370
    18
100
AcDbSpline
210
0.0
220
0.0
230
1.0
 70
     8
 71
     3
 72
     8
 73
     4
 74
     0
 42
0.00000001
 43
0.00000001
 40
77.0
 40
77.0
 40
77.0
 40
77.0
 40
78.0
 40
78.0
 40
78.0
 40
78.0
 10
14.02078503742013
 20
-28.61451474141115
 30
0.0
 10
14.03051784933197
 20
-28.60422264166403
 30
0.0
 10
14.03832693001586
 20
-28.5959348321164
 30
0.0
 10
14.04805974192876
 20
-28.58564273237117
 30
0.0
  0
SPLINE
  5
DC
330
77
100
AcDbEntity
  8
0
  6
Continuous
 62
     7
370
    18
100
AcDbSpline
210
0.0
220
0.0
230
1.0
 70
     8
 71
     3
 72
     8
 73
     4
 74
     0
 42
0.00000001
 43
0.00000001
 40
78.0
 40
78.0
 40
78.0
 40
78.0
 40
79.0
 40
79.0
 40
79.0
 40
79.0
 10
14.04805974192877
 20
-28.58564273237117
 30
0.0
 10
14.36946299190545
 20
-28.42521597674384
 30
0.0
 10
15.82365074121367
 20
-27.67538698008446
 30
0.0
 10
17.12167999380672
 20
-27.35127481772455
 30
0.0
  0
SPLINE
  5
DD
330
77
100
AcDbEntity
  8
0
  6
Continuous
 62
     7
370
    18
100
AcDbSpline
210
0.0
220
0.0
230
1.0
 70
     8
 71
     3
 72
     8
 73
     4
 74
     0
 42
0.00000001
 43
0.00000001
 40
79.0
 40
79.0
 40
79.0
 40
79.0
 40
80.0
 40
80.0
 40
80.0
 40
80.0
 10
17.1216799938067
 20
-27.35127481772455
 30
0.0
 10
17.15690371849272
 20
-27.34247430066912
 30
0.0
 10
17.17784082126059
 20
-27.30749514968448
 30
0.0
 10
17.16924929537078
 20
-27.27219696609878
 30
0.0
  0
SPLINE
  5
DE
330
77
100
AcDbEntity
  8
0
  6
Continuous
 62
     7
370
    18
100
AcDbSpline
210
0.0
220
0.0
230
1.0
 70
     8
 71
     3
 72
     8
 73
     4
 74
     0
 42
0.00000001
 43
0.00000001
 40
81.0
 40
81.0
 40
81.0
 40
81.0
 40
82.0
 40
82.0
 40
82.0
 40
82.0
 10
17.06226621153357
 20
-26.8332975819211
 30
0.0
 10
17.05353856916747
 20
-26.79760179250334
 30
0.0
 10
17.01793344627307
 20
-26.77512547170584
 30
0.0
 10
16.98226613660748
 20
-26.78403415355417
 30
0.0
  0
SPLINE
  5
DF
330
77
100
AcDbEntity
  8
0
  6
Continuous
 62
     7
370
    18
100
AcDbSpline
210
0.0
220
0.0
230
1.0
 70
     8
 71
     3
 72
     8
 73
     4
 74
     0
 42
0.00000001
 43
0.00000001
 40
82.0
 40
82.0
 40
82.0
 40
82.0
 40
83.0
 40
83.0
 40
83.0
 40
83.0
 10
16.98226613660748
 20
-26.78403415355417
 30
0.0
 10
15.80703100274552
 20
-27.07715433462484
 30
0.0
 10
14.44247136659616
 20
-27.74853717091202
 30
0.0
 10
13.97401618096952
 20
-27.97182062237161
 30
0.0
  0
SPLINE
  5
E0
330
77
100
AcDbEntity
  8
0
  6
Continuous
 62
     7
370
    18
100
AcDbSpline
210
0.0
220
0.0
230
1.0
 70
     8
 71
     2
 72
     6
 73
     3
 74
     0
 42
0.00000001
 43
0.00000001
 40
83.0
 40
83.0
 40
83.0
 40
84.0
 40
84.0
 40
84.0
 10
13.97401618096952
 20
-27.97182062237161
 30
0.0
 10
13.76115166284069
 20
-28.0306975586193
 30
0.0
 10
13.62827019587519
 20
-28.06884456933804
 30
0.0
  0
SPLINE
  5
E1
330
77
100
AcDbEntity
  8
0
  6
Continuous
 62
     7
370
    18
100
AcDbSpline
210
0.0
220
0.0
230
1.0
 70
     8
 71
     2
 72
     6
 73
     3
 74
     0
 42
0.00000001
 43
0.00000001
 40
84.0
 40
84.0
 40
84.0
 40
85.0
 40
85.0
 40
85.0
 10
13.62827019587519
 20
-28.06884456933805
 30
0.0
 10
11.5526032886585
 20
-27.70008456573036
 30
0.0
 10
8.975295544280778
 20
-24.55390683673479
 30
0.0
  0
SPLINE
  5
E2
330
77
100
AcDbEntity
  8
0
  6
Continuous
 62
     7
370
    18
100
AcDbSpline
210
0.0
220
0.0
230
1.0
 70
     8
 71
     2
 72
     6
 73
     3
 74
     0
 42
0.00000001
 43
0.00000001
 40
8.0
 40
8.0
 40
8.0
 40
9.0
 40
9.0
 40
9.0
 10
1.034248725372328
 20
-24.04306676583063
 30
0.0
 10
0.5031359822839347
 20
-24.67424914238567
 30
0.0
 10
0.2366362148993398
 20
-25.09912070303729
 30
0.0
  0
SPLINE
  5
E3
330
77
100
AcDbEntity
  8
0
  6
Continuous
 62
     7
370
    18
100
AcDbSpline
210
0.0
220
0.0
230
1.0
 70
     8
 71
     3
 72
     8
 73
     4
 74
     0
 42
0.00000001
 43
0.00000001
 40
86.0
 40
86.0
 40
86.0
 40
86.0
 40
87.0
 40
87.0
 40
87.0
 40
87.0
 10
10.62007177823641
 20
-22.03794594188311
 30
0.0
 10
11.72219760878135
 20
-21.28087378904547
 30
0.0
 10
12.92971041173824
 20
-21.7396330529282
 30
0.0
 10
13.12249700197277
 20
-22.04761177879816
 30
0.0
  0
SPLINE
  5
E4
330
77
100
AcDbEntity
  8
0
  6
Continuous
 62
     7
370
    18
100
AcDbSpline
210
0.0
220
0.0
230
1.0
 70
     8
 71
     3
 72
     8
 73
     4
 74
     0
 42
0.00000001
 43
0.00000001
 40
87.0
 40
87.0
 40
87.0
 40
87.0
 40
88.0
 40
88.0
 40
88.0
 40
88.0
 10
13.12249700197277
 20
-22.04761177879816
 30
0.0
 10
13.26108412081468
 20
-22.26820779325175
 30
0.0
 10
13.22069296788121
 20
-22.53929203859532
 30
0.0
 10
13.16248097184179
 20
-22.77811969809535
 30
0.0
  0
SPLINE
  5
E5
330
77
100
AcDbEntity
  8
0
  6
Continuous
 62
     7
370
    18
100
AcDbSpline
210
0.0
220
0.0
230
1.0
 70
     8
 71
     3
 72
     8
 73
     4
 74
     0
 42
0.00000001
 43
0.00000001
 40
1.0
 40
1.0
 40
1.0
 40
1.0
 40
2.0
 40
2.0
 40
2.0
 40
2.0
 10
-12.97698727481876
 20
-11.94438967842669
 30
0.0
 10
-12.93408822057713
 20
-11.98055695107731
 30
0.0
 10
-12.89117871404966
 20
-12.0168313323847
 30
0.0
 10
-12.84833062834044
 20
-12.05192229234568
 30
0.0
  0
SPLINE
  5
E6
330
77
100
AcDbEntity
  8
0
  6
Continuous
 62
     7
370
    18
100
AcDbSpline
210
0.0
220
0.0
230
1.0
 70
     8
 71
     3
 72
     8
 73
     4
 74
     0
 42
0.00000001
 43
0.00000001
 40
0.0
 40
0.0
 40
0.0
 40
0.0
 40
1.0
 40
1.0
 40
1.0
 40
1.0
 10
-12.84833062834044
 20
-12.05192229234568
 30
0.0
 10
-12.89117977018919
 20
-12.01637729512133
 30
0.0
 10
-12.93406966504302
 20
-11.98085790053987
 30
0.0
 10
-12.97698727481876
 20
-11.94438967842669
 30
0.0
  0
SPLINE
  5
E7
330
77
100
AcDbEntity
  8
0
  6
Continuous
 62
     7
370
    18
100
AcDbSpline
210
0.0
220
0.0
230
1.0
 70
     8
 71
     3
 72
     8
 73
     4
 74
     0
 42
0.00000001
 43
0.00000001
 40
1.0
 40
1.0
 40
1.0
 40
1.0
 40
2.0
 40
2.0
 40
2.0
 40
2.0
 10
-13.12585089146288
 20
-11.81726812552848
 30
0.0
 10
-13.07617793437105
 20
-11.86068937846771
 30
0.0
 10
-13.02665471445727
 20
-11.90224380512823
 30
0.0
 10
-12.97698727481876
 20
-11.94438967842669
 30
0.0
  0
SPLINE
  5
E8
330
77
100
AcDbEntity
  8
0
  6
Continuous
 62
     7
370
    18
100
AcDbSpline
210
0.0
220
0.0
230
1.0
 70
     8
 71
     3
 72
     8
 73
     4
 74
     0
 42
0.00000001
 43
0.00000001
 40
0.0
 40
0.0
 40
0.0
 40
0.0
 40
1.0
 40
1.0
 40
1.0
 40
1.0
 10
-12.97698727481876
 20
-11.94438967842669
 30
0.0
 10
-13.02658495363045
 20
-11.90262626059936
 30
0.0
 10
-13.07617323629799
 20
-11.86051591416215
 30
0.0
 10
-13.12585089146288
 20
-11.81726812552848
 30
0.0
  0
SPLINE
  5
E9
330
77
100
AcDbEntity
  8
0
  6
Continuous
 62
     7
370
    18
100
AcDbSpline
210
0.0
220
0.0
230
1.0
 70
     8
 71
     3
 72
     8
 73
     4
 74
     0
 42
0.00000001
 43
0.00000001
 40
1.0
 40
1.0
 40
1.0
 40
1.0
 40
2.0
 40
2.0
 40
2.0
 40
2.0
 10
-13.4714083645441
 20
-11.50579973387192
 30
0.0
 10
-13.35607265135197
 20
-11.61411326446534
 30
0.0
 10
-13.24089747348539
 20
-11.71701440282046
 30
0.0
 10
-13.12585089146288
 20
-11.81726812552848
 30
0.0
  0
SPLINE
  5
EA
330
77
100
AcDbEntity
  8
0
  6
Continuous
 62
     7
370
    18
100
AcDbSpline
210
0.0
220
0.0
230
1.0
 70
     8
 71
     3
 72
     8
 73
     4
 74
     0
 42
0.00000001
 43
0.00000001
 40
0.0
 40
0.0
 40
0.0
 40
0.0
 40
1.0
 40
1.0
 40
1.0
 40
1.0
 10
-13.12585089146288
 20
-11.81726812552848
 30
0.0
 10
-13.24099048791926
 20
-11.71650446219232
 30
0.0
 10
-13.35623202143728
 20
-11.61358817347745
 30
0.0
 10
-13.4714083645441
 20
-11.50579973387192
 30
0.0
  0
SPLINE
  5
EB
330
77
100
AcDbEntity
  8
0
  6
Continuous
 62
     7
370
    18
100
AcDbSpline
210
0.0
220
0.0
230
1.0
 70
     8
 71
     3
 72
     8
 73
     4
 74
     0
 42
0.00000001
 43
0.00000001
 40
0.0
 40
0.0
 40
0.0
 40
0.0
 40
1.0
 40
1.0
 40
1.0
 40
1.0
 10
10.21461546345718
 20
-28.64617788443965
 30
0.0
 10
10.21918410196907
 20
-28.64627093080314
 30
0.0
 10
10.22372101727702
 20
-28.64652141251756
 30
0.0
 10
10.22970805870399
 20
-28.64302825278814
 30
0.0
  0
SPLINE
  5
EC
330
77
100
AcDbEntity
  8
0
  6
Continuous
 62
     7
370
    18
100
AcDbSpline
210
0.0
220
0.0
230
1.0
 70
     8
 71
     3
 72
     8
 73
     4
 74
     0
 42
0.00000001
 43
0.00000001
 40
1.0
 40
1.0
 40
1.0
 40
1.0
 40
2.0
 40
2.0
 40
2.0
 40
2.0
 10
10.22970805870399
 20
-28.64302825278814
 30
0.0
 10
10.39542645279408
 20
-28.64648116215303
 30
0.0
 10
10.55224712619552
 20
-28.64555481591909
 30
0.0
 10
10.69524471404092
 20
-28.64199596788804
 30
0.0
  0
SPLINE
  5
ED
330
77
100
AcDbEntity
  8
0
  6
Continuous
 62
     7
370
    18
100
AcDbSpline
210
0.0
220
0.0
230
1.0
 70
     8
 71
     3
 72
     8
 73
     4
 74
     0
 42
0.00000001
 43
0.00000001
 40
2.0
 40
2.0
 40
2.0
 40
2.0
 40
3.0
 40
3.0
 40
3.0
 40
3.0
 10
10.69524471404092
 20
-28.64199596788804
 30
0.0
 10
10.93878108149031
 20
-28.62922500765117
 30
0.0
 10
12.86256786793131
 20
-28.44579912729742
 30
0.0
 10
13.43053447184528
 20
-28.50468697828905
 30
0.0
  0
SPLINE
  5
EE
330
77
100
AcDbEntity
  8
0
  6
Continuous
 62
     7
370
    18
100
AcDbSpline
210
0.0
220
0.0
230
1.0
 70
     8
 71
     3
 72
     8
 73
     4
 74
     0
 42
0.00000001
 43
0.00000001
 40
3.0
 40
3.0
 40
3.0
 40
3.0
 40
4.0
 40
4.0
 40
4.0
 40
4.0
 10
13.43053447184528
 20
-28.50468697828905
 30
0.0
 10
11.96260748192116
 20
-28.37392053115179
 30
0.0
 10
10.1633950095022
 20
-27.12274869564028
 30
0.0
 10
9.151098102011504
 20
-26.42677276430952
 30
0.0
  0
SPLINE
  5
EF
330
77
100
AcDbEntity
  8
0
  6
Continuous
 62
     7
370
    18
100
AcDbSpline
210
0.0
220
0.0
230
1.0
 70
     8
 71
     3
 72
     8
 73
     4
 74
     0
 42
0.00000001
 43
0.00000001
 40
4.0
 40
4.0
 40
4.0
 40
4.0
 40
5.0
 40
5.0
 40
5.0
 40
5.0
 10
9.151098102011504
 20
-26.42677276430952
 30
0.0
 10
9.066774001144022
 20
-26.36879812840622
 30
0.0
 10
8.956675902463358
 20
-26.36572633462992
 30
0.0
 10
8.868930887547672
 20
-26.41838015454434
 30
0.0
  0
SPLINE
  5
F0
330
77
100
AcDbEntity
  8
0
  6
Continuous
 62
     7
370
    18
100
AcDbSpline
210
0.0
220
0.0
230
1.0
 70
     8
 71
     3
 72
     8
 73
     4
 74
     0
 42
0.00000001
 43
0.00000001
 40
5.0
 40
5.0
 40
5.0
 40
5.0
 40
6.0
 40
6.0
 40
6.0
 40
6.0
 10
8.868930887547672
 20
-26.41838015454434
 30
0.0
 10
8.137245193614708
 20
-26.85744836598368
 30
0.0
 10
6.503485492791613
 20
-27.54121410964402
 30
0.0
 10
5.741387155997157
 20
-27.6255445902606
 30
0.0
  0
SPLINE
  5
F1
330
77
100
AcDbEntity
  8
0
  6
Continuous
 62
     7
370
    18
100
AcDbSpline
210
0.0
220
0.0
230
1.0
 70
     8
 71
     2
 72
     6
 73
     3
 74
     0
 42
0.00000001
 43
0.00000001
 40
6.0
 40
6.0
 40
6.0
 40
7.0
 40
7.0
 40
7.0
 10
5.741387155997161
 20
-27.6255445902606
 30
0.0
 10
6.307502227055851
 20
-27.91539630107968
 30
0.0
 10
8.160512274320864
 20
-28.26397363103973
 30
0.0
  0
SPLINE
  5
F2
330
77
100
AcDbEntity
  8
0
  6
Continuous
 62
     7
370
    18
100
AcDbSpline
210
0.0
220
0.0
230
1.0
 70
     8
 71
     3
 72
     8
 73
     4
 74
     0
 42
0.00000001
 43
0.00000001
 40
7.0
 40
7.0
 40
7.0
 40
7.0
 40
8.0
 40
8.0
 40
8.0
 40
8.0
 10
8.160512274320864
 20
-28.26397363103973
 30
0.0
 10
8.607119606053496
 20
-28.41908372564989
 30
0.0
 10
9.192348948782854
 20
-28.5723594656304
 30
0.0
 10
9.863974461413067
 20
-28.62736281210606
 30
0.0
  0
SPLINE
  5
F3
330
77
100
AcDbEntity
  8
0
  6
Continuous
 62
     7
370
    18
100
AcDbSpline
210
0.0
220
0.0
230
1.0
 70
     8
 71
     3
 72
     8
 73
     4
 74
     0
 42
0.00000001
 43
0.00000001
 40
8.0
 40
8.0
 40
8.0
 40
8.0
 40
9.0
 40
9.0
 40
9.0
 40
9.0
 10
9.863974461413067
 20
-28.62736281210606
 30
0.0
 10
9.929765209251192
 20
-28.63135918423149
 30
0.0
 10
9.995575675609581
 20
-28.63534316840197
 30
0.0
 10
10.05956717050909
 20
-28.63784354557302
 30
0.0
  0
SPLINE
  5
F4
330
77
100
AcDbEntity
  8
0
  6
Continuous
 62
     7
370
    18
100
AcDbSpline
210
0.0
220
0.0
230
1.0
 70
     8
 71
     3
 72
     8
 73
     4
 74
     0
 42
0.00000001
 43
0.00000001
 40
9.0
 40
9.0
 40
9.0
 40
9.0
 40
10.0
 40
10.0
 40
10.0
 40
10.0
 10
10.05956717050909
 20
-28.63784354557302
 30
0.0
 10
10.11125739464263
 20
-28.63984923247316
 30
0.0
 10
10.16293232757963
 20
-28.6445665106095
 30
0.0
 10
10.21461546345718
 20
-28.64617788443965
 30
0.0
  0
SPLINE
  5
F5
330
77
100
AcDbEntity
  8
0
  6
Continuous
 62
     7
370
    18
100
AcDbSpline
210
0.0
220
0.0
230
1.0
 70
     8
 71
     3
 72
     8
 73
     4
 74
     0
 42
0.00000001
 43
0.00000001
 40
2.0
 40
2.0
 40
2.0
 40
2.0
 40
3.0
 40
3.0
 40
3.0
 40
3.0
 10
0.781062732010538
 20
-30.05650200510532
 30
0.0
 10
0.1140626469377116
 20
-30.75512103968738
 30
0.0
 10
-0.1792280526829951
 20
-32.7836717599449
 30
0.0
 10
0.56197195590197
 20
-34.03978273437906
 30
0.0
  0
SPLINE
  5
F6
330
77
100
AcDbEntity
  8
0
  6
Continuous
 62
     7
370
    18
100
AcDbSpline
210
0.0
220
0.0
230
1.0
 70
     8
 71
     3
 72
     8
 73
     4
 74
     0
 42
0.00000001
 43
0.00000001
 40
1.0
 40
1.0
 40
1.0
 40
1.0
 40
2.0
 40
2.0
 40
2.0
 40
2.0
 10
0.4097379340995931
 20
-32.31245563887509
 30
0.0
 10
0.4361424212053228
 20
-31.54090664650138
 30
0.0
 10
0.5999421143876079
 20
-30.80333732452794
 30
0.0
 10
0.781062732010538
 20
-30.05650200510532
 30
0.0
  0
SPLINE
  5
F7
330
77
100
AcDbEntity
  8
0
  6
Continuous
 62
     7
370
    18
100
AcDbSpline
210
0.0
220
0.0
230
1.0
 70
     8
 71
     3
 72
     8
 73
     4
 74
     0
 42
0.00000001
 43
0.00000001
 40
0.0
 40
0.0
 40
0.0
 40
0.0
 40
1.0
 40
1.0
 40
1.0
 40
1.0
 10
0.56197195590197
 20
-34.03978273437906
 30
0.0
 10
0.5009972121190077
 20
-33.45272095850807
 30
0.0
 10
0.3892431137951322
 20
-32.91035567089727
 30
0.0
 10
0.4097379340995931
 20
-32.31245563887509
 30
0.0
  0
SPLINE
  5
F8
330
77
100
AcDbEntity
  8
0
  6
Continuous
 62
     7
370
    18
100
AcDbSpline
210
0.0
220
0.0
230
1.0
 70
     8
 71
     3
 72
     8
 73
     4
 74
     0
 42
0.00000001
 43
0.00000001
 40
0.0
 40
0.0
 40
0.0
 40
0.0
 40
1.0
 40
1.0
 40
1.0
 40
1.0
 10
-13.20041683738652
 20
-13.00201936979761
 30
0.0
 10
-12.32154115485279
 20
-14.45520144446019
 30
0.0
 10
-7.761960537329054
 20
-16.44470317690969
 30
0.0
 10
-5.320322465359877
 20
-16.96155007555379
 30
0.0
  0
SPLINE
  5
F9
330
77
100
AcDbEntity
  8
0
  6
Continuous
 62
     7
370
    18
100
AcDbSpline
210
0.0
220
0.0
230
1.0
 70
     8
 71
     3
 72
     8
 73
     4
 74
     0
 42
0.00000001
 43
0.00000001
 40
1.0
 40
1.0
 40
1.0
 40
1.0
 40
2.0
 40
2.0
 40
2.0
 40
2.0
 10
-5.320322465359877
 20
-16.96155007555379
 30
0.0
 10
-5.809512907815261
 20
-18.73302606223522
 30
0.0
 10
-4.10582967731771
 20
-21.71579823494536
 30
0.0
 10
-3.813304494022616
 20
-22.3920269991983
 30
0.0
  0
SPLINE
  5
FA
330
77
100
AcDbEntity
  8
0
  6
Continuous
 62
     7
370
    18
100
AcDbSpline
210
0.0
220
0.0
230
1.0
 70
     8
 71
     2
 72
     6
 73
     3
 74
     0
 42
0.00000001
 43
0.00000001
 40
2.0
 40
2.0
 40
2.0
 40
3.0
 40
3.0
 40
3.0
 10
-3.813304494022616
 20
-22.3920269991983
 30
0.0
 10
-6.043590765584354
 20
-20.10932636703633
 30
0.0
 10
-6.677555282416556
 20
-17.81074155341886
 30
0.0
  0
SPLINE
  5
FB
330
77
100
AcDbEntity
  8
0
  6
Continuous
 62
     7
370
    18
100
AcDbSpline
210
0.0
220
0.0
230
1.0
 70
     8
 71
     2
 72
     6
 73
     3
 74
     0
 42
0.00000001
 43
0.00000001
 40
3.0
 40
3.0
 40
3.0
 40
4.0
 40
4.0
 40
4.0
 10
-6.677555282416556
 20
-17.81074155341886
 30
0.0
 10
-11.75039520923077
 20
-15.65450427384786
 30
0.0
 10
-13.20041683738652
 20
-13.00201936979761
 30
0.0
  0
SPLINE
  5
FC
330
77
100
AcDbEntity
  8
0
  6
Continuous
 62
     7
370
    18
100
AcDbSpline
210
0.0
220
0.0
230
1.0
 70
     8
 71
     2
 72
     6
 73
     3
 74
     0
 42
0.00000001
 43
0.00000001
 40
1.0
 40
1.0
 40
1.0
 40
2.0
 40
2.0
 40
2.0
 10
-1.349158294773173
 20
-16.43790442263529
 30
0.0
 10
-3.425676913677115
 20
-15.05901031383733
 30
0.0
 10
-4.497614924678368
 20
-14.22616249714356
 30
0.0
  0
SPLINE
  5
FD
330
77
100
AcDbEntity
  8
0
  6
Continuous
 62
     7
370
    18
100
AcDbSpline
210
0.0
220
0.0
230
1.0
 70
     8
 71
     3
 72
     8
 73
     4
 74
     0
 42
0.00000001
 43
0.00000001
 40
2.0
 40
2.0
 40
2.0
 40
2.0
 40
3.0
 40
3.0
 40
3.0
 40
3.0
 10
-4.497614924678368
 20
-14.22616249714356
 30
0.0
 10
-7.183559023213449
 20
-14.35196557735811
 30
0.0
 10
-9.97328197261404
 20
-14.40422605275014
 30
0.0
 10
-12.84833062834044
 20
-12.05192229234568
 30
0.0
  0
SPLINE
  5
FE
330
77
100
AcDbEntity
  8
0
  6
Continuous
 62
     7
370
    18
100
AcDbSpline
210
0.0
220
0.0
230
1.0
 70
     8
 71
     2
 72
     6
 73
     3
 74
     0
 42
0.00000001
 43
0.00000001
 40
3.0
 40
3.0
 40
3.0
 40
4.0
 40
4.0
 40
4.0
 10
-12.84833062834044
 20
-12.05192229234568
 30
0.0
 10
-8.926716496317836
 20
-15.30072905894997
 30
0.0
 10
-5.163233750484998
 20
-14.64433050232701
 30
0.0
  0
SPLINE
  5
FF
330
77
100
AcDbEntity
  8
0
  6
Continuous
 62
     7
370
    18
100
AcDbSpline
210
0.0
220
0.0
230
1.0
 70
     8
 71
     2
 72
     6
 73
     3
 74
     0
 42
0.00000001
 43
0.00000001
 40
4.0
 40
4.0
 40
4.0
 40
5.0
 40
5.0
 40
5.0
 10
-5.163233750484998
 20
-14.64433050232701
 30
0.0
 10
-3.522925431558867
 20
-15.98679375933487
 30
0.0
 10
-2.117352433414995
 20
-16.92051428596087
 30
0.0
  0
SPLINE
  5
100
330
77
100
AcDbEntity
  8
0
  6
Continuous
 62
     7
370
    18
100
AcDbSpline
210
0.0
220
0.0
230
1.0
 70
     8
 71
     3
 72
     8
 73
     4
 74
     0
 42
0.00000001
 43
0.00000001
 40
5.0
 40
5.0
 40
5.0
 40
5.0
 40
6.0
 40
6.0
 40
6.0
 40
6.0
 10
-2.117352433414995
 20
-16.92051428596087
 30
0.0
 10
-2.267881806210096
 20
-17.81976104868603
 30
0.0
 10
-2.407277268150154
 20
-19.21016616381927
 30
0.0
 10
-1.664620714277922
 20
-20.81035712110292
 30
0.0
  0
SPLINE
  5
101
330
77
100
AcDbEntity
  8
0
  6
Continuous
 62
     7
370
    18
100
AcDbSpline
210
0.0
220
0.0
230
1.0
 70
     8
 71
     3
 72
     8
 73
     4
 74
     0
 42
0.00000001
 43
0.00000001
 40
6.0
 40
6.0
 40
6.0
 40
6.0
 40
7.0
 40
7.0
 40
7.0
 40
7.0
 10
-1.664620714277922
 20
-20.81035712110292
 30
0.0
 10
-1.664312426395075
 20
-20.81130019442271
 30
0.0
 10
-1.664085644523588
 20
-20.81229447303425
 30
0.0
 10
-1.663777356640795
 20
-20.813237546354
 30
0.0
  0
SPLINE
  5
102
330
77
100
AcDbEntity
  8
0
  6
Continuous
 62
     7
370
    18
100
AcDbSpline
210
0.0
220
0.0
230
1.0
 70
     8
 71
     3
 72
     8
 73
     4
 74
     0
 42
0.00000001
 43
0.00000001
 40
7.0
 40
7.0
 40
7.0
 40
7.0
 40
8.0
 40
8.0
 40
8.0
 40
8.0
 10
-1.663777356640795
 20
-20.813237546354
 30
0.0
 10
-1.662901112489764
 20
-20.81490372147473
 30
0.0
 10
-1.661968964973327
 20
-20.81647793829811
 30
0.0
 10
-1.661092720823347
 20
-20.81814411341701
 30
0.0
  0
SPLINE
  5
103
330
77
100
AcDbEntity
  8
0
  6
Continuous
 62
     7
370
    18
100
AcDbSpline
210
0.0
220
0.0
230
1.0
 70
     8
 71
     3
 72
     8
 73
     4
 74
     0
 42
0.00000001
 43
0.00000001
 40
8.0
 40
8.0
 40
8.0
 40
8.0
 40
9.0
 40
9.0
 40
9.0
 40
9.0
 10
-1.661092720823347
 20
-20.81814411341701
 30
0.0
 10
-1.229373968722224
 20
-21.74517157116296
 30
0.0
 10
-0.5004685823514314
 20
-22.74228692212668
 30
0.0
 10
0.6942959165096505
 20
-23.75544460571742
 30
0.0
  0
SPLINE
  5
104
330
77
100
AcDbEntity
  8
0
  6
Continuous
 62
     7
370
    18
100
AcDbSpline
210
0.0
220
0.0
230
1.0
 70
     8
 71
     2
 72
     6
 73
     3
 74
     0
 42
0.00000001
 43
0.00000001
 40
9.0
 40
9.0
 40
9.0
 40
10.0
 40
10.0
 40
10.0
 10
0.6942959165096505
 20
-23.75544460571742
 30
0.0
 10
1.573046591396742
 20
-24.52641591715609
 30
0.0
 10
2.277251563960161
 20
-24.90565086721784
 30
0.0
  0
SPLINE
  5
105
330
77
100
AcDbEntity
  8
0
  6
Continuous
 62
     7
370
    18
100
AcDbSpline
210
0.0
220
0.0
230
1.0
 70
     8
 71
     3
 72
     8
 73
     4
 74
     0
 42
0.00000001
 43
0.00000001
 40
10.0
 40
10.0
 40
10.0
 40
10.0
 40
11.0
 40
11.0
 40
11.0
 40
11.0
 10
2.277251563960161
 20
-24.90565086721784
 30
0.0
 10
-0.3444737072681864
 20
-23.07744411042371
 30
0.0
 10
-1.384783611401682
 20
-21.0299715722269
 30
0.0
 10
-1.791077823248111
 20
-19.55173176913453
 30
0.0
  0
SPLINE
  5
106
330
77
100
AcDbEntity
  8
0
  6
Continuous
 62
     7
370
    18
100
AcDbSpline
210
0.0
220
0.0
230
1.0
 70
     8
 71
     3
 72
     8
 73
     4
 74
     0
 42
0.00000001
 43
0.00000001
 40
11.0
 40
11.0
 40
11.0
 40
11.0
 40
12.0
 40
12.0
 40
12.0
 40
12.0
 10
-1.791077823248111
 20
-19.55173176913453
 30
0.0
 10
-1.952004736442718
 20
-18.58763900877485
 30
0.0
 10
-1.857645689601465
 20
-17.53728176305358
 30
0.0
 10
-1.344635895048667
 20
-16.44003656241194
 30
0.0
  0
SPLINE
  5
107
330
77
100
AcDbEntity
  8
0
  6
Continuous
 62
     7
370
    18
100
AcDbSpline
210
0.0
220
0.0
230
1.0
 70
     8
 71
     3
 72
     8
 73
     4
 74
     0
 42
0.00000001
 43
0.00000001
 40
1.0
 40
1.0
 40
1.0
 40
1.0
 40
2.0
 40
2.0
 40
2.0
 40
2.0
 10
9.282072433202625
 20
-23.83234642604633
 30
0.0
 10
9.542961528798338
 20
-23.25329859518931
 30
0.0
 10
9.985495514983219
 20
-22.47632608388373
 30
0.0
 10
10.62007177823641
 20
-22.03794594188311
 30
0.0
  0
SPLINE
  5
108
330
77
100
AcDbEntity
  8
0
  6
Continuous
 62
     7
370
    18
100
AcDbSpline
210
0.0
220
0.0
230
1.0
 70
     8
 71
     3
 72
     8
 73
     4
 74
     0
 42
0.00000001
 43
0.00000001
 40
4.0
 40
4.0
 40
4.0
 40
4.0
 40
5.0
 40
5.0
 40
5.0
 40
5.0
 10
13.17134989821584
 20
-22.77125005992538
 30
0.0
 10
13.91734338198129
 20
-21.59974891081312
 30
0.0
 10
11.03631975087138
 20
-19.45853573582023
 30
0.0
 10
8.91093208540684
 20
-21.00902899615352
 30
0.0
  0
SPLINE
  5
109
330
77
100
AcDbEntity
  8
0
  6
Continuous
 62
     7
370
    18
100
AcDbSpline
210
0.0
220
0.0
230
1.0
 70
     8
 71
     3
 72
     8
 73
     4
 74
     0
 42
0.00000001
 43
0.00000001
 40
5.0
 40
5.0
 40
5.0
 40
5.0
 40
6.0
 40
6.0
 40
6.0
 40
6.0
 10
8.91093208540684
 20
-21.00902899615352
 30
0.0
 10
6.785544419941263
 20
-22.55952225648562
 30
0.0
 10
6.138264936105684
 20
-26.41214330901684
 30
0.0
 10
0.7891610119816483
 20
-30.05141434614796
 30
0.0
  0
SPLINE
  5
10A
330
77
100
AcDbEntity
  8
0
  6
Continuous
 62
     7
370
    18
100
AcDbSpline
210
0.0
220
0.0
230
1.0
 70
     8
 71
     2
 72
     6
 73
     3
 74
     0
 42
0.00000001
 43
0.00000001
 40
6.0
 40
6.0
 40
6.0
 40
7.0
 40
7.0
 40
7.0
 10
0.7891610119816483
 20
-30.05141434614796
 30
0.0
 10
2.027957268008918
 20
-29.56317356732477
 30
0.0
 10
2.266152999548186
 20
-29.47098631967676
 30
0.0
  0
SPLINE
  5
10B
330
77
100
AcDbEntity
  8
0
  6
Continuous
 62
     7
370
    18
100
AcDbSpline
210
0.0
220
0.0
230
1.0
 70
     8
 71
     3
 72
     8
 73
     4
 74
     0
 42
0.00000001
 43
0.00000001
 40
7.0
 40
7.0
 40
7.0
 40
7.0
 40
8.0
 40
8.0
 40
8.0
 40
8.0
 10
2.266152999548186
 20
-29.47098631967676
 30
0.0
 10
3.014801417132293
 20
-29.18122818076082
 30
0.0
 10
3.736118100429408
 20
-28.82241116458091
 30
0.0
 10
4.431146345693874
 20
-28.42149782758251
 30
0.0
  0
SPLINE
  5
10C
330
77
100
AcDbEntity
  8
0
  6
Continuous
 62
     7
370
    18
100
AcDbSpline
210
0.0
220
0.0
230
1.0
 70
     8
 71
     3
 72
     8
 73
     4
 74
     0
 42
0.00000001
 43
0.00000001
 40
9.0
 40
9.0
 40
9.0
 40
9.0
 40
10.0
 40
10.0
 40
10.0
 40
10.0
 10
5.741401688969916
 20
-27.62554000024407
 30
0.0
 10
7.060991710032899
 20
-26.77804674712032
 30
0.0
 10
8.443973707032603
 20
-26.09970911999108
 30
0.0
 10
9.267426036511852
 20
-23.87039661735003
 30
0.0
  0
SPLINE
  5
10D
330
77
100
AcDbEntity
  8
0
  6
Continuous
 62
     7
370
    18
100
AcDbSpline
210
0.0
220
0.0
230
1.0
 70
     8
 71
     3
 72
     8
 73
     4
 74
     0
 42
0.00000001
 43
0.00000001
 40
0.0
 40
0.0
 40
0.0
 40
0.0
 40
1.0
 40
1.0
 40
1.0
 40
1.0
 10
7.616643966539248
 20
-16.14063575935378
 30
0.0
 10
6.913790166466484
 20
-16.14488777689968
 30
0.0
 10
6.697443007890195
 20
-16.79416276836541
 30
0.0
 10
6.436018843175425
 20
-17.3230129233678
 30
0.0
  0
SPLINE
  5
10E
330
77
100
AcDbEntity
  8
0
  6
Continuous
 62
     7
370
    18
100
AcDbSpline
210
0.0
220
0.0
230
1.0
 70
     8
 71
     3
 72
     8
 73
     4
 74
     0
 42
0.00000001
 43
0.00000001
 40
1.0
 40
1.0
 40
1.0
 40
1.0
 40
2.0
 40
2.0
 40
2.0
 40
2.0
 10
6.436018843175425
 20
-17.3230129233678
 30
0.0
 10
5.948216897681968
 20
-18.30992905460965
 30
0.0
 10
5.052555161752526
 20
-19.5995436994
 30
0.0
 10
5.103926613042106
 20
-20.75366969743216
 30
0.0
  0
SPLINE
  5
10F
330
77
100
AcDbEntity
  8
0
  6
Continuous
 62
     7
370
    18
100
AcDbSpline
210
0.0
220
0.0
230
1.0
 70
     8
 71
     2
 72
     6
 73
     3
 74
     0
 42
0.00000001
 43
0.00000001
 40
2.0
 40
2.0
 40
2.0
 40
3.0
 40
3.0
 40
3.0
 10
5.103926613042106
 20
-20.75366969743216
 30
0.0
 10
5.110006812763316
 20
-21.55270934533252
 30
0.0
 10
5.893010450029737
 20
-21.89666129361517
 30
0.0
  0
SPLINE
  5
110
330
77
100
AcDbEntity
  8
0
  6
Continuous
 62
     7
370
    18
100
AcDbSpline
210
0.0
220
0.0
230
1.0
 70
     8
 71
     2
 72
     6
 73
     3
 74
     0
 42
0.00000001
 43
0.00000001
 40
3.0
 40
3.0
 40
3.0
 40
4.0
 40
4.0
 40
4.0
 10
5.893010450029737
 20
-21.89666129361517
 30
0.0
 10
5.064669634616712
 20
-21.16070169146862
 30
0.0
 10
5.897476922257513
 20
-19.59962191921445
 30
0.0
  0
SPLINE
  5
111
330
77
100
AcDbEntity
  8
0
  6
Continuous
 62
     7
370
    18
100
AcDbSpline
210
0.0
220
0.0
230
1.0
 70
     8
 71
     3
 72
     8
 73
     4
 74
     0
 42
0.00000001
 43
0.00000001
 40
4.0
 40
4.0
 40
4.0
 40
4.0
 40
5.0
 40
5.0
 40
5.0
 40
5.0
 10
5.897476922257513
 20
-19.59962191921445
 30
0.0
 10
6.365882597961094
 20
-18.72160531632978
 30
0.0
 10
6.783564254303969
 20
-18.1502556103958
 30
0.0
 10
6.961063665415703
 20
-17.79297771071811
 30
0.0
  0
SPLINE
  5
112
330
77
100
AcDbEntity
  8
0
  6
Continuous
 62
     7
370
    18
100
AcDbSpline
210
0.0
220
0.0
230
1.0
 70
     8
 71
     3
 72
     8
 73
     4
 74
     0
 42
0.00000001
 43
0.00000001
 40
5.0
 40
5.0
 40
5.0
 40
5.0
 40
6.0
 40
6.0
 40
6.0
 40
6.0
 10
6.961063665415703
 20
-17.79297771071811
 30
0.0
 10
6.969564036079641
 20
-17.77592889764838
 30
0.0
 10
6.978008503380095
 20
-17.75897204287472
 30
0.0
 10
6.986317910343667
 20
-17.74207161953264
 30
0.0
  0
SPLINE
  5
113
330
77
100
AcDbEntity
  8
0
  6
Continuous
 62
     7
370
    18
100
AcDbSpline
210
0.0
220
0.0
230
1.0
 70
     8
 71
     2
 72
     6
 73
     3
 74
     0
 42
0.00000001
 43
0.00000001
 40
6.0
 40
6.0
 40
6.0
 40
7.0
 40
7.0
 40
7.0
 10
6.986317910343667
 20
-17.74207161953264
 30
0.0
 10
7.02365081475716
 20
-17.66624177102196
 30
0.0
 10
7.044485288742809
 20
-17.62223308004855
 30
0.0
  0
SPLINE
  5
114
330
77
100
AcDbEntity
  8
0
  6
Continuous
 62
     7
370
    18
100
AcDbSpline
210
0.0
220
0.0
230
1.0
 70
     8
 71
     3
 72
     8
 73
     4
 74
     0
 42
0.00000001
 43
0.00000001
 40
8.0
 40
8.0
 40
8.0
 40
8.0
 40
9.0
 40
9.0
 40
9.0
 40
9.0
 10
7.043747273343362
 20
-17.62187258528872
 30
0.0
 10
7.259429684873595
 20
-17.1682239392887
 30
0.0
 10
7.409758570724429
 20
-16.77384940600867
 30
0.0
 10
7.501213874593598
 20
-16.5071459647044
 30
0.0
  0
SPLINE
  5
115
330
77
100
AcDbEntity
  8
0
  6
Continuous
 62
     7
370
    18
100
AcDbSpline
210
0.0
220
0.0
230
1.0
 70
     8
 71
     2
 72
     6
 73
     3
 74
     0
 42
0.00000001
 43
0.00000001
 40
9.0
 40
9.0
 40
9.0
 40
10.0
 40
10.0
 40
10.0
 10
7.501213874593598
 20
-16.5071459647044
 30
0.0
 10
7.58018144071422
 20
-16.27701921792476
 30
0.0
 10
7.616643966539248
 20
-16.14063575935378
 30
0.0
  0
SPLINE
  5
116
330
77
100
AcDbEntity
  8
0
  6
Continuous
 62
     7
370
    18
100
AcDbSpline
210
0.0
220
0.0
230
1.0
 70
     8
 71
     2
 72
     6
 73
     3
 74
     0
 42
0.00000001
 43
0.00000001
 40
0.0
 40
0.0
 40
0.0
 40
1.0
 40
1.0
 40
1.0
 10
0.3944126526828438
 20
-2.906969795378479
 30
0.0
 10
-0.9260675992531606
 20
-7.098093552135839
 30
0.0
 10
3.694246552495818
 20
-15.91394980485279
 30
0.0
  0
SPLINE
  5
117
330
77
100
AcDbEntity
  8
0
  6
Continuous
 62
     7
370
    18
100
AcDbSpline
210
0.0
220
0.0
230
1.0
 70
     8
 71
     3
 72
     8
 73
     4
 74
     0
 42
0.00000001
 43
0.00000001
 40
1.0
 40
1.0
 40
1.0
 40
1.0
 40
2.0
 40
2.0
 40
2.0
 40
2.0
 10
3.694246552495818
 20
-15.91394980485279
 30
0.0
 10
3.446899321752916
 20
-17.12012815823227
 30
0.0
 10
3.357918547908363
 20
-18.01529334045489
 30
0.0
 10
3.369570932292986
 20
-18.71508939083513
 30
0.0
  0
SPLINE
  5
118
330
77
100
AcDbEntity
  8
0
  6
Continuous
 62
     7
370
    18
100
AcDbSpline
210
0.0
220
0.0
230
1.0
 70
     8
 71
     3
 72
     8
 73
     4
 74
     0
 42
0.00000001
 43
0.00000001
 40
4.0
 40
4.0
 40
4.0
 40
4.0
 40
5.0
 40
5.0
 40
5.0
 40
5.0
 10
3.371167179561167
 20
-18.80258270306617
 30
0.0
 10
3.375320776009459
 20
-18.94553433452855
 30
0.0
 10
3.384065732186145
 20
-19.07969038264685
 30
0.0
 10
3.396375939104116
 20
-19.20694591668476
 30
0.0
  0
SPLINE
  5
119
330
77
100
AcDbEntity
  8
0
  6
Continuous
 62
     7
370
    18
100
AcDbSpline
210
0.0
220
0.0
230
1.0
 70
     8
 71
     2
 72
     6
 73
     3
 74
     0
 42
0.00000001
 43
0.00000001
 40
6.0
 40
6.0
 40
6.0
 40
7.0
 40
7.0
 40
7.0
 10
3.414912572583571
 20
-19.50415597158925
 30
0.0
 10
3.463733909636759
 20
-20.44034883554467
 30
0.0
 10
4.199514098340574
 20
-21.43655542025973
 30
0.0
  0
SPLINE
  5
11A
330
77
100
AcDbEntity
  8
0
  6
Continuous
 62
     7
370
    18
100
AcDbSpline
210
0.0
220
0.0
230
1.0
 70
     8
 71
     3
 72
     8
 73
     4
 74
     0
 42
0.00000001
 43
0.00000001
 40
7.0
 40
7.0
 40
7.0
 40
7.0
 40
8.0
 40
8.0
 40
8.0
 40
8.0
 10
4.199514098340574
 20
-21.43655542025973
 30
0.0
 10
4.209530614512485
 20
-21.44734234739126
 30
0.0
 10
4.217448187290456
 20
-21.45279791477912
 30
0.0
 10
4.226419929838382
 20
-21.46074569773323
 30
0.0
  0
SPLINE
  5
11B
330
77
100
AcDbEntity
  8
0
  6
Continuous
 62
     7
370
    18
100
AcDbSpline
210
0.0
220
0.0
230
1.0
 70
     8
 71
     2
 72
     6
 73
     3
 74
     0
 42
0.00000001
 43
0.00000001
 40
8.0
 40
8.0
 40
8.0
 40
9.0
 40
9.0
 40
9.0
 10
4.226419929838382
 20
-21.46074569773323
 30
0.0
 10
4.602113169577764
 20
-21.92169141031366
 30
0.0
 10
5.25588783635365
 20
-22.1084696061984
 30
0.0
  0
SPLINE
  5
11C
330
77
100
AcDbEntity
  8
0
  6
Continuous
 62
     7
370
    18
100
AcDbSpline
210
0.0
220
0.0
230
1.0
 70
     8
 71
     3
 72
     8
 73
     4
 74
     0
 42
0.00000001
 43
0.00000001
 40
9.0
 40
9.0
 40
9.0
 40
9.0
 40
10.0
 40
10.0
 40
10.0
 40
10.0
 10
5.25588783635365
 20
-22.1084696061984
 30
0.0
 10
4.722803653588975
 20
-21.69473771792311
 30
0.0
 10
4.555729374077984
 20
-21.23618402102321
 30
0.0
 10
4.5115397999614
 20
-20.91388289798429
 30
0.0
  0
SPLINE
  5
11D
330
77
100
AcDbEntity
  8
0
  6
Continuous
 62
     7
370
    18
100
AcDbSpline
210
0.0
220
0.0
230
1.0
 70
     8
 71
     3
 72
     8
 73
     4
 74
     0
 42
0.00000001
 43
0.00000001
 40
10.0
 40
10.0
 40
10.0
 40
10.0
 40
11.0
 40
11.0
 40
11.0
 40
11.0
 10
4.5115397999614
 20
-20.91388289798429
 30
0.0
 10
4.511444436489974
 20
-20.91345968950935
 30
0.0
 10
4.511458530710389
 20
-20.91293929659483
 30
0.0
 10
4.51136316724085
 20
-20.91251608811877
 30
0.0
  0
SPLINE
  5
11E
330
77
100
AcDbEntity
  8
0
  6
Continuous
 62
     7
370
    18
100
AcDbSpline
210
0.0
220
0.0
230
1.0
 70
     8
 71
     3
 72
     8
 73
     4
 74
     0
 42
0.00000001
 43
0.00000001
 40
11.0
 40
11.0
 40
11.0
 40
11.0
 40
12.0
 40
12.0
 40
12.0
 40
12.0
 10
4.51136316724085
 20
-20.91251608811877
 30
0.0
 10
4.492940501693147
 20
-20.77725000285986
 30
0.0
 10
4.49631721425359
 20
-20.66736453587088
 30
0.0
 10
4.503170896062897
 20
-20.59377375245777
 30
0.0
  0
SPLINE
  5
11F
330
77
100
AcDbEntity
  8
0
  6
Continuous
 62
     7
370
    18
100
AcDbSpline
210
0.0
220
0.0
230
1.0
 70
     8
 71
     3
 72
     8
 73
     4
 74
     0
 42
0.00000001
 43
0.00000001
 40
12.0
 40
12.0
 40
12.0
 40
12.0
 40
13.0
 40
13.0
 40
13.0
 40
13.0
 10
4.503170896062897
 20
-20.59377375245777
 30
0.0
 10
4.604013649449088
 20
-19.7965617294209
 30
0.0
 10
5.139276617404003
 20
-18.9096664850367
 30
0.0
 10
5.595548611273902
 20
-17.9099700673493
 30
0.0
  0
SPLINE
  5
120
330
77
100
AcDbEntity
  8
0
  6
Continuous
 62
     7
370
    18
100
AcDbSpline
210
0.0
220
0.0
230
1.0
 70
     8
 71
     2
 72
     6
 73
     3
 74
     0
 42
0.00000001
 43
0.00000001
 40
13.0
 40
13.0
 40
13.0
 40
14.0
 40
14.0
 40
14.0
 10
5.595548611273902
 20
-17.9099700673493
 30
0.0
 10
5.926118360772201
 20
-17.18568850106854
 30
0.0
 10
5.606497978493191
 20
-16.05075397327447
 30
0.0
  0
SPLINE
  5
121
330
77
100
AcDbEntity
  8
0
  6
Continuous
 62
     7
370
    18
100
AcDbSpline
210
0.0
220
0.0
230
1.0
 70
     8
 71
     3
 72
     8
 73
     4
 74
     0
 42
0.00000001
 43
0.00000001
 40
14.0
 40
14.0
 40
14.0
 40
14.0
 40
15.0
 40
15.0
 40
15.0
 40
15.0
 10
5.606497978493191
 20
-16.05075397327447
 30
0.0
 10
5.207525970226131
 20
-14.79026275050278
 30
0.0
 10
4.519773960143639
 20
-13.82671693217636
 30
0.0
 10
3.665223439147876
 20
-12.83569943160955
 30
0.0
  0
SPLINE
  5
122
330
77
100
AcDbEntity
  8
0
  6
Continuous
 62
     7
370
    18
100
AcDbSpline
210
0.0
220
0.0
230
1.0
 70
     8
 71
     3
 72
     8
 73
     4
 74
     0
 42
0.00000001
 43
0.00000001
 40
15.0
 40
15.0
 40
15.0
 40
15.0
 40
16.0
 40
16.0
 40
16.0
 40
16.0
 10
3.665223439147876
 20
-12.83569943160955
 30
0.0
 10
2.198391383191843
 20
-11.13462081873923
 30
0.0
 10
0.0517992661647096
 20
-7.209063579032926
 30
0.0
 10
0.3944126526828438
 20
-2.906969795378479
 30
0.0
  0
ENDBLK
  5
79
330
77
100
AcDbEntity
  8
0
100
AcDbBlockEnd
  0
ENDSEC
  0
SECTION
  2
ENTITIES
  0
LINE
  5
123
330
1F
100
AcDbEntity
  8
0
  6
Continuous
 62
     7
370
    25
100
AcDbLine
 10
207.1779069767
 20
229.7702251225
 30
0.0
 11
206.8779069767
 21
230.0702251225
 31
0.0
  0
LINE
  5
124
330
1F
100
AcDbEntity
  8
0
  6
Continuous
 62
     7
370
    25
100
AcDbLine
 10
204.5779069767
 20
229.7702251225
 30
0.0
 11
204.5779069767
 21
228.8283402755
 31
0.0
  0
LINE
  5
125
330
1F
100
AcDbEntity
  8
0
  6
Continuous
 62
     7
370
    25
100
AcDbLine
 10
207.1779069767
 20
229.0901647383
 30
0.0
 11
207.1779069767
 21
229.7702251225
 31
0.0
  0
LINE
  5
126
330
1F
100
AcDbEntity
  8
0
  6
Continuous
 62
     7
370
    25
100
AcDbLine
 10
204.8779069768
 20
230.0702251225
 30
0.0
 11
204.5779069767
 21
229.7702251225
 31
0.0
  0
LINE
  5
127
330
1F
100
AcDbEntity
  8
0
  6
Continuous
 62
     7
370
    25
100
AcDbLine
 10
169.5979069767
 20
217.8102251225
 30
0.0
 11
171.4979069767
 21
217.8102251225
 31
0.0
  0
LINE
  5
128
330
1F
100
AcDbEntity
  8
0
  6
Continuous
 62
     7
370
    25
100
AcDbLine
 10
170.2028874784
 20
225.8102251225
 30
0.0
 11
169.5979069767
 21
225.8102251225
 31
0.0
  0
LINE
  5
129
330
1F
100
AcDbEntity
  8
0
  6
Continuous
 62
     7
370
    25
100
AcDbLine
 10
171.4979069767
 20
225.8102251225
 30
0.0
 11
170.9979069767
 21
225.8102251225
 31
0.0
  0
LINE
  5
12A
330
1F
100
AcDbEntity
  8
0
  6
Continuous
 62
     7
370
    25
100
AcDbLine
 10
230.9979069767
 20
225.8102251225
 30
0.0
 11
230.4979069767
 21
225.8102251225
 31
0.0
  0
LINE
  5
12B
330
1F
100
AcDbEntity
  8
0
  6
Continuous
 62
     7
370
    25
100
AcDbLine
 10
232.3979069767
 20
225.8102251225
 30
0.0
 11
231.7929264751
 21
225.8102251225
 31
0.0
  0
LINE
  5
12C
330
1F
100
AcDbEntity
  8
0
  6
Continuous
 62
     7
370
    25
100
AcDbLine
 10
230.4979069767
 20
217.8102251225
 30
0.0
 11
232.3979069767
 21
217.8102251225
 31
0.0
  0
LINE
  5
12D
330
1F
100
AcDbEntity
  8
0
  6
Continuous
 62
     7
370
    25
100
AcDbLine
 10
232.9979069767
 20
225.8102251225
 30
0.0
 11
232.3979069767
 21
225.8102251225
 31
0.0
  0
LINE
  5
12E
330
1F
100
AcDbEntity
  8
0
  6
Continuous
 62
     7
370
    25
100
AcDbLine
 10
232.3979069767
 20
217.8102251225
 30
0.0
 11
232.9979069767
 21
217.8102251225
 31
0.0
  0
LINE
  5
12F
330
1F
100
AcDbEntity
  8
0
  6
Continuous
 62
     7
370
    25
100
AcDbLine
 10
168.9979069767
 20
217.8102251225
 30
0.0
 11
169.5979069767
 21
217.8102251225
 31
0.0
  0
LINE
  5
130
330
1F
100
AcDbEntity
  8
0
  6
Continuous
 62
     7
370
    25
100
AcDbLine
 10
169.5979069767
 20
225.8102251225
 30
0.0
 11
168.9979069767
 21
225.8102251225
 31
0.0
  0
CIRCLE
  5
131
330
1F
100
AcDbEntity
  8
0
  6
Continuous
 62
     7
370
    25
100
AcDbCircle
 10
216.9979069767
 20
224.8102251225
 30
0.0
 40
1.199999999999761
  0
CIRCLE
  5
132
330
1F
100
AcDbEntity
  8
0
  6
Continuous
 62
     7
370
    25
100
AcDbCircle
 10
216.9979069767
 20
203.4102251225
 30
0.0
 40
1.199999999999786
  0
CIRCLE
  5
133
330
1F
100
AcDbEntity
  8
0
  6
Continuous
 62
     7
370
    25
100
AcDbCircle
 10
184.9979069767
 20
203.4102251225
 30
0.0
 40
1.199999999999781
  0
CIRCLE
  5
134
330
1F
100
AcDbEntity
  8
0
  6
Continuous
 62
     7
370
    25
100
AcDbCircle
 10
184.9979069767
 20
224.8102251225
 30
0.0
 40
1.199999999999761
  0
LINE
  5
135
330
1F
100
AcDbEntity
  8
0
  6
Continuous
 62
     7
370
    25
100
AcDbLine
 10
230.5979069767
 20
212.7800049636
 30
0.0
 11
230.5979069767
 21
210.2365681515
 31
0.0
  0
LINE
  5
136
330
1F
100
AcDbEntity
  8
0
  6
Continuous
 62
     7
370
    25
100
AcDbLine
 10
232.1979069767
 20
210.2365681515
 30
0.0
 11
232.1979069767
 21
212.7800049636
 31
0.0
  0
LINE
  5
137
330
1F
100
AcDbEntity
  8
0
  6
Continuous
 62
     7
370
    25
100
AcDbLine
 10
171.3979069767
 20
210.2365681515
 30
0.0
 11
171.3979069767
 21
212.7800049636
 31
0.0
  0
LINE
  5
138
330
1F
100
AcDbEntity
  8
0
  6
Continuous
 62
     7
370
    25
100
AcDbLine
 10
169.7979069767
 20
212.7800049636
 30
0.0
 11
169.7979069767
 21
210.2365681515
 31
0.0
  0
LINE
  5
139
330
1F
100
AcDbEntity
  8
0
  6
Continuous
 62
     7
370
    25
100
AcDbLine
 10
169.7979069767
 20
217.8102251225
 30
0.0
 11
169.7979069767
 21
212.7800049636
 31
0.0
  0
LINE
  5
13A
330
1F
100
AcDbEntity
  8
0
  6
Continuous
 62
     7
370
    25
100
AcDbLine
 10
171.3979069767
 20
212.7800049636
 30
0.0
 11
171.3979069767
 21
217.8102251225
 31
0.0
  0
LINE
  5
13B
330
1F
100
AcDbEntity
  8
0
  6
Continuous
 62
     7
370
    25
100
AcDbLine
 10
232.1979069767
 20
212.7800049636
 30
0.0
 11
232.1979069767
 21
217.8102251225
 31
0.0
  0
LINE
  5
13C
330
1F
100
AcDbEntity
  8
0
  6
Continuous
 62
     7
370
    25
100
AcDbLine
 10
230.5979069767
 20
217.8102251225
 30
0.0
 11
230.5979069767
 21
212.7800049636
 31
0.0
  0
LINE
  5
13D
330
1F
100
AcDbEntity
  8
0
  6
Continuous
 62
     7
370
    25
100
AcDbLine
 10
232.1979069767
 20
209.9775597727
 30
0.0
 11
232.1979069767
 21
210.2365681515
 31
0.0
  0
LINE
  5
13E
330
1F
100
AcDbEntity
  8
0
  6
Continuous
 62
     7
370
    25
100
AcDbLine
 10
230.5979069767
 20
210.2365681515
 30
0.0
 11
230.5979069767
 21
209.9775597727
 31
0.0
  0
LINE
  5
13F
330
1F
100
AcDbEntity
  8
0
  6
Continuous
 62
     7
370
    25
100
AcDbLine
 10
169.7979069767
 20
210.2365681515
 30
0.0
 11
169.7979069767
 21
209.9775597727
 31
0.0
  0
LINE
  5
140
330
1F
100
AcDbEntity
  8
0
  6
Continuous
 62
     7
370
    25
100
AcDbLine
 10
171.3979069767
 20
209.9775597727
 30
0.0
 11
171.3979069767
 21
210.2365681515
 31
0.0
  0
SPLINE
  5
141
330
1F
100
AcDbEntity
  8
0
  6
Continuous
 62
     7
370
    25
100
AcDbSpline
210
0.0
220
0.0
230
1.0
 70
     8
 71
     3
 72
    23
 73
    19
 74
     0
 42
0.00000001
 43
0.00000001
 40
0.0
 40
0.0
 40
0.0
 40
0.0
 40
0.0450051111274662
 40
0.1308099543329237
 40
0.2167841302853938
 40
0.3030306236273069
 40
0.3898096564988054
 40
0.4776113750170413
 40
0.5675736979616853
 40
0.6632945275075052
 40
0.7226783886497032
 40
0.7734045628754105
 40
0.8095421725087388
 40
0.8479340693138051
 40
0.8899005830199325
 40
0.9347162125684697
 40
0.9811725462916163
 40
1.0
 40
1.0
 40
1.0
 40
1.0
 10
168.1979069767442
 20
209.0295549848792
 30
0.0
 10
168.2673615912306
 20
209.0296649185133
 30
0.0
 10
168.4692354389244
 20
209.029984446969
 30
0.0
 10
168.8008198408798
 20
209.033546592745
 30
0.0
 10
169.1800988790503
 20
209.0414786048122
 30
0.0
 10
169.5361610815759
 20
209.0532304128144
 30
0.0
 10
169.8613353750554
 20
209.0685996509443
 30
0.0
 10
170.150108880951
 20
209.0875680733988
 30
0.0
 10
170.4018949155052
 20
209.1108740075637
 30
0.0
 10
170.5864318445311
 20
209.1360079366732
 30
0.0
 10
170.7339548276019
 20
209.1668483037972
 30
0.0
 10
170.8617578521411
 20
209.2063302717282
 30
0.0
 10
170.999304036422
 20
209.2729147161899
 30
0.0
 10
171.1322188147419
 20
209.3688062757129
 30
0.0
 10
171.2570339503026
 20
209.5072118631456
 30
0.0
 10
171.3525958546011
 20
209.6855717320435
 30
0.0
 10
171.393770912655
 20
209.8498717944665
 30
0.0
 10
171.3969811604785
 20
209.9489781055551
 30
0.0
 10
171.3979069767442
 20
209.9775597727291
 30
0.0
  0
SPLINE
  5
142
330
1F
100
AcDbEntity
  8
0
  6
Continuous
 62
     7
370
    25
100
AcDbSpline
210
0.0
220
0.0
230
1.0
 70
     8
 71
     3
 72
    13
 73
     9
 74
     0
 42
0.00000001
 43
0.00000001
 40
0.0
 40
0.0
 40
0.0
 40
0.0
 40
0.0871945481337584
 40
0.294233262968062
 40
0.5050613635927165
 40
0.7178764337248307
 40
0.9317200919891179
 40
1.0
 40
1.0
 40
1.0
 40
1.0
 10
169.7979069767442
 20
210.6690736463524
 30
0.0
 10
169.7625469044326
 20
210.6668786211656
 30
0.0
 10
169.6432262625151
 20
210.6594716279897
 30
0.0
 10
169.3942937279038
 20
210.6492127936543
 30
0.0
 10
169.0608359552824
 20
210.638977486144
 30
0.0
 10
168.6977232108386
 20
210.6322535796749
 30
0.0
 10
168.4056387198359
 20
210.6297599831223
 30
0.0
 10
168.2383857543537
 20
210.6295949310048
 30
0.0
 10
168.1979069767442
 20
210.6295549848792
 30
0.0
  0
SPLINE
  5
143
330
1F
100
AcDbEntity
  8
0
  6
Continuous
 62
     7
370
    25
100
AcDbSpline
210
0.0
220
0.0
230
1.0
 70
     8
 71
     3
 72
    23
 73
    19
 74
     0
 42
0.00000001
 43
0.00000001
 40
0.0
 40
0.0
 40
0.0
 40
0.0
 40
0.0482028397739661
 40
0.0917240063164956
 40
0.1309567309215604
 40
0.1670505698862473
 40
0.200804915058254
 40
0.2341600393357795
 40
0.2711702358258022
 40
0.318605088840247
 40
0.3941024258687985
 40
0.4846639397610129
 40
0.5703714836783276
 40
0.6605783483014693
 40
0.7483099846657704
 40
0.8349632040672309
 40
0.9211065345268444
 40
0.9999999999999999
 40
0.9999999999999999
 40
0.9999999999999999
 40
0.9999999999999999
 10
230.5979069767442
 20
209.9775597727291
 30
0.0
 10
230.6036770698177
 20
209.9041619403357
 30
0.0
 10
230.6146568389767
 20
209.7644949980219
 30
0.0
 10
230.6944748527311
 20
209.5800660265714
 30
0.0
 10
230.7983490501655
 20
209.4351524617714
 30
0.0
 10
230.915727055191
 20
209.3277648427974
 30
0.0
 10
231.0338102795167
 20
209.2530906171278
 30
0.0
 10
231.1437723186091
 20
209.2042393309669
 30
0.0
 10
231.2469094447887
 20
209.1714728169227
 30
0.0
 10
231.3654269144906
 20
209.1443651651736
 30
0.0
 10
231.519899316414
 20
209.1200443310942
 30
0.0
 10
231.7334185219167
 20
209.0969935773533
 30
0.0
 10
232.0045021837898
 20
209.0763747287858
 30
0.0
 10
232.316120307844
 20
209.059337029713
 30
0.0
 10
232.6668977724855
 20
209.0458107183708
 30
0.0
 10
233.0410343396659
 20
209.0362805546456
 30
0.0
 10
233.4211751056564
 20
209.0305637087723
 30
0.0
 10
233.6760619760747
 20
209.0298812327304
 30
0.0
 10
233.7979069767442
 20
209.0295549848792
 30
0.0
  0
SPLINE
  5
144
330
1F
100
AcDbEntity
  8
0
  6
Continuous
 62
     7
370
    25
100
AcDbSpline
210
0.0
220
0.0
230
1.0
 70
     8
 71
     3
 72
    13
 73
     9
 74
     0
 42
0.00000001
 43
0.00000001
 40
0.0
 40
0.0
 40
0.0
 40
0.0
 40
0.1125917985351021
 40
0.3271174803860931
 40
0.5414504795817802
 40
0.7549433622833297
 40
0.9668809672455325
 40
1.0
 40
1.0
 40
1.0
 40
1.0
 10
233.7979069767442
 20
210.6295549848792
 30
0.0
 10
233.7312482184247
 20
210.6296601870851
 30
0.0
 10
233.537581847065
 20
210.629965835285
 30
0.0
 10
233.2203686192535
 20
210.6333872522147
 30
0.0
 10
232.858806506196
 20
210.6408861766985
 30
0.0
 10
232.5290641452721
 20
210.652038226777
 30
0.0
 10
232.3059585491294
 20
210.6616787545492
 30
0.0
 10
232.210771378433
 20
210.6679929050063
 30
0.0
 10
232.1979069767442
 20
210.6688462528599
 30
0.0
  0
LINE
  5
145
330
1F
100
AcDbEntity
  8
0
  6
Continuous
 62
     7
370
    25
100
AcDbLine
 10
168.1979069767
 20
210.6295549849
 30
0.0
 11
162.6979069767
 21
210.6295549849
 31
0.0
  0
LINE
  5
146
330
1F
100
AcDbEntity
  8
0
  6
Continuous
 62
     7
370
    25
100
AcDbLine
 10
162.6979069767
 20
209.0295549849
 30
0.0
 11
168.1979069767
 21
209.0295549849
 31
0.0
  0
LINE
  5
147
330
1F
100
AcDbEntity
  8
0
  6
Continuous
 62
     7
370
    25
100
AcDbLine
 10
162.6979069767
 20
210.6295549849
 30
0.0
 11
162.5979069767
 21
210.5295549849
 31
0.0
  0
LINE
  5
148
330
1F
100
AcDbEntity
  8
0
  6
Continuous
 62
     7
370
    25
100
AcDbLine
 10
162.5979069767
 20
209.1295549849
 30
0.0
 11
162.6979069767
 21
209.0295549849
 31
0.0
  0
LINE
  5
149
330
1F
100
AcDbEntity
  8
0
  6
Continuous
 62
     7
370
    25
100
AcDbLine
 10
239.2979069767
 20
210.6295549849
 30
0.0
 11
233.7979069767
 21
210.6295549849
 31
0.0
  0
LINE
  5
14A
330
1F
100
AcDbEntity
  8
0
  6
Continuous
 62
     7
370
    25
100
AcDbLine
 10
233.7979069767
 20
209.0295549849
 30
0.0
 11
239.2979069767
 21
209.0295549849
 31
0.0
  0
LINE
  5
14B
330
1F
100
AcDbEntity
  8
0
  6
Continuous
 62
     7
370
    25
100
AcDbLine
 10
239.2979069767
 20
209.0295549849
 30
0.0
 11
239.3979069767
 21
209.1295549849
 31
0.0
  0
LINE
  5
14C
330
1F
100
AcDbEntity
  8
0
  6
Continuous
 62
     7
370
    25
100
AcDbLine
 10
239.3979069767
 20
210.5295549849
 30
0.0
 11
239.2979069767
 21
210.6295549849
 31
0.0
  0
ARC
  5
14D
330
1F
100
AcDbEntity
  8
0
  6
Continuous
 62
     7
370
    25
100
AcDbCircle
 10
220.6248676288
 20
86.3672163731
 30
0.0
 40
0.2000000000000235
100
AcDbArc
 50
320.2453421196
 51
352.9728344126
  0
ARC
  5
14E
330
1F
100
AcDbEntity
  8
0
  6
Continuous
 62
     7
370
    25
100
AcDbCircle
 10
216.3709463247
 20
86.3672163731
 30
0.0
 40
0.2000000000000235
100
AcDbArc
 50
187.0271655874
 51
219.7546578804
  0
SPLINE
  5
14F
330
1F
100
AcDbEntity
  8
0
  6
Continuous
 62
     7
370
    25
100
AcDbSpline
210
0.0
220
0.0
230
1.0
 70
     8
 71
     3
 72
    11
 73
     7
 74
     0
 42
0.00000001
 43
0.00000001
 40
0.0
 40
0.0
 40
0.0
 40
0.0
 40
0.2706728893345802
 40
0.5972761992793697
 40
0.9114942371263213
 40
1.0
 40
1.0
 40
1.0
 40
1.0
 10
220.4369975825635
 20
85.458289936563
 30
0.0
 10
220.4428648799417
 20
85.52667972257869
 30
0.0
 10
220.455811862134
 20
85.67759099988241
 30
0.0
 10
220.5516434991666
 20
85.91383003303882
 30
0.0
 10
220.6719620081781
 20
86.1076097418096
 30
0.0
 10
220.7594078166097
 20
86.21558629291984
 30
0.0
 10
220.7786255980557
 20
86.23931607251414
 30
0.0
  0
SPLINE
  5
150
330
1F
100
AcDbEntity
  8
0
  6
Continuous
 62
     7
370
    25
100
AcDbSpline
210
0.0
220
0.0
230
1.0
 70
     8
 71
     3
 72
    12
 73
     8
 74
     0
 42
0.00000001
 43
0.00000001
 40
0.0
 40
0.0
 40
0.0
 40
0.0
 40
0.1457385529867504
 40
0.4224065763362236
 40
0.7025645190516607
 40
0.9915723830907645
 40
1.0
 40
1.0
 40
1.0
 40
1.0
 10
216.2171883554398
 20
86.23931607251414
 30
0.0
 10
216.2509780675287
 20
86.19665414165482
 30
0.0
 10
216.3489136947624
 20
86.07300340007093
 30
0.0
 10
216.4664092184157
 20
85.8700647071547
 30
0.0
 10
216.5441740826834
 20
85.63154686356833
 30
0.0
 10
216.5754367500542
 20
85.47286952960481
 30
0.0
 10
216.5640377372965
 20
85.39044932873348
 30
0.0
 10
216.5637147546034
 20
85.38811401259596
 30
0.0
  0
ARC
  5
151
330
1F
100
AcDbEntity
  8
0
  6
Continuous
 62
     7
370
    25
100
AcDbCircle
 10
220.6248676288
 20
84.4429471532
 30
0.0
 40
0.2000000000000257
100
AcDbArc
 50
281.9201320981
 51
350.5845175717
  0
ARC
  5
152
330
1F
100
AcDbEntity
  8
0
  6
Continuous
 62
     7
370
    25
100
AcDbCircle
 10
216.3709463247
 20
84.4429471532
 30
0.0
 40
0.2000000000000257
100
AcDbArc
 50
189.4154824284
 51
258.0798679019
  0
LINE
  5
153
330
1F
100
AcDbEntity
  8
0
  6
Continuous
 62
     7
370
    25
100
AcDbLine
 10
220.8223998413
 20
84.4103054914
 30
0.0
 11
220.9774015732
 21
85.2737299186
 31
0.0
  0
LINE
  5
154
330
1F
100
AcDbEntity
  8
0
  6
Continuous
 62
     7
370
    25
100
AcDbLine
 10
216.1494574844
 20
84.5210516105
 30
0.0
 11
216.1673336639
 21
84.4129202222
 31
0.0
  0
SPLINE
  5
155
330
1F
100
AcDbEntity
  8
0
  6
Continuous
 62
     7
370
    25
100
AcDbSpline
210
0.0
220
0.0
230
1.0
 70
     8
 71
     3
 72
     9
 73
     5
 74
     0
 42
0.00000001
 43
0.00000001
 40
0.0
 40
0.0
 40
0.0
 40
0.0
 40
0.5737248633754886
 40
1.0
 40
1.0
 40
1.0
 40
1.0
 10
215.8798272238642
 20
85.98984791939226
 30
0.0
 10
215.9382403247903
 20
85.7060770140492
 30
0.0
 10
216.040054111598
 20
85.21146553133688
 30
0.0
 10
216.1167597695855
 20
84.72739769396722
 30
0.0
 10
216.149457484424
 20
84.52105161045692
 30
0.0
  0
SPLINE
  5
156
330
1F
100
AcDbEntity
  8
0
  6
Continuous
 62
     7
370
    25
100
AcDbSpline
210
0.0
220
0.0
230
1.0
 70
     8
 71
     3
 72
    11
 73
     7
 74
     0
 42
0.00000001
 43
0.00000001
 40
0.0
 40
0.0
 40
0.0
 40
0.0
 40
0.0925535171474345
 40
0.424979908340933
 40
0.757903242793194
 40
1.0
 40
1.0
 40
1.0
 40
1.0
 10
219.2965707537054
 20
84.06791230637681
 30
0.0
 10
219.3420093733596
 20
84.07030777646133
 30
0.0
 10
219.5506508276334
 20
84.08130710623648
 30
0.0
 10
219.9087146483764
 20
84.12064462096423
 30
0.0
 10
220.321845765362
 20
84.17864526915152
 30
0.0
 10
220.5641581214524
 20
84.22693061272538
 30
0.0
 10
220.6661772273785
 20
84.24725985907591
 30
0.0
  0
SPLINE
  5
157
330
1F
100
AcDbEntity
  8
0
  6
Continuous
 62
     7
370
    25
100
AcDbSpline
210
0.0
220
0.0
230
1.0
 70
     8
 71
     3
 72
    12
 73
     8
 74
     0
 42
0.00000001
 43
0.00000001
 40
0.0
 40
0.0
 40
0.0
 40
0.0
 40
0.1036834819918954
 40
0.3447565350566568
 40
0.5855730551622127
 40
0.8263052096578708
 40
1.0
 40
1.0
 40
1.0
 40
1.0
 10
217.2670815383844
 20
84.1051721922939
 30
0.0
 10
217.3340340520327
 20
84.09754016347567
 30
0.0
 10
217.5566569440817
 20
84.07216300830807
 30
0.0
 10
217.9542892584763
 20
84.04911641782348
 30
0.0
 10
218.448893491096
 20
84.03689865217888
 30
0.0
 10
218.900668977194
 20
84.04254378168525
 30
0.0
 10
219.1796458520161
 20
84.06042001300622
 30
0.0
 10
219.2965707537054
 20
84.06791230637681
 30
0.0
  0
SPLINE
  5
158
330
1F
100
AcDbEntity
  8
0
  6
Continuous
 62
     7
370
    25
100
AcDbSpline
210
0.0
220
0.0
230
1.0
 70
     8
 71
     3
 72
    10
 73
     6
 74
     0
 42
0.00000001
 43
0.00000001
 40
0.0
 40
0.0
 40
0.0
 40
0.0
 40
0.2502355006436057
 40
0.7279697107287793
 40
1.0
 40
1.0
 40
1.0
 40
1.0
 10
216.329636726117
 20
84.24725985907591
 30
0.0
 10
216.4030932189228
 20
84.2325019882926
 30
0.0
 10
216.6167883248589
 20
84.18956929929578
 30
0.0
 10
216.9285533977137
 20
84.13946741168873
 30
0.0
 10
217.1769558995985
 20
84.11430253681752
 30
0.0
 10
217.2670815383844
 20
84.1051721922939
 30
0.0
  0
ARC
  5
159
330
1F
100
AcDbEntity
  8
0
  6
Continuous
 62
     7
370
    25
100
AcDbCircle
 10
185.6248676288
 20
86.3672163731
 30
0.0
 40
0.2000000000000219
100
AcDbArc
 50
320.2453421196
 51
352.9728344126
  0
ARC
  5
15A
330
1F
100
AcDbEntity
  8
0
  6
Continuous
 62
     7
370
    25
100
AcDbCircle
 10
181.3709463247
 20
86.3672163731
 30
0.0
 40
0.2
100
AcDbArc
 50
187.0271655874
 51
219.7546578804
  0
SPLINE
  5
15B
330
1F
100
AcDbEntity
  8
0
  6
Continuous
 62
     7
370
    25
100
AcDbSpline
210
0.0
220
0.0
230
1.0
 70
     8
 71
     3
 72
    12
 73
     8
 74
     0
 42
0.00000001
 43
0.00000001
 40
0.0
 40
0.0
 40
0.0
 40
0.0
 40
0.1457385529867501
 40
0.4224065763362244
 40
0.7025645190516607
 40
0.9915723830907645
 40
1.0
 40
1.0
 40
1.0
 40
1.0
 10
181.2171883554398
 20
86.2393160725142
 30
0.0
 10
181.2509780675288
 20
86.19665414165488
 30
0.0
 10
181.3489136947624
 20
86.07300340007099
 30
0.0
 10
181.4664092184157
 20
85.87006470715475
 30
0.0
 10
181.5441740826834
 20
85.6315468635684
 30
0.0
 10
181.5754367500543
 20
85.47286952960486
 30
0.0
 10
181.5640377372965
 20
85.39044932873355
 30
0.0
 10
181.5637147546034
 20
85.38811401259602
 30
0.0
  0
SPLINE
  5
15C
330
1F
100
AcDbEntity
  8
0
  6
Continuous
 62
     7
370
    25
100
AcDbSpline
210
0.0
220
0.0
230
1.0
 70
     8
 71
     3
 72
    11
 73
     7
 74
     0
 42
0.00000001
 43
0.00000001
 40
0.0
 40
0.0
 40
0.0
 40
0.0
 40
0.2706728893345804
 40
0.597276199279368
 40
0.911494237126325
 40
1.0
 40
1.0
 40
1.0
 40
1.0
 10
185.4369975825635
 20
85.45828993656306
 30
0.0
 10
185.4428648799418
 20
85.52667972257873
 30
0.0
 10
185.455811862134
 20
85.67759099988247
 30
0.0
 10
185.5516434991665
 20
85.91383003303888
 30
0.0
 10
185.6719620081781
 20
86.10760974180965
 30
0.0
 10
185.7594078166097
 20
86.21558629291991
 30
0.0
 10
185.7786255980557
 20
86.2393160725142
 30
0.0
  0
ARC
  5
15D
330
1F
100
AcDbEntity
  8
0
  6
Continuous
 62
     7
370
    25
100
AcDbCircle
 10
185.6248676288
 20
84.4429471532
 30
0.0
 40
0.200000000000008
100
AcDbArc
 50
281.9201320981
 51
350.5845175716
  0
ARC
  5
15E
330
1F
100
AcDbEntity
  8
0
  6
Continuous
 62
     7
370
    25
100
AcDbCircle
 10
181.3709463247
 20
84.4429471532
 30
0.0
 40
0.200000000000028
100
AcDbArc
 50
189.4154824284
 51
258.0798679019
  0
SPLINE
  5
15F
330
1F
100
AcDbEntity
  8
0
  6
Continuous
 62
     7
370
    25
100
AcDbSpline
210
0.0
220
0.0
230
1.0
 70
     8
 71
     3
 72
     9
 73
     5
 74
     0
 42
0.00000001
 43
0.00000001
 40
0.0
 40
0.0
 40
0.0
 40
0.0
 40
0.8543579983292214
 40
1.0
 40
1.0
 40
1.0
 40
1.0
 10
185.8223998412691
 20
84.41030549141418
 30
0.0
 10
185.8974751380821
 20
84.86003026243452
 30
0.0
 10
185.9853484850393
 20
85.38641940129646
 30
0.0
 10
186.0981269966194
 20
85.92197721538945
 30
0.0
 10
186.1145522847914
 20
85.99997692744438
 30
0.0
  0
LINE
  5
160
330
1F
100
AcDbEntity
  8
0
  6
Continuous
 62
     7
370
    25
100
AcDbLine
 10
181.1494574844
 20
84.5210516105
 30
0.0
 11
181.1673336639
 21
84.4129202222
 31
0.0
  0
SPLINE
  5
161
330
1F
100
AcDbEntity
  8
0
  6
Continuous
 62
     7
370
    25
100
AcDbSpline
210
0.0
220
0.0
230
1.0
 70
     8
 71
     3
 72
     9
 73
     5
 74
     0
 42
0.00000001
 43
0.00000001
 40
0.0
 40
0.0
 40
0.0
 40
0.0
 40
0.1807184819366178
 40
1.0
 40
1.0
 40
1.0
 40
1.0
 10
181.0194362377965
 20
85.28095965671785
 30
0.0
 10
181.0287003531865
 20
85.23458196685756
 30
0.0
 10
181.0799630424847
 20
84.97795248788401
 30
0.0
 10
181.118161881559
 20
84.7268089057113
 30
0.0
 10
181.149457484424
 20
84.521051610457
 30
0.0
  0
SPLINE
  5
162
330
1F
100
AcDbEntity
  8
0
  6
Continuous
 62
     7
370
    25
100
AcDbSpline
210
0.0
220
0.0
230
1.0
 70
     8
 71
     3
 72
    11
 73
     7
 74
     0
 42
0.00000001
 43
0.00000001
 40
0.0
 40
0.0
 40
0.0
 40
0.0
 40
0.0925535171474357
 40
0.4249799083409302
 40
0.7579032427931923
 40
1.0
 40
1.0
 40
1.0
 40
1.0
 10
184.2965707537054
 20
84.06791230637688
 30
0.0
 10
184.3420093733596
 20
84.0703077764614
 30
0.0
 10
184.5506508276334
 20
84.08130710623654
 30
0.0
 10
184.9087146483764
 20
84.12064462096428
 30
0.0
 10
185.321845765362
 20
84.17864526915159
 30
0.0
 10
185.5641581214524
 20
84.22693061272543
 30
0.0
 10
185.6661772273785
 20
84.24725985907597
 30
0.0
  0
SPLINE
  5
163
330
1F
100
AcDbEntity
  8
0
  6
Continuous
 62
     7
370
    25
100
AcDbSpline
210
0.0
220
0.0
230
1.0
 70
     8
 71
     3
 72
    12
 73
     8
 74
     0
 42
0.00000001
 43
0.00000001
 40
0.0
 40
0.0
 40
0.0
 40
0.0
 40
0.103683481991892
 40
0.3447565350566544
 40
0.5855730551622125
 40
0.8263052096578728
 40
1.0
 40
1.0
 40
1.0
 40
1.0
 10
182.2670815383844
 20
84.10517219229396
 30
0.0
 10
182.3340340520328
 20
84.09754016347573
 30
0.0
 10
182.5566569440818
 20
84.07216300830812
 30
0.0
 10
182.9542892584763
 20
84.04911641782353
 30
0.0
 10
183.448893491096
 20
84.03689865217893
 30
0.0
 10
183.9006689771941
 20
84.04254378168531
 30
0.0
 10
184.1796458520162
 20
84.0604200130063
 30
0.0
 10
184.2965707537054
 20
84.06791230637688
 30
0.0
  0
SPLINE
  5
164
330
1F
100
AcDbEntity
  8
0
  6
Continuous
 62
     7
370
    25
100
AcDbSpline
210
0.0
220
0.0
230
1.0
 70
     8
 71
     3
 72
    10
 73
     6
 74
     0
 42
0.00000001
 43
0.00000001
 40
0.0
 40
0.0
 40
0.0
 40
0.0
 40
0.2502355006436062
 40
0.7279697107287736
 40
1.0
 40
1.0
 40
1.0
 40
1.0
 10
181.329636726117
 20
84.24725985907597
 30
0.0
 10
181.4030932189228
 20
84.23250198829265
 30
0.0
 10
181.6167883248589
 20
84.18956929929584
 30
0.0
 10
181.9285533977137
 20
84.1394674116888
 30
0.0
 10
182.1769558995985
 20
84.11430253681758
 30
0.0
 10
182.2670815383844
 20
84.10517219229396
 30
0.0
  0
LINE
  5
165
330
1F
100
AcDbEntity
  8
0
  6
Continuous
 62
     7
370
    25
100
AcDbLine
 10
188.9979069767
 20
86.1273230938
 30
0.0
 11
188.9979069767
 21
86.1341634967
 31
0.0
  0
LINE
  5
166
330
1F
100
AcDbEntity
  8
0
  6
Continuous
 62
     7
370
    25
100
AcDbLine
 10
187.9979069767
 20
86.1341634967
 30
0.0
 11
187.9979069767
 21
86.1273230938
 31
0.0
  0
LINE
  5
167
330
1F
100
AcDbEntity
  8
0
  6
Continuous
 62
     7
370
    25
100
AcDbLine
 10
223.9979069767
 20
86.1273230938
 30
0.0
 11
223.9979069767
 21
86.1341634967
 31
0.0
  0
LINE
  5
168
330
1F
100
AcDbEntity
  8
0
  6
Continuous
 62
     7
370
    25
100
AcDbLine
 10
222.9979069767
 20
86.1341634967
 30
0.0
 11
222.9979069767
 21
86.1273230938
 31
0.0
  0
SPLINE
  5
169
330
1F
100
AcDbEntity
  8
0
  6
Continuous
 62
     7
370
    25
100
AcDbSpline
210
0.0
220
0.0
230
1.0
 70
     8
 71
     3
 72
    13
 73
     9
 74
     0
 42
0.00000001
 43
0.00000001
 40
0.0
 40
0.0
 40
0.0
 40
0.0
 40
0.1125896243903954
 40
0.3882057640500745
 40
0.6271297579808783
 40
0.8264756773241327
 40
0.994350943758611
 40
0.9999999999999999
 40
0.9999999999999999
 40
0.9999999999999999
 40
0.9999999999999999
 10
185.5083361245943
 20
242.7808071649878
 30
0.0
 10
185.5084024346969
 20
242.7773513612907
 30
0.0
 10
185.5086310700102
 20
242.7654358502311
 30
0.0
 10
185.5066287920597
 20
242.7469265214205
 30
0.0
 10
185.503138635424
 20
242.7298447815043
 30
0.0
 10
185.5002221400581
 20
242.7208106166341
 30
0.0
 10
185.4982847133476
 20
242.7178361993164
 30
0.0
 10
185.4988321629162
 20
242.7185252588392
 30
0.0
 10
185.4988499850483
 20
242.7185476910605
 30
0.0
  0
ARC
  5
16A
330
1F
100
AcDbEntity
  8
0
  6
Continuous
 62
     7
370
    25
100
AcDbCircle
 10
185.5586199884
 20
243.8008109089
 30
0.0
 40
0.0500000000000114
100
AcDbArc
 50
90.0
 51
180.0
  0
LINE
  5
16B
330
1F
100
AcDbEntity
  8
0
  6
Continuous
 62
     7
370
    25
100
AcDbLine
 10
185.5086199884
 20
243.8008109089
 30
0.0
 11
185.5086199884
 21
242.7808109089
 31
0.0
  0
ARC
  5
16C
330
1F
100
AcDbEntity
  8
0
  6
Continuous
 62
     7
370
    25
100
AcDbCircle
 10
186.7465955016
 20
243.8008109089
 30
0.0
 40
0.0500000000000114
100
AcDbArc
 50
0.0
 51
90.0
  0
LINE
  5
16D
330
1F
100
AcDbEntity
  8
0
  6
Continuous
 62
     7
370
    25
100
AcDbLine
 10
186.7965955016
 20
242.7808109089
 30
0.0
 11
186.7965955016
 21
243.8008109089
 31
0.0
  0
ARC
  5
16E
330
1F
100
AcDbEntity
  8
0
  6
Continuous
 62
     7
370
    25
100
AcDbCircle
 10
187.2879069767
 20
242.5408109089
 30
0.0
 40
0.0500000000000398
100
AcDbArc
 50
270.0
 51
0.0
  0
ARC
  5
16F
330
1F
100
AcDbEntity
  8
0
  6
Continuous
 62
     7
370
    25
100
AcDbCircle
 10
187.2879069767
 20
242.6808109089
 30
0.0
 40
0.0500000000000398
100
AcDbArc
 50
0.0
 51
90.0
  0
LINE
  5
170
330
1F
100
AcDbEntity
  8
0
  6
Continuous
 62
     7
370
    25
100
AcDbLine
 10
187.3379069767
 20
242.5408109089
 30
0.0
 11
187.3379069767
 21
242.6808109089
 31
0.0
  0
ARC
  5
171
330
1F
100
AcDbEntity
  8
0
  6
Continuous
 62
     7
370
    25
100
AcDbCircle
 10
184.4492184518
 20
243.8008109089
 30
0.0
 40
0.0499999999999829
100
AcDbArc
 50
90.0
 51
180.0
  0
LINE
  5
172
330
1F
100
AcDbEntity
  8
0
  6
Continuous
 62
     7
370
    25
100
AcDbLine
 10
184.3992184518
 20
243.8008109089
 30
0.0
 11
184.3992184518
 21
242.9708109089
 31
0.0
  0
ARC
  5
173
330
1F
100
AcDbEntity
  8
0
  6
Continuous
 62
     7
370
    25
100
AcDbCircle
 10
187.2879069767
 20
242.7808109089
 30
0.0
 40
0.0499999999999829
100
AcDbArc
 50
270.0
 51
308.2514770357
  0
SPLINE
  5
174
330
1F
100
AcDbEntity
  8
0
  6
Continuous
 62
     7
370
    25
100
AcDbSpline
210
0.0
220
0.0
230
1.0
 70
     8
 71
     3
 72
    13
 73
     9
 74
     0
 42
0.00000001
 43
0.00000001
 40
0.0
 40
0.0
 40
0.0
 40
0.0
 40
0.0720331338747721
 40
0.2498267697344093
 40
0.4410263936049077
 40
0.6649653389233618
 40
0.9388039114484052
 40
0.9999999999999999
 40
0.9999999999999999
 40
0.9999999999999999
 40
0.9999999999999999
 10
184.2402378205712
 20
242.6808201256412
 30
0.0
 10
184.2401138164155
 20
242.6829448079972
 30
0.0
 10
184.2396837426983
 20
242.6903136742559
 30
0.0
 10
184.2439189126104
 20
242.7027747995873
 30
0.0
 10
184.2527247157699
 20
242.7163484790944
 30
0.0
 10
184.2666090973814
 20
242.7265748447118
 30
0.0
 10
184.2793226989537
 20
242.7312193138891
 30
0.0
 10
184.2869897033227
 20
242.730459474487
 30
0.0
 10
184.2883901276155
 20
242.7303206852668
 30
0.0
  0
ARC
  5
175
330
1F
100
AcDbEntity
  8
0
  6
Continuous
 62
     7
370
    25
100
AcDbCircle
 10
184.1896991106
 20
241.6608109089
 30
0.0
 40
0.0499999999999829
100
AcDbArc
 50
270.0
 51
0.0
  0
LINE
  5
176
330
1F
100
AcDbEntity
  8
0
  6
Continuous
 62
     7
370
    25
100
AcDbLine
 10
184.2396991106
 20
241.6608109089
 30
0.0
 11
184.2396991106
 21
242.6808109089
 31
0.0
  0
ARC
  5
177
330
1F
100
AcDbEntity
  8
0
  6
Continuous
 62
     7
370
    25
100
AcDbCircle
 10
183.6126524815
 20
241.6608109089
 30
0.0
 40
0.0500000000000398
100
AcDbArc
 50
180.0
 51
270.0
  0
LINE
  5
178
330
1F
100
AcDbEntity
  8
0
  6
Continuous
 62
     7
370
    25
100
AcDbLine
 10
183.5626524815
 20
242.6808109089
 30
0.0
 11
183.5626524815
 21
241.6608109089
 31
0.0
  0
LINE
  5
179
330
1F
100
AcDbEntity
  8
0
  6
Continuous
 62
     7
370
    25
100
AcDbLine
 10
187.633161472
 20
241.6608109089
 30
0.0
 11
187.633161472
 21
242.6808109089
 31
0.0
  0
ARC
  5
17A
330
1F
100
AcDbEntity
  8
0
  6
Continuous
 62
     7
370
    25
100
AcDbCircle
 10
187.583161472
 20
241.6608109089
 30
0.0
 40
0.0499999999999829
100
AcDbArc
 50
270.0
 51
0.0
  0
LINE
  5
17B
330
1F
100
AcDbEntity
  8
0
  6
Continuous
 62
     7
370
    25
100
AcDbLine
 10
184.5979069767
 20
241.4008109089
 30
0.0
 11
184.5764056237
 21
241.388397097
 31
0.0
  0
LINE
  5
17C
330
1F
100
AcDbEntity
  8
0
  6
Continuous
 62
     7
370
    25
100
AcDbLine
 10
186.6194083298
 20
241.388397097
 30
0.0
 11
186.5979069767
 21
241.4008109089
 31
0.0
  0
LINE
  5
17D
330
1F
100
AcDbEntity
  8
0
  6
Continuous
 62
     7
370
    25
100
AcDbLine
 10
186.6683523557
 20
242.4501392504
 30
0.0
 11
186.5979069767
 21
242.4908109089
 31
0.0
  0
LINE
  5
17E
330
1F
100
AcDbEntity
  8
0
  6
Continuous
 62
     7
370
    25
100
AcDbLine
 10
186.5979069767
 20
241.4508109089
 30
0.0
 11
186.6683523557
 21
241.4914825675
 31
0.0
  0
LINE
  5
17F
330
1F
100
AcDbEntity
  8
0
  6
Continuous
 62
     7
370
    25
100
AcDbLine
 10
184.5979069767
 20
242.4908109089
 30
0.0
 11
184.5274615977
 21
242.4501392504
 31
0.0
  0
LINE
  5
180
330
1F
100
AcDbEntity
  8
0
  6
Continuous
 62
     7
370
    25
100
AcDbLine
 10
184.5274615977
 20
241.4914825675
 30
0.0
 11
184.5979069767
 21
241.4508109089
 31
0.0
  0
LINE
  5
181
330
1F
100
AcDbEntity
  8
0
  6
Continuous
 62
     7
370
    25
100
AcDbLine
 10
186.1979069767
 20
241.4008109089
 30
0.0
 11
186.1979069767
 21
241.4508109089
 31
0.0
  0
LINE
  5
182
330
1F
100
AcDbEntity
  8
0
  6
Continuous
 62
     7
370
    25
100
AcDbLine
 10
184.9979069767
 20
241.4508109089
 30
0.0
 11
184.9979069767
 21
241.4008109089
 31
0.0
  0
LINE
  5
183
330
1F
100
AcDbEntity
  8
0
  6
Continuous
 62
     7
370
    25
100
AcDbLine
 10
174.6679069767
 20
241.7508109089
 30
0.0
 11
174.6679069767
 21
242.5508109089
 31
0.0
  0
LINE
  5
184
330
1F
100
AcDbEntity
  8
0
  6
Continuous
 62
     7
370
    25
100
AcDbLine
 10
168.5279069767
 20
242.5508109089
 30
0.0
 11
168.5279069767
 21
241.7508109089
 31
0.0
  0
LINE
  5
185
330
1F
100
AcDbEntity
  8
0
  6
Continuous
 62
     7
370
    25
100
AcDbLine
 10
175.0979069767
 20
245.3508109089
 30
0.0
 11
175.0979069767
 21
245.6908109089
 31
0.0
  0
LINE
  5
186
330
1F
100
AcDbEntity
  8
0
  6
Continuous
 62
     7
370
    25
100
AcDbLine
 10
168.0979069767
 20
245.6908109089
 30
0.0
 11
168.0979069767
 21
245.3508109089
 31
0.0
  0
ARC
  5
187
330
1F
100
AcDbEntity
  8
0
  6
Continuous
 62
     7
370
    25
100
AcDbCircle
 10
174.0379069767
 20
245.6908109089
 30
0.0
 40
1.060000000000002
100
AcDbArc
 50
0.0
 51
90.0
  0
ARC
  5
188
330
1F
100
AcDbEntity
  8
0
  6
Continuous
 62
     7
370
    25
100
AcDbCircle
 10
169.1579069767
 20
245.6908109089
 30
0.0
 40
1.060000000000002
100
AcDbArc
 50
90.0
 51
180.0
  0
LINE
  5
189
330
1F
100
AcDbEntity
  8
0
  6
Continuous
 62
     7
370
    25
100
AcDbLine
 10
168.0979069767
 20
245.3508109089
 30
0.0
 11
167.8089129015
 21
245.2063138713
 31
0.0
  0
LINE
  5
18A
330
1F
100
AcDbEntity
  8
0
  6
Continuous
 62
     7
370
    25
100
AcDbLine
 10
175.386901052
 20
245.2063138713
 30
0.0
 11
175.0979069767
 21
245.3508109089
 31
0.0
  0
SPLINE
  5
18B
330
1F
100
AcDbEntity
  8
0
  6
Continuous
 62
     7
370
    25
100
AcDbSpline
210
0.0
220
0.0
230
1.0
 70
     8
 71
     3
 72
    21
 73
    17
 74
     0
 42
0.00000001
 43
0.00000001
 40
0.0
 40
0.0
 40
0.0
 40
0.0
 40
0.0954784269312349
 40
0.1821881800228766
 40
0.2601238995860609
 40
0.3292761497227429
 40
0.4077742277656949
 40
0.4712477608724529
 40
0.5285196908780048
 40
0.5824287259327181
 40
0.6329715748578165
 40
0.6867168028911662
 40
0.7430582144116181
 40
0.8142093336879154
 40
0.9001689453812882
 40
1.0
 40
1.0
 40
1.0
 40
1.0
 10
183.6179069767452
 20
74.5688385830575
 30
0.0
 10
183.8431031041935
 20
74.57816654173774
 30
0.0
 10
184.2728134997948
 20
74.59596578571256
 30
0.0
 10
184.8731524206186
 20
74.72724135658807
 30
0.0
 10
185.3924862929364
 20
74.90479596013857
 30
0.0
 10
185.8685436317886
 20
75.13165577924127
 30
0.0
 10
186.2855679246989
 20
75.39125634070994
 30
0.0
 10
186.647814136701
 20
75.67626373818275
 30
0.0
 10
186.9386314876635
 20
75.95394645272535
 30
0.0
 10
187.1829349400504
 20
76.23271798633539
 30
0.0
 10
187.3975676276177
 20
76.52324612340801
 30
0.0
 10
187.5893653097266
 20
76.83455893090371
 30
0.0
 10
187.7728408699663
 20
77.20240824242282
 30
0.0
 10
187.9401815328991
 20
77.6544725896016
 30
0.0
 10
188.0751227394943
 20
78.21867456669526
 30
0.0
 10
188.0899433862101
 20
78.63536852166844
 30
0.0
 10
188.0979069767452
 20
78.85927103412479
 30
0.0
  0
SPLINE
  5
18C
330
1F
100
AcDbEntity
  8
0
  6
Continuous
 62
     7
370
    25
100
AcDbSpline
210
0.0
220
0.0
230
1.0
 70
     8
 71
     3
 72
    21
 73
    17
 74
     0
 42
0.00000001
 43
0.00000001
 40
0.0
 40
0.0
 40
0.0
 40
0.0
 40
0.0550482457907274
 40
0.1177337734791362
 40
0.1738159494745721
 40
0.2455387609921906
 40
0.3024002998275029
 40
0.3567092486038863
 40
0.4078240490142231
 40
0.4624047293834531
 40
0.5509551996271389
 40
0.6645313382342616
 40
0.7348741117011865
 40
0.8142254114152729
 40
0.9025959641897111
 40
1.0
 40
1.0
 40
1.0
 40
1.0
 10
187.1344967797095
 20
78.78050199073587
 30
0.0
 10
187.1325152376373
 20
78.68673865766948
 30
0.0
 10
187.1282772383672
 20
78.4862034570047
 30
0.0
 10
187.0800593462351
 20
78.19323752382986
 30
0.0
 10
186.9996349907873
 20
77.8779444144496
 30
0.0
 10
186.888489172769
 20
77.58085919984686
 30
0.0
 10
186.7476596920075
 20
77.29870806885019
 30
0.0
 10
186.5998862314515
 20
77.05930878811598
 30
0.0
 10
186.4338058380431
 20
76.83473070201335
 30
0.0
 10
186.2085999440874
 20
76.57797896295348
 30
0.0
 10
185.8708996238864
 20
76.2709409543297
 30
0.0
 10
185.45974528889
 20
76.00050202976585
 30
0.0
 10
185.0280197291289
 20
75.79505141724628
 30
0.0
 10
184.6163004558788
 20
75.65449529575613
 30
0.0
 10
184.1393203393595
 20
75.5503741337314
 30
0.0
 10
183.7972558451584
 20
75.53624534670712
 30
0.0
 10
183.6179069767452
 20
75.52883743969599
 30
0.0
  0
SPLINE
  5
18D
330
1F
100
AcDbEntity
  8
0
  6
Continuous
 62
     7
370
    25
100
AcDbSpline
210
0.0
220
0.0
230
1.0
 70
     8
 71
     3
 72
    21
 73
    17
 74
     0
 42
0.00000001
 43
0.00000001
 40
0.0
 40
0.0
 40
0.0
 40
0.0
 40
0.0974040358103067
 40
0.1857745885847417
 40
0.2651258882988249
 40
0.3354686617657459
 40
0.4490448003728694
 40
0.5375952706165544
 40
0.5921759509857724
 40
0.643290751396102
 40
0.6975997001724709
 40
0.7544612390077794
 40
0.8261840505254087
 40
0.8822662265208434
 40
0.9449517542092601
 40
0.9999999999999999
 40
0.9999999999999999
 40
0.9999999999999999
 40
0.9999999999999999
 10
183.6179069767451
 20
75.52883743969603
 30
0.0
 10
183.4385581083319
 20
75.53624534670715
 30
0.0
 10
183.0964936141307
 20
75.5503741337314
 30
0.0
 10
182.6195134976115
 20
75.65449529575616
 30
0.0
 10
182.2077942243614
 20
75.79505141724633
 30
0.0
 10
181.7760686646003
 20
76.00050202976585
 30
0.0
 10
181.3649143296039
 20
76.27094095432972
 30
0.0
 10
181.0272140094029
 20
76.57797896295352
 30
0.0
 10
180.8020081154472
 20
76.83473070201333
 30
0.0
 10
180.6359277220389
 20
77.05930878811594
 30
0.0
 10
180.4881542614829
 20
77.29870806885008
 30
0.0
 10
180.3473247807214
 20
77.58085919984673
 30
0.0
 10
180.2361789627031
 20
77.87794441444949
 30
0.0
 10
180.1557546072552
 20
78.19323752382977
 30
0.0
 10
180.1075367151231
 20
78.48620345700463
 30
0.0
 10
180.1032987158531
 20
78.68673865766945
 30
0.0
 10
180.1013171737808
 20
78.78050199073587
 30
0.0
  0
SPLINE
  5
18E
330
1F
100
AcDbEntity
  8
0
  6
Continuous
 62
     7
370
    25
100
AcDbSpline
210
0.0
220
0.0
230
1.0
 70
     8
 71
     3
 72
    21
 73
    17
 74
     0
 42
0.00000001
 43
0.00000001
 40
0.0
 40
0.0
 40
0.0
 40
0.0
 40
0.0998310546187326
 40
0.185790666312127
 40
0.2569417855884332
 40
0.3132831971088794
 40
0.3670284251422101
 40
0.4175712740672889
 40
0.4714803091219907
 40
0.5287522391275399
 40
0.5922257722342974
 40
0.6707238502772452
 40
0.7398761004139254
 40
0.8178118199771088
 40
0.9045215730687471
 40
0.9999999999999999
 40
0.9999999999999999
 40
0.9999999999999999
 40
0.9999999999999999
 10
179.1379069767451
 20
78.85927103412479
 30
0.0
 10
179.1458705672803
 20
78.63536852166838
 30
0.0
 10
179.160691213996
 20
78.21867456669514
 30
0.0
 10
179.2956324205912
 20
77.65447258960134
 30
0.0
 10
179.4629730835241
 20
77.2024082424225
 30
0.0
 10
179.6464486437639
 20
76.83455893090348
 30
0.0
 10
179.8382463258726
 20
76.52324612340786
 30
0.0
 10
180.0528790134399
 20
76.23271798633537
 30
0.0
 10
180.2971824658268
 20
75.95394645272538
 30
0.0
 10
180.5879998167893
 20
75.67626373818278
 30
0.0
 10
180.9502460287913
 20
75.39125634070997
 30
0.0
 10
181.3672703217016
 20
75.13165577924133
 30
0.0
 10
181.8433276605539
 20
74.90479596013863
 30
0.0
 10
182.3626615328716
 20
74.72724135658807
 30
0.0
 10
182.9630004536954
 20
74.59596578571256
 30
0.0
 10
183.3927108492968
 20
74.57816654173774
 30
0.0
 10
183.6179069767452
 20
74.5688385830575
 30
0.0
  0
LINE
  5
18F
330
1F
100
AcDbEntity
  8
0
  6
Continuous
 62
     7
370
    25
100
AcDbLine
 10
185.4084592762
 20
90.9858931512
 30
0.0
 11
187.1383984521
 21
78.7703185762
 31
0.0
  0
LINE
  5
190
330
1F
100
AcDbEntity
  8
0
  6
Continuous
 62
     7
370
    25
100
AcDbLine
 10
188.0979072333
 20
78.8414261587
 30
0.0
 11
186.3673546773
 21
91.0613319782
 31
0.0
  0
LINE
  5
191
330
1F
100
AcDbEntity
  8
0
  6
Continuous
 62
     7
370
    25
100
AcDbLine
 10
180.8684592762
 20
91.0613319782
 30
0.0
 11
179.1379067202
 21
78.8414261587
 31
0.0
  0
LINE
  5
192
330
1F
100
AcDbEntity
  8
0
  6
Continuous
 62
     7
370
    25
100
AcDbLine
 10
180.0974155013
 20
78.7703185762
 30
0.0
 11
181.8273546773
 21
90.9858931512
 31
0.0
  0
LINE
  5
193
330
1F
100
AcDbEntity
  8
0
  6
Continuous
 62
     7
370
    25
100
AcDbLine
 10
185.4079069767
 20
126.2102251225
 30
0.0
 11
185.4079069767
 21
90.99373194
 31
0.0
  0
LINE
  5
194
330
1F
100
AcDbEntity
  8
0
  6
Continuous
 62
     7
370
    25
100
AcDbLine
 10
186.3679069767
 20
91.0574320406
 30
0.0
 11
186.3679069767
 21
126.2102251225
 31
0.0
  0
LINE
  5
195
330
1F
100
AcDbEntity
  8
0
  6
Continuous
 62
     7
370
    25
100
AcDbLine
 10
180.8679069767
 20
126.2102251225
 30
0.0
 11
180.8679069767
 21
91.0574320406
 31
0.0
  0
LINE
  5
196
330
1F
100
AcDbEntity
  8
0
  6
Continuous
 62
     7
370
    25
100
AcDbLine
 10
181.8279069767
 20
90.99373194
 30
0.0
 11
181.8279069767
 21
126.2102251225
 31
0.0
  0
LINE
  5
197
330
1F
100
AcDbEntity
  8
0
  6
Continuous
 62
     7
370
    25
100
AcDbLine
 10
183.8579069767
 20
126.2102251225
 30
0.0
 11
183.8579069767
 21
91.3994896131
 31
0.0
  0
LINE
  5
198
330
1F
100
AcDbEntity
  8
0
  6
Continuous
 62
     7
370
    25
100
AcDbLine
 10
184.8179069767
 20
91.3994896131
 30
0.0
 11
184.8179069767
 21
126.2102251225
 31
0.0
  0
LINE
  5
199
330
1F
100
AcDbEntity
  8
0
  6
Continuous
 62
     7
370
    25
100
AcDbLine
 10
182.4179069767
 20
126.2102251225
 30
0.0
 11
182.4179069767
 21
91.3994896131
 31
0.0
  0
LINE
  5
19A
330
1F
100
AcDbEntity
  8
0
  6
Continuous
 62
     7
370
    25
100
AcDbLine
 10
183.3779069767
 20
91.3994896131
 30
0.0
 11
183.3779069767
 21
126.2102251225
 31
0.0
  0
SPLINE
  5
19B
330
1F
100
AcDbEntity
  8
0
  6
Continuous
 62
     7
370
    25
100
AcDbSpline
210
0.0
220
0.0
230
1.0
 70
     8
 71
     3
 72
    21
 73
    17
 74
     0
 42
0.00000001
 43
0.00000001
 40
0.0
 40
0.0
 40
0.0
 40
0.0
 40
0.0974040358103072
 40
0.1857745885847409
 40
0.2651258882988223
 40
0.335468661765749
 40
0.4490448003728646
 40
0.5375952706165527
 40
0.5921759509857805
 40
0.6432907513961029
 40
0.6975997001724835
 40
0.7544612390077889
 40
0.8261840505254137
 40
0.8822662265208515
 40
0.9449517542092662
 40
1.0
 40
1.0
 40
1.0
 40
1.0
 10
218.3779069767443
 20
75.52883743969625
 30
0.0
 10
218.1985581083311
 20
75.53624534670739
 30
0.0
 10
217.85649361413
 20
75.55037413373165
 30
0.0
 10
217.3795134976107
 20
75.65449529575643
 30
0.0
 10
216.9677942243606
 20
75.79505141724654
 30
0.0
 10
216.5360686645996
 20
76.0005020297662
 30
0.0
 10
216.1249143296031
 20
76.27094095432996
 30
0.0
 10
215.7872140094021
 20
76.57797896295376
 30
0.0
 10
215.5620081154465
 20
76.83473070201362
 30
0.0
 10
215.395927722038
 20
77.0593087881162
 30
0.0
 10
215.2481542614821
 20
77.29870806885039
 30
0.0
 10
215.1073247807205
 20
77.58085919984701
 30
0.0
 10
214.9961789627022
 20
77.8779444144498
 30
0.0
 10
214.9157546072544
 20
78.19323752383006
 30
0.0
 10
214.8675367151224
 20
78.4862034570049
 30
0.0
 10
214.8632987158523
 20
78.68673865766972
 30
0.0
 10
214.86131717378
 20
78.78050199073614
 30
0.0
  0
SPLINE
  5
19C
330
1F
100
AcDbEntity
  8
0
  6
Continuous
 62
     7
370
    25
100
AcDbSpline
210
0.0
220
0.0
230
1.0
 70
     8
 71
     3
 72
    21
 73
    17
 74
     0
 42
0.00000001
 43
0.00000001
 40
0.0
 40
0.0
 40
0.0
 40
0.0
 40
0.0998310546187244
 40
0.1857906663121178
 40
0.2569417855884175
 40
0.3132831971088726
 40
0.3670284251422053
 40
0.4175712740672853
 40
0.4714803091219898
 40
0.5287522391275432
 40
0.5922257722342993
 40
0.6707238502772469
 40
0.7398761004139259
 40
0.8178118199771093
 40
0.9045215730687467
 40
1.0
 40
1.0
 40
1.0
 40
1.0
 10
213.8979069767443
 20
78.85927103412504
 30
0.0
 10
213.9058705672795
 20
78.63536852166868
 30
0.0
 10
213.9206912139952
 20
78.21867456669543
 30
0.0
 10
214.0556324205904
 20
77.65447258960167
 30
0.0
 10
214.2229730835233
 20
77.20240824242285
 30
0.0
 10
214.406448643763
 20
76.83455893090377
 30
0.0
 10
214.5982463258718
 20
76.52324612340813
 30
0.0
 10
214.8128790134391
 20
76.23271798633564
 30
0.0
 10
215.0571824658261
 20
75.95394645272563
 30
0.0
 10
215.3479998167885
 20
75.67626373818301
 30
0.0
 10
215.7102460287905
 20
75.39125634071023
 30
0.0
 10
216.1272703217008
 20
75.13165577924158
 30
0.0
 10
216.6033276605531
 20
74.9047959601389
 30
0.0
 10
217.1226615328708
 20
74.72724135658832
 30
0.0
 10
217.7230004536947
 20
74.59596578571288
 30
0.0
 10
218.152710849296
 20
74.57816654173801
 30
0.0
 10
218.3779069767444
 20
74.56883858305775
 30
0.0
  0
SPLINE
  5
19D
330
1F
100
AcDbEntity
  8
0
  6
Continuous
 62
     7
370
    25
100
AcDbSpline
210
0.0
220
0.0
230
1.0
 70
     8
 71
     3
 72
    21
 73
    17
 74
     0
 42
0.00000001
 43
0.00000001
 40
0.0
 40
0.0
 40
0.0
 40
0.0
 40
0.0954784269312342
 40
0.1821881800228744
 40
0.2601238995860619
 40
0.3292761497227429
 40
0.4077742277656953
 40
0.4712477608724537
 40
0.5285196908780091
 40
0.582428725932715
 40
0.6329715748578133
 40
0.6867168028911604
 40
0.7430582144116129
 40
0.8142093336879147
 40
0.9001689453812923
 40
1.0
 40
1.0
 40
1.0
 40
1.0
 10
218.3779069767444
 20
74.56883858305777
 30
0.0
 10
218.6031031041927
 20
74.57816654173801
 30
0.0
 10
219.032813499794
 20
74.59596578571285
 30
0.0
 10
219.6331524206178
 20
74.72724135658825
 30
0.0
 10
220.1524862929356
 20
74.90479596013888
 30
0.0
 10
220.6285436317879
 20
75.13165577924154
 30
0.0
 10
221.0455679246982
 20
75.39125634071023
 30
0.0
 10
221.4078141367002
 20
75.67626373818301
 30
0.0
 10
221.6986314876627
 20
75.95394645272565
 30
0.0
 10
221.9429349400497
 20
76.23271798633564
 30
0.0
 10
222.157567627617
 20
76.52324612340824
 30
0.0
 10
222.3493653097258
 20
76.83455893090394
 30
0.0
 10
222.5328408699655
 20
77.20240824242305
 30
0.0
 10
222.7001815328984
 20
77.65447258960184
 30
0.0
 10
222.8351227394936
 20
78.21867456669554
 30
0.0
 10
222.8499433862092
 20
78.63536852166872
 30
0.0
 10
222.8579069767444
 20
78.85927103412504
 30
0.0
  0
SPLINE
  5
19E
330
1F
100
AcDbEntity
  8
0
  6
Continuous
 62
     7
370
    25
100
AcDbSpline
210
0.0
220
0.0
230
1.0
 70
     8
 71
     3
 72
    21
 73
    17
 74
     0
 42
0.00000001
 43
0.00000001
 40
0.0
 40
0.0
 40
0.0
 40
0.0
 40
0.0550482457907268
 40
0.1177337734791426
 40
0.1738159494745784
 40
0.245538760992201
 40
0.3024002998275062
 40
0.3567092486038906
 40
0.4078240490142254
 40
0.4624047293834547
 40
0.5509551996271411
 40
0.664531338234264
 40
0.7348741117011878
 40
0.8142254114152746
 40
0.9025959641897114
 40
0.9999999999999999
 40
0.9999999999999999
 40
0.9999999999999999
 40
0.9999999999999999
 10
221.8944967797087
 20
78.78050199073614
 30
0.0
 10
221.8925152376364
 20
78.68673865766975
 30
0.0
 10
221.8882772383664
 20
78.48620345700493
 30
0.0
 10
221.8400593462344
 20
78.1932375238301
 30
0.0
 10
221.7596349907865
 20
77.87794441444984
 30
0.0
 10
221.6484891727683
 20
77.58085919984707
 30
0.0
 10
221.5076596920067
 20
77.29870806885044
 30
0.0
 10
221.3598862314507
 20
77.05930878811623
 30
0.0
 10
221.1938058380423
 20
76.83473070201359
 30
0.0
 10
220.9685999440866
 20
76.57797896295375
 30
0.0
 10
220.6308996238856
 20
76.27094095432997
 30
0.0
 10
220.2197452888892
 20
76.00050202976612
 30
0.0
 10
219.7880197291281
 20
75.79505141724655
 30
0.0
 10
219.376300455878
 20
75.65449529575638
 30
0.0
 10
218.8993203393587
 20
75.55037413373165
 30
0.0
 10
218.5572558451576
 20
75.5362453467074
 30
0.0
 10
218.3779069767444
 20
75.52883743969626
 30
0.0
  0
LINE
  5
19F
330
1F
100
AcDbEntity
  8
0
  6
Continuous
 62
     7
370
    25
100
AcDbLine
 10
220.1684592762
 20
90.9858931512
 30
0.0
 11
221.8983984521
 21
78.7703185762
 31
0.0
  0
LINE
  5
1A0
330
1F
100
AcDbEntity
  8
0
  6
Continuous
 62
     7
370
    25
100
AcDbLine
 10
222.8579072333
 20
78.8414261587
 30
0.0
 11
221.1273546773
 21
91.0613319782
 31
0.0
  0
LINE
  5
1A1
330
1F
100
AcDbEntity
  8
0
  6
Continuous
 62
     7
370
    25
100
AcDbLine
 10
215.6284592762
 20
91.0613319782
 30
0.0
 11
213.8979067202
 21
78.8414261587
 31
0.0
  0
LINE
  5
1A2
330
1F
100
AcDbEntity
  8
0
  6
Continuous
 62
     7
370
    25
100
AcDbLine
 10
214.8574155013
 20
78.7703185762
 30
0.0
 11
216.5873546773
 21
90.9858931512
 31
0.0
  0
LINE
  5
1A3
330
1F
100
AcDbEntity
  8
0
  6
Continuous
 62
     7
370
    25
100
AcDbLine
 10
220.1679069767
 20
126.2102251225
 30
0.0
 11
220.1679069767
 21
90.99373194
 31
0.0
  0
LINE
  5
1A4
330
1F
100
AcDbEntity
  8
0
  6
Continuous
 62
     7
370
    25
100
AcDbLine
 10
221.1279069767
 20
91.0574320406
 30
0.0
 11
221.1279069767
 21
126.2102251225
 31
0.0
  0
LINE
  5
1A5
330
1F
100
AcDbEntity
  8
0
  6
Continuous
 62
     7
370
    25
100
AcDbLine
 10
215.6279069767
 20
126.2102251225
 30
0.0
 11
215.6279069767
 21
91.0574320406
 31
0.0
  0
LINE
  5
1A6
330
1F
100
AcDbEntity
  8
0
  6
Continuous
 62
     7
370
    25
100
AcDbLine
 10
216.5879069767
 20
90.99373194
 30
0.0
 11
216.5879069767
 21
126.2102251225
 31
0.0
  0
LINE
  5
1A7
330
1F
100
AcDbEntity
  8
0
  6
Continuous
 62
     7
370
    25
100
AcDbLine
 10
218.6179069767
 20
126.2102251225
 30
0.0
 11
218.6179069767
 21
91.3994896131
 31
0.0
  0
LINE
  5
1A8
330
1F
100
AcDbEntity
  8
0
  6
Continuous
 62
     7
370
    25
100
AcDbLine
 10
219.5779069767
 20
91.3994896131
 30
0.0
 11
219.5779069767
 21
126.2102251225
 31
0.0
  0
LINE
  5
1A9
330
1F
100
AcDbEntity
  8
0
  6
Continuous
 62
     7
370
    25
100
AcDbLine
 10
217.1779069767
 20
126.2102251225
 30
0.0
 11
217.1779069767
 21
91.3994896131
 31
0.0
  0
LINE
  5
1AA
330
1F
100
AcDbEntity
  8
0
  6
Continuous
 62
     7
370
    25
100
AcDbLine
 10
218.1379069767
 20
91.3994896131
 30
0.0
 11
218.1379069767
 21
126.2102251225
 31
0.0
  0
LINE
  5
1AB
330
1F
100
AcDbEntity
  8
0
  6
Continuous
 62
     7
370
    25
100
AcDbLine
 10
207.1779069767
 20
229.7702251225
 30
0.0
 11
206.198048676
 21
229.7702251225
 31
0.0
  0
SPLINE
  5
1AC
330
1F
100
AcDbEntity
  8
0
  6
Continuous
 62
     7
370
    25
100
AcDbSpline
210
0.0
220
0.0
230
1.0
 70
     8
 71
     3
 72
     9
 73
     5
 74
     0
 42
0.00000001
 43
0.00000001
 40
0.0
 40
0.0
 40
0.0
 40
0.0
 40
0.4074505997642934
 40
1.0
 40
1.0
 40
1.0
 40
1.0
 10
205.4480472091511
 20
230.0702251224826
 30
0.0
 10
205.5579276802055
 20
230.0563521906489
 30
0.0
 10
205.8276057003581
 20
230.0223040585764
 30
0.0
 10
206.0602157378449
 20
229.8640176430675
 30
0.0
 10
206.1980486760464
 20
229.7702251224922
 30
0.0
  0
LINE
  5
1AD
330
1F
100
AcDbEntity
  8
0
  6
Continuous
 62
     7
370
    25
100
AcDbLine
 10
206.8779069767
 20
230.0702251225
 30
0.0
 11
205.4480472092
 21
230.0702251225
 31
0.0
  0
LINE
  5
1AE
330
1F
100
AcDbEntity
  8
0
  6
Continuous
 62
     7
370
    25
100
AcDbLine
 10
204.6980457423
 20
229.7702251225
 30
0.0
 11
204.6980457423
 21
229.4702251225
 31
0.0
  0
SPLINE
  5
1AF
330
1F
100
AcDbEntity
  8
0
  6
Continuous
 62
     7
370
    25
100
AcDbSpline
210
0.0
220
0.0
230
1.0
 70
     8
 71
     3
 72
     9
 73
     5
 74
     0
 42
0.00000001
 43
0.00000001
 40
0.0
 40
0.0
 40
0.0
 40
0.0
 40
0.6465865088155462
 40
1.0
 40
1.0
 40
1.0
 40
1.0
 10
204.6980457422618
 20
229.7702251224924
 30
0.0
 10
204.8491820344329
 20
229.8722473230555
 30
0.0
 10
205.0829269241121
 20
230.0300331710004
 30
0.0
 10
205.3527042592851
 20
230.0597298983818
 30
0.0
 10
205.4480472091511
 20
230.0702251224826
 30
0.0
  0
LINE
  5
1B0
330
1F
100
AcDbEntity
  8
0
  6
Continuous
 62
     7
370
    25
100
AcDbLine
 10
206.198048676
 20
229.4702251225
 30
0.0
 11
206.198048676
 21
229.7702251225
 31
0.0
  0
LINE
  5
1B1
330
1F
100
AcDbEntity
  8
0
  6
Continuous
 62
     7
370
    25
100
AcDbLine
 10
204.579920364
 20
229.7702251225
 30
0.0
 11
204.5779069767
 21
229.7702251225
 31
0.0
  0
LINE
  5
1B2
330
1F
100
AcDbEntity
  8
0
  6
Continuous
 62
     7
370
    25
100
AcDbLine
 10
204.6980457423
 20
229.7702251225
 30
0.0
 11
204.579920364
 21
229.7702251225
 31
0.0
  0
LINE
  5
1B3
330
1F
100
AcDbEntity
  8
0
  6
Continuous
 62
     7
370
    25
100
AcDbLine
 10
206.198048676
 20
229.4702251225
 30
0.0
 11
204.6980457423
 21
229.4702251225
 31
0.0
  0
LINE
  5
1B4
330
1F
100
AcDbEntity
  8
0
  6
Continuous
 62
     7
370
    25
100
AcDbLine
 10
205.4480472092
 20
230.0702251225
 30
0.0
 11
204.8794557361
 21
230.0702251225
 31
0.0
  0
LINE
  5
1B5
330
1F
100
AcDbEntity
  8
0
  6
Continuous
 62
     7
370
    25
100
AcDbLine
 10
204.8794557361
 20
230.0702251225
 30
0.0
 11
204.8779069768
 21
230.0702251225
 31
0.0
  0
LINE
  5
1B6
330
1F
100
AcDbEntity
  8
0
  6
Continuous
 62
     7
370
    25
100
AcDbLine
 10
169.5979069767
 20
225.8102251225
 30
0.0
 11
169.5979069767
 21
217.8102251225
 31
0.0
  0
SPLINE
  5
1B7
330
1F
100
AcDbEntity
  8
0
  6
Continuous
 62
     7
370
    25
100
AcDbSpline
210
0.0
220
0.0
230
1.0
 70
     8
 71
     3
 72
    17
 73
    13
 74
     0
 42
0.00000001
 43
0.00000001
 40
0.0
 40
0.0
 40
0.0
 40
0.0
 40
0.1070067304901331
 40
0.2140006436556042
 40
0.3213278002350911
 40
0.4288794428343257
 40
0.5360665901812098
 40
0.6428687183028289
 40
0.7498660069585869
 40
0.8573331836369168
 40
0.964814004570139
 40
1.0
 40
1.0
 40
1.0
 40
1.0
 10
170.9979069767442
 20
225.8102251224976
 30
0.0
 10
170.9935069454033
 20
225.8097727183447
 30
0.0
 10
170.9847074097597
 20
225.8088679642282
 30
0.0
 10
170.916139586301
 20
225.8025710482399
 30
0.0
 10
170.8149815109315
 20
225.7955370601283
 30
0.0
 10
170.6883428769526
 20
225.7904449646176
 30
0.0
 10
170.5518059137281
 20
225.7896692849698
 30
0.0
 10
170.4209218087597
 20
225.7934683584911
 30
0.0
 10
170.3090271644032
 20
225.8002750598694
 30
0.0
 10
170.2324484218042
 20
225.8067702628489
 30
0.0
 10
170.1958640175784
 20
225.8104266775284
 30
0.0
 10
170.2014979729045
 20
225.8098692684813
 30
0.0
 10
170.2028874784069
 20
225.8097317943813
 30
0.0
  0
LINE
  5
1B8
330
1F
100
AcDbEntity
  8
0
  6
Continuous
 62
     7
370
    25
100
AcDbLine
 10
232.3979069767
 20
217.8102251225
 30
0.0
 11
232.3979069767
 21
225.8102251225
 31
0.0
  0
ARC
  5
1B9
330
1F
100
AcDbEntity
  8
0
  6
Continuous
 62
     7
370
    25
100
AcDbCircle
 10
231.3978922947
 20
229.7994641893
 30
0.0
 40
4.009241397915771
100
AcDbArc
 50
264.2743135886
 51
275.6545796891
  0
SPLINE
  5
1BA
330
1F
100
AcDbEntity
  8
0
  6
Continuous
 62
     7
370
    25
100
AcDbSpline
210
0.0
220
0.0
230
1.0
 70
     8
 71
     3
 72
    12
 73
     8
 74
     0
 42
0.00000001
 43
0.00000001
 40
0.0
 40
0.0
 40
0.0
 40
0.0
 40
0.2234356531984271
 40
0.4468971648636863
 40
0.6703588044540695
 40
0.8938202392988416
 40
1.0
 40
1.0
 40
1.0
 40
1.0
 10
229.947906976744
 20
201.6602251224973
 30
0.0
 10
229.9664280009861
 20
201.5958724593517
 30
0.0
 10
230.0034721929298
 20
201.4671596854522
 30
0.0
 10
230.0590476652171
 20
201.2974386345469
 30
0.0
 10
230.1145929020217
 20
201.1728161478967
 30
0.0
 10
230.1605217357161
 20
201.1165101715905
 30
0.0
 10
230.1877290838915
 20
201.1117563591191
 30
0.0
 10
230.1964927631816
 20
201.1102251224974
 30
0.0
  0
SPLINE
  5
1BB
330
1F
100
AcDbEntity
  8
0
  6
Continuous
 62
     7
370
    25
100
AcDbSpline
210
0.0
220
0.0
230
1.0
 70
     8
 71
     3
 72
    11
 73
     7
 74
     0
 42
0.00000001
 43
0.00000001
 40
0.0
 40
0.0
 40
0.0
 40
0.0
 40
0.2747642185392413
 40
0.5293196339938783
 40
0.7838200577695447
 40
1.0
 40
1.0
 40
1.0
 40
1.0
 10
229.947906976744
 20
201.6602251224973
 30
0.0
 10
229.9706998073236
 20
201.6241887596579
 30
0.0
 10
230.0146090645196
 20
201.5547664946698
 30
0.0
 10
230.0795374293999
 20
201.4708903219241
 30
0.0
 10
230.1396697237262
 20
201.4191799355571
 30
0.0
 10
230.1786084841812
 20
201.4130435281422
 30
0.0
 10
230.1964927631816
 20
201.4102251224973
 30
0.0
  0
LINE
  5
1BC
330
1F
100
AcDbEntity
  8
0
  6
Continuous
 62
     7
370
    25
100
AcDbLine
 10
230.1964927632
 20
201.1102251225
 30
0.0
 11
230.1964927632
 21
201.4102251225
 31
0.0
  0
LINE
  5
1BD
330
1F
100
AcDbEntity
  8
0
  6
Continuous
 62
     7
370
    25
100
AcDbLine
 10
171.7993211903
 20
201.1102251225
 30
0.0
 11
230.1964927632
 21
201.1102251225
 31
0.0
  0
SPLINE
  5
1BE
330
1F
100
AcDbEntity
  8
0
  6
Continuous
 62
     7
370
    25
100
AcDbSpline
210
0.0
220
0.0
230
1.0
 70
     8
 71
     3
 72
    12
 73
     8
 74
     0
 42
0.00000001
 43
0.00000001
 40
0.0
 40
0.0
 40
0.0
 40
0.0
 40
0.2234356531984337
 40
0.4468971648636927
 40
0.6703588044540707
 40
0.8938202392988589
 40
1.0
 40
1.0
 40
1.0
 40
1.0
 10
171.7993211903064
 20
201.1102251224974
 30
0.0
 10
171.8178422145484
 20
201.1168150803349
 30
0.0
 10
171.8548864064922
 20
201.1299957586735
 30
0.0
 10
171.9104618787794
 20
201.2324857158095
 30
0.0
 10
171.966007115584
 20
201.3822450532236
 30
0.0
 10
172.0119359492785
 20
201.5352276356408
 30
0.0
 10
172.0391432974539
 20
201.6297717836837
 30
0.0
 10
172.047906976744
 20
201.6602251224974
 30
0.0
  0
LINE
  5
1BF
330
1F
100
AcDbEntity
  8
0
  6
Continuous
 62
     7
370
    25
100
AcDbLine
 10
171.7993211903
 20
201.1102251225
 30
0.0
 11
171.7993211903
 21
201.4102251225
 31
0.0
  0
SPLINE
  5
1C0
330
1F
100
AcDbEntity
  8
0
  6
Continuous
 62
     7
370
    25
100
AcDbSpline
210
0.0
220
0.0
230
1.0
 70
     8
 71
     3
 72
    11
 73
     7
 74
     0
 42
0.00000001
 43
0.00000001
 40
0.0
 40
0.0
 40
0.0
 40
0.0
 40
0.2747642185392514
 40
0.5293196339938748
 40
0.7838200577695437
 40
1.0
 40
1.0
 40
1.0
 40
1.0
 10
171.7993211903064
 20
201.4102251224973
 30
0.0
 10
171.822114020886
 20
201.4147674231491
 30
0.0
 10
171.866023278082
 20
201.4235179399787
 30
0.0
 10
171.9309516429623
 20
201.4877910465149
 30
0.0
 10
171.9910839372886
 20
201.5703518919535
 30
0.0
 10
172.0300226977436
 20
201.6319387452616
 30
0.0
 10
172.047906976744
 20
201.6602251224973
 30
0.0
  0
SPLINE
  5
1C1
330
1F
100
AcDbEntity
  8
0
  6
Continuous
 62
     7
370
    25
100
AcDbSpline
210
0.0
220
0.0
230
1.0
 70
     8
 71
     3
 72
    12
 73
     8
 74
     0
 42
0.00000001
 43
0.00000001
 40
0.0
 40
0.0
 40
0.0
 40
0.0
 40
0.2234356531984436
 40
0.4468971648636767
 40
0.6703588044540619
 40
0.8938202392988346
 40
0.9999999999999999
 40
0.9999999999999999
 40
0.9999999999999999
 40
0.9999999999999999
 10
172.047906976744
 20
201.6602251224973
 30
0.0
 10
171.9835543135983
 20
201.6417040982553
 30
0.0
 10
171.8548415396988
 20
201.6046599063115
 30
0.0
 10
171.6851204887936
 20
201.5490844340243
 30
0.0
 10
171.5604980021434
 20
201.4935391972196
 30
0.0
 10
171.5041920258372
 20
201.4476103635253
 30
0.0
 10
171.4994382133657
 20
201.4204030153498
 30
0.0
 10
171.497906976744
 20
201.4116393360597
 30
0.0
  0
SPLINE
  5
1C2
330
1F
100
AcDbEntity
  8
0
  6
Continuous
 62
     7
370
    25
100
AcDbSpline
210
0.0
220
0.0
230
1.0
 70
     8
 71
     3
 72
    11
 73
     7
 74
     0
 42
0.00000001
 43
0.00000001
 40
0.0
 40
0.0
 40
0.0
 40
0.0
 40
0.274764218539251
 40
0.5293196339938655
 40
0.7838200577695216
 40
1.0
 40
1.0
 40
1.0
 40
1.0
 10
172.047906976744
 20
201.6602251224973
 30
0.0
 10
172.0118706139046
 20
201.6374322919177
 30
0.0
 10
171.9424483489165
 20
201.5935230347217
 30
0.0
 10
171.8585721761707
 20
201.5285946698414
 30
0.0
 10
171.8068617898037
 20
201.4684623755152
 30
0.0
 10
171.8007253823888
 20
201.4295236150602
 30
0.0
 10
171.797906976744
 20
201.4116393360597
 30
0.0
  0
LINE
  5
1C3
330
1F
100
AcDbEntity
  8
0
  6
Continuous
 62
     7
370
    25
100
AcDbLine
 10
171.4979069767
 20
201.4116393361
 30
0.0
 11
171.7979069767
 21
201.4116393361
 31
0.0
  0
LINE
  5
1C4
330
1F
100
AcDbEntity
  8
0
  6
Continuous
 62
     7
370
    25
100
AcDbLine
 10
171.4979069767
 20
226.8088109089
 30
0.0
 11
171.4979069767
 21
201.4116393361
 31
0.0
  0
SPLINE
  5
1C5
330
1F
100
AcDbEntity
  8
0
  6
Continuous
 62
     7
370
    25
100
AcDbSpline
210
0.0
220
0.0
230
1.0
 70
     8
 71
     3
 72
    12
 73
     8
 74
     0
 42
0.00000001
 43
0.00000001
 40
0.0
 40
0.0
 40
0.0
 40
0.0
 40
0.223435653198447
 40
0.446897164863705
 40
0.6703588044540681
 40
0.8938202392988488
 40
1.0
 40
1.0
 40
1.0
 40
1.0
 10
171.497906976744
 20
226.808810908935
 30
0.0
 10
171.5044969345816
 20
226.7902898846929
 30
0.0
 10
171.5176776129202
 20
226.7532456927492
 30
0.0
 10
171.6201675700562
 20
226.6976702204619
 30
0.0
 10
171.7699269074702
 20
226.6421249836573
 30
0.0
 10
171.9229094898874
 20
226.5961961499629
 30
0.0
 10
172.0174536379304
 20
226.5689888017874
 30
0.0
 10
172.047906976744
 20
226.5602251224973
 30
0.0
  0
LINE
  5
1C6
330
1F
100
AcDbEntity
  8
0
  6
Continuous
 62
     7
370
    25
100
AcDbLine
 10
171.4979069767
 20
226.8088109089
 30
0.0
 11
171.7979069767
 21
226.8088109089
 31
0.0
  0
SPLINE
  5
1C7
330
1F
100
AcDbEntity
  8
0
  6
Continuous
 62
     7
370
    25
100
AcDbSpline
210
0.0
220
0.0
230
1.0
 70
     8
 71
     3
 72
    11
 73
     7
 74
     0
 42
0.00000001
 43
0.00000001
 40
0.0
 40
0.0
 40
0.0
 40
0.0
 40
0.2747642185392463
 40
0.5293196339939024
 40
0.7838200577695552
 40
1.0
 40
1.0
 40
1.0
 40
1.0
 10
171.797906976744
 20
226.808810908935
 30
0.0
 10
171.8024492773958
 20
226.7860180783554
 30
0.0
 10
171.8111997942253
 20
226.7421088211594
 30
0.0
 10
171.8754729007616
 20
226.677180456279
 30
0.0
 10
171.9580337462002
 20
226.6170481619528
 30
0.0
 10
172.0196205995083
 20
226.5781094014978
 30
0.0
 10
172.047906976744
 20
226.5602251224973
 30
0.0
  0
SPLINE
  5
1C8
330
1F
100
AcDbEntity
  8
0
  6
Continuous
 62
     7
370
    25
100
AcDbSpline
210
0.0
220
0.0
230
1.0
 70
     8
 71
     3
 72
    12
 73
     8
 74
     0
 42
0.00000001
 43
0.00000001
 40
0.0
 40
0.0
 40
0.0
 40
0.0
 40
0.2234356531984278
 40
0.4468971648636877
 40
0.6703588044540507
 40
0.8938202392988336
 40
0.9999999999999999
 40
0.9999999999999999
 40
0.9999999999999999
 40
0.9999999999999999
 10
172.047906976744
 20
226.5602251224973
 30
0.0
 10
172.0293859525019
 20
226.624577785643
 30
0.0
 10
171.9923417605582
 20
226.7532905595425
 30
0.0
 10
171.9367662882709
 20
226.9230116104478
 30
0.0
 10
171.8812210514663
 20
227.0476340970979
 30
0.0
 10
171.8352922177719
 20
227.1039400734042
 30
0.0
 10
171.8080848695965
 20
227.1086938858756
 30
0.0
 10
171.7993211903064
 20
227.1102251224974
 30
0.0
  0
LINE
  5
1C9
330
1F
100
AcDbEntity
  8
0
  6
Continuous
 62
     7
370
    25
100
AcDbLine
 10
171.7993211903
 20
227.1102251225
 30
0.0
 11
230.1964927632
 21
227.1102251225
 31
0.0
  0
SPLINE
  5
1CA
330
1F
100
AcDbEntity
  8
0
  6
Continuous
 62
     7
370
    25
100
AcDbSpline
210
0.0
220
0.0
230
1.0
 70
     8
 71
     3
 72
    12
 73
     8
 74
     0
 42
0.00000001
 43
0.00000001
 40
0.0
 40
0.0
 40
0.0
 40
0.0
 40
0.2234356531984494
 40
0.446897164863696
 40
0.6703588044540759
 40
0.8938202392988605
 40
1.0
 40
1.0
 40
1.0
 40
1.0
 10
230.1964927631816
 20
227.1102251224974
 30
0.0
 10
230.1779717389396
 20
227.1036351646598
 30
0.0
 10
230.1409275469958
 20
227.0904544863211
 30
0.0
 10
230.0853520747086
 20
226.9879645291853
 30
0.0
 10
230.0298068379039
 20
226.8382051917711
 30
0.0
 10
229.9838780042095
 20
226.685222609354
 30
0.0
 10
229.9566706560341
 20
226.590678461311
 30
0.0
 10
229.947906976744
 20
226.5602251224973
 30
0.0
  0
SPLINE
  5
1CB
330
1F
100
AcDbEntity
  8
0
  6
Continuous
 62
     7
370
    25
100
AcDbSpline
210
0.0
220
0.0
230
1.0
 70
     8
 71
     3
 72
    12
 73
     8
 74
     0
 42
0.00000001
 43
0.00000001
 40
0.0
 40
0.0
 40
0.0
 40
0.0
 40
0.2234356531984489
 40
0.4468971648636824
 40
0.6703588044540604
 40
0.8938202392988335
 40
1.0
 40
1.0
 40
1.0
 40
1.0
 10
229.947906976744
 20
226.5602251224974
 30
0.0
 10
230.0122596398897
 20
226.5787461467395
 30
0.0
 10
230.1409724137892
 20
226.6157903386832
 30
0.0
 10
230.3106934646945
 20
226.6713658109705
 30
0.0
 10
230.4353159513446
 20
226.726911047775
 30
0.0
 10
230.4916219276508
 20
226.7728398814694
 30
0.0
 10
230.4963757401223
 20
226.8000472296449
 30
0.0
 10
230.497906976744
 20
226.808810908935
 30
0.0
  0
SPLINE
  5
1CC
330
1F
100
AcDbEntity
  8
0
  6
Continuous
 62
     7
370
    25
100
AcDbSpline
210
0.0
220
0.0
230
1.0
 70
     8
 71
     3
 72
    11
 73
     7
 74
     0
 42
0.00000001
 43
0.00000001
 40
0.0
 40
0.0
 40
0.0
 40
0.0
 40
0.2747642185392421
 40
0.5293196339938655
 40
0.7838200577695225
 40
1.0
 40
1.0
 40
1.0
 40
1.0
 10
229.947906976744
 20
226.5602251224973
 30
0.0
 10
229.9839433395835
 20
226.583017953077
 30
0.0
 10
230.0533656045715
 20
226.6269272102729
 30
0.0
 10
230.1372417773173
 20
226.6918555751533
 30
0.0
 10
230.1889521636843
 20
226.7519878694795
 30
0.0
 10
230.1950885710992
 20
226.7909266299345
 30
0.0
 10
230.197906976744
 20
226.808810908935
 30
0.0
  0
LINE
  5
1CD
330
1F
100
AcDbEntity
  8
0
  6
Continuous
 62
     7
370
    25
100
AcDbLine
 10
230.4979069767
 20
226.8088109089
 30
0.0
 11
230.1979069767
 21
226.8088109089
 31
0.0
  0
SPLINE
  5
1CE
330
1F
100
AcDbEntity
  8
0
  6
Continuous
 62
     7
370
    25
100
AcDbSpline
210
0.0
220
0.0
230
1.0
 70
     8
 71
     3
 72
    11
 73
     7
 74
     0
 42
0.00000001
 43
0.00000001
 40
0.0
 40
0.0
 40
0.0
 40
0.0
 40
0.2747642185392385
 40
0.5293196339938554
 40
0.7838200577695539
 40
1.0
 40
1.0
 40
1.0
 40
1.0
 10
172.047906976744
 20
226.5602251224973
 30
0.0
 10
172.0251141461644
 20
226.5962614853368
 30
0.0
 10
171.9812048889684
 20
226.6656837503248
 30
0.0
 10
171.9162765240881
 20
226.7495599230707
 30
0.0
 10
171.8561442297618
 20
226.8012703094377
 30
0.0
 10
171.8172054693068
 20
226.8074067168525
 30
0.0
 10
171.7993211903064
 20
226.8102251224973
 30
0.0
  0
LINE
  5
1CF
330
1F
100
AcDbEntity
  8
0
  6
Continuous
 62
     7
370
    25
100
AcDbLine
 10
171.7993211903
 20
227.1102251225
 30
0.0
 11
171.7993211903
 21
226.8102251225
 31
0.0
  0
LINE
  5
1D0
330
1F
100
AcDbEntity
  8
0
  6
Continuous
 62
     7
370
    25
100
AcDbLine
 10
230.4979069767
 20
201.4116393361
 30
0.0
 11
230.4979069767
 21
226.8088109089
 31
0.0
  0
SPLINE
  5
1D1
330
1F
100
AcDbEntity
  8
0
  6
Continuous
 62
     7
370
    25
100
AcDbSpline
210
0.0
220
0.0
230
1.0
 70
     8
 71
     3
 72
    12
 73
     8
 74
     0
 42
0.00000001
 43
0.00000001
 40
0.0
 40
0.0
 40
0.0
 40
0.0
 40
0.2234356531984491
 40
0.4468971648637013
 40
0.6703588044540738
 40
0.8938202392988488
 40
1.0
 40
1.0
 40
1.0
 40
1.0
 10
230.497906976744
 20
201.4116393360597
 30
0.0
 10
230.4913170189064
 20
201.4301603603018
 30
0.0
 10
230.4781363405679
 20
201.4672045522456
 30
0.0
 10
230.3756463834318
 20
201.5227800245328
 30
0.0
 10
230.2258870460178
 20
201.5783252613374
 30
0.0
 10
230.0729044636006
 20
201.6242540950318
 30
0.0
 10
229.9783603155576
 20
201.6514614432072
 30
0.0
 10
229.947906976744
 20
201.6602251224973
 30
0.0
  0
LINE
  5
1D2
330
1F
100
AcDbEntity
  8
0
  6
Continuous
 62
     7
370
    25
100
AcDbLine
 10
230.1964927632
 20
227.1102251225
 30
0.0
 11
230.1964927632
 21
226.8102251225
 31
0.0
  0
SPLINE
  5
1D3
330
1F
100
AcDbEntity
  8
0
  6
Continuous
 62
     7
370
    25
100
AcDbSpline
210
0.0
220
0.0
230
1.0
 70
     8
 71
     3
 72
    11
 73
     7
 74
     0
 42
0.00000001
 43
0.00000001
 40
0.0
 40
0.0
 40
0.0
 40
0.0
 40
0.2747642185392555
 40
0.5293196339938975
 40
0.7838200577695436
 40
1.0
 40
1.0
 40
1.0
 40
1.0
 10
230.1964927631816
 20
226.8102251224973
 30
0.0
 10
230.173699932602
 20
226.8056828218456
 30
0.0
 10
230.1297906754061
 20
226.796932305016
 30
0.0
 10
230.0648623105257
 20
226.7326591984798
 30
0.0
 10
230.0047300161994
 20
226.6500983530412
 30
0.0
 10
229.9657912557444
 20
226.5885114997331
 30
0.0
 10
229.947906976744
 20
226.5602251224973
 30
0.0
  0
LINE
  5
1D4
330
1F
100
AcDbEntity
  8
0
  6
Continuous
 62
     7
370
    25
100
AcDbLine
 10
230.4979069767
 20
201.4116393361
 30
0.0
 11
230.1979069767
 21
201.4116393361
 31
0.0
  0
SPLINE
  5
1D5
330
1F
100
AcDbEntity
  8
0
  6
Continuous
 62
     7
370
    25
100
AcDbSpline
210
0.0
220
0.0
230
1.0
 70
     8
 71
     3
 72
    11
 73
     7
 74
     0
 42
0.00000001
 43
0.00000001
 40
0.0
 40
0.0
 40
0.0
 40
0.0
 40
0.2747642185392443
 40
0.5293196339939007
 40
0.783820057769545
 40
1.0
 40
1.0
 40
1.0
 40
1.0
 10
230.197906976744
 20
201.4116393360597
 30
0.0
 10
230.1933646760922
 20
201.4344321666394
 30
0.0
 10
230.1846141592627
 20
201.4783414238353
 30
0.0
 10
230.1203410527264
 20
201.5432697887157
 30
0.0
 10
230.0377802072879
 20
201.6034020830419
 30
0.0
 10
229.9761933539798
 20
201.6423408434969
 30
0.0
 10
229.947906976744
 20
201.6602251224973
 30
0.0
  0
LINE
  5
1D6
330
1F
100
AcDbEntity
  8
0
  6
Continuous
 62
     7
370
    25
100
AcDbLine
 10
230.1964927632
 20
200.8602251225
 30
0.0
 11
230.1964927632
 21
201.1102251225
 31
0.0
  0
LINE
  5
1D7
330
1F
100
AcDbEntity
  8
0
  6
Continuous
 62
     7
370
    25
100
AcDbLine
 10
171.7993211903
 20
201.1102251225
 30
0.0
 11
171.7993211903
 21
200.8602251225
 31
0.0
  0
LINE
  5
1D8
330
1F
100
AcDbEntity
  8
0
  6
Continuous
 62
     7
370
    25
100
AcDbLine
 10
173.7979069767
 20
227.2955203612
 30
0.0
 11
173.7979069767
 21
227.1102251225
 31
0.0
  0
LINE
  5
1D9
330
1F
100
AcDbEntity
  8
0
  6
Continuous
 62
     7
370
    25
100
AcDbLine
 10
228.1979069767
 20
227.1102251225
 30
0.0
 11
228.1979069767
 21
227.2955203612
 31
0.0
  0
LINE
  5
1DA
330
1F
100
AcDbEntity
  8
0
  6
Continuous
 62
     7
370
    25
100
AcDbLine
 10
167.4979069767
 20
195.3602251225
 30
0.0
 11
167.4979069767
 21
199.8602251225
 31
0.0
  0
ARC
  5
1DB
330
1F
100
AcDbEntity
  8
0
  6
Continuous
 62
     7
370
    25
100
AcDbCircle
 10
168.4979069767
 20
199.8602251225
 30
0.0
 40
1.0
100
AcDbArc
 50
90.0
 51
180.0
  0
LINE
  5
1DC
330
1F
100
AcDbEntity
  8
0
  6
Continuous
 62
     7
370
    25
100
AcDbLine
 10
168.4979069767
 20
200.8602251225
 30
0.0
 11
171.7993211903
 21
200.8602251225
 31
0.0
  0
LINE
  5
1DD
330
1F
100
AcDbEntity
  8
0
  6
Continuous
 62
     7
370
    25
100
AcDbLine
 10
230.1964927632
 20
200.8602251225
 30
0.0
 11
233.4979069767
 21
200.8602251225
 31
0.0
  0
ARC
  5
1DE
330
1F
100
AcDbEntity
  8
0
  6
Continuous
 62
     7
370
    25
100
AcDbCircle
 10
233.4979069767
 20
199.8602251225
 30
0.0
 40
1.0
100
AcDbArc
 50
0.0
 51
90.0
  0
ARC
  5
1DF
330
1F
100
AcDbEntity
  8
0
  6
Continuous
 62
     7
370
    25
100
AcDbCircle
 10
230.5779069767
 20
198.1102251225
 30
0.0
 40
1.27000000000001
100
AcDbArc
 50
270.0
 51
90.0
  0
LINE
  5
1E0
330
1F
100
AcDbEntity
  8
0
  6
Continuous
 62
     7
370
    25
100
AcDbLine
 10
206.1179069767
 20
199.3802251225
 30
0.0
 11
230.5779069767
 21
199.3802251225
 31
0.0
  0
ARC
  5
1E1
330
1F
100
AcDbEntity
  8
0
  6
Continuous
 62
     7
370
    25
100
AcDbCircle
 10
206.1179069767
 20
198.1102251225
 30
0.0
 40
1.27000000000001
100
AcDbArc
 50
90.0
 51
270.0
  0
LINE
  5
1E2
330
1F
100
AcDbEntity
  8
0
  6
Continuous
 62
     7
370
    25
100
AcDbLine
 10
230.5779069767
 20
196.8402251225
 30
0.0
 11
206.1179069767
 21
196.8402251225
 31
0.0
  0
ARC
  5
1E3
330
1F
100
AcDbEntity
  8
0
  6
Continuous
 62
     7
370
    25
100
AcDbCircle
 10
195.8779069767
 20
198.1102251225
 30
0.0
 40
1.27000000000001
100
AcDbArc
 50
270.0
 51
90.0
  0
LINE
  5
1E4
330
1F
100
AcDbEntity
  8
0
  6
Continuous
 62
     7
370
    25
100
AcDbLine
 10
171.4179069767
 20
199.3802251225
 30
0.0
 11
195.8779069767
 21
199.3802251225
 31
0.0
  0
ARC
  5
1E5
330
1F
100
AcDbEntity
  8
0
  6
Continuous
 62
     7
370
    25
100
AcDbCircle
 10
171.4179069767
 20
198.1102251225
 30
0.0
 40
1.27000000000001
100
AcDbArc
 50
90.0
 51
270.0
  0
LINE
  5
1E6
330
1F
100
AcDbEntity
  8
0
  6
Continuous
 62
     7
370
    25
100
AcDbLine
 10
195.8779069767
 20
196.8402251225
 30
0.0
 11
171.4179069767
 21
196.8402251225
 31
0.0
  0
LINE
  5
1E7
330
1F
100
AcDbEntity
  8
0
  6
Continuous
 62
     7
370
    25
100
AcDbLine
 10
234.4979069767
 20
199.8602251225
 30
0.0
 11
234.4979069767
 21
195.3602251225
 31
0.0
  0
LINE
  5
1E8
330
1F
100
AcDbEntity
  8
0
  6
Continuous
 62
     7
370
    25
100
AcDbLine
 10
167.4979069767
 20
194.8102251225
 30
0.0
 11
234.4979069767
 21
194.8102251225
 31
0.0
  0
LINE
  5
1E9
330
1F
100
AcDbEntity
  8
0
  6
Continuous
 62
     7
370
    25
100
AcDbLine
 10
167.4979069767
 20
194.8102251225
 30
0.0
 11
167.4979069767
 21
195.3602251225
 31
0.0
  0
LINE
  5
1EA
330
1F
100
AcDbEntity
  8
0
  6
Continuous
 62
     7
370
    25
100
AcDbLine
 10
234.4979069767
 20
195.3602251225
 30
0.0
 11
234.4979069767
 21
194.8102251225
 31
0.0
  0
ARC
  5
1EB
330
1F
100
AcDbEntity
  8
0
  6
Continuous
 62
     7
370
    25
100
AcDbCircle
 10
174.7811601522
 20
229.6042946823
 30
0.0
 40
0.9834060194313454
100
AcDbArc
 50
89.0242395005
 51
178.9898148908
  0
LINE
  5
1EC
330
1F
100
AcDbEntity
  8
0
  6
Continuous
 62
     7
370
    25
100
AcDbLine
 10
174.7979069767
 20
230.5875580971
 30
0.0
 11
193.2995202998
 21
230.5875580971
 31
0.0
  0
ARC
  5
1ED
330
1F
100
AcDbEntity
  8
0
  6
Continuous
 62
     7
370
    25
100
AcDbCircle
 10
193.3027143464
 20
230.1867292393
 30
0.0
 40
0.400841583684233
100
AcDbArc
 50
25.6561622454
 51
90.4565577349
  0
ARC
  5
1EE
330
1F
100
AcDbEntity
  8
0
  6
Continuous
 62
     7
370
    25
100
AcDbCircle
 10
196.3979069767
 20
231.6859875164
 30
0.0
 40
3.038345777671435
100
AcDbArc
 50
205.8696328181
 51
334.1303671819
  0
ARC
  5
1EF
330
1F
100
AcDbEntity
  8
0
  6
Continuous
 62
     7
370
    25
100
AcDbCircle
 10
199.4930996071
 20
230.1867292393
 30
0.0
 40
0.400841583684257
100
AcDbArc
 50
89.5434422651
 51
154.3438377546
  0
LINE
  5
1F0
330
1F
100
AcDbEntity
  8
0
  6
Continuous
 62
     7
370
    25
100
AcDbLine
 10
199.4962936537
 20
230.5875580971
 30
0.0
 11
202.4995202998
 21
230.5875580971
 31
0.0
  0
ARC
  5
1F1
330
1F
100
AcDbEntity
  8
0
  6
Continuous
 62
     7
370
    25
100
AcDbCircle
 10
202.5027143464
 20
230.1867292393
 30
0.0
 40
0.400841583684257
100
AcDbArc
 50
25.6561622454
 51
90.4565577349
  0
ARC
  5
1F2
330
1F
100
AcDbEntity
  8
0
  6
Continuous
 62
     7
370
    25
100
AcDbCircle
 10
205.5979069767
 20
231.6859875164
 30
0.0
 40
3.038345777671398
100
AcDbArc
 50
205.8696328181
 51
334.1303671819
  0
ARC
  5
1F3
330
1F
100
AcDbEntity
  8
0
  6
Continuous
 62
     7
370
    25
100
AcDbCircle
 10
208.6930996071
 20
230.1867292393
 30
0.0
 40
0.400841583684318
100
AcDbArc
 50
89.5434422651
 51
154.3438377546
  0
LINE
  5
1F4
330
1F
100
AcDbEntity
  8
0
  6
Continuous
 62
     7
370
    25
100
AcDbLine
 10
208.6962936537
 20
230.5875580971
 30
0.0
 11
227.1979069767
 21
230.5875580971
 31
0.0
  0
ARC
  5
1F5
330
1F
100
AcDbEntity
  8
0
  6
Continuous
 62
     7
370
    25
100
AcDbCircle
 10
227.2146538013
 20
229.6042946823
 30
0.0
 40
0.983406019431401
100
AcDbArc
 50
1.0101851092
 51
90.9757604995
  0
LINE
  5
1F6
330
1F
100
AcDbEntity
  8
0
  6
Continuous
 62
     7
370
    25
100
AcDbLine
 10
173.7979069767
 20
227.2955203612
 30
0.0
 11
173.7979069767
 21
229.6216322708
 31
0.0
  0
LINE
  5
1F7
330
1F
100
AcDbEntity
  8
0
  6
Continuous
 62
     7
370
    25
100
AcDbLine
 10
228.1979069767
 20
229.6216322708
 30
0.0
 11
228.1979069767
 21
227.2955203612
 31
0.0
  0
ARC
  5
1F8
330
1F
100
AcDbEntity
  8
0
  6
Continuous
 62
     7
370
    25
100
AcDbCircle
 10
173.0979069767
 20
197.2102251225
 30
0.0
 40
0.4000000000000141
100
AcDbArc
 50
292.3316450092
 51
0.0
  0
LINE
  5
1F9
330
1F
100
AcDbEntity
  8
0
  6
Continuous
 62
     7
370
    25
100
AcDbLine
 10
173.4979069767
 20
197.2102251225
 30
0.0
 11
173.4979069767
 21
199.3802251225
 31
0.0
  0
LINE
  5
1FA
330
1F
100
AcDbEntity
  8
0
  6
Continuous
 62
     7
370
    25
100
AcDbLine
 10
179.4979069767
 20
199.3802251225
 30
0.0
 11
179.4979069767
 21
197.2102251225
 31
0.0
  0
ARC
  5
1FB
330
1F
100
AcDbEntity
  8
0
  6
Continuous
 62
     7
370
    25
100
AcDbCircle
 10
179.8979069767
 20
197.2102251225
 30
0.0
 40
0.4000000000000341
100
AcDbArc
 50
180.0
 51
247.6683549908
  0
ARC
  5
1FC
330
1F
100
AcDbEntity
  8
0
  6
Continuous
 62
     7
370
    25
100
AcDbCircle
 10
222.0979069767
 20
197.2102251225
 30
0.0
 40
0.4000000000000141
100
AcDbArc
 50
292.3316450092
 51
0.0
  0
LINE
  5
1FD
330
1F
100
AcDbEntity
  8
0
  6
Continuous
 62
     7
370
    25
100
AcDbLine
 10
222.4979069767
 20
197.2102251225
 30
0.0
 11
222.4979069767
 21
199.3802251225
 31
0.0
  0
LINE
  5
1FE
330
1F
100
AcDbEntity
  8
0
  6
Continuous
 62
     7
370
    25
100
AcDbLine
 10
228.4979069767
 20
199.3802251225
 30
0.0
 11
228.4979069767
 21
197.2102251225
 31
0.0
  0
ARC
  5
1FF
330
1F
100
AcDbEntity
  8
0
  6
Continuous
 62
     7
370
    25
100
AcDbCircle
 10
228.8979069767
 20
197.2102251225
 30
0.0
 40
0.4000000000000141
100
AcDbArc
 50
180.0
 51
247.6683549908
  0
LINE
  5
200
330
1F
100
AcDbEntity
  8
0
  6
Continuous
 62
     7
370
    25
100
AcDbLine
 10
239.9979069767
 20
216.0102251225
 30
0.0
 11
239.9979069767
 21
216.0502251225
 31
0.0
  0
LINE
  5
201
330
1F
100
AcDbEntity
  8
0
  6
Continuous
 62
     7
370
    25
100
AcDbLine
 10
239.9979069767
 20
216.0102251225
 30
0.0
 11
239.7579069767
 21
216.0102251225
 31
0.0
  0
LINE
  5
202
330
1F
100
AcDbEntity
  8
0
  6
Continuous
 62
     7
370
    25
100
AcDbLine
 10
239.7579069767
 20
216.0102251225
 30
0.0
 11
239.7579069767
 21
216.0502251225
 31
0.0
  0
LINE
  5
203
330
1F
100
AcDbEntity
  8
0
  6
Continuous
 62
     7
370
    25
100
AcDbLine
 10
239.9979069767
 20
216.0502251225
 30
0.0
 11
239.9979069767
 21
227.5702251225
 31
0.0
  0
LINE
  5
204
330
1F
100
AcDbEntity
  8
0
  6
Continuous
 62
     7
370
    25
100
AcDbLine
 10
239.7579069767
 20
216.0502251225
 30
0.0
 11
239.7579069767
 21
216.0516393361
 31
0.0
  0
LINE
  5
205
330
1F
100
AcDbEntity
  8
0
  6
Continuous
 62
     7
370
    25
100
AcDbLine
 10
239.7579069767
 20
227.5688109089
 30
0.0
 11
239.7579069767
 21
227.5702251225
 31
0.0
  0
LINE
  5
206
330
1F
100
AcDbEntity
  8
0
  6
Continuous
 62
     7
370
    25
100
AcDbLine
 10
239.9979069767
 20
227.6102251225
 30
0.0
 11
239.7579069767
 21
227.6102251225
 31
0.0
  0
LINE
  5
207
330
1F
100
AcDbEntity
  8
0
  6
Continuous
 62
     7
370
    25
100
AcDbLine
 10
239.9979069767
 20
227.5702251225
 30
0.0
 11
239.9979069767
 21
227.6102251225
 31
0.0
  0
LINE
  5
208
330
1F
100
AcDbEntity
  8
0
  6
Continuous
 62
     7
370
    25
100
AcDbLine
 10
239.7579069767
 20
227.5702251225
 30
0.0
 11
239.7579069767
 21
227.6102251225
 31
0.0
  0
LINE
  5
209
330
1F
100
AcDbEntity
  8
0
  6
Continuous
 62
     7
370
    25
100
AcDbLine
 10
161.9979069767
 20
216.0102251225
 30
0.0
 11
162.2379069767
 21
216.0102251225
 31
0.0
  0
LINE
  5
20A
330
1F
100
AcDbEntity
  8
0
  6
Continuous
 62
     7
370
    25
100
AcDbLine
 10
162.2379069767
 20
216.0502251225
 30
0.0
 11
162.2379069767
 21
216.0102251225
 31
0.0
  0
LINE
  5
20B
330
1F
100
AcDbEntity
  8
0
  6
Continuous
 62
     7
370
    25
100
AcDbLine
 10
161.9979069767
 20
216.0502251225
 30
0.0
 11
161.9979069767
 21
216.0102251225
 31
0.0
  0
LINE
  5
20C
330
1F
100
AcDbEntity
  8
0
  6
Continuous
 62
     7
370
    25
100
AcDbLine
 10
162.2379069767
 20
227.5702251225
 30
0.0
 11
162.2379069767
 21
227.5688109089
 31
0.0
  0
LINE
  5
20D
330
1F
100
AcDbEntity
  8
0
  6
Continuous
 62
     7
370
    25
100
AcDbLine
 10
162.2379069767
 20
216.0516393361
 30
0.0
 11
162.2379069767
 21
216.0502251225
 31
0.0
  0
LINE
  5
20E
330
1F
100
AcDbEntity
  8
0
  6
Continuous
 62
     7
370
    25
100
AcDbLine
 10
161.9979069767
 20
227.5702251225
 30
0.0
 11
161.9979069767
 21
216.0502251225
 31
0.0
  0
LINE
  5
20F
330
1F
100
AcDbEntity
  8
0
  6
Continuous
 62
     7
370
    25
100
AcDbLine
 10
161.9979069767
 20
227.6102251225
 30
0.0
 11
162.2379069767
 21
227.6102251225
 31
0.0
  0
LINE
  5
210
330
1F
100
AcDbEntity
  8
0
  6
Continuous
 62
     7
370
    25
100
AcDbLine
 10
162.2379069767
 20
227.6102251225
 30
0.0
 11
162.2379069767
 21
227.5702251225
 31
0.0
  0
LINE
  5
211
330
1F
100
AcDbEntity
  8
0
  6
Continuous
 62
     7
370
    25
100
AcDbLine
 10
161.9979069767
 20
227.6102251225
 30
0.0
 11
161.9979069767
 21
227.5702251225
 31
0.0
  0
LINE
  5
212
330
1F
100
AcDbEntity
  8
0
  6
Continuous
 62
     7
370
    25
100
AcDbLine
 10
233.4879069767
 20
216.0516393361
 30
0.0
 11
239.7579069767
 21
216.0516393361
 31
0.0
  0
LINE
  5
213
330
1F
100
AcDbEntity
  8
0
  6
Continuous
 62
     7
370
    25
100
AcDbLine
 10
233.4879069767
 20
227.5688109089
 30
0.0
 11
239.7579069767
 21
227.5688109089
 31
0.0
  0
LINE
  5
214
330
1F
100
AcDbEntity
  8
0
  6
Continuous
 62
     7
370
    25
100
AcDbLine
 10
239.7579069767
 20
216.0516393361
 30
0.0
 11
239.7579069767
 21
227.5688109089
 31
0.0
  0
SPLINE
  5
215
330
1F
100
AcDbEntity
  8
0
  6
Continuous
 62
     7
370
    25
100
AcDbSpline
210
0.0
220
0.0
230
1.0
 70
     8
 71
     3
 72
    12
 73
     8
 74
     0
 42
0.00000001
 43
0.00000001
 40
0.0
 40
0.0
 40
0.0
 40
0.0
 40
0.2256464046612636
 40
0.4513359764378119
 40
0.6770257472791161
 40
0.9027153045661052
 40
1.0
 40
1.0
 40
1.0
 40
1.0
 10
232.9979069767445
 20
227.3202251224973
 30
0.0
 10
233.0038957313284
 20
227.3389290850125
 30
0.0
 10
233.0158743861703
 20
227.3763405881905
 30
0.0
 10
233.1089499283415
 20
227.4324686015899
 30
0.0
 10
233.2447025176301
 20
227.4885645926641
 30
0.0
 10
233.3805422680933
 20
227.5341308838551
 30
0.0
 10
233.4630533881955
 20
227.5607829164499
 30
0.0
 10
233.4879069767445
 20
227.5688109089349
 30
0.0
  0
LINE
  5
216
330
1F
100
AcDbEntity
  8
0
  6
Continuous
 62
     7
370
    25
100
AcDbLine
 10
232.9979069767
 20
216.3002251225
 30
0.0
 11
232.9979069767
 21
227.3202251225
 31
0.0
  0
SPLINE
  5
217
330
1F
100
AcDbEntity
  8
0
  6
Continuous
 62
     7
370
    25
100
AcDbSpline
210
0.0
220
0.0
230
1.0
 70
     8
 71
     3
 72
    12
 73
     8
 74
     0
 42
0.00000001
 43
0.00000001
 40
0.0
 40
0.0
 40
0.0
 40
0.0
 40
0.2256464046612575
 40
0.4513359764378017
 40
0.6770257472791034
 40
0.9027153045661004
 40
1.0
 40
1.0
 40
1.0
 40
1.0
 10
233.4879069767444
 20
216.0516393360597
 30
0.0
 10
233.4300078402488
 20
216.0703432985749
 30
0.0
 10
233.3141984909068
 20
216.1077548017528
 30
0.0
 10
233.1619173141362
 20
216.1638828151522
 30
0.0
 10
233.0509047880273
 20
216.2199788062265
 30
0.0
 10
233.0028776678189
 20
216.2655450974174
 30
0.0
 10
232.9990576296203
 20
216.2921971300123
 30
0.0
 10
232.9979069767444
 20
216.3002251224973
 30
0.0
  0
SPLINE
  5
218
330
1F
100
AcDbEntity
  8
0
  6
Continuous
 62
     7
370
    25
100
AcDbSpline
210
0.0
220
0.0
230
1.0
 70
     8
 71
     3
 72
    12
 73
     8
 74
     0
 42
0.00000001
 43
0.00000001
 40
0.0
 40
0.0
 40
0.0
 40
0.0
 40
0.2256464046612681
 40
0.4513359764378178
 40
0.6770257472791161
 40
0.9027153045661087
 40
1.0
 40
1.0
 40
1.0
 40
1.0
 10
232.9979069767444
 20
216.3002251224973
 30
0.0
 10
233.0038957313284
 20
216.2423259860016
 30
0.0
 10
233.0158743861703
 20
216.1265166366596
 30
0.0
 10
233.1089499283415
 20
215.974235459889
 30
0.0
 10
233.2447025176301
 20
215.86322293378
 30
0.0
 10
233.3805422680933
 20
215.8151958135719
 30
0.0
 10
233.4630533881954
 20
215.8113757753731
 30
0.0
 10
233.4879069767444
 20
215.8102251224973
 30
0.0
  0
SPLINE
  5
219
330
1F
100
AcDbEntity
  8
0
  6
Continuous
 62
     7
370
    25
100
AcDbSpline
210
0.0
220
0.0
230
1.0
 70
     8
 71
     3
 72
     9
 73
     5
 74
     0
 42
0.00000001
 43
0.00000001
 40
0.0
 40
0.0
 40
0.0
 40
0.0
 40
0.4104894811455565
 40
1.0
 40
1.0
 40
1.0
 40
1.0
 10
233.3508174982415
 20
216.0968563694624
 30
0.0
 10
233.3674578966445
 20
216.0849014001305
 30
0.0
 10
233.4079958377302
 20
216.0557777078534
 30
0.0
 10
233.4582698925832
 20
216.052284440404
 30
0.0
 10
233.4879069767444
 20
216.0502251224973
 30
0.0
  0
LINE
  5
21A
330
1F
100
AcDbEntity
  8
0
  6
Continuous
 62
     7
370
    25
100
AcDbLine
 10
233.4879069767
 20
215.8102251225
 30
0.0
 11
233.4879069767
 21
216.0502251225
 31
0.0
  0
SPLINE
  5
21B
330
1F
100
AcDbEntity
  8
0
  6
Continuous
 62
     7
370
    25
100
AcDbSpline
210
0.0
220
0.0
230
1.0
 70
     8
 71
     3
 72
    12
 73
     8
 74
     0
 42
0.00000001
 43
0.00000001
 40
0.0
 40
0.0
 40
0.0
 40
0.0
 40
0.2256464046612618
 40
0.4513359764378047
 40
0.6770257472791257
 40
0.9027153045660946
 40
1.0
 40
1.0
 40
1.0
 40
1.0
 10
233.4879069767445
 20
227.8102251224973
 30
0.0
 10
233.4300078402488
 20
227.8042363679133
 30
0.0
 10
233.3141984909068
 20
227.7922577130713
 30
0.0
 10
233.1619173141363
 20
227.6991821709003
 30
0.0
 10
233.0509047880273
 20
227.5634295816116
 30
0.0
 10
233.002877667819
 20
227.4275898311484
 30
0.0
 10
232.9990576296203
 20
227.3450787110463
 30
0.0
 10
232.9979069767445
 20
227.3202251224973
 30
0.0
  0
LINE
  5
21C
330
1F
100
AcDbEntity
  8
0
  6
Continuous
 62
     7
370
    25
100
AcDbLine
 10
233.4879069767
 20
227.8102251225
 30
0.0
 11
233.4879069767
 21
227.5702251225
 31
0.0
  0
SPLINE
  5
21D
330
1F
100
AcDbEntity
  8
0
  6
Continuous
 62
     7
370
    25
100
AcDbSpline
210
0.0
220
0.0
230
1.0
 70
     8
 71
     3
 72
     9
 73
     5
 74
     0
 42
0.00000001
 43
0.00000001
 40
0.0
 40
0.0
 40
0.0
 40
0.0
 40
0.7065222089747167
 40
0.9999999999999999
 40
0.9999999999999999
 40
0.9999999999999999
 40
0.9999999999999999
 10
233.4879069767445
 20
227.5702251224972
 30
0.0
 10
233.451742990103
 20
227.5675178197674
 30
0.0
 10
233.400557073819
 20
227.5636859476826
 30
0.0
 10
233.3615896350365
 20
227.5321912338174
 30
0.0
 10
233.3501535571807
 20
227.5229482347633
 30
0.0
  0
LINE
  5
21E
330
1F
100
AcDbEntity
  8
0
  6
Continuous
 62
     7
370
    25
100
AcDbLine
 10
239.7579069767
 20
215.8102251225
 30
0.0
 11
239.7579069767
 21
216.0102251225
 31
0.0
  0
LINE
  5
21F
330
1F
100
AcDbEntity
  8
0
  6
Continuous
 62
     7
370
    25
100
AcDbLine
 10
233.4879069767
 20
216.0502251225
 30
0.0
 11
239.7579069767
 21
216.0502251225
 31
0.0
  0
LINE
  5
220
330
1F
100
AcDbEntity
  8
0
  6
Continuous
 62
     7
370
    25
100
AcDbLine
 10
233.4879069767
 20
215.8102251225
 30
0.0
 11
239.7579069767
 21
215.8102251225
 31
0.0
  0
LINE
  5
221
330
1F
100
AcDbEntity
  8
0
  6
Continuous
 62
     7
370
    25
100
AcDbLine
 10
233.4879069767
 20
227.5702251225
 30
0.0
 11
239.7579069767
 21
227.5702251225
 31
0.0
  0
LINE
  5
222
330
1F
100
AcDbEntity
  8
0
  6
Continuous
 62
     7
370
    25
100
AcDbLine
 10
233.4879069767
 20
227.8102251225
 30
0.0
 11
239.7579069767
 21
227.8102251225
 31
0.0
  0
LINE
  5
223
330
1F
100
AcDbEntity
  8
0
  6
Continuous
 62
     7
370
    25
100
AcDbLine
 10
239.7579069767
 20
227.8102251225
 30
0.0
 11
239.7579069767
 21
227.6102251225
 31
0.0
  0
LINE
  5
224
330
1F
100
AcDbEntity
  8
0
  6
Continuous
 62
     7
370
    25
100
AcDbLine
 10
168.5079069767
 20
227.5688109089
 30
0.0
 11
162.2379069767
 21
227.5688109089
 31
0.0
  0
LINE
  5
225
330
1F
100
AcDbEntity
  8
0
  6
Continuous
 62
     7
370
    25
100
AcDbLine
 10
162.2379069767
 20
227.5688109089
 30
0.0
 11
162.2379069767
 21
216.0516393361
 31
0.0
  0
LINE
  5
226
330
1F
100
AcDbEntity
  8
0
  6
Continuous
 62
     7
370
    25
100
AcDbLine
 10
168.5079069767
 20
216.0516393361
 30
0.0
 11
162.2379069767
 21
216.0516393361
 31
0.0
  0
SPLINE
  5
227
330
1F
100
AcDbEntity
  8
0
  6
Continuous
 62
     7
370
    25
100
AcDbSpline
210
0.0
220
0.0
230
1.0
 70
     8
 71
     3
 72
    12
 73
     8
 74
     0
 42
0.00000001
 43
0.00000001
 40
0.0
 40
0.0
 40
0.0
 40
0.0
 40
0.2256464046612659
 40
0.4513359764378155
 40
0.6770257472791186
 40
0.902715304566106
 40
1.0
 40
1.0
 40
1.0
 40
1.0
 10
168.9979069767444
 20
216.3002251224974
 30
0.0
 10
168.9919182221605
 20
216.2815211599822
 30
0.0
 10
168.9799395673186
 20
216.2441096568042
 30
0.0
 10
168.8868640251474
 20
216.1879816434048
 30
0.0
 10
168.7511114358588
 20
216.1318856523306
 30
0.0
 10
168.6152716853956
 20
216.0863193611397
 30
0.0
 10
168.5327605652934
 20
216.0596673285448
 30
0.0
 10
168.5079069767444
 20
216.0516393360598
 30
0.0
  0
SPLINE
  5
228
330
1F
100
AcDbEntity
  8
0
  6
Continuous
 62
     7
370
    25
100
AcDbSpline
210
0.0
220
0.0
230
1.0
 70
     8
 71
     3
 72
    12
 73
     8
 74
     0
 42
0.00000001
 43
0.00000001
 40
0.0
 40
0.0
 40
0.0
 40
0.0
 40
0.225646404661258
 40
0.4513359764378083
 40
0.6770257472791072
 40
0.9027153045660953
 40
1.0
 40
1.0
 40
1.0
 40
1.0
 10
168.5079069767444
 20
227.568810908935
 30
0.0
 10
168.5658061132401
 20
227.5501069464198
 30
0.0
 10
168.6816154625821
 20
227.5126954432418
 30
0.0
 10
168.8338966393527
 20
227.4565674298424
 30
0.0
 10
168.9449091654617
 20
227.4004714387683
 30
0.0
 10
168.9929362856699
 20
227.3549051475772
 30
0.0
 10
168.9967563238686
 20
227.3282531149824
 30
0.0
 10
168.9979069767444
 20
227.3202251224974
 30
0.0
  0
LINE
  5
229
330
1F
100
AcDbEntity
  8
0
  6
Continuous
 62
     7
370
    25
100
AcDbLine
 10
168.9979069767
 20
227.3202251225
 30
0.0
 11
168.9979069767
 21
216.3002251225
 31
0.0
  0
LINE
  5
22A
330
1F
100
AcDbEntity
  8
0
  6
Continuous
 62
     7
370
    25
100
AcDbLine
 10
168.5079069767
 20
215.8102251225
 30
0.0
 11
168.5079069767
 21
216.0502251225
 31
0.0
  0
SPLINE
  5
22B
330
1F
100
AcDbEntity
  8
0
  6
Continuous
 62
     7
370
    25
100
AcDbSpline
210
0.0
220
0.0
230
1.0
 70
     8
 71
     3
 72
     9
 73
     5
 74
     0
 42
0.00000001
 43
0.00000001
 40
0.0
 40
0.0
 40
0.0
 40
0.0
 40
0.7065222089747315
 40
1.0
 40
1.0
 40
1.0
 40
1.0
 10
168.5079069767444
 20
216.0502251224974
 30
0.0
 10
168.5440709633858
 20
216.0529324252273
 30
0.0
 10
168.5952568796699
 20
216.056764297312
 30
0.0
 10
168.6342243184524
 20
216.0882590111773
 30
0.0
 10
168.6456603963082
 20
216.0975020102314
 30
0.0
  0
SPLINE
  5
22C
330
1F
100
AcDbEntity
  8
0
  6
Continuous
 62
     7
370
    25
100
AcDbSpline
210
0.0
220
0.0
230
1.0
 70
     8
 71
     3
 72
    12
 73
     8
 74
     0
 42
0.00000001
 43
0.00000001
 40
0.0
 40
0.0
 40
0.0
 40
0.0
 40
0.2256464046612588
 40
0.4513359764378098
 40
0.6770257472791242
 40
0.9027153045660954
 40
1.0
 40
1.0
 40
1.0
 40
1.0
 10
168.5079069767444
 20
215.8102251224974
 30
0.0
 10
168.5658061132401
 20
215.8162138770813
 30
0.0
 10
168.6816154625821
 20
215.8281925319233
 30
0.0
 10
168.8338966393527
 20
215.9212680740944
 30
0.0
 10
168.9449091654616
 20
216.057020663383
 30
0.0
 10
168.9929362856699
 20
216.1928604138462
 30
0.0
 10
168.9967563238686
 20
216.2753715339484
 30
0.0
 10
168.9979069767444
 20
216.3002251224974
 30
0.0
  0
SPLINE
  5
22D
330
1F
100
AcDbEntity
  8
0
  6
Continuous
 62
     7
370
    25
100
AcDbSpline
210
0.0
220
0.0
230
1.0
 70
     8
 71
     3
 72
    12
 73
     8
 74
     0
 42
0.00000001
 43
0.00000001
 40
0.0
 40
0.0
 40
0.0
 40
0.0
 40
0.2256464046612681
 40
0.4513359764378159
 40
0.6770257472791128
 40
0.9027153045660996
 40
1.0
 40
1.0
 40
1.0
 40
1.0
 10
168.9979069767444
 20
227.3202251224974
 30
0.0
 10
168.9919182221606
 20
227.3781242589931
 30
0.0
 10
168.9799395673186
 20
227.4939336083351
 30
0.0
 10
168.8868640251474
 20
227.6462147851057
 30
0.0
 10
168.7511114358589
 20
227.7572273112146
 30
0.0
 10
168.6152716853956
 20
227.8052544314229
 30
0.0
 10
168.5327605652934
 20
227.8090744696216
 30
0.0
 10
168.5079069767444
 20
227.8102251224974
 30
0.0
  0
SPLINE
  5
22E
330
1F
100
AcDbEntity
  8
0
  6
Continuous
 62
     7
370
    25
100
AcDbSpline
210
0.0
220
0.0
230
1.0
 70
     8
 71
     3
 72
     9
 73
     5
 74
     0
 42
0.00000001
 43
0.00000001
 40
0.0
 40
0.0
 40
0.0
 40
0.0
 40
0.4104894811455613
 40
0.9999999999999999
 40
0.9999999999999999
 40
0.9999999999999999
 40
0.9999999999999999
 10
168.6449964552475
 20
227.5235938755323
 30
0.0
 10
168.6283560568444
 20
227.5355488448642
 30
0.0
 10
168.5878181157587
 20
227.5646725371412
 30
0.0
 10
168.5375440609057
 20
227.5681658045908
 30
0.0
 10
168.5079069767444
 20
227.5702251224974
 30
0.0
  0
LINE
  5
22F
330
1F
100
AcDbEntity
  8
0
  6
Continuous
 62
     7
370
    25
100
AcDbLine
 10
168.5079069767
 20
227.8102251225
 30
0.0
 11
168.5079069767
 21
227.5702251225
 31
0.0
  0
LINE
  5
230
330
1F
100
AcDbEntity
  8
0
  6
Continuous
 62
     7
370
    25
100
AcDbLine
 10
168.5079069767
 20
216.0502251225
 30
0.0
 11
162.2379069767
 21
216.0502251225
 31
0.0
  0
LINE
  5
231
330
1F
100
AcDbEntity
  8
0
  6
Continuous
 62
     7
370
    25
100
AcDbLine
 10
162.2379069767
 20
215.8102251225
 30
0.0
 11
162.2379069767
 21
216.0102251225
 31
0.0
  0
LINE
  5
232
330
1F
100
AcDbEntity
  8
0
  6
Continuous
 62
     7
370
    25
100
AcDbLine
 10
168.5079069767
 20
215.8102251225
 30
0.0
 11
162.2379069767
 21
215.8102251225
 31
0.0
  0
LINE
  5
233
330
1F
100
AcDbEntity
  8
0
  6
Continuous
 62
     7
370
    25
100
AcDbLine
 10
168.5079069767
 20
227.5702251225
 30
0.0
 11
162.2379069767
 21
227.5702251225
 31
0.0
  0
LINE
  5
234
330
1F
100
AcDbEntity
  8
0
  6
Continuous
 62
     7
370
    25
100
AcDbLine
 10
162.2379069767
 20
227.8102251225
 30
0.0
 11
162.2379069767
 21
227.6102251225
 31
0.0
  0
LINE
  5
235
330
1F
100
AcDbEntity
  8
0
  6
Continuous
 62
     7
370
    25
100
AcDbLine
 10
168.5079069767
 20
227.8102251225
 30
0.0
 11
162.2379069767
 21
227.8102251225
 31
0.0
  0
CIRCLE
  5
236
330
1F
100
AcDbEntity
  8
0
  6
Continuous
 62
     7
370
    25
100
AcDbCircle
 10
216.9979069767
 20
224.8102251225
 30
0.0
 40
1.180348103327038
  0
SPLINE
  5
237
330
1F
100
AcDbEntity
  8
0
  6
Continuous
 62
     7
370
    25
100
AcDbSpline
210
0.0
220
0.0
230
1.0
 70
    24
 71
     3
 72
    13
 73
     9
 74
     0
 42
0.00000001
 43
0.00000001
 40
0.0
 40
0.0
 40
0.0
 40
0.0
 40
0.0290808782031671
 40
0.3073267123765188
 40
0.4998323521859078
 40
0.5625086128158008
 40
0.8159099710727032
 40
1.0
 40
1.0
 40
1.0
 40
1.0
 10
216.0383346198691
 20
224.4304246276539
 30
0.0
 10
216.0536841268196
 20
224.4389716918841
 30
0.0
 10
216.2158977117993
 20
224.5292970641782
 30
0.0
 10
216.5149000429398
 20
224.695790498624
 30
0.0
 10
216.8508388718877
 20
224.8828512789931
 30
0.0
 10
217.1698297181221
 20
225.0604749160524
 30
0.0
 10
217.4858918942703
 20
225.2364677820766
 30
0.0
 10
217.7253609778958
 20
225.3698113249994
 30
0.0
 10
217.826126094246
 20
225.4259203534124
 30
0.0
  0
ARC
  5
238
330
1F
100
AcDbEntity
  8
0
  6
Continuous
 62
     7
370
    25
100
AcDbCircle
 10
216.9979069767
 20
224.8102251225
 30
0.0
 40
1.032001707344381
100
AcDbArc
 50
201.5937499286
 51
216.6269851023
  0
SPLINE
  5
239
330
1F
100
AcDbEntity
  8
0
  6
Continuous
 62
     7
370
    25
100
AcDbSpline
210
0.0
220
0.0
230
1.0
 70
    24
 71
     3
 72
    13
 73
     9
 74
     0
 42
0.00000001
 43
0.00000001
 40
0.0
 40
0.0
 40
0.0
 40
0.0
 40
0.0290808782032133
 40
0.3073267123770057
 40
0.4998323521867011
 40
0.5625086128166938
 40
0.8159099710740079
 40
1.0
 40
1.0
 40
1.0
 40
1.0
 10
217.9574793336187
 20
225.1900256173408
 30
0.0
 10
217.9421298266682
 20
225.1814785531105
 30
0.0
 10
217.7799162416886
 20
225.0911531808167
 30
0.0
 10
217.4809139105481
 20
224.9246597463704
 30
0.0
 10
217.1449750816002
 20
224.7375989660016
 30
0.0
 10
216.8259842353657
 20
224.5599753289422
 30
0.0
 10
216.5099220592186
 20
224.3839824629185
 30
0.0
 10
216.2704529755937
 20
224.2506389199961
 30
0.0
 10
216.1696878592443
 20
224.1945298915837
 30
0.0
  0
ARC
  5
23A
330
1F
100
AcDbEntity
  8
0
  6
Continuous
 62
     7
370
    25
100
AcDbCircle
 10
216.9979069767
 20
224.8102251225
 30
0.0
 40
1.032001707347173
100
AcDbArc
 50
21.5937499286
 51
36.6269851022
  0
CIRCLE
  5
23B
330
1F
100
AcDbEntity
  8
0
  6
Continuous
 62
     7
370
    25
100
AcDbCircle
 10
216.9979069767
 20
203.4102251225
 30
0.0
 40
1.180348103327048
  0
SPLINE
  5
23C
330
1F
100
AcDbEntity
  8
0
  6
Continuous
 62
     7
370
    25
100
AcDbSpline
210
0.0
220
0.0
230
1.0
 70
    24
 71
     3
 72
    13
 73
     9
 74
     0
 42
0.00000001
 43
0.00000001
 40
0.0
 40
0.0
 40
0.0
 40
0.0
 40
0.0290808782031685
 40
0.3073267123765147
 40
0.4998323521859079
 40
0.5625086128158022
 40
0.8159099710727069
 40
1.0
 40
1.0
 40
1.0
 40
1.0
 10
217.4927594821134
 20
202.5046046049011
 30
0.0
 10
217.4823907611953
 20
202.5187873161053
 30
0.0
 10
217.3728141215545
 20
202.668670203978
 30
0.0
 10
217.1708355345252
 20
202.9449438149556
 30
0.0
 10
216.943906032871
 20
203.2553461887001
 30
0.0
 10
216.7284250359438
 20
203.5500888839222
 30
0.0
 10
216.5149223802678
 20
203.8421255324824
 30
0.0
 10
216.3531590021584
 20
204.0633913272956
 30
0.0
 10
216.2850913193928
 20
204.1564967637933
 30
0.0
  0
ARC
  5
23D
330
1F
100
AcDbEntity
  8
0
  6
Continuous
 62
     7
370
    25
100
AcDbCircle
 10
216.9979069767
 20
203.4102251225
 30
0.0
 40
1.032001707344314
100
AcDbArc
 50
298.6532376314
 51
313.6864728051
  0
SPLINE
  5
23E
330
1F
100
AcDbEntity
  8
0
  6
Continuous
 62
     7
370
    25
100
AcDbSpline
210
0.0
220
0.0
230
1.0
 70
    24
 71
     3
 72
    13
 73
     9
 74
     0
 42
0.00000001
 43
0.00000001
 40
0.0
 40
0.0
 40
0.0
 40
0.0
 40
0.0290808782032121
 40
0.3073267123770056
 40
0.4998323521867057
 40
0.5625086128167001
 40
0.8159099710740074
 40
1.0
 40
1.0
 40
1.0
 40
1.0
 10
216.5030544713746
 20
204.3158456400936
 30
0.0
 10
216.5134231922926
 20
204.3016629288894
 30
0.0
 10
216.6229998319335
 20
204.1517800410166
 30
0.0
 10
216.8249784189627
 20
203.8755064300389
 30
0.0
 10
217.051907920617
 20
203.5651040562946
 30
0.0
 10
217.2673889175441
 20
203.2703613610724
 30
0.0
 10
217.4808915732194
 20
202.9783247125132
 30
0.0
 10
217.6426549513284
 20
202.7570589177007
 30
0.0
 10
217.7107226340934
 20
202.6639534812037
 30
0.0
  0
ARC
  5
23F
330
1F
100
AcDbEntity
  8
0
  6
Continuous
 62
     7
370
    25
100
AcDbCircle
 10
216.9979069767
 20
203.4102251225
 30
0.0
 40
1.032001707347238
100
AcDbArc
 50
118.6532376314
 51
133.6864728051
  0
CIRCLE
  5
240
330
1F
100
AcDbEntity
  8
0
  6
Continuous
 62
     7
370
    25
100
AcDbCircle
 10
184.9979069767
 20
203.4102251225
 30
0.0
 40
1.180348103327053
  0
SPLINE
  5
241
330
1F
100
AcDbEntity
  8
0
  6
Continuous
 62
     7
370
    25
100
AcDbSpline
210
0.0
220
0.0
230
1.0
 70
    24
 71
     3
 72
    13
 73
     9
 74
     0
 42
0.00000001
 43
0.00000001
 40
0.0
 40
0.0
 40
0.0
 40
0.0
 40
0.029080878203166
 40
0.3073267123765146
 40
0.4998323521859005
 40
0.5625086128157976
 40
0.8159099710727045
 40
1.0
 40
1.0
 40
1.0
 40
1.0
 10
184.3834798812108
 20
204.2393854617781
 30
0.0
 10
184.3956964640237
 20
204.2267595053806
 30
0.0
 10
184.5248013076307
 20
204.0933284018504
 30
0.0
 10
184.7627755143215
 20
203.8473797594657
 30
0.0
 10
185.0301472636004
 20
203.5710484727196
 30
0.0
 10
185.2840302125551
 20
203.308657991464
 30
0.0
 10
185.5355822501158
 20
203.0486765296595
 30
0.0
 10
185.7261742932795
 20
202.8516978111786
 30
0.0
 10
185.8063726600751
 20
202.7688120240627
 30
0.0
  0
ARC
  5
242
330
1F
100
AcDbEntity
  8
0
  6
Continuous
 62
     7
370
    25
100
AcDbCircle
 10
184.9979069767
 20
203.4102251225
 30
0.0
 40
1.032001707344392
100
AcDbArc
 50
126.5393059764
 51
141.5725411501
  0
SPLINE
  5
243
330
1F
100
AcDbEntity
  8
0
  6
Continuous
 62
     7
370
    25
100
AcDbSpline
210
0.0
220
0.0
230
1.0
 70
    24
 71
     3
 72
    13
 73
     9
 74
     0
 42
0.00000001
 43
0.00000001
 40
0.0
 40
0.0
 40
0.0
 40
0.0
 40
0.0290808782032123
 40
0.307326712377005
 40
0.4998323521866971
 40
0.5625086128166948
 40
0.8159099710740041
 40
1.0
 40
1.0
 40
1.0
 40
1.0
 10
185.6123340722771
 20
202.5810647832164
 30
0.0
 10
185.6001174894642
 20
202.593690739614
 30
0.0
 10
185.4710126458573
 20
202.7271218431441
 30
0.0
 10
185.2330384391665
 20
202.9730704855289
 30
0.0
 10
184.9656666898875
 20
203.2494017722748
 30
0.0
 10
184.7117837409329
 20
203.5117922535306
 30
0.0
 10
184.460231703373
 20
203.7717737153341
 30
0.0
 10
184.2696396602098
 20
203.9687524338145
 30
0.0
 10
184.1894412934149
 20
204.0516382209298
 30
0.0
  0
ARC
  5
244
330
1F
100
AcDbEntity
  8
0
  6
Continuous
 62
     7
370
    25
100
AcDbCircle
 10
184.9979069767
 20
203.4102251225
 30
0.0
 40
1.032001707347147
100
AcDbArc
 50
306.5393059764
 51
321.5725411501
  0
CIRCLE
  5
245
330
1F
100
AcDbEntity
  8
0
  6
Continuous
 62
     7
370
    25
100
AcDbCircle
 10
184.9979069767
 20
224.8102251225
 30
0.0
 40
1.180348103327059
  0
SPLINE
  5
246
330
1F
100
AcDbEntity
  8
0
  6
Continuous
 62
     7
370
    25
100
AcDbSpline
210
0.0
220
0.0
230
1.0
 70
    24
 71
     3
 72
    13
 73
     9
 74
     0
 42
0.00000001
 43
0.00000001
 40
0.0
 40
0.0
 40
0.0
 40
0.0
 40
0.0290808782031643
 40
0.3073267123765149
 40
0.4998323521859028
 40
0.5625086128158
 40
0.8159099710727059
 40
1.0
 40
1.0
 40
1.0
 40
1.0
 10
186.0117013431097
 20
225.0032238444813
 30
0.0
 10
185.995020696558
 20
224.9977088013087
 30
0.0
 10
185.8187396286607
 20
224.9394258266673
 30
0.0
 10
185.4938072239932
 20
224.8319949645376
 30
0.0
 10
185.1287351153748
 20
224.7112929021854
 30
0.0
 10
184.7820807520507
 20
224.5966802117366
 30
0.0
 10
184.4386090388751
 20
224.4831197858339
 30
0.0
 10
184.1783727226925
 20
224.39707908505
 30
0.0
 10
184.0688690561579
 20
224.3608744063747
 30
0.0
  0
ARC
  5
247
330
1F
100
AcDbEntity
  8
0
  6
Continuous
 62
     7
370
    25
100
AcDbCircle
 10
184.9979069767
 20
224.8102251225
 30
0.0
 40
1.032001707344355
100
AcDbArc
 50
10.7785731302
 51
25.8118083039
  0
SPLINE
  5
248
330
1F
100
AcDbEntity
  8
0
  6
Continuous
 62
     7
370
    25
100
AcDbSpline
210
0.0
220
0.0
230
1.0
 70
    24
 71
     3
 72
    13
 73
     9
 74
     0
 42
0.00000001
 43
0.00000001
 40
0.0
 40
0.0
 40
0.0
 40
0.0
 40
0.0290808782032108
 40
0.3073267123770048
 40
0.4998323521867011
 40
0.5625086128166973
 40
0.8159099710740071
 40
1.0
 40
1.0
 40
1.0
 40
1.0
 10
183.9841126103789
 20
224.6172264005135
 30
0.0
 10
184.0007932569306
 20
224.6227414436861
 30
0.0
 10
184.1770743248279
 20
224.6810244183273
 30
0.0
 10
184.5020067294955
 20
224.7884552804571
 30
0.0
 10
184.8670788381139
 20
224.9091573428093
 30
0.0
 10
185.2137332014379
 20
225.0237700332581
 30
0.0
 10
185.5572049146124
 20
225.1373304591605
 30
0.0
 10
185.8174412307942
 20
225.2233711599441
 30
0.0
 10
185.926944897328
 20
225.2595758386192
 30
0.0
  0
ARC
  5
249
330
1F
100
AcDbEntity
  8
0
  6
Continuous
 62
     7
370
    25
100
AcDbCircle
 10
184.9979069767
 20
224.8102251225
 30
0.0
 40
1.03200170734717
100
AcDbArc
 50
190.7785731302
 51
205.8118083039
  0
LINE
  5
24A
330
1F
100
AcDbEntity
  8
0
  6
Continuous
 62
     7
370
    25
100
AcDbLine
 10
232.1979069767
 20
209.9775597727
 30
0.0
 11
232.1962811466
 21
209.9266795017
 31
0.0
  0
LINE
  5
24B
330
1F
100
AcDbEntity
  8
0
  6
Continuous
 62
     7
370
    25
100
AcDbLine
 10
169.7979069767
 20
209.9775597727
 30
0.0
 11
169.7995328068
 21
209.9266795017
 31
0.0
  0
LINE
  5
24C
330
1F
100
AcDbEntity
  8
0
  6
Continuous
 62
     7
370
    25
100
AcDbLine
 10
162.6979069767
 20
210.6295549849
 30
0.0
 11
162.6979069767
 21
209.0295549849
 31
0.0
  0
LINE
  5
24D
330
1F
100
AcDbEntity
  8
0
  6
Continuous
 62
     7
370
    25
100
AcDbLine
 10
162.5979069767
 20
209.1295549849
 30
0.0
 11
162.5979069767
 21
210.5295549849
 31
0.0
  0
LINE
  5
24E
330
1F
100
AcDbEntity
  8
0
  6
Continuous
 62
     7
370
    25
100
AcDbLine
 10
239.2979069767
 20
209.0295549849
 30
0.0
 11
239.2979069767
 21
210.6295549849
 31
0.0
  0
LINE
  5
24F
330
1F
100
AcDbEntity
  8
0
  6
Continuous
 62
     7
370
    25
100
AcDbLine
 10
239.3979069767
 20
210.5295549849
 30
0.0
 11
239.3979069767
 21
209.1295549849
 31
0.0
  0
LINE
  5
250
330
1F
100
AcDbEntity
  8
0
  6
Continuous
 62
     7
370
    25
100
AcDbLine
 10
216.1772728662
 20
86.348512746
 30
0.0
 11
216.1569757973
 21
86.4902251225
 31
0.0
  0
LWPOLYLINE
  5
251
330
1F
100
AcDbEntity
  8
0
  6
Continuous
 62
     7
370
    25
100
AcDbPolyline
 90
        3
 70
   128
 43
0.0
 10
216.172448673
 20
86.3427483882
 10
216.1728549125
 20
86.344551221
 10
216.1772728662
 20
86.348512746
  0
LWPOLYLINE
  5
252
330
1F
100
AcDbEntity
  8
0
  6
Continuous
 62
     7
370
    25
100
AcDbPolyline
 90
        3
 70
   128
 43
0.0
 10
220.8185410873
 20
86.348512746
 10
220.822959041
 20
86.344551221
 10
220.8233652805
 20
86.3427483882
  0
LWPOLYLINE
  5
253
330
1F
100
AcDbEntity
  8
0
  6
Continuous
 62
     7
370
    25
100
AcDbPolyline
 90
        3
 70
   128
 43
0.0
 10
216.5645726842
 20
85.3818137063
 10
216.5647419987
 20
85.4017621182
 10
216.5645440744
 20
85.4233301518
  0
LINE
  5
254
330
1F
100
AcDbEntity
  8
0
  6
Continuous
 62
     7
370
    25
100
AcDbLine
 10
220.432739784
 20
85.4643692451
 30
0.0
 11
220.4312698791
 21
85.4233301518
 31
0.0
  0
SPLINE
  5
255
330
1F
100
AcDbEntity
  8
0
  6
Continuous
 62
     7
370
    25
100
AcDbSpline
210
0.0
220
0.0
230
1.0
 70
    24
 71
     3
 72
    10
 73
     6
 74
     0
 42
0.00000001
 43
0.00000001
 40
0.0
 40
0.0
 40
0.0
 40
0.0
 40
0.394377804331127
 40
0.7887775760989918
 40
0.9999999999999999
 40
0.9999999999999999
 40
0.9999999999999999
 40
0.9999999999999999
 10
218.7979069767477
 20
86.37638183126094
 30
0.0
 10
218.7979069767477
 20
86.3855608626535
 30
0.0
 10
218.7979069767477
 20
86.40391943672446
 30
0.0
 10
218.7979069767478
 20
86.44647628953244
 30
0.0
 10
218.7979069767477
 20
86.47891240240317
 30
0.0
 10
218.7979069767477
 20
86.49022512249743
 30
0.0
  0
SPLINE
  5
256
330
1F
100
AcDbEntity
  8
0
  6
Continuous
 62
     7
370
    25
100
AcDbSpline
210
0.0
220
0.0
230
1.0
 70
    24
 71
     3
 72
    11
 73
     7
 74
     0
 42
0.00000001
 43
0.00000001
 40
0.0
 40
0.0
 40
0.0
 40
0.0
 40
0.0589828952832172
 40
0.4495205368663845
 40
0.8408781460373198
 40
1.0
 40
1.0
 40
1.0
 40
1.0
 10
218.1979069767477
 20
86.49022512249743
 30
0.0
 10
218.1979069767477
 20
86.48694800791027
 30
0.0
 10
218.1979069767477
 20
86.46197245692179
 30
0.0
 10
218.1979069767477
 20
86.42349863247242
 30
0.0
 10
218.1979069767477
 20
86.3905258909481
 30
0.0
 10
218.1979069767477
 20
86.37955351223977
 30
0.0
 10
218.1979069767477
 20
86.37638183126094
 30
0.0
  0
LWPOLYLINE
  5
257
330
1F
100
AcDbEntity
  8
0
  6
Continuous
 62
     7
370
    25
100
AcDbPolyline
 90
        9
 70
   128
 43
0.0
 10
218.1979069767
 20
84.164212679
 10
218.220743117
 20
84.1287359738
 10
218.2857749424
 20
84.0986602754
 10
218.383101947
 20
84.0785643361
 10
218.4979069767
 20
84.0715075807
 10
218.6127120065
 20
84.0785643361
 10
218.7100390111
 20
84.0986602754
 10
218.7750708365
 20
84.1287359738
 10
218.7979069767
 20
84.164212679
  0
LINE
  5
258
330
1F
100
AcDbEntity
  8
0
  6
Continuous
 62
     7
370
    25
100
AcDbLine
 10
218.1979069767
 20
86.3763818313
 30
0.0
 11
218.1979069767
 21
84.164212679
 31
0.0
  0
LINE
  5
259
330
1F
100
AcDbEntity
  8
0
  6
Continuous
 62
     7
370
    25
100
AcDbLine
 10
218.7979069767
 20
84.164212679
 30
0.0
 11
218.7979069767
 21
86.3763818313
 31
0.0
  0
LWPOLYLINE
  5
25A
330
1F
100
AcDbEntity
  8
0
  6
Continuous
 62
     7
370
    25
100
AcDbPolyline
 90
        3
 70
   128
 43
0.0
 10
216.1736407263
 20
84.4102286437
 10
216.1732428153
 20
84.4128722122
 10
216.1731613917
 20
84.4134902502
  0
LWPOLYLINE
  5
25B
330
1F
100
AcDbEntity
  8
0
  6
Continuous
 62
     7
370
    25
100
AcDbPolyline
 90
        3
 70
   128
 43
0.0
 10
181.172448673
 20
86.3427483882
 10
181.1728549125
 20
86.344551221
 10
181.1772728662
 20
86.348512746
  0
LINE
  5
25C
330
1F
100
AcDbEntity
  8
0
  6
Continuous
 62
     7
370
    25
100
AcDbLine
 10
185.8388381562
 20
86.4902251225
 30
0.0
 11
185.8185410873
 21
86.348512746
 31
0.0
  0
LWPOLYLINE
  5
25D
330
1F
100
AcDbEntity
  8
0
  6
Continuous
 62
     7
370
    25
100
AcDbPolyline
 90
        3
 70
   128
 43
0.0
 10
185.8185410873
 20
86.348512746
 10
185.822959041
 20
86.344551221
 10
185.8233652805
 20
86.3427483882
  0
LWPOLYLINE
  5
25E
330
1F
100
AcDbEntity
  8
0
  6
Continuous
 62
     7
370
    25
100
AcDbPolyline
 90
        3
 70
   128
 43
0.0
 10
181.5645726842
 20
85.3818137063
 10
181.5647419987
 20
85.4017621182
 10
181.5645440744
 20
85.4233301518
  0
LINE
  5
25F
330
1F
100
AcDbEntity
  8
0
  6
Continuous
 62
     7
370
    25
100
AcDbLine
 10
185.432739784
 20
85.4643692451
 30
0.0
 11
185.4312698791
 21
85.4233301518
 31
0.0
  0
SPLINE
  5
260
330
1F
100
AcDbEntity
  8
0
  6
Continuous
 62
     7
370
    25
100
AcDbSpline
210
0.0
220
0.0
230
1.0
 70
    24
 71
     3
 72
    10
 73
     6
 74
     0
 42
0.00000001
 43
0.00000001
 40
0.0
 40
0.0
 40
0.0
 40
0.0
 40
0.3943778043312822
 40
0.7887775760992941
 40
1.0
 40
1.0
 40
1.0
 40
1.0
 10
183.7979069767478
 20
86.37638183126099
 30
0.0
 10
183.7979069767478
 20
86.38556086265356
 30
0.0
 10
183.7979069767478
 20
86.40391943672452
 30
0.0
 10
183.7979069767478
 20
86.44647628953248
 30
0.0
 10
183.7979069767478
 20
86.47891240240318
 30
0.0
 10
183.7979069767478
 20
86.49022512249742
 30
0.0
  0
SPLINE
  5
261
330
1F
100
AcDbEntity
  8
0
  6
Continuous
 62
     7
370
    25
100
AcDbSpline
210
0.0
220
0.0
230
1.0
 70
    24
 71
     3
 72
    11
 73
     7
 74
     0
 42
0.00000001
 43
0.00000001
 40
0.0
 40
0.0
 40
0.0
 40
0.0
 40
0.0589828952828818
 40
0.4495205368661876
 40
0.840878146037262
 40
1.0
 40
1.0
 40
1.0
 40
1.0
 10
183.1979069767478
 20
86.49022512249743
 30
0.0
 10
183.1979069767478
 20
86.48694800791027
 30
0.0
 10
183.1979069767478
 20
86.46197245692183
 30
0.0
 10
183.1979069767478
 20
86.42349863247247
 30
0.0
 10
183.1979069767478
 20
86.39052589094815
 30
0.0
 10
183.1979069767477
 20
86.37955351223982
 30
0.0
 10
183.1979069767478
 20
86.37638183126099
 30
0.0
  0
LWPOLYLINE
  5
262
330
1F
100
AcDbEntity
  8
0
  6
Continuous
 62
     7
370
    25
100
AcDbPolyline
 90
        9
 70
   128
 43
0.0
 10
183.1979069767
 20
84.164212679
 10
183.220743117
 20
84.1287359738
 10
183.2857749424
 20
84.0986602754
 10
183.383101947
 20
84.0785643361
 10
183.4979069767
 20
84.0715075807
 10
183.6127120065
 20
84.0785643361
 10
183.7100390111
 20
84.0986602754
 10
183.7750708365
 20
84.1287359738
 10
183.7979069767
 20
84.164212679
  0
LINE
  5
263
330
1F
100
AcDbEntity
  8
0
  6
Continuous
 62
     7
370
    25
100
AcDbLine
 10
183.1979069767
 20
86.3763818313
 30
0.0
 11
183.1979069767
 21
84.164212679
 31
0.0
  0
LINE
  5
264
330
1F
100
AcDbEntity
  8
0
  6
Continuous
 62
     7
370
    25
100
AcDbLine
 10
183.7979069767
 20
84.164212679
 30
0.0
 11
183.7979069767
 21
86.3763818313
 31
0.0
  0
LWPOLYLINE
  5
265
330
1F
100
AcDbEntity
  8
0
  6
Continuous
 62
     7
370
    25
100
AcDbPolyline
 90
        3
 70
   128
 43
0.0
 10
181.1736407263
 20
84.4102286437
 10
181.1732428153
 20
84.4128722122
 10
181.1731613917
 20
84.4134902502
  0
LWPOLYLINE
  5
266
330
1F
100
AcDbEntity
  8
0
  6
Continuous
 62
     7
370
    25
100
AcDbPolyline
 90
       15
 70
   128
 43
0.0
 10
224.0817353151
 20
86.4902251225
 10
224.1270593959
 20
86.4156835622
 10
224.1931651893
 20
86.2037566648
 10
224.1809014675
 20
85.9832141743
 10
224.0916505974
 20
85.7789156431
 10
223.9354729382
 20
85.6138896046
 10
223.7299728379
 20
85.506737796
 10
223.4983142705
 20
85.4695383706
 10
223.266609793
 20
85.5064844483
 10
223.0609771371
 20
85.6134114665
 10
222.9045952188
 20
85.7782666104
 10
222.81509141
 20
85.9824674059
 10
222.8025545811
 20
86.2029963366
 10
222.8683978839
 20
86.4149953782
 10
222.9140786384
 20
86.4902251225
  0
LWPOLYLINE
  5
267
330
1F
100
AcDbEntity
  8
0
  6
Continuous
 62
     7
370
    25
100
AcDbPolyline
 90
       15
 70
   128
 43
0.0
 10
189.0817353151
 20
86.4902251225
 10
189.1270593959
 20
86.4156835622
 10
189.1931651893
 20
86.2037566648
 10
189.1809014675
 20
85.9832141743
 10
189.0916505974
 20
85.7789156431
 10
188.9354729382
 20
85.6138896046
 10
188.7299728379
 20
85.506737796
 10
188.4983142705
 20
85.4695383706
 10
188.266609793
 20
85.5064844483
 10
188.0609771371
 20
85.6134114665
 10
187.9045952188
 20
85.7782666104
 10
187.81509141
 20
85.9824674059
 10
187.8025545811
 20
86.2029963366
 10
187.8683978839
 20
86.4149953782
 10
187.9140786384
 20
86.4902251225
  0
LINE
  5
268
330
1F
100
AcDbEntity
  8
0
  6
Continuous
 62
     7
370
    25
100
AcDbLine
 10
160.9979069767
 20
84.0585826502
 30
0.0
 11
160.9979069767
 21
86.7316393361
 31
0.0
  0
LINE
  5
269
330
1F
100
AcDbEntity
  8
0
  6
Continuous
 62
     7
370
    25
100
AcDbLine
 10
240.9979069767
 20
86.7316393361
 30
0.0
 11
240.9979069767
 21
84.0585826502
 31
0.0
  0
ARC
  5
26A
330
1F
100
AcDbEntity
  8
0
  6
Continuous
 62
     7
370
    25
100
AcDbCircle
 10
188.4979069767
 20
86.1640861067
 30
0.0
 40
0.700639252816499
100
AcDbArc
 50
182.4477087976
 51
357.5522912024
  0
ARC
  5
26B
330
1F
100
AcDbEntity
  8
0
  6
Continuous
 62
     7
370
    25
100
AcDbCircle
 10
188.5398586891
 20
86.1310530006
 30
0.0
 40
0.4580588488331178
100
AcDbArc
 50
0.3890759248
 51
51.6391640726
  0
ARC
  5
26C
330
1F
100
AcDbEntity
  8
0
  6
Continuous
 62
     7
370
    25
100
AcDbCircle
 10
188.4559330939
 20
86.1310638206
 30
0.0
 40
0.4580366055062445
100
AcDbArc
 50
128.3595013135
 51
179.6122586891
  0
ARC
  5
26D
330
1F
100
AcDbEntity
  8
0
  6
Continuous
 62
     7
370
    25
100
AcDbCircle
 10
223.4979069767
 20
86.1640861067
 30
0.0
 40
0.7006392528164705
100
AcDbArc
 50
182.4477087976
 51
357.5522912024
  0
ARC
  5
26E
330
1F
100
AcDbEntity
  8
0
  6
Continuous
 62
     7
370
    25
100
AcDbCircle
 10
223.5398586891
 20
86.1310530006
 30
0.0
 40
0.4580588488331447
100
AcDbArc
 50
0.3890759248
 51
51.6391640726
  0
ARC
  5
26F
330
1F
100
AcDbEntity
  8
0
  6
Continuous
 62
     7
370
    25
100
AcDbCircle
 10
223.4559330939
 20
86.1310638206
 30
0.0
 40
0.4580366055061372
100
AcDbArc
 50
128.3595013135
 51
179.6122586891
  0
LWPOLYLINE
  5
270
330
1F
100
AcDbEntity
  8
0
  6
Continuous
 62
     7
370
    25
100
AcDbPolyline
 90
       14
 70
   128
 43
0.0
 10
188.8154845715
 20
86.4902251225
 10
188.9144984193
 20
86.387146948
 10
188.9885345464
 20
86.2178686481
 10
188.9881276311
 20
86.0348518489
 10
188.9133394147
 20
85.8658657346
 10
188.7755175318
 20
85.73655061
 10
188.5955737307
 20
85.666527491
 10
188.4008109288
 20
85.6664210028
 10
188.2207805344
 20
85.7362473028
 10
188.0827986035
 20
85.8654116293
 10
188.0078011688
 20
86.034315847
 10
188.0071676095
 20
86.2173320774
 10
188.0809940557
 20
86.3866912224
 10
188.180329382
 20
86.4902251225
  0
LWPOLYLINE
  5
271
330
1F
100
AcDbEntity
  8
0
  6
Continuous
 62
     7
370
    25
100
AcDbPolyline
 90
       14
 70
   128
 43
0.0
 10
223.8154845715
 20
86.4902251225
 10
223.9144984193
 20
86.387146948
 10
223.9885345464
 20
86.2178686481
 10
223.9881276311
 20
86.0348518489
 10
223.9133394147
 20
85.8658657346
 10
223.7755175318
 20
85.73655061
 10
223.5955737307
 20
85.666527491
 10
223.4008109288
 20
85.6664210028
 10
223.2207805344
 20
85.7362473028
 10
223.0827986035
 20
85.8654116293
 10
223.0078011688
 20
86.034315847
 10
223.0071676095
 20
86.2173320774
 10
223.0809940557
 20
86.3866912224
 10
223.180329382
 20
86.4902251225
  0
LINE
  5
272
330
1F
100
AcDbEntity
  8
0
  6
Continuous
 62
     7
370
    25
100
AcDbLine
 10
160.9979069767
 20
83.7888109089
 30
0.0
 11
160.9979069767
 21
84.0585826502
 31
0.0
  0
LINE
  5
273
330
1F
100
AcDbEntity
  8
0
  6
Continuous
 62
     7
370
    25
100
AcDbLine
 10
240.9979069767
 20
84.0585826502
 30
0.0
 11
240.9979069767
 21
83.7888109089
 31
0.0
  0
LINE
  5
274
330
1F
100
AcDbEntity
  8
0
  6
Continuous
 62
     7
370
    25
100
AcDbLine
 10
240.9979069767
 20
83.7888109089
 30
0.0
 11
222.1572709558
 21
83.7888109089
 31
0.0
  0
LINE
  5
275
330
1F
100
AcDbEntity
  8
0
  6
Continuous
 62
     7
370
    25
100
AcDbLine
 10
221.1876920963
 20
83.7888109089
 30
0.0
 11
215.5681218572
 21
83.7888109089
 31
0.0
  0
LINE
  5
276
330
1F
100
AcDbEntity
  8
0
  6
Continuous
 62
     7
370
    25
100
AcDbLine
 10
214.5985429977
 20
83.7888109089
 30
0.0
 11
187.3972709558
 21
83.7888109089
 31
0.0
  0
LINE
  5
277
330
1F
100
AcDbEntity
  8
0
  6
Continuous
 62
     7
370
    25
100
AcDbLine
 10
186.4276920963
 20
83.7888109089
 30
0.0
 11
180.8081218572
 21
83.7888109089
 31
0.0
  0
LINE
  5
278
330
1F
100
AcDbEntity
  8
0
  6
Continuous
 62
     7
370
    25
100
AcDbLine
 10
179.8385429977
 20
83.7888109089
 30
0.0
 11
160.9979069767
 21
83.7888109089
 31
0.0
  0
SPLINE
  5
279
330
1F
100
AcDbEntity
  8
0
  6
Continuous
 62
     7
370
    25
100
AcDbSpline
210
0.0
220
0.0
230
1.0
 70
     8
 71
     3
 72
    12
 73
     8
 74
     0
 42
0.00000001
 43
0.00000001
 40
0.0
 40
0.0
 40
0.0
 40
0.0
 40
0.2289440738515961
 40
0.4594214300241277
 40
0.682535569815769
 40
0.894717523162879
 40
1.0
 40
1.0
 40
1.0
 40
1.0
 10
186.6695009411131
 20
242.4908109089347
 30
0.0
 10
186.6821315333196
 20
242.4942778058501
 30
0.0
 10
186.7074773072281
 20
242.5012348181539
 30
0.0
 10
186.7403374222599
 20
242.5560087873165
 30
0.0
 10
186.7637994116924
 20
242.6354160942131
 30
0.0
 10
186.7742711717727
 20
242.7155912920836
 30
0.0
 10
186.7751616936887
 20
242.764568370701
 30
0.0
 10
186.7754570223746
 20
242.7808109089346
 30
0.0
  0
LINE
  5
27A
330
1F
100
AcDbEntity
  8
0
  6
Continuous
 62
     7
370
    25
100
AcDbLine
 10
186.6695009411
 20
242.4908109089
 30
0.0
 11
185.5263568912
 21
242.4908109089
 31
0.0
  0
LINE
  5
27B
330
1F
100
AcDbEntity
  8
0
  6
Continuous
 62
     7
370
    25
100
AcDbLine
 10
185.6034514518
 20
243.8508109089
 30
0.0
 11
186.7465955016
 21
243.8508109089
 31
0.0
  0
SPLINE
  5
27C
330
1F
100
AcDbEntity
  8
0
  6
Continuous
 62
     7
370
    25
100
AcDbSpline
210
0.0
220
0.0
230
1.0
 70
     8
 71
     3
 72
    13
 73
     9
 74
     0
 42
0.00000001
 43
0.00000001
 40
0.0
 40
0.0
 40
0.0
 40
0.0
 40
0.1695411050600638
 40
0.3386458383076516
 40
0.5184804584265561
 40
0.727723621148513
 40
0.9924537768853473
 40
1.0
 40
1.0
 40
1.0
 40
1.0
 10
185.4696326343742
 20
242.5408109089346
 30
0.0
 10
185.4699533914823
 20
242.5358886794773
 30
0.0
 10
185.4705940801209
 20
242.5260568895976
 30
0.0
 10
185.4754584705553
 20
242.5128297309215
 30
0.0
 10
185.4827988998188
 20
242.5016954103007
 30
0.0
 10
185.4933541867275
 20
242.493151654446
 30
0.0
 10
185.5019403301033
 20
242.4908345225243
 30
0.0
 10
185.5067501173345
 20
242.4908115457432
 30
0.0
 10
185.5068834220586
 20
242.4908109089347
 30
0.0
  0
LINE
  5
27D
330
1F
100
AcDbEntity
  8
0
  6
Continuous
 62
     7
370
    25
100
AcDbLine
 10
185.5068834221
 20
242.4908109089
 30
0.0
 11
184.2396991106
 21
242.4908109089
 31
0.0
  0
SPLINE
  5
27E
330
1F
100
AcDbEntity
  8
0
  6
Continuous
 62
     7
370
    25
100
AcDbSpline
210
0.0
220
0.0
230
1.0
 70
     8
 71
     3
 72
    13
 73
     9
 74
     0
 42
0.00000001
 43
0.00000001
 40
0.0
 40
0.0
 40
0.0
 40
0.0
 40
0.0075462231145589
 40
0.2722763788514351
 40
0.4815195415734097
 40
0.6613541616923855
 40
0.8304588949399496
 40
0.9999999999999999
 40
0.9999999999999999
 40
0.9999999999999999
 40
0.9999999999999999
 10
185.5068834220586
 20
242.7308109089346
 30
0.0
 10
185.5067501173344
 20
242.7308102721261
 30
0.0
 10
185.5019403301036
 20
242.7307872953459
 30
0.0
 10
185.4933541867274
 20
242.7284701634229
 30
0.0
 10
185.4827988998189
 20
242.7199264075686
 30
0.0
 10
185.4754584705552
 20
242.7087920869478
 30
0.0
 10
185.4705940801209
 20
242.6955649282717
 30
0.0
 10
185.4699533914824
 20
242.685733138392
 30
0.0
 10
185.4696326343742
 20
242.6808109089347
 30
0.0
  0
LINE
  5
27F
330
1F
100
AcDbEntity
  8
0
  6
Continuous
 62
     7
370
    25
100
AcDbLine
 10
184.3419282005
 20
242.7308109089
 30
0.0
 11
185.5068834221
 21
242.7308109089
 31
0.0
  0
LINE
  5
280
330
1F
100
AcDbEntity
  8
0
  6
Continuous
 62
     7
370
    25
100
AcDbLine
 10
185.4696326344
 20
242.6808109089
 30
0.0
 11
185.4696326344
 21
242.5408109089
 31
0.0
  0
LINE
  5
281
330
1F
100
AcDbEntity
  8
0
  6
Continuous
 62
     7
370
    25
100
AcDbLine
 10
185.5586199884
 20
243.8508109089
 30
0.0
 11
185.6034514518
 21
243.8508109089
 31
0.0
  0
LINE
  5
282
330
1F
100
AcDbEntity
  8
0
  6
Continuous
 62
     7
370
    25
100
AcDbLine
 10
185.5263568912
 20
242.4908109089
 30
0.0
 11
185.5068834221
 21
242.4908109089
 31
0.0
  0
LINE
  5
283
330
1F
100
AcDbEntity
  8
0
  6
Continuous
 62
     7
370
    25
100
AcDbLine
 10
186.7754570224
 20
242.7808109089
 30
0.0
 11
186.7965955016
 21
242.7808109089
 31
0.0
  0
LINE
  5
284
330
1F
100
AcDbEntity
  8
0
  6
Continuous
 62
     7
370
    25
100
AcDbLine
 10
187.2879069767
 20
242.4908109089
 30
0.0
 11
186.6500274719
 21
242.4908109089
 31
0.0
  0
LINE
  5
285
330
1F
100
AcDbEntity
  8
0
  6
Continuous
 62
     7
370
    25
100
AcDbLine
 10
186.7944371177
 20
242.7308109089
 30
0.0
 11
187.2879069767
 21
242.7308109089
 31
0.0
  0
LINE
  5
286
330
1F
100
AcDbEntity
  8
0
  6
Continuous
 62
     7
370
    25
100
AcDbLine
 10
184.4940499152
 20
243.8508109089
 30
0.0
 11
184.593679972
 21
243.8508109089
 31
0.0
  0
LINE
  5
287
330
1F
100
AcDbEntity
  8
0
  6
Continuous
 62
     7
370
    25
100
AcDbLine
 10
184.4492184518
 20
243.8508109089
 30
0.0
 11
184.4940499152
 21
243.8508109089
 31
0.0
  0
SPLINE
  5
288
330
1F
100
AcDbEntity
  8
0
  6
Continuous
 62
     7
370
    25
100
AcDbSpline
210
0.0
220
0.0
230
1.0
 70
     8
 71
     3
 72
    11
 73
     7
 74
     0
 42
0.00000001
 43
0.00000001
 40
0.0
 40
0.0
 40
0.0
 40
0.0
 40
0.3104455332360129
 40
0.6200920290934623
 40
0.9493859458533354
 40
1.0
 40
1.0
 40
1.0
 40
1.0
 10
187.3378580424072
 20
242.7808109089346
 30
0.0
 10
187.3374399178041
 20
242.7758706136035
 30
0.0
 10
187.3366047447842
 20
242.766002738475
 30
0.0
 10
187.3299857341579
 20
242.7530513930687
 30
0.0
 10
187.3237478492584
 20
242.7447475572505
 30
0.0
 10
187.3192810164811
 20
242.7421189338437
 30
0.0
 10
187.3186859131051
 20
242.7417687298532
 30
0.0
  0
SPLINE
  5
289
330
1F
100
AcDbEntity
  8
0
  6
Continuous
 62
     7
370
    25
100
AcDbSpline
210
0.0
220
0.0
230
1.0
 70
     8
 71
     3
 72
    13
 73
     9
 74
     0
 42
0.00000001
 43
0.00000001
 40
0.0
 40
0.0
 40
0.0
 40
0.0
 40
0.1695411050600267
 40
0.3386458383078083
 40
0.5184804584270939
 40
0.7277236211486852
 40
0.9924537768853814
 40
1.0
 40
1.0
 40
1.0
 40
1.0
 10
184.3345306472976
 20
242.7808109089346
 30
0.0
 10
184.3346428589509
 20
242.7758886794773
 30
0.0
 10
184.3348669934428
 20
242.7660568895976
 30
0.0
 10
184.3365769441018
 20
242.7528297309215
 30
0.0
 10
184.3391815973688
 20
242.7416954103006
 30
0.0
 10
184.3429758120683
 20
242.7331516544464
 30
0.0
 10
184.3461204354622
 20
242.7308345225232
 30
0.0
 10
184.3479026872519
 20
242.7308115457431
 30
0.0
 10
184.3479520829053
 20
242.7308109089346
 30
0.0
  0
LINE
  5
28A
330
1F
100
AcDbEntity
  8
0
  6
Continuous
 62
     7
370
    25
100
AcDbLine
 10
187.2877770117
 20
242.7308109089
 30
0.0
 11
186.7758977041
 21
242.7308109089
 31
0.0
  0
LINE
  5
28B
330
1F
100
AcDbEntity
  8
0
  6
Continuous
 62
     7
370
    25
100
AcDbLine
 10
185.5263568912
 20
242.7308109089
 30
0.0
 11
184.3479520829
 21
242.7308109089
 31
0.0
  0
SPLINE
  5
28C
330
1F
100
AcDbEntity
  8
0
  6
Continuous
 62
     7
370
    25
100
AcDbSpline
210
0.0
220
0.0
230
1.0
 70
     8
 71
     3
 72
    13
 73
     9
 74
     0
 42
0.00000001
 43
0.00000001
 40
0.0
 40
0.0
 40
0.0
 40
0.0
 40
0.007546223115417
 40
0.2722763788512407
 40
0.4815195415733091
 40
0.6613541616921704
 40
0.8304588949397856
 40
1.0
 40
1.0
 40
1.0
 40
1.0
 10
187.2877770117059
 20
242.9708109089346
 30
0.0
 10
187.2879579896467
 20
242.9708102721261
 30
0.0
 10
187.2944878811707
 20
242.9707872953458
 30
0.0
 10
187.3060970719043
 20
242.9684701634229
 30
0.0
 10
187.3202765078059
 20
242.9599264075686
 30
0.0
 10
187.3300935515857
 20
242.9487920869477
 30
0.0
 10
187.3365784054438
 20
242.9355649282716
 30
0.0
 10
187.337431130485
 20
242.9257331383919
 30
0.0
 10
187.3378580424072
 20
242.9208109089346
 30
0.0
  0
SPLINE
  5
28D
330
1F
100
AcDbEntity
  8
0
  6
Continuous
 62
     7
370
    25
100
AcDbSpline
210
0.0
220
0.0
230
1.0
 70
     8
 71
     3
 72
    13
 73
     9
 74
     0
 42
0.00000001
 43
0.00000001
 40
0.0
 40
0.0
 40
0.0
 40
0.0
 40
0.0075462231145703
 40
0.2722763788514488
 40
0.4815195415730669
 40
0.66135416169258
 40
0.8304588949399341
 40
1.0
 40
1.0
 40
1.0
 40
1.0
 10
184.3479520829053
 20
242.9708109089346
 30
0.0
 10
184.3479026872519
 20
242.9708102721261
 30
0.0
 10
184.3461204354625
 20
242.9707872953452
 30
0.0
 10
184.3429758120682
 20
242.9684701634231
 30
0.0
 10
184.3391815973688
 20
242.9599264075685
 30
0.0
 10
184.3365769441018
 20
242.9487920869477
 30
0.0
 10
184.3348669934429
 20
242.9355649282716
 30
0.0
 10
184.3346428589509
 20
242.9257331383919
 30
0.0
 10
184.3345306472975
 20
242.9208109089346
 30
0.0
  0
LINE
  5
28E
330
1F
100
AcDbEntity
  8
0
  6
Continuous
 62
     7
370
    25
100
AcDbLine
 10
184.3479520829
 20
242.9708109089
 30
0.0
 11
185.5086199884
 21
242.9708109089
 31
0.0
  0
LINE
  5
28F
330
1F
100
AcDbEntity
  8
0
  6
Continuous
 62
     7
370
    25
100
AcDbLine
 10
186.7965955016
 20
242.9708109089
 30
0.0
 11
187.2877770117
 21
242.9708109089
 31
0.0
  0
LINE
  5
290
330
1F
100
AcDbEntity
  8
0
  6
Continuous
 62
     7
370
    25
100
AcDbLine
 10
187.3378580424
 20
242.7808109089
 30
0.0
 11
187.3378580424
 21
242.9208109089
 31
0.0
  0
LINE
  5
291
330
1F
100
AcDbEntity
  8
0
  6
Continuous
 62
     7
370
    25
100
AcDbLine
 10
184.3345306473
 20
242.7808109089
 30
0.0
 11
184.3345306473
 21
242.9208109089
 31
0.0
  0
SPLINE
  5
292
330
1F
100
AcDbEntity
  8
0
  6
Continuous
 62
     7
370
    25
100
AcDbSpline
210
0.0
220
0.0
230
1.0
 70
     8
 71
     3
 72
    12
 73
     8
 74
     0
 42
0.00000001
 43
0.00000001
 40
0.0
 40
0.0
 40
0.0
 40
0.0
 40
0.228944073851638
 40
0.4594214300241797
 40
0.6825355698157404
 40
0.8947175231628354
 40
1.0
 40
1.0
 40
1.0
 40
1.0
 10
183.8484710564937
 20
242.9708109089346
 30
0.0
 10
183.8148077194421
 20
242.9673440120191
 30
0.0
 10
183.7472555955219
 20
242.9603869997153
 30
0.0
 10
183.6584491292387
 20
242.9056130305529
 30
0.0
 10
183.5946327643864
 20
242.8262057236562
 30
0.0
 10
183.5660130949475
 20
242.7460305257858
 30
0.0
 10
183.563578960653
 20
242.6970534471682
 30
0.0
 10
183.5627717152954
 20
242.6808109089346
 30
0.0
  0
SPLINE
  5
293
330
1F
100
AcDbEntity
  8
0
  6
Continuous
 62
     7
370
    25
100
AcDbSpline
210
0.0
220
0.0
230
1.0
 70
     8
 71
     3
 72
    12
 73
     8
 74
     0
 42
0.00000001
 43
0.00000001
 40
0.0
 40
0.0
 40
0.0
 40
0.0
 40
0.2028202020467368
 40
0.4049472449426624
 40
0.609831203074049
 40
0.8226939241827669
 40
1.0
 40
1.0
 40
1.0
 40
1.0
 10
184.0137400006678
 20
242.6808109089346
 30
0.0
 10
184.0165625571261
 20
242.7122390770417
 30
0.0
 10
184.0221980236622
 20
242.7749880042202
 30
0.0
 10
184.0659388096041
 20
242.8590672543141
 30
0.0
 10
184.1308199728913
 20
242.924482961402
 30
0.0
 10
184.2086508968541
 20
242.9641248146552
 30
0.0
 10
184.2634731063745
 20
242.9687218558396
 30
0.0
 10
184.2883861976167
 20
242.9708109089346
 30
0.0
  0
LINE
  5
294
330
1F
100
AcDbEntity
  8
0
  6
Continuous
 62
     7
370
    25
100
AcDbLine
 10
183.8484710565
 20
242.9708109089
 30
0.0
 11
184.2883861976
 21
242.9708109089
 31
0.0
  0
LINE
  5
295
330
1F
100
AcDbEntity
  8
0
  6
Continuous
 62
     7
370
    25
100
AcDbLine
 10
184.0525676226
 20
241.6108109089
 30
0.0
 11
183.6126524815
 21
241.6108109089
 31
0.0
  0
LINE
  5
296
330
1F
100
AcDbEntity
  8
0
  6
Continuous
 62
     7
370
    25
100
AcDbLine
 10
184.1896991106
 20
241.6108109089
 30
0.0
 11
184.0525676226
 21
241.6108109089
 31
0.0
  0
LINE
  5
297
330
1F
100
AcDbEntity
  8
0
  6
Continuous
 62
     7
370
    25
100
AcDbLine
 10
184.3479520829
 20
242.7308109089
 30
0.0
 11
184.2883861976
 21
242.7308109089
 31
0.0
  0
LINE
  5
298
330
1F
100
AcDbEntity
  8
0
  6
Continuous
 62
     7
370
    25
100
AcDbLine
 10
184.2883861976
 20
242.9708109089
 30
0.0
 11
184.3479520829
 21
242.9708109089
 31
0.0
  0
LINE
  5
299
330
1F
100
AcDbEntity
  8
0
  6
Continuous
 62
     7
370
    25
100
AcDbLine
 10
183.5627717153
 20
242.6808109089
 30
0.0
 11
183.5626524815
 21
242.6808109089
 31
0.0
  0
LINE
  5
29A
330
1F
100
AcDbEntity
  8
0
  6
Continuous
 62
     7
370
    25
100
AcDbLine
 10
187.347342897
 20
242.7308109089
 30
0.0
 11
187.2879069767
 21
242.7308109089
 31
0.0
  0
LINE
  5
29B
330
1F
100
AcDbEntity
  8
0
  6
Continuous
 62
     7
370
    25
100
AcDbLine
 10
187.2877770117
 20
242.9708109089
 30
0.0
 11
187.347342897
 21
242.9708109089
 31
0.0
  0
SPLINE
  5
29C
330
1F
100
AcDbEntity
  8
0
  6
Continuous
 62
     7
370
    25
100
AcDbSpline
210
0.0
220
0.0
230
1.0
 70
     8
 71
     3
 72
    12
 73
     8
 74
     0
 42
0.00000001
 43
0.00000001
 40
0.0
 40
0.0
 40
0.0
 40
0.0
 40
0.2289440738515903
 40
0.4594214300241377
 40
0.6825355698157622
 40
0.8947175231628802
 40
1.0
 40
1.0
 40
1.0
 40
1.0
 10
187.3473428969945
 20
242.9708109089347
 30
0.0
 10
187.3810062340461
 20
242.9673440120191
 30
0.0
 10
187.4485583579664
 20
242.9603869997154
 30
0.0
 10
187.5373648242496
 20
242.9056130305529
 30
0.0
 10
187.6011811891018
 20
242.8262057236563
 30
0.0
 10
187.6298008585407
 20
242.7460305257857
 30
0.0
 10
187.6322349928352
 20
242.6970534471683
 30
0.0
 10
187.6330422381928
 20
242.6808109089347
 30
0.0
  0
SPLINE
  5
29D
330
1F
100
AcDbEntity
  8
0
  6
Continuous
 62
     7
370
    25
100
AcDbSpline
210
0.0
220
0.0
230
1.0
 70
     8
 71
     3
 72
    12
 73
     8
 74
     0
 42
0.00000001
 43
0.00000001
 40
0.0
 40
0.0
 40
0.0
 40
0.0
 40
0.2476950353252962
 40
0.4874512254425886
 40
0.7077624525226057
 40
0.9064888091635072
 40
1.0
 40
1.0
 40
1.0
 40
1.0
 10
187.3473428969945
 20
242.7308109089346
 30
0.0
 10
187.3530703962791
 20
242.7302273336622
 30
0.0
 10
187.3643418234247
 20
242.7290788872214
 30
0.0
 10
187.3794817662858
 20
242.7198235328333
 30
0.0
 10
187.3905412897662
 20
242.706111678589
 30
0.0
 10
187.3955446151836
 20
242.6920157558621
 30
0.0
 10
187.3959507553932
 20
242.683527129301
 30
0.0
 10
187.3960807135556
 20
242.6808109089347
 30
0.0
  0
LINE
  5
29E
330
1F
100
AcDbEntity
  8
0
  6
Continuous
 62
     7
370
    25
100
AcDbLine
 10
187.583161472
 20
241.6108109089
 30
0.0
 11
187.446029984
 21
241.6108109089
 31
0.0
  0
LINE
  5
29F
330
1F
100
AcDbEntity
  8
0
  6
Continuous
 62
     7
370
    25
100
AcDbLine
 10
187.446029984
 20
241.6108109089
 30
0.0
 11
187.0061148429
 21
241.6108109089
 31
0.0
  0
LINE
  5
2A0
330
1F
100
AcDbEntity
  8
0
  6
Continuous
 62
     7
370
    25
100
AcDbLine
 10
185.362239129
 20
240.5520017943
 30
0.0
 11
185.362239129
 21
241.3114945115
 31
0.0
  0
SPLINE
  5
2A1
330
1F
100
AcDbEntity
  8
0
  6
Continuous
 62
     7
370
    25
100
AcDbSpline
210
0.0
220
0.0
230
1.0
 70
     8
 71
     3
 72
     9
 73
     5
 74
     0
 42
0.00000001
 43
0.00000001
 40
0.0
 40
0.0
 40
0.0
 40
0.0
 40
0.0702005767034271
 40
1.0
 40
1.0
 40
1.0
 40
1.0
 10
185.9106317029833
 20
241.4008109089346
 30
0.0
 10
185.897631554175
 20
241.4007216856811
 30
0.0
 10
185.7124457705431
 20
241.3994507096049
 30
0.0
 10
185.5309726924009
 20
241.3538728132259
 30
0.0
 10
185.3622391290004
 20
241.3114945114576
 30
0.0
  0
LINE
  5
2A2
330
1F
100
AcDbEntity
  8
0
  6
Continuous
 62
     7
370
    25
100
AcDbLine
 10
186.459024277
 20
241.3114945115
 30
0.0
 11
185.910631703
 21
241.4008109089
 31
0.0
  0
LINE
  5
2A3
330
1F
100
AcDbEntity
  8
0
  6
Continuous
 62
     7
370
    25
100
AcDbLine
 10
186.459024277
 20
240.5520017943
 30
0.0
 11
186.459024277
 21
241.3114945115
 31
0.0
  0
LINE
  5
2A4
330
1F
100
AcDbEntity
  8
0
  6
Continuous
 62
     7
370
    25
100
AcDbLine
 10
185.362239129
 20
241.3114945115
 30
0.0
 11
184.9316804789
 21
241.4008109089
 31
0.0
  0
LINE
  5
2A5
330
1F
100
AcDbEntity
  8
0
  6
Continuous
 62
     7
370
    25
100
AcDbLine
 10
184.9316804789
 20
241.4008109089
 30
0.0
 11
185.910631703
 21
241.4008109089
 31
0.0
  0
LINE
  5
2A6
330
1F
100
AcDbEntity
  8
0
  6
Continuous
 62
     7
370
    25
100
AcDbLine
 10
184.5011218288
 20
240.5520017943
 30
0.0
 11
184.5011218288
 21
241.3114945115
 31
0.0
  0
SPLINE
  5
2A7
330
1F
100
AcDbEntity
  8
0
  6
Continuous
 62
     7
370
    25
100
AcDbSpline
210
0.0
220
0.0
230
1.0
 70
     8
 71
     3
 72
     9
 73
     5
 74
     0
 42
0.00000001
 43
0.00000001
 40
0.0
 40
0.0
 40
0.0
 40
0.0
 40
0.0702005767034214
 40
1.0
 40
1.0
 40
1.0
 40
1.0
 10
184.9316804788894
 20
241.4008109089346
 30
0.0
 10
184.921473691293
 20
241.4007216856811
 30
0.0
 10
184.7760790510241
 20
241.399450709605
 30
0.0
 10
184.6335993617225
 20
241.3538728132259
 30
0.0
 10
184.5011218287784
 20
241.3114945114576
 30
0.0
  0
SPLINE
  5
2A8
330
1F
100
AcDbEntity
  8
0
  6
Continuous
 62
     7
370
    25
100
AcDbSpline
210
0.0
220
0.0
230
1.0
 70
     8
 71
     3
 72
     9
 73
     5
 74
     0
 42
0.00000001
 43
0.00000001
 40
0.0
 40
0.0
 40
0.0
 40
0.0
 40
0.2575513451038193
 40
1.0
 40
1.0
 40
1.0
 40
1.0
 10
186.4590242769661
 20
241.3114945114576
 30
0.0
 10
186.4689166396031
 20
241.3249775560126
 30
0.0
 10
186.5073259231304
 20
241.3773284554014
 30
0.0
 10
186.5472308451562
 20
241.3908051529599
 30
0.0
 10
186.576858200838
 20
241.4008109089346
 30
0.0
  0
LINE
  5
2A9
330
1F
100
AcDbEntity
  8
0
  6
Continuous
 62
     7
370
    25
100
AcDbLine
 10
185.910631703
 20
241.4008109089
 30
0.0
 11
186.5768582008
 21
241.4008109089
 31
0.0
  0
SPLINE
  5
2AA
330
1F
100
AcDbEntity
  8
0
  6
Continuous
 62
     7
370
    25
100
AcDbSpline
210
0.0
220
0.0
230
1.0
 70
     8
 71
     3
 72
     9
 73
     5
 74
     0
 42
0.00000001
 43
0.00000001
 40
0.0
 40
0.0
 40
0.0
 40
0.0
 40
0.2686336050555538
 40
1.0
 40
1.0
 40
1.0
 40
1.0
 10
186.576858200838
 20
241.4008109089346
 30
0.0
 10
186.5875726017279
 20
241.3994851184178
 30
0.0
 10
186.627457413934
 20
241.3945498069305
 30
0.0
 10
186.6662907371244
 20
241.3465788542105
 30
0.0
 10
186.6946921247099
 20
241.3114945114576
 30
0.0
  0
LINE
  5
2AB
330
1F
100
AcDbEntity
  8
0
  6
Continuous
 62
     7
370
    25
100
AcDbLine
 10
186.6946921247
 20
240.5520017943
 30
0.0
 11
186.6946921247
 21
241.3114945115
 31
0.0
  0
SPLINE
  5
2AC
330
1F
100
AcDbEntity
  8
0
  6
Continuous
 62
     7
370
    25
100
AcDbSpline
210
0.0
220
0.0
230
1.0
 70
     8
 71
     3
 72
     9
 73
     5
 74
     0
 42
0.00000001
 43
0.00000001
 40
0.0
 40
0.0
 40
0.0
 40
0.0
 40
0.257551345103806
 40
1.0
 40
1.0
 40
1.0
 40
1.0
 10
184.5011218287784
 20
241.3114945114576
 30
0.0
 10
184.5110141914153
 20
241.3249775560126
 30
0.0
 10
184.5494234749427
 20
241.3773284554014
 30
0.0
 10
184.5893283969685
 20
241.3908051529599
 30
0.0
 10
184.6189557526502
 20
241.4008109089346
 30
0.0
  0
LINE
  5
2AD
330
1F
100
AcDbEntity
  8
0
  6
Continuous
 62
     7
370
    25
100
AcDbLine
 10
184.9316804789
 20
241.4008109089
 30
0.0
 11
184.5994892037
 21
241.4008109089
 31
0.0
  0
SPLINE
  5
2AE
330
1F
100
AcDbEntity
  8
0
  6
Continuous
 62
     7
370
    25
100
AcDbSpline
210
0.0
220
0.0
230
1.0
 70
     8
 71
     3
 72
     9
 73
     5
 74
     0
 42
0.00000001
 43
0.00000001
 40
0.0
 40
0.0
 40
0.0
 40
0.0
 40
0.0702005767034211
 40
1.0
 40
1.0
 40
1.0
 40
1.0
 10
186.2641334745988
 20
241.4008109089346
 30
0.0
 10
186.2743402621953
 20
241.4007216856811
 30
0.0
 10
186.4197349024641
 20
241.3994507096048
 30
0.0
 10
186.5622145917657
 20
241.3538728132258
 30
0.0
 10
186.6946921247099
 20
241.3114945114576
 30
0.0
  0
LINE
  5
2AF
330
1F
100
AcDbEntity
  8
0
  6
Continuous
 62
     7
370
    25
100
AcDbLine
 10
185.5086199884
 20
243.0427313927
 30
0.0
 11
185.104301778
 21
242.9708109089
 31
0.0
  0
SPLINE
  5
2B0
330
1F
100
AcDbEntity
  8
0
  6
Continuous
 62
     7
370
    25
100
AcDbSpline
210
0.0
220
0.0
230
1.0
 70
     8
 71
     3
 72
     9
 73
     5
 74
     0
 42
0.00000001
 43
0.00000001
 40
0.0
 40
0.0
 40
0.0
 40
0.0
 40
0.0702005767034325
 40
1.0
 40
1.0
 40
1.0
 40
1.0
 10
185.1043017779599
 20
242.9708109089347
 30
0.0
 10
185.0923987169797
 20
242.9709001321882
 30
0.0
 10
184.9228408367007
 20
242.9721711082641
 30
0.0
 10
184.7566823451901
 20
243.0177490046433
 30
0.0
 10
184.6021882756077
 20
243.0601273064117
 30
0.0
  0
LINE
  5
2B1
330
1F
100
AcDbEntity
  8
0
  6
Continuous
 62
     7
370
    25
100
AcDbLine
 10
184.6021882756
 20
243.0601273064
 30
0.0
 11
184.6021882756
 21
243.9214945115
 31
0.0
  0
SPLINE
  5
2B2
330
1F
100
AcDbEntity
  8
0
  6
Continuous
 62
     7
370
    25
100
AcDbSpline
210
0.0
220
0.0
230
1.0
 70
     8
 71
     3
 72
     9
 73
     5
 74
     0
 42
0.00000001
 43
0.00000001
 40
0.0
 40
0.0
 40
0.0
 40
0.0
 40
0.0702005767034325
 40
1.0
 40
1.0
 40
1.0
 40
1.0
 10
185.1043017779599
 20
244.0108109089347
 30
0.0
 10
185.0923987169797
 20
244.0107216856812
 30
0.0
 10
184.9228408367007
 20
244.0094507096049
 30
0.0
 10
184.7566823451901
 20
243.9638728132259
 30
0.0
 10
184.6021882756077
 20
243.9214945114576
 30
0.0
  0
LINE
  5
2B3
330
1F
100
AcDbEntity
  8
0
  6
Continuous
 62
     7
370
    25
100
AcDbLine
 10
185.6064152803
 20
243.9214945115
 30
0.0
 11
185.104301778
 21
244.0108109089
 31
0.0
  0
LINE
  5
2B4
330
1F
100
AcDbEntity
  8
0
  6
Continuous
 62
     7
370
    25
100
AcDbLine
 10
185.6064152803
 20
243.8508109089
 30
0.0
 11
185.6064152803
 21
243.9214945115
 31
0.0
  0
SPLINE
  5
2B5
330
1F
100
AcDbEntity
  8
0
  6
Continuous
 62
     7
370
    25
100
AcDbSpline
210
0.0
220
0.0
230
1.0
 70
     8
 71
     3
 72
     9
 73
     5
 74
     0
 42
0.00000001
 43
0.00000001
 40
0.0
 40
0.0
 40
0.0
 40
0.0
 40
0.2575513451038171
 40
1.0
 40
1.0
 40
1.0
 40
1.0
 10
185.6064152803121
 20
243.9214945114576
 30
0.0
 10
185.6482114377868
 20
243.9349775560126
 30
0.0
 10
185.810494253502
 20
243.9873284554014
 30
0.0
 10
185.9790962817758
 20
244.0008051529599
 30
0.0
 10
186.1042746308803
 20
244.0108109089346
 30
0.0
  0
LINE
  5
2B6
330
1F
100
AcDbEntity
  8
0
  6
Continuous
 62
     7
370
    25
100
AcDbLine
 10
185.104301778
 20
244.0108109089
 30
0.0
 11
186.1042746309
 21
244.0108109089
 31
0.0
  0
SPLINE
  5
2B7
330
1F
100
AcDbEntity
  8
0
  6
Continuous
 62
     7
370
    25
100
AcDbSpline
210
0.0
220
0.0
230
1.0
 70
     8
 71
     3
 72
     9
 73
     5
 74
     0
 42
0.00000001
 43
0.00000001
 40
0.0
 40
0.0
 40
0.0
 40
0.0
 40
0.2686336050555593
 40
0.9999999999999999
 40
0.9999999999999999
 40
0.9999999999999999
 40
0.9999999999999999
 10
186.1042746308803
 20
244.0108109089346
 30
0.0
 10
186.1495439768674
 20
244.0094851184177
 30
0.0
 10
186.318061039272
 20
244.0045498069305
 30
0.0
 10
186.4821354622284
 20
243.9565788542104
 30
0.0
 10
186.6021339814485
 20
243.9214945114576
 30
0.0
  0
LINE
  5
2B8
330
1F
100
AcDbEntity
  8
0
  6
Continuous
 62
     7
370
    25
100
AcDbLine
 10
186.6021339814
 20
243.8508109089
 30
0.0
 11
186.6021339814
 21
243.9214945115
 31
0.0
  0
LINE
  5
2B9
330
1F
100
AcDbEntity
  8
0
  6
Continuous
 62
     7
370
    25
100
AcDbLine
 10
184.6021882756
 20
243.9214945115
 30
0.0
 11
184.5979341238
 21
244.0108109089
 31
0.0
  0
LINE
  5
2BA
330
1F
100
AcDbEntity
  8
0
  6
Continuous
 62
     7
370
    25
100
AcDbLine
 10
184.5979341238
 20
244.0108109089
 30
0.0
 11
185.104301778
 21
244.0108109089
 31
0.0
  0
LINE
  5
2BB
330
1F
100
AcDbEntity
  8
0
  6
Continuous
 62
     7
370
    25
100
AcDbLine
 10
184.6021882756
 20
243.0601273064
 30
0.0
 11
184.5979341238
 21
242.9708109089
 31
0.0
  0
SPLINE
  5
2BC
330
1F
100
AcDbEntity
  8
0
  6
Continuous
 62
     7
370
    25
100
AcDbSpline
210
0.0
220
0.0
230
1.0
 70
     8
 71
     3
 72
     9
 73
     5
 74
     0
 42
0.00000001
 43
0.00000001
 40
0.0
 40
0.0
 40
0.0
 40
0.0
 40
0.0702005767034219
 40
1.0
 40
1.0
 40
1.0
 40
1.0
 10
186.5978798296645
 20
244.0108109089346
 30
0.0
 10
186.5979806782334
 20
244.0107216856811
 30
0.0
 10
186.5994172557313
 20
244.0094507096053
 30
0.0
 10
186.6008250319408
 20
243.9638728132261
 30
0.0
 10
186.6021339814485
 20
243.9214945114576
 30
0.0
  0
LINE
  5
2BD
330
1F
100
AcDbEntity
  8
0
  6
Continuous
 62
     7
370
    25
100
AcDbLine
 10
186.1042746309
 20
244.0108109089
 30
0.0
 11
186.5978798297
 21
244.0108109089
 31
0.0
  0
SPLINE
  5
2BE
330
1F
100
AcDbEntity
  8
0
  6
Continuous
 62
     7
370
    25
100
AcDbSpline
210
0.0
220
0.0
230
1.0
 70
     8
 71
     3
 72
     9
 73
     5
 74
     0
 42
0.00000001
 43
0.00000001
 40
0.0
 40
0.0
 40
0.0
 40
0.0
 40
0.0702005767034219
 40
1.0
 40
1.0
 40
1.0
 40
1.0
 10
184.5979341238237
 20
242.9708109089346
 30
0.0
 10
184.5978332752549
 20
242.9709001321882
 30
0.0
 10
184.596396697757
 20
242.9721711082641
 30
0.0
 10
184.5949889215474
 20
243.0177490046433
 30
0.0
 10
184.5936799720397
 20
243.0601273064117
 30
0.0
  0
LINE
  5
2BF
330
1F
100
AcDbEntity
  8
0
  6
Continuous
 62
     7
370
    25
100
AcDbLine
 10
184.593679972
 20
243.0601273064
 30
0.0
 11
184.593679972
 21
243.9214945115
 31
0.0
  0
SPLINE
  5
2C0
330
1F
100
AcDbEntity
  8
0
  6
Continuous
 62
     7
370
    25
100
AcDbSpline
210
0.0
220
0.0
230
1.0
 70
     8
 71
     3
 72
     9
 73
     5
 74
     0
 42
0.00000001
 43
0.00000001
 40
0.0
 40
0.0
 40
0.0
 40
0.0
 40
0.0702005767034219
 40
1.0
 40
1.0
 40
1.0
 40
1.0
 10
184.5979341238237
 20
244.0108109089346
 30
0.0
 10
184.5978332752549
 20
244.0107216856811
 30
0.0
 10
184.596396697757
 20
244.0094507096049
 30
0.0
 10
184.5949889215474
 20
243.9638728132259
 30
0.0
 10
184.5936799720397
 20
243.9214945114576
 30
0.0
  0
LINE
  5
2C1
330
1F
100
AcDbEntity
  8
0
  6
Continuous
 62
     7
370
    25
100
AcDbLine
 10
185.9893146931
 20
241.5401273064
 30
0.0
 11
185.4210639971
 21
241.4508109089
 31
0.0
  0
SPLINE
  5
2C2
330
1F
100
AcDbEntity
  8
0
  6
Continuous
 62
     7
370
    25
100
AcDbSpline
210
0.0
220
0.0
230
1.0
 70
     8
 71
     3
 72
     9
 73
     5
 74
     0
 42
0.00000001
 43
0.00000001
 40
0.0
 40
0.0
 40
0.0
 40
0.0
 40
0.0702005767034282
 40
1.0
 40
1.0
 40
1.0
 40
1.0
 10
185.4210639971045
 20
241.4508109089347
 30
0.0
 10
185.4075930933049
 20
241.4509001321882
 30
0.0
 10
185.2157014532048
 20
241.4521711082643
 30
0.0
 10
185.0276569612587
 20
241.4977490046434
 30
0.0
 10
184.8528133010931
 20
241.5401273064117
 30
0.0
  0
LINE
  5
2C3
330
1F
100
AcDbEntity
  8
0
  6
Continuous
 62
     7
370
    25
100
AcDbLine
 10
184.8528133011
 20
241.5401273064
 30
0.0
 11
184.8528133011
 21
242.4014945115
 31
0.0
  0
SPLINE
  5
2C4
330
1F
100
AcDbEntity
  8
0
  6
Continuous
 62
     7
370
    25
100
AcDbSpline
210
0.0
220
0.0
230
1.0
 70
     8
 71
     3
 72
     9
 73
     5
 74
     0
 42
0.00000001
 43
0.00000001
 40
0.0
 40
0.0
 40
0.0
 40
0.0
 40
0.0702005767034282
 40
1.0
 40
1.0
 40
1.0
 40
1.0
 10
185.4210639971045
 20
242.4908109089347
 30
0.0
 10
185.4075930933049
 20
242.4907216856811
 30
0.0
 10
185.2157014532048
 20
242.4894507096051
 30
0.0
 10
185.0276569612587
 20
242.443872813226
 30
0.0
 10
184.8528133010931
 20
242.4014945114576
 30
0.0
  0
LINE
  5
2C5
330
1F
100
AcDbEntity
  8
0
  6
Continuous
 62
     7
370
    25
100
AcDbLine
 10
185.9893146931
 20
242.4014945115
 30
0.0
 11
185.4210639971
 21
242.4908109089
 31
0.0
  0
LINE
  5
2C6
330
1F
100
AcDbEntity
  8
0
  6
Continuous
 62
     7
370
    25
100
AcDbLine
 10
185.9893146931
 20
241.5401273064
 30
0.0
 11
185.9893146931
 21
242.4014945115
 31
0.0
  0
SPLINE
  5
2C7
330
1F
100
AcDbEntity
  8
0
  6
Continuous
 62
     7
370
    25
100
AcDbSpline
210
0.0
220
0.0
230
1.0
 70
     8
 71
     3
 72
     9
 73
     5
 74
     0
 42
0.00000001
 43
0.00000001
 40
0.0
 40
0.0
 40
0.0
 40
0.0
 40
0.2575513451038083
 40
1.0
 40
1.0
 40
1.0
 40
1.0
 10
185.9893146931158
 20
242.4014945114576
 30
0.0
 10
186.0205906474244
 20
242.4149775560126
 30
0.0
 10
186.1420264500444
 20
242.4673284554013
 30
0.0
 10
186.268190902741
 20
242.4808051529599
 30
0.0
 10
186.3618615309413
 20
242.4908109089347
 30
0.0
  0
SPLINE
  5
2C8
330
1F
100
AcDbEntity
  8
0
  6
Continuous
 62
     7
370
    25
100
AcDbSpline
210
0.0
220
0.0
230
1.0
 70
     8
 71
     3
 72
     9
 73
     5
 74
     0
 42
0.00000001
 43
0.00000001
 40
0.0
 40
0.0
 40
0.0
 40
0.0
 40
0.2575513451038083
 40
1.0
 40
1.0
 40
1.0
 40
1.0
 10
185.9893146931158
 20
241.5401273064117
 30
0.0
 10
186.0205906474244
 20
241.5266442618567
 30
0.0
 10
186.1420264500444
 20
241.4742933624679
 30
0.0
 10
186.268190902741
 20
241.4608166649094
 30
0.0
 10
186.3618615309413
 20
241.4508109089347
 30
0.0
  0
LINE
  5
2C9
330
1F
100
AcDbEntity
  8
0
  6
Continuous
 62
     7
370
    25
100
AcDbLine
 10
186.3618615309
 20
241.4508109089
 30
0.0
 11
185.4210639971
 21
241.4508109089
 31
0.0
  0
LINE
  5
2CA
330
1F
100
AcDbEntity
  8
0
  6
Continuous
 62
     7
370
    25
100
AcDbLine
 10
184.8528133011
 20
242.4014945115
 30
0.0
 11
184.6571094429
 21
242.4908109089
 31
0.0
  0
LINE
  5
2CB
330
1F
100
AcDbEntity
  8
0
  6
Continuous
 62
     7
370
    25
100
AcDbLine
 10
184.8528133011
 20
241.5401273064
 30
0.0
 11
184.6571094429
 21
241.4508109089
 31
0.0
  0
LINE
  5
2CC
330
1F
100
AcDbEntity
  8
0
  6
Continuous
 62
     7
370
    25
100
AcDbLine
 10
185.4210639971
 20
241.4508109089
 30
0.0
 11
184.6571094429
 21
241.4508109089
 31
0.0
  0
SPLINE
  5
2CD
330
1F
100
AcDbEntity
  8
0
  6
Continuous
 62
     7
370
    25
100
AcDbSpline
210
0.0
220
0.0
230
1.0
 70
     8
 71
     3
 72
     9
 73
     5
 74
     0
 42
0.00000001
 43
0.00000001
 40
0.0
 40
0.0
 40
0.0
 40
0.0
 40
0.2686336050555689
 40
1.0
 40
1.0
 40
1.0
 40
1.0
 10
186.3618615309413
 20
242.4908109089347
 30
0.0
 10
186.3957364630455
 20
242.4894851184177
 30
0.0
 10
186.5218373360065
 20
242.4845498069305
 30
0.0
 10
186.6446137935958
 20
242.4365788542105
 30
0.0
 10
186.7344083687669
 20
242.4014945114576
 30
0.0
  0
LINE
  5
2CE
330
1F
100
AcDbEntity
  8
0
  6
Continuous
 62
     7
370
    25
100
AcDbLine
 10
186.7344083688
 20
241.5401273064
 30
0.0
 11
186.7344083688
 21
242.4014945115
 31
0.0
  0
SPLINE
  5
2CF
330
1F
100
AcDbEntity
  8
0
  6
Continuous
 62
     7
370
    25
100
AcDbSpline
210
0.0
220
0.0
230
1.0
 70
     8
 71
     3
 72
     9
 73
     5
 74
     0
 42
0.00000001
 43
0.00000001
 40
0.0
 40
0.0
 40
0.0
 40
0.0
 40
0.2686336050555689
 40
1.0
 40
1.0
 40
1.0
 40
1.0
 10
186.3618615309413
 20
241.4508109089347
 30
0.0
 10
186.3957364630455
 20
241.4521366994515
 30
0.0
 10
186.5218373360065
 20
241.4570720109388
 30
0.0
 10
186.6446137935958
 20
241.5050429636588
 30
0.0
 10
186.7344083687669
 20
241.5401273064117
 30
0.0
  0
SPLINE
  5
2D0
330
1F
100
AcDbEntity
  8
0
  6
Continuous
 62
     7
370
    25
100
AcDbSpline
210
0.0
220
0.0
230
1.0
 70
     8
 71
     3
 72
     9
 73
     5
 74
     0
 42
0.00000001
 43
0.00000001
 40
0.0
 40
0.0
 40
0.0
 40
0.0
 40
0.0702005767034104
 40
1.0
 40
1.0
 40
1.0
 40
1.0
 10
184.6571094429073
 20
241.4508109089347
 30
0.0
 10
184.6524701035007
 20
241.4509001321882
 30
0.0
 10
184.5863831904801
 20
241.4521711082643
 30
0.0
 10
184.5216212238995
 20
241.4977490046434
 30
0.0
 10
184.4614055847214
 20
241.5401273064117
 30
0.0
  0
LINE
  5
2D1
330
1F
100
AcDbEntity
  8
0
  6
Continuous
 62
     7
370
    25
100
AcDbLine
 10
184.4614055847
 20
241.5401273064
 30
0.0
 11
184.4614055847
 21
242.4014945115
 31
0.0
  0
LINE
  5
2D2
330
1F
100
AcDbEntity
  8
0
  6
Continuous
 62
     7
370
    25
100
AcDbLine
 10
184.5348320022
 20
242.4373733354
 30
0.0
 11
184.4614055847
 21
242.4014945115
 31
0.0
  0
LINE
  5
2D3
330
1F
100
AcDbEntity
  8
0
  6
Continuous
 62
     7
370
    25
100
AcDbLine
 10
186.6609819513
 20
242.4373733354
 30
0.0
 11
186.7344083688
 21
242.4014945115
 31
0.0
  0
LINE
  5
2D4
330
1F
100
AcDbEntity
  8
0
  6
Continuous
 62
     7
370
    25
100
AcDbLine
 10
186.6609819513
 20
241.5042484825
 30
0.0
 11
186.7344083688
 21
241.5401273064
 31
0.0
  0
LINE
  5
2D5
330
1F
100
AcDbEntity
  8
0
  6
Continuous
 62
     7
370
    25
100
AcDbLine
 10
186.3618615309
 20
241.4508109089
 30
0.0
 11
186.5979069767
 21
241.4508109089
 31
0.0
  0
LINE
  5
2D6
330
1F
100
AcDbEntity
  8
0
  6
Continuous
 62
     7
370
    25
100
AcDbLine
 10
184.6571094429
 20
241.4508109089
 30
0.0
 11
184.5979069767
 21
241.4508109089
 31
0.0
  0
LINE
  5
2D7
330
1F
100
AcDbEntity
  8
0
  6
Continuous
 62
     7
370
    25
100
AcDbLine
 10
172.3939762351
 20
241.7508109089
 30
0.0
 11
172.3939762351
 21
240.5520017943
 31
0.0
  0
LINE
  5
2D8
330
1F
100
AcDbEntity
  8
0
  6
Continuous
 62
     7
370
    25
100
AcDbLine
 10
175.255672896
 20
240.5520017943
 30
0.0
 11
175.255672896
 21
241.7508109089
 31
0.0
  0
LINE
  5
2D9
330
1F
100
AcDbEntity
  8
0
  6
Continuous
 62
     7
370
    25
100
AcDbLine
 10
172.3939762351
 20
241.7508109089
 30
0.0
 11
175.255672896
 21
241.7508109089
 31
0.0
  0
LINE
  5
2DA
330
1F
100
AcDbEntity
  8
0
  6
Continuous
 62
     7
370
    25
100
AcDbLine
 10
171.8614269242
 20
240.5520017943
 30
0.0
 11
171.8614269242
 21
241.7508109089
 31
0.0
  0
LINE
  5
2DB
330
1F
100
AcDbEntity
  8
0
  6
Continuous
 62
     7
370
    25
100
AcDbLine
 10
172.3939762351
 20
241.7508109089
 30
0.0
 11
171.8614269242
 21
241.7508109089
 31
0.0
  0
LINE
  5
2DC
330
1F
100
AcDbEntity
  8
0
  6
Continuous
 62
     7
370
    25
100
AcDbLine
 10
168.5304682902
 20
241.7508109089
 30
0.0
 11
168.5304682902
 21
240.5520017943
 31
0.0
  0
LINE
  5
2DD
330
1F
100
AcDbEntity
  8
0
  6
Continuous
 62
     7
370
    25
100
AcDbLine
 10
168.5304682902
 20
241.7508109089
 30
0.0
 11
171.8614269242
 21
241.7508109089
 31
0.0
  0
LINE
  5
2DE
330
1F
100
AcDbEntity
  8
0
  6
Continuous
 62
     7
370
    25
100
AcDbLine
 10
168.203661005
 20
240.5520017943
 30
0.0
 11
168.203661005
 21
241.7508109089
 31
0.0
  0
LINE
  5
2DF
330
1F
100
AcDbEntity
  8
0
  6
Continuous
 62
     7
370
    25
100
AcDbLine
 10
168.5304682902
 20
241.7508109089
 30
0.0
 11
168.203661005
 21
241.7508109089
 31
0.0
  0
LINE
  5
2E0
330
1F
100
AcDbEntity
  8
0
  6
Continuous
 62
     7
370
    25
100
AcDbLine
 10
167.7343990318
 20
241.7508109089
 30
0.0
 11
167.7343990318
 21
240.5520017943
 31
0.0
  0
LINE
  5
2E1
330
1F
100
AcDbEntity
  8
0
  6
Continuous
 62
     7
370
    25
100
AcDbLine
 10
167.7343990318
 20
241.7508109089
 30
0.0
 11
168.203661005
 21
241.7508109089
 31
0.0
  0
LINE
  5
2E2
330
1F
100
AcDbEntity
  8
0
  6
Continuous
 62
     7
370
    25
100
AcDbLine
 10
175.4614149216
 20
241.7508109089
 30
0.0
 11
175.4614149216
 21
240.5520017943
 31
0.0
  0
LINE
  5
2E3
330
1F
100
AcDbEntity
  8
0
  6
Continuous
 62
     7
370
    25
100
AcDbLine
 10
175.4614149216
 20
241.7508109089
 30
0.0
 11
175.255672896
 21
241.7508109089
 31
0.0
  0
LINE
  5
2E4
330
1F
100
AcDbEntity
  8
0
  6
Continuous
 62
     7
370
    25
100
AcDbLine
 10
170.3475404426
 20
245.1508109089
 30
0.0
 11
170.3475404426
 21
242.5508109089
 31
0.0
  0
SPLINE
  5
2E5
330
1F
100
AcDbEntity
  8
0
  6
Continuous
 62
     7
370
    25
100
AcDbSpline
210
0.0
220
0.0
230
1.0
 70
     8
 71
     3
 72
     9
 73
     5
 74
     0
 42
0.00000001
 43
0.00000001
 40
0.0
 40
0.0
 40
0.0
 40
0.0
 40
0.5203389007804535
 40
1.0
 40
1.0
 40
1.0
 40
1.0
 10
172.0533754125314
 20
245.3508109089346
 30
0.0
 10
171.7546631198452
 20
245.34030504799
 30
0.0
 10
171.1805905447636
 20
245.3201146279986
 30
0.0
 10
170.617589934284
 20
245.2056940223928
 30
0.0
 10
170.3475404426001
 20
245.1508109089347
 30
0.0
  0
SPLINE
  5
2E6
330
1F
100
AcDbEntity
  8
0
  6
Continuous
 62
     7
370
    25
100
AcDbSpline
210
0.0
220
0.0
230
1.0
 70
     8
 71
     3
 72
     9
 73
     5
 74
     0
 42
0.00000001
 43
0.00000001
 40
0.0
 40
0.0
 40
0.0
 40
0.0
 40
0.4972154496651252
 40
1.0
 40
1.0
 40
1.0
 40
1.0
 10
173.7592103824626
 20
245.1508109089347
 30
0.0
 10
173.4792074285189
 20
245.2074909205521
 30
0.0
 10
172.9160653255686
 20
245.3214857927058
 30
0.0
 10
172.3420043846007
 20
245.3409996453218
 30
0.0
 10
172.0533754125314
 20
245.3508109089346
 30
0.0
  0
LINE
  5
2E7
330
1F
100
AcDbEntity
  8
0
  6
Continuous
 62
     7
370
    25
100
AcDbLine
 10
173.7592103825
 20
242.5508109089
 30
0.0
 11
173.7592103825
 21
245.1508109089
 31
0.0
  0
LINE
  5
2E8
330
1F
100
AcDbEntity
  8
0
  6
Continuous
 62
     7
370
    25
100
AcDbLine
 10
170.3475404426
 20
242.5508109089
 30
0.0
 11
173.7592103825
 21
242.5508109089
 31
0.0
  0
LINE
  5
2E9
330
1F
100
AcDbEntity
  8
0
  6
Continuous
 62
     7
370
    25
100
AcDbLine
 10
174.8309550515
 20
245.3508109089
 30
0.0
 11
172.0533754125
 21
245.3508109089
 31
0.0
  0
LINE
  5
2EA
330
1F
100
AcDbEntity
  8
0
  6
Continuous
 62
     7
370
    25
100
AcDbLine
 10
172.0533754125
 20
245.3508109089
 30
0.0
 11
168.8203273378
 21
245.3508109089
 31
0.0
  0
LINE
  5
2EB
330
1F
100
AcDbEntity
  8
0
  6
Continuous
 62
     7
370
    25
100
AcDbLine
 10
168.8203273378
 20
245.3508109089
 30
0.0
 11
168.0979069767
 21
245.3508109089
 31
0.0
  0
LINE
  5
2EC
330
1F
100
AcDbEntity
  8
0
  6
Continuous
 62
     7
370
    25
100
AcDbLine
 10
175.0979069767
 20
245.3508109089
 30
0.0
 11
174.8309550515
 21
245.3508109089
 31
0.0
  0
LINE
  5
2ED
330
1F
100
AcDbEntity
  8
0
  6
Continuous
 62
     7
370
    25
100
AcDbLine
 10
174.0379069767
 20
246.7508109089
 30
0.0
 11
169.1579069767
 21
246.7508109089
 31
0.0
  0
SPLINE
  5
2EE
330
1F
100
AcDbEntity
  8
0
  6
Continuous
 62
     7
370
    25
100
AcDbSpline
210
0.0
220
0.0
230
1.0
 70
     8
 71
     3
 72
     9
 73
     5
 74
     0
 42
0.00000001
 43
0.00000001
 40
0.0
 40
0.0
 40
0.0
 40
0.0
 40
0.4972154496651287
 40
0.9999999999999999
 40
0.9999999999999999
 40
0.9999999999999999
 40
0.9999999999999999
 10
169.8671398756323
 20
245.1508109089347
 30
0.0
 10
169.695311646067
 20
245.2074909205521
 30
0.0
 10
169.3497306113648
 20
245.3214857927058
 30
0.0
 10
168.9974490594748
 20
245.3409996453218
 30
0.0
 10
168.8203273378166
 20
245.3508109089346
 30
0.0
  0
LINE
  5
2EF
330
1F
100
AcDbEntity
  8
0
  6
Continuous
 62
     7
370
    25
100
AcDbLine
 10
170.3475404426
 20
245.1508109089
 30
0.0
 11
169.8671398756
 21
245.1508109089
 31
0.0
  0
SPLINE
  5
2F0
330
1F
100
AcDbEntity
  8
0
  6
Continuous
 62
     7
370
    25
100
AcDbSpline
210
0.0
220
0.0
230
1.0
 70
     8
 71
     3
 72
     9
 73
     5
 74
     0
 42
0.00000001
 43
0.00000001
 40
0.0
 40
0.0
 40
0.0
 40
0.0
 40
0.6414308555995328
 40
1.0
 40
1.0
 40
1.0
 40
1.0
 10
174.8309550514589
 20
245.3508109089346
 30
0.0
 10
174.6886948534582
 20
245.3348956674858
 30
0.0
 10
174.4669091430284
 20
245.3100835754108
 30
0.0
 10
174.2497862053399
 20
245.1928479771105
 30
0.0
 10
174.1719326193433
 20
245.1508109089347
 30
0.0
  0
LINE
  5
2F1
330
1F
100
AcDbEntity
  8
0
  6
Continuous
 62
     7
370
    25
100
AcDbLine
 10
174.1719326193
 20
245.1508109089
 30
0.0
 11
173.7592103825
 21
245.1508109089
 31
0.0
  0
LINE
  5
2F2
330
1F
100
AcDbEntity
  8
0
  6
Continuous
 62
     7
370
    25
100
AcDbLine
 10
169.8671398756
 20
242.5508109089
 30
0.0
 11
169.8671398756
 21
245.1508109089
 31
0.0
  0
LINE
  5
2F3
330
1F
100
AcDbEntity
  8
0
  6
Continuous
 62
     7
370
    25
100
AcDbLine
 10
170.3475404426
 20
242.5508109089
 30
0.0
 11
169.8671398756
 21
242.5508109089
 31
0.0
  0
LINE
  5
2F4
330
1F
100
AcDbEntity
  8
0
  6
Continuous
 62
     7
370
    25
100
AcDbLine
 10
167.7735148
 20
245.1508109089
 30
0.0
 11
167.7735148
 21
242.5508109089
 31
0.0
  0
SPLINE
  5
2F5
330
1F
100
AcDbEntity
  8
0
  6
Continuous
 62
     7
370
    25
100
AcDbSpline
210
0.0
220
0.0
230
1.0
 70
     8
 71
     3
 72
     9
 73
     5
 74
     0
 42
0.00000001
 43
0.00000001
 40
0.0
 40
0.0
 40
0.0
 40
0.0
 40
0.5203389007804573
 40
1.0
 40
1.0
 40
1.0
 40
1.0
 10
168.8203273378166
 20
245.3508109089346
 30
0.0
 10
168.6370178274036
 20
245.34030504799
 30
0.0
 10
168.2847291360563
 20
245.3201146279986
 30
0.0
 10
167.9392349304406
 20
245.2056940223928
 30
0.0
 10
167.773514800001
 20
245.1508109089347
 30
0.0
  0
LINE
  5
2F6
330
1F
100
AcDbEntity
  8
0
  6
Continuous
 62
     7
370
    25
100
AcDbLine
 10
167.7735148
 20
242.5508109089
 30
0.0
 11
169.8671398756
 21
242.5508109089
 31
0.0
  0
LINE
  5
2F7
330
1F
100
AcDbEntity
  8
0
  6
Continuous
 62
     7
370
    25
100
AcDbLine
 10
174.1719326193
 20
245.1508109089
 30
0.0
 11
174.1719326193
 21
242.5508109089
 31
0.0
  0
LINE
  5
2F8
330
1F
100
AcDbEntity
  8
0
  6
Continuous
 62
     7
370
    25
100
AcDbLine
 10
174.1719326193
 20
242.5508109089
 30
0.0
 11
173.7592103825
 21
242.5508109089
 31
0.0
  0
SPLINE
  5
2F9
330
1F
100
AcDbEntity
  8
0
  6
Continuous
 62
     7
370
    25
100
AcDbSpline
210
0.0
220
0.0
230
1.0
 70
     8
 71
     3
 72
     9
 73
     5
 74
     0
 42
0.00000001
 43
0.00000001
 40
0.0
 40
0.0
 40
0.0
 40
0.0
 40
0.4972154496651259
 40
1.0
 40
1.0
 40
1.0
 40
1.0
 10
175.4899774835745
 20
245.1508109089347
 30
0.0
 10
175.3818027591959
 20
245.2074909205521
 30
0.0
 10
175.164241690948
 20
245.3214857927059
 30
0.0
 10
174.94246230187
 20
245.3409996453218
 30
0.0
 10
174.8309550514589
 20
245.3508109089346
 30
0.0
  0
LINE
  5
2FA
330
1F
100
AcDbEntity
  8
0
  6
Continuous
 62
     7
370
    25
100
AcDbLine
 10
175.4899774836
 20
242.5508109089
 30
0.0
 11
175.4899774836
 21
245.1508109089
 31
0.0
  0
LINE
  5
2FB
330
1F
100
AcDbEntity
  8
0
  6
Continuous
 62
     7
370
    25
100
AcDbLine
 10
174.1719326193
 20
242.5508109089
 30
0.0
 11
175.4899774836
 21
242.5508109089
 31
0.0
  0
LINE
  5
2FC
330
1F
100
AcDbEntity
  8
0
  6
Continuous
 62
     7
370
    25
100
AcDbLine
 10
167.7058364699
 20
245.1508109089
 30
0.0
 11
167.8120930384
 21
245.198684122
 31
0.0
  0
LINE
  5
2FD
330
1F
100
AcDbEntity
  8
0
  6
Continuous
 62
     7
370
    25
100
AcDbLine
 10
167.7735148
 20
245.1508109089
 30
0.0
 11
167.7058364699
 21
245.1508109089
 31
0.0
  0
LINE
  5
2FE
330
1F
100
AcDbEntity
  8
0
  6
Continuous
 62
     7
370
    25
100
AcDbLine
 10
167.7058364699
 20
242.5508109089
 30
0.0
 11
167.7058364699
 21
245.1508109089
 31
0.0
  0
LINE
  5
2FF
330
1F
100
AcDbEntity
  8
0
  6
Continuous
 62
     7
370
    25
100
AcDbLine
 10
167.7735148
 20
242.5508109089
 30
0.0
 11
167.7058364699
 21
242.5508109089
 31
0.0
  0
LINE
  5
300
330
1F
100
AcDbEntity
  8
0
  6
Continuous
 62
     7
370
    25
100
AcDbLine
 10
236.4979069767
 20
240.5520017943
 30
0.0
 11
236.4979069767
 21
240.6708109089
 31
0.0
  0
LINE
  5
301
330
1F
100
AcDbEntity
  8
0
  6
Continuous
 62
     7
370
    25
100
AcDbLine
 10
234.4979069767
 20
240.6708109089
 30
0.0
 11
236.4979069767
 21
240.6708109089
 31
0.0
  0
LINE
  5
302
330
1F
100
AcDbEntity
  8
0
  6
Continuous
 62
     7
370
    25
100
AcDbLine
 10
167.4979069767
 20
240.6708109089
 30
0.0
 11
167.7343990318
 21
240.6708109089
 31
0.0
  0
LINE
  5
303
330
1F
100
AcDbEntity
  8
0
  6
Continuous
 62
     7
370
    25
100
AcDbLine
 10
175.4614149216
 20
240.6708109089
 30
0.0
 11
184.5011218288
 21
240.6708109089
 31
0.0
  0
LINE
  5
304
330
1F
100
AcDbEntity
  8
0
  6
Continuous
 62
     7
370
    25
100
AcDbLine
 10
186.6946921247
 20
240.6708109089
 30
0.0
 11
234.4979069767
 21
240.6708109089
 31
0.0
  0
LINE
  5
305
330
1F
100
AcDbEntity
  8
0
  6
Continuous
 62
     7
370
    25
100
AcDbLine
 10
165.4979069767
 20
240.5520017943
 30
0.0
 11
165.4979069767
 21
240.6708109089
 31
0.0
  0
LINE
  5
306
330
1F
100
AcDbEntity
  8
0
  6
Continuous
 62
     7
370
    25
100
AcDbLine
 10
165.4979069767
 20
240.6708109089
 30
0.0
 11
167.4979069767
 21
240.6708109089
 31
0.0
  0
LINE
  5
307
330
1F
100
AcDbEntity
  8
0
  6
Continuous
 62
     7
370
    25
100
AcDbLine
 10
163.1179069767
 20
213.2102251225
 30
0.0
 11
163.1179069767
 21
213.1108109089
 31
0.0
  0
LINE
  5
308
330
1F
100
AcDbEntity
  8
0
  6
Continuous
 62
     7
370
    25
100
AcDbLine
 10
163.1179069767
 20
110.5302251225
 30
0.0
 11
163.1179069767
 21
110.4302251225
 31
0.0
  0
LINE
  5
309
330
1F
100
AcDbEntity
  8
0
  6
Continuous
 62
     7
370
    25
100
AcDbLine
 10
162.9579069767
 20
213.2102251225
 30
0.0
 11
162.9579069767
 21
213.1108109089
 31
0.0
  0
LINE
  5
30A
330
1F
100
AcDbEntity
  8
0
  6
Continuous
 62
     7
370
    25
100
AcDbLine
 10
162.9579069767
 20
110.5302251225
 30
0.0
 11
162.9579069767
 21
110.4302251225
 31
0.0
  0
LINE
  5
30B
330
1F
100
AcDbEntity
  8
0
  6
Continuous
 62
     7
370
    25
100
AcDbLine
 10
160.9979069767
 20
110.4302251225
 30
0.0
 11
160.9979069767
 21
110.5302251225
 31
0.0
  0
LINE
  5
30C
330
1F
100
AcDbEntity
  8
0
  6
Continuous
 62
     7
370
    25
100
AcDbLine
 10
239.0379069767
 20
110.4302251225
 30
0.0
 11
239.0379069767
 21
110.5302251225
 31
0.0
  0
LINE
  5
30D
330
1F
100
AcDbEntity
  8
0
  6
Continuous
 62
     7
370
    25
100
AcDbLine
 10
239.0379069767
 20
213.1108109089
 30
0.0
 11
239.0379069767
 21
213.2102251225
 31
0.0
  0
LINE
  5
30E
330
1F
100
AcDbEntity
  8
0
  6
Continuous
 62
     7
370
    25
100
AcDbLine
 10
238.8779069767
 20
110.4302251225
 30
0.0
 11
238.8779069767
 21
110.5302251225
 31
0.0
  0
LINE
  5
30F
330
1F
100
AcDbEntity
  8
0
  6
Continuous
 62
     7
370
    25
100
AcDbLine
 10
238.8779069767
 20
213.1108109089
 30
0.0
 11
238.8779069767
 21
213.2102251225
 31
0.0
  0
LINE
  5
310
330
1F
100
AcDbEntity
  8
0
  6
Continuous
 62
     7
370
    25
100
AcDbLine
 10
240.9979069767
 20
110.5302251225
 30
0.0
 11
240.9979069767
 21
110.4302251225
 31
0.0
  0
SPLINE
  5
311
330
1F
100
AcDbEntity
  8
0
  6
Continuous
 62
     7
370
    25
100
AcDbSpline
210
0.0
220
0.0
230
1.0
 70
     8
 71
     3
 72
    14
 73
    10
 74
     0
 42
0.00000001
 43
0.00000001
 40
0.0
 40
0.0
 40
0.0
 40
0.0
 40
0.0829103801195271
 40
0.2967156875484747
 40
0.5106292381336187
 40
0.7253753216166667
 40
0.9401104911291067
 40
0.9928276103852629
 40
1.0
 40
1.0
 40
1.0
 40
1.0
 10
188.0914573721891
 20
78.83688058393281
 30
0.0
 10
188.0931358284465
 20
78.84410688735429
 30
0.0
 10
188.0991426071118
 20
78.8699680350784
 30
0.0
 10
188.0528455815111
 20
78.90981085809449
 30
0.0
 10
187.9583856213263
 20
78.94911192452436
 30
0.0
 10
187.8222405095336
 20
78.9723443301636
 30
0.0
 10
187.7033489521117
 20
78.97582822869978
 30
0.0
 10
187.6346854070696
 20
78.97280169317747
 30
0.0
 10
187.6197014597573
 20
78.97188763165695
 30
0.0
 10
187.6179069767148
 20
78.97177816331299
 30
0.0
  0
SPLINE
  5
312
330
1F
100
AcDbEntity
  8
0
  6
Continuous
 62
     7
370
    25
100
AcDbSpline
210
0.0
220
0.0
230
1.0
 70
     8
 71
     3
 72
    14
 73
    10
 74
     0
 42
0.00000001
 43
0.00000001
 40
0.0
 40
0.0
 40
0.0
 40
0.0
 40
0.0775225344733551
 40
0.2925336328579166
 40
0.5076730007880692
 40
0.7232293601613098
 40
0.9396286138042383
 40
0.9927853187474526
 40
0.9999999999999999
 40
0.9999999999999999
 40
0.9999999999999999
 40
0.9999999999999999
 10
187.1440618344244
 20
78.78028492087856
 30
0.0
 10
187.1425431827733
 20
78.7868151855988
 30
0.0
 10
187.1368125047508
 20
78.81145733739517
 30
0.0
 10
187.1829824499191
 20
78.85638033466554
 30
0.0
 10
187.2772662624562
 20
78.90710346965615
 30
0.0
 10
187.4133975990094
 20
78.94699903186277
 30
0.0
 10
187.5323007922024
 20
78.96519041403474
 30
0.0
 10
187.601096512824
 20
78.97071112540323
 30
0.0
 10
187.616112492389
 20
78.97166425909138
 30
0.0
 10
187.6179069767148
 20
78.97177816331299
 30
0.0
  0
SPLINE
  5
313
330
1F
100
AcDbEntity
  8
0
  6
Continuous
 62
     7
370
    25
100
AcDbSpline
210
0.0
220
0.0
230
1.0
 70
     8
 71
     3
 72
    14
 73
    10
 74
     0
 42
0.00000001
 43
0.00000001
 40
0.0
 40
0.0
 40
0.0
 40
0.0
 40
0.0829103801195267
 40
0.2967156875484723
 40
0.5106292381336267
 40
0.7253753216166678
 40
0.9401104911291068
 40
0.9928276103852665
 40
1.0
 40
1.0
 40
1.0
 40
1.0
 10
179.1443565813012
 20
78.83688058393281
 30
0.0
 10
179.1426781250438
 20
78.84410688735429
 30
0.0
 10
179.1366713463786
 20
78.8699680350784
 30
0.0
 10
179.1829683719792
 20
78.90981085809449
 30
0.0
 10
179.277428332164
 20
78.94911192452435
 30
0.0
 10
179.4135734439567
 20
78.9723443301636
 30
0.0
 10
179.5324650013786
 20
78.9758282286998
 30
0.0
 10
179.6011285464208
 20
78.97280169317747
 30
0.0
 10
179.6161124937331
 20
78.97188763165695
 30
0.0
 10
179.6179069767755
 20
78.97177816331299
 30
0.0
  0
SPLINE
  5
314
330
1F
100
AcDbEntity
  8
0
  6
Continuous
 62
     7
370
    25
100
AcDbSpline
210
0.0
220
0.0
230
1.0
 70
     8
 71
     3
 72
    14
 73
    10
 74
     0
 42
0.00000001
 43
0.00000001
 40
0.0
 40
0.0
 40
0.0
 40
0.0
 40
0.0775225344733558
 40
0.2925336328579209
 40
0.5076730007880661
 40
0.7232293601613112
 40
0.9396286138042341
 40
0.9927853187474488
 40
0.9999999999999999
 40
0.9999999999999999
 40
0.9999999999999999
 40
0.9999999999999999
 10
180.0917521190659
 20
78.78028492087856
 30
0.0
 10
180.093270770717
 20
78.7868151855988
 30
0.0
 10
180.0990014487395
 20
78.81145733739517
 30
0.0
 10
180.0528315035713
 20
78.85638033466554
 30
0.0
 10
179.9585476910341
 20
78.90710346965616
 30
0.0
 10
179.822416354481
 20
78.94699903186277
 30
0.0
 10
179.7035131612879
 20
78.96519041403474
 30
0.0
 10
179.6347174406663
 20
78.97071112540323
 30
0.0
 10
179.6197014611014
 20
78.97166425909138
 30
0.0
 10
179.6179069767755
 20
78.97177816331299
 30
0.0
  0
ELLIPSE
  5
315
330
1F
100
AcDbEntity
  8
0
  6
Continuous
 62
     7
370
    25
100
AcDbEllipse
 10
185.8879069767
 20
91.0236125647
 30
0.0
 11
0.4798619052770619
 21
0.03380974607941312
 31
0.0
210
0.0
220
0.0
230
1.0
 40
0.340526575
 41
0.0239879609593222
 42
3.117604692630684
  0
ELLIPSE
  5
316
330
1F
100
AcDbEntity
  8
0
  6
Continuous
 62
     7
370
    25
100
AcDbEllipse
 10
181.3479069767
 20
91.0236125647
 30
0.0
 11
0.4798619052770619
 21
-0.03380974607942733
 31
0.0
210
0.0
220
0.0
230
1.0
 40
0.340526575
 41
0.0239879609592061
 42
3.117604692630544
  0
LWPOLYLINE
  5
317
330
1F
100
AcDbEntity
  8
0
  6
Continuous
 62
     7
370
    25
100
AcDbPolyline
 90
       17
 70
   128
 43
0.0
 10
184.3379069767
 20
91.5636592818
 10
184.1542189292
 20
91.5511626099
 10
183.9984957218
 20
91.5155750991
 10
183.8944448011
 20
91.4623146254
 10
183.8579069767
 20
91.3994896131
 10
183.8944448011
 20
91.3366646007
 10
183.9984957218
 20
91.283404127
 10
184.1542189292
 20
91.2478166162
 10
184.3379069767
 20
91.2353199443
 10
184.5215950243
 20
91.2478166162
 10
184.6773182317
 20
91.283404127
 10
184.7813691524
 20
91.3366646007
 10
184.8179069767
 20
91.3994896131
 10
184.7813691524
 20
91.4623146254
 10
184.6773182317
 20
91.5155750991
 10
184.5215950243
 20
91.5511626099
 10
184.3379069767
 20
91.5636592818
  0
LWPOLYLINE
  5
318
330
1F
100
AcDbEntity
  8
0
  6
Continuous
 62
     7
370
    25
100
AcDbPolyline
 90
       17
 70
   128
 43
0.0
 10
182.8979069767
 20
91.5636592818
 10
182.7142189292
 20
91.5511626099
 10
182.5584957218
 20
91.5155750991
 10
182.4544448011
 20
91.4623146254
 10
182.4179069767
 20
91.3994896131
 10
182.4544448011
 20
91.3366646007
 10
182.5584957218
 20
91.283404127
 10
182.7142189292
 20
91.2478166162
 10
182.8979069767
 20
91.2353199443
 10
183.0815950243
 20
91.2478166162
 10
183.2373182317
 20
91.283404127
 10
183.3413691524
 20
91.3366646007
 10
183.3779069767
 20
91.3994896131
 10
183.3413691524
 20
91.4623146254
 10
183.2373182317
 20
91.5155750991
 10
183.0815950243
 20
91.5511626099
 10
182.8979069767
 20
91.5636592818
  0
SPLINE
  5
319
330
1F
100
AcDbEntity
  8
0
  6
Continuous
 62
     7
370
    25
100
AcDbSpline
210
0.0
220
0.0
230
1.0
 70
     8
 71
     3
 72
    14
 73
    10
 74
     0
 42
0.00000001
 43
0.00000001
 40
0.0
 40
0.0
 40
0.0
 40
0.0
 40
0.0829103801195273
 40
0.2967156875484776
 40
0.5106292381336236
 40
0.7253753216166661
 40
0.9401104911291137
 40
0.9928276103852627
 40
0.9999999999999999
 40
0.9999999999999999
 40
0.9999999999999999
 40
0.9999999999999999
 10
213.9043565813004
 20
78.83688058393307
 30
0.0
 10
213.902678125043
 20
78.84410688735451
 30
0.0
 10
213.8966713463777
 20
78.86996803507864
 30
0.0
 10
213.9429683719784
 20
78.90981085809474
 30
0.0
 10
214.0374283321632
 20
78.94911192452462
 30
0.0
 10
214.173573443956
 20
78.97234433016384
 30
0.0
 10
214.2924650013778
 20
78.97582822870005
 30
0.0
 10
214.36112854642
 20
78.97280169317771
 30
0.0
 10
214.3761124937323
 20
78.97188763165721
 30
0.0
 10
214.3779069767747
 20
78.97177816331325
 30
0.0
  0
SPLINE
  5
31A
330
1F
100
AcDbEntity
  8
0
  6
Continuous
 62
     7
370
    25
100
AcDbSpline
210
0.0
220
0.0
230
1.0
 70
     8
 71
     3
 72
    14
 73
    10
 74
     0
 42
0.00000001
 43
0.00000001
 40
0.0
 40
0.0
 40
0.0
 40
0.0
 40
0.0775225344733552
 40
0.2925336328579162
 40
0.5076730007880628
 40
0.723229360161303
 40
0.939628613804231
 40
0.9927853187474452
 40
0.9999999999999999
 40
0.9999999999999999
 40
0.9999999999999999
 40
0.9999999999999999
 10
214.8517521190651
 20
78.78028492087883
 30
0.0
 10
214.8532707707162
 20
78.78681518559904
 30
0.0
 10
214.8590014487387
 20
78.81145733739542
 30
0.0
 10
214.8128315035704
 20
78.8563803346658
 30
0.0
 10
214.7185476910333
 20
78.90710346965642
 30
0.0
 10
214.5824163544802
 20
78.94699903186303
 30
0.0
 10
214.4635131612871
 20
78.965190414035
 30
0.0
 10
214.3947174406655
 20
78.97071112540348
 30
0.0
 10
214.3797014611006
 20
78.97166425909165
 30
0.0
 10
214.3779069767747
 20
78.97177816331325
 30
0.0
  0
SPLINE
  5
31B
330
1F
100
AcDbEntity
  8
0
  6
Continuous
 62
     7
370
    25
100
AcDbSpline
210
0.0
220
0.0
230
1.0
 70
     8
 71
     3
 72
    14
 73
    10
 74
     0
 42
0.00000001
 43
0.00000001
 40
0.0
 40
0.0
 40
0.0
 40
0.0
 40
0.0829103801195273
 40
0.2967156875484776
 40
0.5106292381336236
 40
0.7253753216166661
 40
0.9401104911291137
 40
0.9928276103852627
 40
0.9999999999999999
 40
0.9999999999999999
 40
0.9999999999999999
 40
0.9999999999999999
 10
222.8514573721883
 20
78.83688058393307
 30
0.0
 10
222.8531358284457
 20
78.84410688735451
 30
0.0
 10
222.859142607111
 20
78.86996803507864
 30
0.0
 10
222.8128455815104
 20
78.90981085809474
 30
0.0
 10
222.7183856213255
 20
78.94911192452462
 30
0.0
 10
222.5822405095328
 20
78.97234433016384
 30
0.0
 10
222.4633489521109
 20
78.97582822870005
 30
0.0
 10
222.3946854070688
 20
78.97280169317771
 30
0.0
 10
222.3797014597565
 20
78.97188763165721
 30
0.0
 10
222.377906976714
 20
78.97177816331325
 30
0.0
  0
SPLINE
  5
31C
330
1F
100
AcDbEntity
  8
0
  6
Continuous
 62
     7
370
    25
100
AcDbSpline
210
0.0
220
0.0
230
1.0
 70
     8
 71
     3
 72
    14
 73
    10
 74
     0
 42
0.00000001
 43
0.00000001
 40
0.0
 40
0.0
 40
0.0
 40
0.0
 40
0.0775225344733554
 40
0.2925336328579169
 40
0.5076730007880639
 40
0.7232293601613167
 40
0.9396286138042309
 40
0.9927853187474452
 40
1.0
 40
1.0
 40
1.0
 40
1.0
 10
221.9040618344237
 20
78.78028492087883
 30
0.0
 10
221.9025431827725
 20
78.78681518559904
 30
0.0
 10
221.89681250475
 20
78.81145733739542
 30
0.0
 10
221.9429824499183
 20
78.8563803346658
 30
0.0
 10
222.0372662624555
 20
78.90710346965642
 30
0.0
 10
222.1733975990086
 20
78.94699903186302
 30
0.0
 10
222.2923007922016
 20
78.965190414035
 30
0.0
 10
222.3610965128232
 20
78.97071112540348
 30
0.0
 10
222.3761124923882
 20
78.97166425909167
 30
0.0
 10
222.377906976714
 20
78.97177816331325
 30
0.0
  0
ELLIPSE
  5
31D
330
1F
100
AcDbEntity
  8
0
  6
Continuous
 62
     7
370
    25
100
AcDbEllipse
 10
220.6479069767
 20
91.0236125647
 30
0.0
 11
0.4798619052770334
 21
0.03380974607941312
 31
0.0
210
0.0
220
0.0
230
1.0
 40
0.340526575
 41
0.0239879609592336
 42
3.117604692630676
  0
ELLIPSE
  5
31E
330
1F
100
AcDbEntity
  8
0
  6
Continuous
 62
     7
370
    25
100
AcDbEllipse
 10
216.1079069767
 20
91.0236125647
 30
0.0
 11
0.4798619052770619
 21
-0.03380974607942733
 31
0.0
210
0.0
220
0.0
230
1.0
 40
0.340526575
 41
0.0239879609591933
 42
3.117604692630646
  0
LWPOLYLINE
  5
31F
330
1F
100
AcDbEntity
  8
0
  6
Continuous
 62
     7
370
    25
100
AcDbPolyline
 90
       17
 70
   128
 43
0.0
 10
219.0979069767
 20
91.5636592818
 10
218.9142189292
 20
91.5511626099
 10
218.7584957218
 20
91.5155750991
 10
218.6544448011
 20
91.4623146254
 10
218.6179069767
 20
91.3994896131
 10
218.6544448011
 20
91.3366646007
 10
218.7584957218
 20
91.283404127
 10
218.9142189292
 20
91.2478166162
 10
219.0979069767
 20
91.2353199443
 10
219.2815950243
 20
91.2478166162
 10
219.4373182317
 20
91.283404127
 10
219.5413691523
 20
91.3366646007
 10
219.5779069767
 20
91.3994896131
 10
219.5413691523
 20
91.4623146254
 10
219.4373182317
 20
91.5155750991
 10
219.2815950243
 20
91.5511626099
 10
219.0979069767
 20
91.5636592818
  0
LWPOLYLINE
  5
320
330
1F
100
AcDbEntity
  8
0
  6
Continuous
 62
     7
370
    25
100
AcDbPolyline
 90
       17
 70
   128
 43
0.0
 10
217.6579069767
 20
91.5636592818
 10
217.4742189292
 20
91.5511626099
 10
217.3184957218
 20
91.5155750991
 10
217.2144448011
 20
91.4623146254
 10
217.1779069767
 20
91.3994896131
 10
217.2144448011
 20
91.3366646007
 10
217.3184957218
 20
91.283404127
 10
217.4742189292
 20
91.2478166162
 10
217.6579069767
 20
91.2353199443
 10
217.8415950243
 20
91.2478166162
 10
217.9973182317
 20
91.283404127
 10
218.1013691523
 20
91.3366646007
 10
218.1379069767
 20
91.3994896131
 10
218.1013691523
 20
91.4623146254
 10
217.9973182317
 20
91.5155750991
 10
217.8415950243
 20
91.5511626099
 10
217.6579069767
 20
91.5636592818
  0
LINE
  5
321
330
1F
100
AcDbEntity
  8
0
  6
Continuous
 62
     7
370
    25
100
AcDbLine
 10
216.5879069767
 20
114.4467234637
 30
0.0
 11
217.1779069767
 21
114.4467234637
 31
0.0
  0
LINE
  5
322
330
1F
100
AcDbEntity
  8
0
  6
Continuous
 62
     7
370
    25
100
AcDbLine
 10
218.1379069767
 20
114.4467234637
 30
0.0
 11
218.6179069767
 21
114.4467234637
 31
0.0
  0
LINE
  5
323
330
1F
100
AcDbEntity
  8
0
  6
Continuous
 62
     7
370
    25
100
AcDbLine
 10
219.5779069767
 20
114.4467234637
 30
0.0
 11
220.1679069767
 21
114.4467234637
 31
0.0
  0
LINE
  5
324
330
1F
100
AcDbEntity
  8
0
  6
Continuous
 62
     7
370
    25
100
AcDbLine
 10
216.5879069767
 20
114.5288082981
 30
0.0
 11
217.1779069767
 21
114.5288082981
 31
0.0
  0
LINE
  5
325
330
1F
100
AcDbEntity
  8
0
  6
Continuous
 62
     7
370
    25
100
AcDbLine
 10
218.1379069767
 20
114.5288082981
 30
0.0
 11
218.6179069767
 21
114.5288082981
 31
0.0
  0
LINE
  5
326
330
1F
100
AcDbEntity
  8
0
  6
Continuous
 62
     7
370
    25
100
AcDbLine
 10
219.5779069767
 20
114.5288082981
 30
0.0
 11
220.1679069767
 21
114.5288082981
 31
0.0
  0
LINE
  5
327
330
1F
100
AcDbEntity
  8
0
  6
Continuous
 62
     7
370
    25
100
AcDbLine
 10
216.5879069767
 20
115.6564394431
 30
0.0
 11
217.1779069767
 21
115.6564394431
 31
0.0
  0
LINE
  5
328
330
1F
100
AcDbEntity
  8
0
  6
Continuous
 62
     7
370
    25
100
AcDbLine
 10
218.1379069767
 20
115.6564394431
 30
0.0
 11
218.6179069767
 21
115.6564394431
 31
0.0
  0
LINE
  5
329
330
1F
100
AcDbEntity
  8
0
  6
Continuous
 62
     7
370
    25
100
AcDbLine
 10
219.5779069767
 20
115.6564394431
 30
0.0
 11
220.1679069767
 21
115.6564394431
 31
0.0
  0
LINE
  5
32A
330
1F
100
AcDbEntity
  8
0
  6
Continuous
 62
     7
370
    25
100
AcDbLine
 10
181.8279069767
 20
114.5288082981
 30
0.0
 11
182.4179069767
 21
114.5288082981
 31
0.0
  0
LINE
  5
32B
330
1F
100
AcDbEntity
  8
0
  6
Continuous
 62
     7
370
    25
100
AcDbLine
 10
183.3779069767
 20
114.5288082981
 30
0.0
 11
183.8579069767
 21
114.5288082981
 31
0.0
  0
LINE
  5
32C
330
1F
100
AcDbEntity
  8
0
  6
Continuous
 62
     7
370
    25
100
AcDbLine
 10
184.8179069767
 20
114.5288082981
 30
0.0
 11
185.4079069767
 21
114.5288082981
 31
0.0
  0
LINE
  5
32D
330
1F
100
AcDbEntity
  8
0
  6
Continuous
 62
     7
370
    25
100
AcDbLine
 10
181.8279069767
 20
115.6564394431
 30
0.0
 11
182.4179069767
 21
115.6564394431
 31
0.0
  0
LINE
  5
32E
330
1F
100
AcDbEntity
  8
0
  6
Continuous
 62
     7
370
    25
100
AcDbLine
 10
183.3779069767
 20
115.6564394431
 30
0.0
 11
183.8579069767
 21
115.6564394431
 31
0.0
  0
LINE
  5
32F
330
1F
100
AcDbEntity
  8
0
  6
Continuous
 62
     7
370
    25
100
AcDbLine
 10
184.8179069767
 20
115.6564394431
 30
0.0
 11
185.4079069767
 21
115.6564394431
 31
0.0
  0
LINE
  5
330
330
1F
100
AcDbEntity
  8
0
  6
Continuous
 62
     7
370
    25
100
AcDbLine
 10
181.8279069767
 20
114.4467234637
 30
0.0
 11
182.4179069767
 21
114.4467234637
 31
0.0
  0
LINE
  5
331
330
1F
100
AcDbEntity
  8
0
  6
Continuous
 62
     7
370
    25
100
AcDbLine
 10
183.3779069767
 20
114.4467234637
 30
0.0
 11
183.8579069767
 21
114.4467234637
 31
0.0
  0
LINE
  5
332
330
1F
100
AcDbEntity
  8
0
  6
Continuous
 62
     7
370
    25
100
AcDbLine
 10
184.8179069767
 20
114.4467234637
 30
0.0
 11
185.4079069767
 21
114.4467234637
 31
0.0
  0
CIRCLE
  5
333
330
1F
100
AcDbEntity
  8
0
  6
Continuous
 62
     7
370
    25
100
AcDbCircle
 10
201.1479069767
 20
161.3302251225
 30
0.0
 40
3.800000000000011
  0
SPLINE
  5
334
330
1F
100
AcDbEntity
  8
0
  6
Continuous
 62
     7
370
    25
100
AcDbSpline
210
0.0
220
0.0
230
1.0
 70
     8
 71
     3
 72
    12
 73
     8
 74
     0
 42
0.00000001
 43
0.00000001
 40
0.0
 40
0.0
 40
0.0
 40
0.0
 40
0.2301693782020359
 40
0.4604221642957163
 40
0.6906753391242019
 40
0.9209283614223148
 40
1.0
 40
1.0
 40
1.0
 40
1.0
 10
236.4479069767442
 20
111.6202251224974
 30
0.0
 10
236.4669848896949
 20
111.5708093846852
 30
0.0
 10
236.505147628977
 20
111.4719600019762
 30
0.0
 10
236.5624059774966
 20
111.3427345677558
 30
0.0
 10
236.6196290035038
 20
111.2499453085182
 30
0.0
 10
236.6644519649857
 20
111.2133833723666
 30
0.0
 10
236.6899697390998
 20
111.2108680946178
 30
0.0
 10
236.6964927631818
 20
111.2102251224974
 30
0.0
  0
SPLINE
  5
335
330
1F
100
AcDbEntity
  8
0
  6
Continuous
 62
     7
370
    25
100
AcDbSpline
210
0.0
220
0.0
230
1.0
 70
     8
 71
     3
 72
    11
 73
     7
 74
     0
 42
0.00000001
 43
0.00000001
 40
0.0
 40
0.0
 40
0.0
 40
0.0
 40
0.2543030279684412
 40
0.5087793961833134
 40
0.7632567853903787
 40
1.0
 40
1.0
 40
1.0
 40
1.0
 10
236.4479069767442
 20
111.6202251224975
 30
0.0
 10
236.4689823424523
 20
111.5868982849654
 30
0.0
 10
236.5111474394431
 20
111.5202218933718
 30
0.0
 10
236.5743984865814
 20
111.4366315512476
 30
0.0
 10
236.6362119344624
 20
111.3806033747678
 30
0.0
 10
236.6768886608774
 20
111.3736002638744
 30
0.0
 10
236.6964927631818
 20
111.3702251224975
 30
0.0
  0
LINE
  5
336
330
1F
100
AcDbEntity
  8
0
  6
Continuous
 62
     7
370
    25
100
AcDbLine
 10
236.6964927632
 20
111.2102251225
 30
0.0
 11
236.6964927632
 21
111.3702251225
 31
0.0
  0
LINE
  5
337
330
1F
100
AcDbEntity
  8
0
  6
Continuous
 62
     7
370
    25
100
AcDbLine
 10
223.2979069767
 20
111.2102251225
 30
0.0
 11
236.6964927632
 21
111.2102251225
 31
0.0
  0
LINE
  5
338
330
1F
100
AcDbEntity
  8
0
  6
Continuous
 62
     7
370
    25
100
AcDbLine
 10
223.2979069767
 20
111.2102251225
 30
0.0
 11
223.2979069767
 21
111.6202251225
 31
0.0
  0
LINE
  5
339
330
1F
100
AcDbEntity
  8
0
  6
Continuous
 62
     7
370
    25
100
AcDbLine
 10
165.2993211903
 20
111.2102251225
 30
0.0
 11
179.2979069767
 21
111.2102251225
 31
0.0
  0
SPLINE
  5
33A
330
1F
100
AcDbEntity
  8
0
  6
Continuous
 62
     7
370
    25
100
AcDbSpline
210
0.0
220
0.0
230
1.0
 70
     8
 71
     3
 72
    12
 73
     8
 74
     0
 42
0.00000001
 43
0.00000001
 40
0.0
 40
0.0
 40
0.0
 40
0.0
 40
0.2301693782020283
 40
0.4604221642957122
 40
0.6906753391241929
 40
0.9209283614222891
 40
1.0
 40
1.0
 40
1.0
 40
1.0
 10
165.2993211903065
 20
111.2102251224974
 30
0.0
 10
165.3183991032573
 20
111.2154405841563
 30
0.0
 10
165.3565618425393
 20
111.2258733974328
 30
0.0
 10
165.413820191059
 20
111.3068153943747
 30
0.0
 10
165.4710432170662
 20
111.424420965526
 30
0.0
 10
165.5158661785481
 20
111.5372258946924
 30
0.0
 10
165.5413839526621
 20
111.6033277294161
 30
0.0
 10
165.5479069767441
 20
111.6202251224975
 30
0.0
  0
LINE
  5
33B
330
1F
100
AcDbEntity
  8
0
  6
Continuous
 62
     7
370
    25
100
AcDbLine
 10
179.2979069767
 20
111.6202251225
 30
0.0
 11
179.2979069767
 21
111.2102251225
 31
0.0
  0
ARC
  5
33C
330
1F
100
AcDbEntity
  8
0
  6
Continuous
 62
     7
370
    25
100
AcDbCircle
 10
222.2979069767
 20
125.2102251225
 30
0.0
 40
1.0
100
AcDbArc
 50
0.0
 51
90.0
  0
LINE
  5
33D
330
1F
100
AcDbEntity
  8
0
  6
Continuous
 62
     7
370
    25
100
AcDbLine
 10
222.2979069767
 20
126.2102251225
 30
0.0
 11
212.2979069767
 21
126.2102251225
 31
0.0
  0
ARC
  5
33E
330
1F
100
AcDbEntity
  8
0
  6
Continuous
 62
     7
370
    25
100
AcDbCircle
 10
212.2979069767
 20
125.2102251225
 30
0.0
 40
1.0
100
AcDbArc
 50
90.0
 51
180.0
  0
LINE
  5
33F
330
1F
100
AcDbEntity
  8
0
  6
Continuous
 62
     7
370
    25
100
AcDbLine
 10
190.9979069767
 20
111.6202251225
 30
0.0
 11
190.9979069767
 21
125.2102251225
 31
0.0
  0
ARC
  5
340
330
1F
100
AcDbEntity
  8
0
  6
Continuous
 62
     7
370
    25
100
AcDbCircle
 10
189.9979069767
 20
125.2102251225
 30
0.0
 40
1.0
100
AcDbArc
 50
0.0
 51
90.0
  0
LINE
  5
341
330
1F
100
AcDbEntity
  8
0
  6
Continuous
 62
     7
370
    25
100
AcDbLine
 10
189.9979069767
 20
126.2102251225
 30
0.0
 11
180.2979069767
 21
126.2102251225
 31
0.0
  0
ARC
  5
342
330
1F
100
AcDbEntity
  8
0
  6
Continuous
 62
     7
370
    25
100
AcDbCircle
 10
180.2979069767
 20
125.2102251225
 30
0.0
 40
1.0
100
AcDbArc
 50
90.0
 51
180.0
  0
LINE
  5
343
330
1F
100
AcDbEntity
  8
0
  6
Continuous
 62
     7
370
    25
100
AcDbLine
 10
179.2979069767
 20
125.2102251225
 30
0.0
 11
179.2979069767
 21
111.6202251225
 31
0.0
  0
LINE
  5
344
330
1F
100
AcDbEntity
  8
0
  6
Continuous
 62
     7
370
    25
100
AcDbLine
 10
223.2979069767
 20
111.6202251225
 30
0.0
 11
223.2979069767
 21
125.2102251225
 31
0.0
  0
LINE
  5
345
330
1F
100
AcDbEntity
  8
0
  6
Continuous
 62
     7
370
    25
100
AcDbLine
 10
211.2979069767
 20
125.2102251225
 30
0.0
 11
211.2979069767
 21
111.6202251225
 31
0.0
  0
LINE
  5
346
330
1F
100
AcDbEntity
  8
0
  6
Continuous
 62
     7
370
    25
100
AcDbLine
 10
190.9979069767
 20
111.2102251225
 30
0.0
 11
211.2979069767
 21
111.2102251225
 31
0.0
  0
LINE
  5
347
330
1F
100
AcDbEntity
  8
0
  6
Continuous
 62
     7
370
    25
100
AcDbLine
 10
190.9979069767
 20
111.2102251225
 30
0.0
 11
190.9979069767
 21
111.6202251225
 31
0.0
  0
LINE
  5
348
330
1F
100
AcDbEntity
  8
0
  6
Continuous
 62
     7
370
    25
100
AcDbLine
 10
211.2979069767
 20
111.6202251225
 30
0.0
 11
211.2979069767
 21
111.2102251225
 31
0.0
  0
SPLINE
  5
349
330
1F
100
AcDbEntity
  8
0
  6
Continuous
 62
     7
370
    25
100
AcDbSpline
210
0.0
220
0.0
230
1.0
 70
     8
 71
     3
 72
    12
 73
     8
 74
     0
 42
0.00000001
 43
0.00000001
 40
0.0
 40
0.0
 40
0.0
 40
0.0
 40
0.2301693782020201
 40
0.4604221642957024
 40
0.6906753391241884
 40
0.9209283614222918
 40
1.0
 40
1.0
 40
1.0
 40
1.0
 10
165.5479069767441
 20
111.6202251224975
 30
0.0
 10
165.4984912389319
 20
111.6011472095467
 30
0.0
 10
165.3996418562229
 20
111.5629844702646
 30
0.0
 10
165.2704164220025
 20
111.505726121745
 30
0.0
 10
165.1776271627649
 20
111.4485030957378
 30
0.0
 10
165.1410652266133
 20
111.4036801342559
 30
0.0
 10
165.1385499488645
 20
111.3781623601418
 30
0.0
 10
165.1379069767441
 20
111.3716393360598
 30
0.0
  0
SPLINE
  5
34A
330
1F
100
AcDbEntity
  8
0
  6
Continuous
 62
     7
370
    25
100
AcDbSpline
210
0.0
220
0.0
230
1.0
 70
     8
 71
     3
 72
    11
 73
     7
 74
     0
 42
0.00000001
 43
0.00000001
 40
0.0
 40
0.0
 40
0.0
 40
0.0
 40
0.2543030279684393
 40
0.5087793961833378
 40
0.7632567853904831
 40
1.0
 40
1.0
 40
1.0
 40
1.0
 10
165.5479069767441
 20
111.6202251224974
 30
0.0
 10
165.5145801392121
 20
111.5991497567893
 30
0.0
 10
165.4479037476185
 20
111.5569846597985
 30
0.0
 10
165.3643134054943
 20
111.4937336126602
 30
0.0
 10
165.3082852290145
 20
111.4319201647792
 30
0.0
 10
165.3012821181211
 20
111.3912434383642
 30
0.0
 10
165.2979069767441
 20
111.3716393360598
 30
0.0
  0
LINE
  5
34B
330
1F
100
AcDbEntity
  8
0
  6
Continuous
 62
     7
370
    25
100
AcDbLine
 10
165.1379069767
 20
111.3716393361
 30
0.0
 11
165.2979069767
 21
111.3716393361
 31
0.0
  0
LINE
  5
34C
330
1F
100
AcDbEntity
  8
0
  6
Continuous
 62
     7
370
    25
100
AcDbLine
 10
165.1379069767
 20
210.9688109089
 30
0.0
 11
165.1379069767
 21
210.6295549849
 31
0.0
  0
LINE
  5
34D
330
1F
100
AcDbEntity
  8
0
  6
Continuous
 62
     7
370
    25
100
AcDbLine
 10
165.1379069767
 20
209.0295549849
 30
0.0
 11
165.1379069767
 21
111.3716393361
 31
0.0
  0
SPLINE
  5
34E
330
1F
100
AcDbEntity
  8
0
  6
Continuous
 62
     7
370
    25
100
AcDbSpline
210
0.0
220
0.0
230
1.0
 70
     8
 71
     3
 72
    12
 73
     8
 74
     0
 42
0.00000001
 43
0.00000001
 40
0.0
 40
0.0
 40
0.0
 40
0.0
 40
0.2301693782020296
 40
0.4604221642957223
 40
0.690675339124186
 40
0.9209283614223138
 40
1.0
 40
1.0
 40
1.0
 40
1.0
 10
165.1379069767441
 20
210.9688109089351
 30
0.0
 10
165.143122438403
 20
210.9497329959844
 30
0.0
 10
165.1535552516795
 20
210.9115702567023
 30
0.0
 10
165.2344972486213
 20
210.8543119081826
 30
0.0
 10
165.3521028197727
 20
210.7970888821755
 30
0.0
 10
165.4649077489391
 20
210.7522659206935
 30
0.0
 10
165.5310095836627
 20
210.7267481465795
 30
0.0
 10
165.5479069767441
 20
210.7202251224975
 30
0.0
  0
LINE
  5
34F
330
1F
100
AcDbEntity
  8
0
  6
Continuous
 62
     7
370
    25
100
AcDbLine
 10
165.2993211903
 20
111.2102251225
 30
0.0
 11
165.2993211903
 21
111.3702251225
 31
0.0
  0
SPLINE
  5
350
330
1F
100
AcDbEntity
  8
0
  6
Continuous
 62
     7
370
    25
100
AcDbSpline
210
0.0
220
0.0
230
1.0
 70
     8
 71
     3
 72
    11
 73
     7
 74
     0
 42
0.00000001
 43
0.00000001
 40
0.0
 40
0.0
 40
0.0
 40
0.0
 40
0.2543030279684501
 40
0.5087793961833545
 40
0.7632567853904918
 40
1.0
 40
1.0
 40
1.0
 40
1.0
 10
165.2993211903065
 20
111.3702251224975
 30
0.0
 10
165.3203965560147
 20
111.3741168568155
 30
0.0
 10
165.3625616530055
 20
111.3819029781694
 30
0.0
 10
165.4258127001438
 20
111.4416972447749
 30
0.0
 10
165.4876261480248
 20
111.5248915025037
 30
0.0
 10
165.5283028744397
 20
111.5892214007651
 30
0.0
 10
165.5479069767441
 20
111.6202251224974
 30
0.0
  0
SPLINE
  5
351
330
1F
100
AcDbEntity
  8
0
  6
Continuous
 62
     7
370
    25
100
AcDbSpline
210
0.0
220
0.0
230
1.0
 70
     8
 71
     3
 72
    12
 73
     8
 74
     0
 42
0.00000001
 43
0.00000001
 40
0.0
 40
0.0
 40
0.0
 40
0.0
 40
0.2301693782019893
 40
0.4604221642956453
 40
0.6906753391241234
 40
0.9209283614222341
 40
1.0
 40
1.0
 40
1.0
 40
1.0
 10
165.5479069767441
 20
210.7202251224975
 30
0.0
 10
165.5288290637934
 20
210.7696408603097
 30
0.0
 10
165.4906663245114
 20
210.8684902430186
 30
0.0
 10
165.4334079759917
 20
210.9977156772391
 30
0.0
 10
165.3761849499845
 20
211.0905049364767
 30
0.0
 10
165.3313619885026
 20
211.1270668726283
 30
0.0
 10
165.3058442143885
 20
211.1295821503771
 30
0.0
 10
165.2993211903065
 20
211.1302251224974
 30
0.0
  0
SPLINE
  5
352
330
1F
100
AcDbEntity
  8
0
  6
Continuous
 62
     7
370
    25
100
AcDbSpline
210
0.0
220
0.0
230
1.0
 70
     8
 71
     3
 72
    11
 73
     7
 74
     0
 42
0.00000001
 43
0.00000001
 40
0.0
 40
0.0
 40
0.0
 40
0.0
 40
0.2543030279684698
 40
0.5087793961833852
 40
0.7632567853905071
 40
1.0
 40
1.0
 40
1.0
 40
1.0
 10
165.5479069767441
 20
210.7202251224975
 30
0.0
 10
165.526831611036
 20
210.7535519600295
 30
0.0
 10
165.4846665140452
 20
210.8202283516232
 30
0.0
 10
165.4214154669069
 20
210.9038186937473
 30
0.0
 10
165.3596020190259
 20
210.9598468702272
 30
0.0
 10
165.3189252926109
 20
210.9668499811205
 30
0.0
 10
165.2993211903065
 20
210.9702251224975
 30
0.0
  0
LINE
  5
353
330
1F
100
AcDbEntity
  8
0
  6
Continuous
 62
     7
370
    25
100
AcDbLine
 10
165.2993211903
 20
211.1302251225
 30
0.0
 11
165.2993211903
 21
210.9702251225
 31
0.0
  0
LINE
  5
354
330
1F
100
AcDbEntity
  8
0
  6
Continuous
 62
     7
370
    25
100
AcDbLine
 10
165.2993211903
 20
211.1302251225
 30
0.0
 11
169.7979069767
 21
211.1302251225
 31
0.0
  0
LINE
  5
355
330
1F
100
AcDbEntity
  8
0
  6
Continuous
 62
     7
370
    25
100
AcDbLine
 10
171.3979069767
 20
211.1302251225
 30
0.0
 11
171.4979069767
 21
211.1302251225
 31
0.0
  0
LINE
  5
356
330
1F
100
AcDbEntity
  8
0
  6
Continuous
 62
     7
370
    25
100
AcDbLine
 10
165.1379069767
 20
210.9688109089
 30
0.0
 11
165.2979069767
 21
210.9688109089
 31
0.0
  0
SPLINE
  5
357
330
1F
100
AcDbEntity
  8
0
  6
Continuous
 62
     7
370
    25
100
AcDbSpline
210
0.0
220
0.0
230
1.0
 70
     8
 71
     3
 72
    11
 73
     7
 74
     0
 42
0.00000001
 43
0.00000001
 40
0.0
 40
0.0
 40
0.0
 40
0.0
 40
0.2543030279684403
 40
0.5087793961833441
 40
0.7632567853905391
 40
1.0
 40
1.0
 40
1.0
 40
1.0
 10
165.2979069767441
 20
210.9688109089351
 30
0.0
 10
165.3017987110622
 20
210.9477355432269
 30
0.0
 10
165.3095848324161
 20
210.9055704462362
 30
0.0
 10
165.3693790990216
 20
210.8423193990978
 30
0.0
 10
165.4525733567504
 20
210.7805059512168
 30
0.0
 10
165.5169032550118
 20
210.7398292248019
 30
0.0
 10
165.5479069767441
 20
210.7202251224975
 30
0.0
  0
LINE
  5
358
330
1F
100
AcDbEntity
  8
0
  6
Continuous
 62
     7
370
    25
100
AcDbLine
 10
236.6964927632
 20
211.1302251225
 30
0.0
 11
232.1979069767
 21
211.1302251225
 31
0.0
  0
LINE
  5
359
330
1F
100
AcDbEntity
  8
0
  6
Continuous
 62
     7
370
    25
100
AcDbLine
 10
230.5979069767
 20
211.1302251225
 30
0.0
 11
230.4979069767
 21
211.1302251225
 31
0.0
  0
SPLINE
  5
35A
330
1F
100
AcDbEntity
  8
0
  6
Continuous
 62
     7
370
    25
100
AcDbSpline
210
0.0
220
0.0
230
1.0
 70
     8
 71
     3
 72
    12
 73
     8
 74
     0
 42
0.00000001
 43
0.00000001
 40
0.0
 40
0.0
 40
0.0
 40
0.0
 40
0.2301693782020547
 40
0.4604221642957492
 40
0.6906753391242221
 40
0.920928361422316
 40
1.0
 40
1.0
 40
1.0
 40
1.0
 10
236.6964927631818
 20
211.1302251224974
 30
0.0
 10
236.677414850231
 20
211.1250096608387
 30
0.0
 10
236.639252110949
 20
211.1145768475621
 30
0.0
 10
236.5819937624293
 20
211.0336348506203
 30
0.0
 10
236.5247707364221
 20
210.9160292794689
 30
0.0
 10
236.4799477749403
 20
210.8032243503025
 30
0.0
 10
236.4544300008262
 20
210.7371225155789
 30
0.0
 10
236.4479069767442
 20
210.7202251224975
 30
0.0
  0
SPLINE
  5
35B
330
1F
100
AcDbEntity
  8
0
  6
Continuous
 62
     7
370
    25
100
AcDbSpline
210
0.0
220
0.0
230
1.0
 70
     8
 71
     3
 72
    12
 73
     8
 74
     0
 42
0.00000001
 43
0.00000001
 40
0.0
 40
0.0
 40
0.0
 40
0.0
 40
0.2301693782020909
 40
0.4604221642957991
 40
0.6906753391242736
 40
0.920928361422369
 40
1.0
 40
1.0
 40
1.0
 40
1.0
 10
236.4479069767442
 20
210.7202251224975
 30
0.0
 10
236.4973227145564
 20
210.7393030354482
 30
0.0
 10
236.5961720972654
 20
210.7774657747303
 30
0.0
 10
236.7253975314859
 20
210.83472412325
 30
0.0
 10
236.8181867907234
 20
210.8919471492571
 30
0.0
 10
236.854748726875
 20
210.9367701107391
 30
0.0
 10
236.8572640046238
 20
210.9622878848531
 30
0.0
 10
236.8579069767442
 20
210.9688109089351
 30
0.0
  0
SPLINE
  5
35C
330
1F
100
AcDbEntity
  8
0
  6
Continuous
 62
     7
370
    25
100
AcDbSpline
210
0.0
220
0.0
230
1.0
 70
     8
 71
     3
 72
    11
 73
     7
 74
     0
 42
0.00000001
 43
0.00000001
 40
0.0
 40
0.0
 40
0.0
 40
0.0
 40
0.2543030279684539
 40
0.5087793961833423
 40
0.7632567853904763
 40
1.0
 40
1.0
 40
1.0
 40
1.0
 10
236.4479069767442
 20
210.7202251224975
 30
0.0
 10
236.4812338142762
 20
210.7413004882056
 30
0.0
 10
236.5479102058698
 20
210.7834655851964
 30
0.0
 10
236.631500547994
 20
210.8467166323347
 30
0.0
 10
236.6875287244738
 20
210.9085300802157
 30
0.0
 10
236.6945318353672
 20
210.9492068066307
 30
0.0
 10
236.6979069767442
 20
210.9688109089351
 30
0.0
  0
LINE
  5
35D
330
1F
100
AcDbEntity
  8
0
  6
Continuous
 62
     7
370
    25
100
AcDbLine
 10
236.8579069767
 20
210.9688109089
 30
0.0
 11
236.6979069767
 21
210.9688109089
 31
0.0
  0
LINE
  5
35E
330
1F
100
AcDbEntity
  8
0
  6
Continuous
 62
     7
370
    25
100
AcDbLine
 10
236.8579069767
 20
111.3716393361
 30
0.0
 11
236.8579069767
 21
209.0295549849
 31
0.0
  0
LINE
  5
35F
330
1F
100
AcDbEntity
  8
0
  6
Continuous
 62
     7
370
    25
100
AcDbLine
 10
236.8579069767
 20
210.6295549849
 30
0.0
 11
236.8579069767
 21
210.9688109089
 31
0.0
  0
SPLINE
  5
360
330
1F
100
AcDbEntity
  8
0
  6
Continuous
 62
     7
370
    25
100
AcDbSpline
210
0.0
220
0.0
230
1.0
 70
     8
 71
     3
 72
    12
 73
     8
 74
     0
 42
0.00000001
 43
0.00000001
 40
0.0
 40
0.0
 40
0.0
 40
0.0
 40
0.2301693782020322
 40
0.460422164295701
 40
0.6906753391241859
 40
0.9209283614222904
 40
1.0
 40
1.0
 40
1.0
 40
1.0
 10
236.8579069767442
 20
111.3716393360598
 30
0.0
 10
236.8526915150853
 20
111.3907172490106
 30
0.0
 10
236.8422587018088
 20
111.4288799882926
 30
0.0
 10
236.761316704867
 20
111.4861383368123
 30
0.0
 10
236.6437111337156
 20
111.5433613628195
 30
0.0
 10
236.5309062045492
 20
111.5881843243014
 30
0.0
 10
236.4648043698256
 20
111.6137020984154
 30
0.0
 10
236.4479069767442
 20
111.6202251224974
 30
0.0
  0
LINE
  5
361
330
1F
100
AcDbEntity
  8
0
  6
Continuous
 62
     7
370
    25
100
AcDbLine
 10
236.8579069767
 20
111.3716393361
 30
0.0
 11
236.6979069767
 21
111.3716393361
 31
0.0
  0
SPLINE
  5
362
330
1F
100
AcDbEntity
  8
0
  6
Continuous
 62
     7
370
    25
100
AcDbSpline
210
0.0
220
0.0
230
1.0
 70
     8
 71
     3
 72
    11
 73
     7
 74
     0
 42
0.00000001
 43
0.00000001
 40
0.0
 40
0.0
 40
0.0
 40
0.0
 40
0.2543030279684765
 40
0.5087793961833659
 40
0.7632567853905333
 40
1.0
 40
1.0
 40
1.0
 40
1.0
 10
236.6979069767442
 20
111.3716393360598
 30
0.0
 10
236.6940152424261
 20
111.392714701768
 30
0.0
 10
236.6862291210722
 20
111.4348797987588
 30
0.0
 10
236.6264348544667
 20
111.4981308458971
 30
0.0
 10
236.5432405967378
 20
111.5599442937781
 30
0.0
 10
236.4789106984765
 20
111.600621020193
 30
0.0
 10
236.4479069767442
 20
111.6202251224975
 30
0.0
  0
LINE
  5
363
330
1F
100
AcDbEntity
  8
0
  6
Continuous
 62
     7
370
    25
100
AcDbLine
 10
236.6964927632
 20
211.1302251225
 30
0.0
 11
236.6964927632
 21
210.9702251225
 31
0.0
  0
SPLINE
  5
364
330
1F
100
AcDbEntity
  8
0
  6
Continuous
 62
     7
370
    25
100
AcDbSpline
210
0.0
220
0.0
230
1.0
 70
     8
 71
     3
 72
    11
 73
     7
 74
     0
 42
0.00000001
 43
0.00000001
 40
0.0
 40
0.0
 40
0.0
 40
0.0
 40
0.2543030279685186
 40
0.5087793961834108
 40
0.7632567853905684
 40
1.0
 40
1.0
 40
1.0
 40
1.0
 10
236.6964927631818
 20
210.9702251224975
 30
0.0
 10
236.6754173974736
 20
210.9663333881794
 30
0.0
 10
236.6332523004829
 20
210.9585472668255
 30
0.0
 10
236.5700012533445
 20
210.89875300022
 30
0.0
 10
236.5081878054635
 20
210.8155587424912
 30
0.0
 10
236.4675110790486
 20
210.7512288442298
 30
0.0
 10
236.4479069767442
 20
210.7202251224975
 30
0.0
  0
LINE
  5
365
330
1F
100
AcDbEntity
  8
0
  6
Continuous
 62
     7
370
    25
100
AcDbLine
 10
240.5859069767
 20
240.5520017943
 30
0.0
 11
161.4099069767
 21
240.5520017943
 31
0.0
  0
LINE
  5
366
330
1F
100
AcDbEntity
  8
0
  6
Continuous
 62
     7
370
    25
100
AcDbLine
 10
240.5859069767
 20
240.5520017943
 30
0.0
 11
240.5859069767
 21
240.0358859858
 31
0.0
  0
LINE
  5
367
330
1F
100
AcDbEntity
  8
0
  6
Continuous
 62
     7
370
    25
100
AcDbLine
 10
161.4099069767
 20
240.0358859858
 30
0.0
 11
161.4099069767
 21
240.5520017943
 31
0.0
  0
LINE
  5
368
330
1F
100
AcDbEntity
  8
0
  6
Continuous
 62
     7
370
    25
100
AcDbLine
 10
161.1579069767
 20
240.0358859858
 30
0.0
 11
161.1579069767
 21
229.814109314
 31
0.0
  0
LINE
  5
369
330
1F
100
AcDbEntity
  8
0
  6
Continuous
 62
     7
370
    25
100
AcDbLine
 10
161.1579069767
 20
240.0358859858
 30
0.0
 11
161.4099069767
 21
240.0358859858
 31
0.0
  0
LINE
  5
36A
330
1F
100
AcDbEntity
  8
0
  6
Continuous
 62
     7
370
    25
100
AcDbLine
 10
240.5859069767
 20
240.0358859858
 30
0.0
 11
240.8379069767
 21
240.0358859858
 31
0.0
  0
LINE
  5
36B
330
1F
100
AcDbEntity
  8
0
  6
Continuous
 62
     7
370
    25
100
AcDbLine
 10
240.8379069767
 20
229.814109314
 30
0.0
 11
240.8379069767
 21
240.0358859858
 31
0.0
  0
LINE
  5
36C
330
1F
100
AcDbEntity
  8
0
  6
Continuous
 62
     7
370
    25
100
AcDbLine
 10
240.8379069767
 20
240.077297033
 30
0.0
 11
240.5859069767
 21
240.077297033
 31
0.0
  0
LINE
  5
36D
330
1F
100
AcDbEntity
  8
0
  6
Continuous
 62
     7
370
    25
100
AcDbLine
 10
240.8379069767
 20
240.077297033
 30
0.0
 11
240.8379069767
 21
240.0358859858
 31
0.0
  0
LINE
  5
36E
330
1F
100
AcDbEntity
  8
0
  6
Continuous
 62
     7
370
    25
100
AcDbLine
 10
161.4099069767
 20
240.077297033
 30
0.0
 11
161.1579069767
 21
240.077297033
 31
0.0
  0
LINE
  5
36F
330
1F
100
AcDbEntity
  8
0
  6
Continuous
 62
     7
370
    25
100
AcDbLine
 10
161.1579069767
 20
240.077297033
 30
0.0
 11
161.1579069767
 21
240.0358859858
 31
0.0
  0
LINE
  5
370
330
1F
100
AcDbEntity
  8
0
  6
Continuous
 62
     7
370
    25
100
AcDbLine
 10
160.9979069767
 20
229.8560379993
 30
0.0
 11
160.9979069767
 21
240.0778146711
 31
0.0
  0
LINE
  5
371
330
1F
100
AcDbEntity
  8
0
  6
Continuous
 62
     7
370
    25
100
AcDbLine
 10
160.9979069767
 20
240.0778146711
 30
0.0
 11
161.1579069767
 21
240.0778146711
 31
0.0
  0
LINE
  5
372
330
1F
100
AcDbEntity
  8
0
  6
Continuous
 62
     7
370
    25
100
AcDbLine
 10
161.1579069767
 20
240.077297033
 30
0.0
 11
161.1579069767
 21
240.0778146711
 31
0.0
  0
LINE
  5
373
330
1F
100
AcDbEntity
  8
0
  6
Continuous
 62
     7
370
    25
100
AcDbLine
 10
160.9979069767
 20
240.0778146711
 30
0.0
 11
160.9979069767
 21
240.1420017943
 31
0.0
  0
LINE
  5
374
330
1F
100
AcDbEntity
  8
0
  6
Continuous
 62
     7
370
    25
100
AcDbLine
 10
160.9979069767
 20
240.1420017943
 30
0.0
 11
161.1579069767
 21
240.1420017943
 31
0.0
  0
LINE
  5
375
330
1F
100
AcDbEntity
  8
0
  6
Continuous
 62
     7
370
    25
100
AcDbLine
 10
161.1579069767
 20
240.0778146711
 30
0.0
 11
161.1579069767
 21
240.1420017943
 31
0.0
  0
LINE
  5
376
330
1F
100
AcDbEntity
  8
0
  6
Continuous
 62
     7
370
    25
100
AcDbLine
 10
240.9979069767
 20
240.0778146711
 30
0.0
 11
240.8379069767
 21
240.0778146711
 31
0.0
  0
LINE
  5
377
330
1F
100
AcDbEntity
  8
0
  6
Continuous
 62
     7
370
    25
100
AcDbLine
 10
240.9979069767
 20
240.0778146711
 30
0.0
 11
240.9979069767
 21
229.8560379993
 31
0.0
  0
LINE
  5
378
330
1F
100
AcDbEntity
  8
0
  6
Continuous
 62
     7
370
    25
100
AcDbLine
 10
240.8379069767
 20
240.0778146711
 30
0.0
 11
240.8379069767
 21
240.077297033
 31
0.0
  0
LINE
  5
379
330
1F
100
AcDbEntity
  8
0
  6
Continuous
 62
     7
370
    25
100
AcDbLine
 10
240.9979069767
 20
240.1420017943
 30
0.0
 11
240.8379069767
 21
240.1420017943
 31
0.0
  0
LINE
  5
37A
330
1F
100
AcDbEntity
  8
0
  6
Continuous
 62
     7
370
    25
100
AcDbLine
 10
240.8379069767
 20
240.1420017943
 30
0.0
 11
240.8379069767
 21
240.0778146711
 31
0.0
  0
LINE
  5
37B
330
1F
100
AcDbEntity
  8
0
  6
Continuous
 62
     7
370
    25
100
AcDbLine
 10
240.9979069767
 20
240.1420017943
 30
0.0
 11
240.9979069767
 21
240.0778146711
 31
0.0
  0
ARC
  5
37C
330
1F
100
AcDbEntity
  8
0
  6
Continuous
 62
     7
370
    25
100
AcDbCircle
 10
240.5879069767
 20
240.1420017943
 30
0.0
 40
0.25
100
AcDbArc
 50
0.0
 51
90.0
  0
ARC
  5
37D
330
1F
100
AcDbEntity
  8
0
  6
Continuous
 62
     7
370
    25
100
AcDbCircle
 10
240.5879069767
 20
240.1420017943
 30
0.0
 40
0.4099999999999966
100
AcDbArc
 50
0.0
 51
90.0
  0
ARC
  5
37E
330
1F
100
AcDbEntity
  8
0
  6
Continuous
 62
     7
370
    25
100
AcDbCircle
 10
161.4079069767
 20
240.1420017943
 30
0.0
 40
0.4099999999999966
100
AcDbArc
 50
90.0
 51
180.0
  0
ARC
  5
37F
330
1F
100
AcDbEntity
  8
0
  6
Continuous
 62
     7
370
    25
100
AcDbCircle
 10
161.4079069767
 20
240.1420017943
 30
0.0
 40
0.25
100
AcDbArc
 50
90.0
 51
180.0
  0
LINE
  5
380
330
1F
100
AcDbEntity
  8
0
  6
Continuous
 62
     7
370
    25
100
AcDbLine
 10
161.4079069767
 20
240.3920017943
 30
0.0
 11
161.4099069767
 21
240.3920017943
 31
0.0
  0
LINE
  5
381
330
1F
100
AcDbEntity
  8
0
  6
Continuous
 62
     7
370
    25
100
AcDbLine
 10
161.4079069767
 20
240.5520017943
 30
0.0
 11
161.4099069767
 21
240.5520017943
 31
0.0
  0
LINE
  5
382
330
1F
100
AcDbEntity
  8
0
  6
Continuous
 62
     7
370
    25
100
AcDbLine
 10
240.5879069767
 20
240.5520017943
 30
0.0
 11
240.5859069767
 21
240.5520017943
 31
0.0
  0
LINE
  5
383
330
1F
100
AcDbEntity
  8
0
  6
Continuous
 62
     7
370
    25
100
AcDbLine
 10
240.5879069767
 20
240.3920017943
 30
0.0
 11
240.5859069767
 21
240.3920017943
 31
0.0
  0
LINE
  5
384
330
1F
100
AcDbEntity
  8
0
  6
Continuous
 62
     7
370
    25
100
AcDbLine
 10
161.1579069767
 20
229.5102251225
 30
0.0
 11
161.1579069767
 21
229.814109314
 31
0.0
  0
LINE
  5
385
330
1F
100
AcDbEntity
  8
0
  6
Continuous
 62
     7
370
    25
100
AcDbLine
 10
240.8379069767
 20
229.814109314
 30
0.0
 11
240.8379069767
 21
229.5102251225
 31
0.0
  0
LINE
  5
386
330
1F
100
AcDbEntity
  8
0
  6
Continuous
 62
     7
370
    25
100
AcDbLine
 10
240.8379069767
 20
229.5102251225
 30
0.0
 11
228.1979069767
 21
229.5102251225
 31
0.0
  0
LINE
  5
387
330
1F
100
AcDbEntity
  8
0
  6
Continuous
 62
     7
370
    25
100
AcDbLine
 10
207.7251936687
 20
229.5102251225
 30
0.0
 11
207.1779069767
 21
229.5102251225
 31
0.0
  0
LINE
  5
388
330
1F
100
AcDbEntity
  8
0
  6
Continuous
 62
     7
370
    25
100
AcDbLine
 10
204.5779069767
 20
229.5102251225
 30
0.0
 11
203.4706202848
 21
229.5102251225
 31
0.0
  0
LINE
  5
389
330
1F
100
AcDbEntity
  8
0
  6
Continuous
 62
     7
370
    25
100
AcDbLine
 10
198.5251936687
 20
229.5102251225
 30
0.0
 11
194.2706202848
 21
229.5102251225
 31
0.0
  0
LINE
  5
38A
330
1F
100
AcDbEntity
  8
0
  6
Continuous
 62
     7
370
    25
100
AcDbLine
 10
173.7979069767
 20
229.5102251225
 30
0.0
 11
161.1579069767
 21
229.5102251225
 31
0.0
  0
LINE
  5
38B
330
1F
100
AcDbEntity
  8
0
  6
Continuous
 62
     7
370
    25
100
AcDbLine
 10
160.9979069767
 20
229.6722251225
 30
0.0
 11
161.1579069767
 21
229.6722251225
 31
0.0
  0
LINE
  5
38C
330
1F
100
AcDbEntity
  8
0
  6
Continuous
 62
     7
370
    25
100
AcDbLine
 10
160.9979069767
 20
229.6722251225
 30
0.0
 11
160.9979069767
 21
229.8560379993
 31
0.0
  0
LINE
  5
38D
330
1F
100
AcDbEntity
  8
0
  6
Continuous
 62
     7
370
    25
100
AcDbLine
 10
240.9979069767
 20
229.6722251225
 30
0.0
 11
240.8379069767
 21
229.6722251225
 31
0.0
  0
LINE
  5
38E
330
1F
100
AcDbEntity
  8
0
  6
Continuous
 62
     7
370
    25
100
AcDbLine
 10
240.9979069767
 20
229.8560379993
 30
0.0
 11
240.9979069767
 21
229.6722251225
 31
0.0
  0
LINE
  5
38F
330
1F
100
AcDbEntity
  8
0
  6
Continuous
 62
     7
370
    25
100
AcDbLine
 10
211.2979069767
 20
117.0702251225
 30
0.0
 11
215.6279069767
 21
117.0702251225
 31
0.0
  0
LINE
  5
390
330
1F
100
AcDbEntity
  8
0
  6
Continuous
 62
     7
370
    25
100
AcDbLine
 10
216.5879069767
 20
117.0702251225
 30
0.0
 11
217.1779069767
 21
117.0702251225
 31
0.0
  0
LINE
  5
391
330
1F
100
AcDbEntity
  8
0
  6
Continuous
 62
     7
370
    25
100
AcDbLine
 10
218.1379069767
 20
117.0702251225
 30
0.0
 11
218.6179069767
 21
117.0702251225
 31
0.0
  0
LINE
  5
392
330
1F
100
AcDbEntity
  8
0
  6
Continuous
 62
     7
370
    25
100
AcDbLine
 10
219.5779069767
 20
117.0702251225
 30
0.0
 11
220.1679069767
 21
117.0702251225
 31
0.0
  0
LINE
  5
393
330
1F
100
AcDbEntity
  8
0
  6
Continuous
 62
     7
370
    25
100
AcDbLine
 10
221.1279069767
 20
117.0702251225
 30
0.0
 11
223.2979069767
 21
117.0702251225
 31
0.0
  0
LINE
  5
394
330
1F
100
AcDbEntity
  8
0
  6
Continuous
 62
     7
370
    25
100
AcDbLine
 10
234.4979069767
 20
211.2702251225
 30
0.0
 11
234.4979069767
 21
211.1302251225
 31
0.0
  0
LINE
  5
395
330
1F
100
AcDbEntity
  8
0
  6
Continuous
 62
     7
370
    25
100
AcDbLine
 10
167.4979069767
 20
211.1302251225
 30
0.0
 11
167.4979069767
 21
211.1702251225
 31
0.0
  0
LINE
  5
396
330
1F
100
AcDbEntity
  8
0
  6
Continuous
 62
     7
370
    25
100
AcDbLine
 10
167.2979069767
 20
211.1702251225
 30
0.0
 11
167.4979069767
 21
211.1702251225
 31
0.0
  0
LINE
  5
397
330
1F
100
AcDbEntity
  8
0
  6
Continuous
 62
     7
370
    25
100
AcDbLine
 10
234.4979069767
 20
211.1302251225
 30
0.0
 11
234.4979069767
 21
211.1702251225
 31
0.0
  0
LINE
  5
398
330
1F
100
AcDbEntity
  8
0
  6
Continuous
 62
     7
370
    25
100
AcDbLine
 10
234.4979069767
 20
211.1702251225
 30
0.0
 11
234.6979069767
 21
211.1702251225
 31
0.0
  0
LINE
  5
399
330
1F
100
AcDbEntity
  8
0
  6
Continuous
 62
     7
370
    25
100
AcDbLine
 10
179.2979069767
 20
117.0702251225
 30
0.0
 11
180.8679069767
 21
117.0702251225
 31
0.0
  0
LINE
  5
39A
330
1F
100
AcDbEntity
  8
0
  6
Continuous
 62
     7
370
    25
100
AcDbLine
 10
181.8279069767
 20
117.0702251225
 30
0.0
 11
182.4179069767
 21
117.0702251225
 31
0.0
  0
LINE
  5
39B
330
1F
100
AcDbEntity
  8
0
  6
Continuous
 62
     7
370
    25
100
AcDbLine
 10
183.3779069767
 20
117.0702251225
 30
0.0
 11
183.8579069767
 21
117.0702251225
 31
0.0
  0
LINE
  5
39C
330
1F
100
AcDbEntity
  8
0
  6
Continuous
 62
     7
370
    25
100
AcDbLine
 10
184.8179069767
 20
117.0702251225
 30
0.0
 11
185.4079069767
 21
117.0702251225
 31
0.0
  0
LINE
  5
39D
330
1F
100
AcDbEntity
  8
0
  6
Continuous
 62
     7
370
    25
100
AcDbLine
 10
186.3679069767
 20
117.0702251225
 30
0.0
 11
190.9979069767
 21
117.0702251225
 31
0.0
  0
LINE
  5
39E
330
1F
100
AcDbEntity
  8
0
  6
Continuous
 62
     7
370
    25
100
AcDbLine
 10
167.4979069767
 20
211.2702251225
 30
0.0
 11
167.4979069767
 21
211.1302251225
 31
0.0
  0
LINE
  5
39F
330
1F
100
AcDbEntity
  8
0
  6
Continuous
 62
     7
370
    25
100
AcDbLine
 10
240.5079069767
 20
213.1108109089
 30
0.0
 11
240.9979069767
 21
213.1108109089
 31
0.0
  0
LINE
  5
3A0
330
1F
100
AcDbEntity
  8
0
  6
Continuous
 62
     7
370
    25
100
AcDbLine
 10
240.9979069767
 20
213.1108109089
 30
0.0
 11
240.9979069767
 21
110.5302251225
 31
0.0
  0
LINE
  5
3A1
330
1F
100
AcDbEntity
  8
0
  6
Continuous
 62
     7
370
    25
100
AcDbLine
 10
240.9979069767
 20
110.5302251225
 30
0.0
 11
240.5079069767
 21
110.5302251225
 31
0.0
  0
LINE
  5
3A2
330
1F
100
AcDbEntity
  8
0
  6
Continuous
 62
     7
370
    25
100
AcDbLine
 10
240.5079069767
 20
213.1108109089
 30
0.0
 11
237.8879069767
 21
213.1108109089
 31
0.0
  0
LINE
  5
3A3
330
1F
100
AcDbEntity
  8
0
  6
Continuous
 62
     7
370
    25
100
AcDbLine
 10
237.8879069767
 20
110.5302251225
 30
0.0
 11
240.5079069767
 21
110.5302251225
 31
0.0
  0
LINE
  5
3A4
330
1F
100
AcDbEntity
  8
0
  6
Continuous
 62
     7
370
    25
100
AcDbLine
 10
240.5079069767
 20
110.4302251225
 30
0.0
 11
237.4979069767
 21
110.4302251225
 31
0.0
  0
LINE
  5
3A5
330
1F
100
AcDbEntity
  8
0
  6
Continuous
 62
     7
370
    25
100
AcDbLine
 10
164.4979069767
 20
110.4302251225
 30
0.0
 11
161.4879069767
 21
110.4302251225
 31
0.0
  0
LINE
  5
3A6
330
1F
100
AcDbEntity
  8
0
  6
Continuous
 62
     7
370
    25
100
AcDbLine
 10
164.4979069767
 20
110.4302251225
 30
0.0
 11
164.4979069767
 21
110.1802251225
 31
0.0
  0
LINE
  5
3A7
330
1F
100
AcDbEntity
  8
0
  6
Continuous
 62
     7
370
    25
100
AcDbLine
 10
164.4979069767
 20
110.1802251225
 30
0.0
 11
164.5979069767
 21
110.1802251225
 31
0.0
  0
LINE
  5
3A8
330
1F
100
AcDbEntity
  8
0
  6
Continuous
 62
     7
370
    25
100
AcDbLine
 10
237.3979069767
 20
110.1802251225
 30
0.0
 11
237.4979069767
 21
110.1802251225
 31
0.0
  0
LINE
  5
3A9
330
1F
100
AcDbEntity
  8
0
  6
Continuous
 62
     7
370
    25
100
AcDbLine
 10
237.4979069767
 20
110.1802251225
 30
0.0
 11
237.4979069767
 21
110.4302251225
 31
0.0
  0
LINE
  5
3AA
330
1F
100
AcDbEntity
  8
0
  6
Continuous
 62
     7
370
    25
100
AcDbLine
 10
164.5979069767
 20
110.1802251225
 30
0.0
 11
164.5979069767
 21
110.6702251225
 31
0.0
  0
LINE
  5
3AB
330
1F
100
AcDbEntity
  8
0
  6
Continuous
 62
     7
370
    25
100
AcDbLine
 10
237.3979069767
 20
110.6702251225
 30
0.0
 11
221.1279069767
 21
110.6702251225
 31
0.0
  0
LINE
  5
3AC
330
1F
100
AcDbEntity
  8
0
  6
Continuous
 62
     7
370
    25
100
AcDbLine
 10
220.1679069767
 20
110.6702251225
 30
0.0
 11
219.5779069767
 21
110.6702251225
 31
0.0
  0
LINE
  5
3AD
330
1F
100
AcDbEntity
  8
0
  6
Continuous
 62
     7
370
    25
100
AcDbLine
 10
218.6179069767
 20
110.6702251225
 30
0.0
 11
218.1379069767
 21
110.6702251225
 31
0.0
  0
LINE
  5
3AE
330
1F
100
AcDbEntity
  8
0
  6
Continuous
 62
     7
370
    25
100
AcDbLine
 10
217.1779069767
 20
110.6702251225
 30
0.0
 11
216.5879069767
 21
110.6702251225
 31
0.0
  0
LINE
  5
3AF
330
1F
100
AcDbEntity
  8
0
  6
Continuous
 62
     7
370
    25
100
AcDbLine
 10
215.6279069767
 20
110.6702251225
 30
0.0
 11
186.3679069767
 21
110.6702251225
 31
0.0
  0
LINE
  5
3B0
330
1F
100
AcDbEntity
  8
0
  6
Continuous
 62
     7
370
    25
100
AcDbLine
 10
185.4079069767
 20
110.6702251225
 30
0.0
 11
184.8179069767
 21
110.6702251225
 31
0.0
  0
LINE
  5
3B1
330
1F
100
AcDbEntity
  8
0
  6
Continuous
 62
     7
370
    25
100
AcDbLine
 10
183.8579069767
 20
110.6702251225
 30
0.0
 11
183.3779069767
 21
110.6702251225
 31
0.0
  0
LINE
  5
3B2
330
1F
100
AcDbEntity
  8
0
  6
Continuous
 62
     7
370
    25
100
AcDbLine
 10
182.4179069767
 20
110.6702251225
 30
0.0
 11
181.8279069767
 21
110.6702251225
 31
0.0
  0
LINE
  5
3B3
330
1F
100
AcDbEntity
  8
0
  6
Continuous
 62
     7
370
    25
100
AcDbLine
 10
180.8679069767
 20
110.6702251225
 30
0.0
 11
164.5979069767
 21
110.6702251225
 31
0.0
  0
LINE
  5
3B4
330
1F
100
AcDbEntity
  8
0
  6
Continuous
 62
     7
370
    25
100
AcDbLine
 10
237.3979069767
 20
110.6702251225
 30
0.0
 11
237.3979069767
 21
110.1802251225
 31
0.0
  0
SPLINE
  5
3B5
330
1F
100
AcDbEntity
  8
0
  6
Continuous
 62
     7
370
    25
100
AcDbSpline
210
0.0
220
0.0
230
1.0
 70
     8
 71
     3
 72
    20
 73
    16
 74
     0
 42
0.00000001
 43
0.00000001
 40
0.0
 40
0.0
 40
0.0
 40
0.0
 40
0.1250000000000018
 40
0.1250000000000018
 40
0.2500000000000036
 40
0.2500000000000036
 40
0.3750000000000053
 40
0.3750000000000053
 40
0.5000000000000071
 40
0.5000000000000071
 40
0.6250000000000089
 40
0.6250000000000089
 40
0.7500000000000107
 40
0.7500000000000107
 40
1.0
 40
1.0
 40
1.0
 40
1.0
 10
237.8879069767442
 20
110.5302251224974
 30
0.0
 10
237.8555548508082
 20
110.5361937601157
 30
0.0
 10
237.8237342987311
 20
110.5420652123697
 30
0.0
 10
237.7611522378621
 20
110.5538359523084
 30
0.0
 10
237.7300834263404
 20
110.5597961186153
 30
0.0
 10
237.6707259516496
 20
110.571649096565
 30
0.0
 10
237.6425876582982
 20
110.5775075006112
 30
0.0
 10
237.5893851980654
 20
110.5893057211549
 30
0.0
 10
237.5641617842917
 20
110.5952948650593
 30
0.0
 10
237.5189272830771
 20
110.6070928355754
 30
0.0
 10
237.4986564584681
 20
110.6129513696909
 30
0.0
 10
237.4629010839139
 20
110.6248051730206
 30
0.0
 10
237.4475954312887
 20
110.6307641635361
 30
0.0
 10
237.4108971116813
 20
110.648420704337
 30
0.0
 10
237.3979069767441
 20
110.6602878470155
 30
0.0
 10
237.3979069767441
 20
110.6722251224974
 30
0.0
  0
LINE
  5
3B6
330
1F
100
AcDbEntity
  8
0
  6
Continuous
 62
     7
370
    25
100
AcDbLine
 10
237.3979069767
 20
110.6722251225
 30
0.0
 11
237.3979069767
 21
209.0295549849
 31
0.0
  0
LINE
  5
3B7
330
1F
100
AcDbEntity
  8
0
  6
Continuous
 62
     7
370
    25
100
AcDbLine
 10
237.3979069767
 20
210.6295549849
 30
0.0
 11
237.3979069767
 21
212.9688109089
 31
0.0
  0
SPLINE
  5
3B8
330
1F
100
AcDbEntity
  8
0
  6
Continuous
 62
     7
370
    25
100
AcDbSpline
210
0.0
220
0.0
230
1.0
 70
     8
 71
     3
 72
    20
 73
    16
 74
     0
 42
0.00000001
 43
0.00000001
 40
0.0
 40
0.0
 40
0.0
 40
0.0
 40
0.1250000000000049
 40
0.1250000000000049
 40
0.2500000000000098
 40
0.2500000000000098
 40
0.3750000000000148
 40
0.3750000000000148
 40
0.5000000000000195
 40
0.5000000000000195
 40
0.6250000000000244
 40
0.6250000000000244
 40
0.7500000000000292
 40
0.7500000000000292
 40
1.0
 40
1.0
 40
1.0
 40
1.0
 10
237.3979069767441
 20
212.9688109089351
 30
0.0
 10
237.3979069767441
 20
212.9747795465533
 30
0.0
 10
237.4010809026692
 20
212.9806509988074
 30
0.0
 10
237.4135115771316
 20
212.992421738746
 30
0.0
 10
237.4229084211535
 20
212.998381905053
 30
0.0
 10
237.4474931575895
 20
213.0102348830026
 30
0.0
 10
237.4625354327006
 20
213.0160932870488
 30
0.0
 10
237.4980258844361
 20
213.0278915075926
 30
0.0
 10
237.5187032077044
 20
213.033880651497
 30
0.0
 10
237.5639064237036
 20
213.045678622013
 30
0.0
 10
237.5885473107931
 20
213.0515371561286
 30
0.0
 10
237.6419350949444
 20
213.0633909594582
 30
0.0
 10
237.6705513939146
 20
213.0693499499737
 30
0.0
 10
237.7589402584534
 20
213.0870064907746
 30
0.0
 10
237.8232027235418
 20
213.0988736334531
 30
0.0
 10
237.8879069767442
 20
213.1108109089351
 30
0.0
  0
SPLINE
  5
3B9
330
1F
100
AcDbEntity
  8
0
  6
Continuous
 62
     7
370
    25
100
AcDbSpline
210
0.0
220
0.0
230
1.0
 70
     8
 71
     3
 72
    22
 73
    18
 74
     0
 42
0.00000001
 43
0.00000001
 40
0.0
 40
0.0
 40
0.0
 40
0.0
 40
0.1249999999999998
 40
0.1249999999999998
 40
0.2499999999999998
 40
0.2499999999999998
 40
0.3749999999999998
 40
0.3749999999999998
 40
0.4999999999999998
 40
0.4999999999999998
 40
0.6249999999999998
 40
0.6249999999999998
 40
0.7499999999999999
 40
0.7499999999999999
 40
0.8749999999999999
 40
0.8749999999999999
 40
1.0
 40
1.0
 40
1.0
 40
1.0
 10
240.9979069767442
 20
86.7316393360598
 30
0.0
 10
240.9979069767442
 20
86.74208855601997
 30
0.0
 10
240.9947302816981
 20
86.75237309436875
 30
0.0
 10
240.9822983000973
 20
86.77297744719723
 30
0.0
 10
240.9729277532975
 20
86.78338736170609
 30
0.0
 10
240.9483034648535
 20
86.80417127119773
 30
0.0
 10
240.9332403364819
 20
86.81443542643008
 30
0.0
 10
240.8977860551828
 20
86.83506610451073
 30
0.0
 10
240.8771336116535
 20
86.84554107722845
 30
0.0
 10
240.831829307726
 20
86.86623918242063
 30
0.0
 10
240.8071754080087
 20
86.87649578640765
 30
0.0
 10
240.7539608850564
 20
86.89717960185679
 30
0.0
 10
240.7252169138171
 20
86.90766026994083
 30
0.0
 10
240.666190375119
 20
86.928300043611
 30
0.0
 10
240.6356544220558
 20
86.9385617244005
 30
0.0
 10
240.5726113114833
 20
86.95932600308274
 30
0.0
 10
240.5402606471679
 20
86.96977590201227
 30
0.0
 10
240.5079069767442
 20
86.98022512249744
 30
0.0
  0
LINE
  5
3BA
330
1F
100
AcDbEntity
  8
0
  6
Continuous
 62
     7
370
    25
100
AcDbLine
 10
240.9979069767
 20
86.7316393361
 30
0.0
 11
240.7579069767
 21
86.7316393361
 31
0.0
  0
SPLINE
  5
3BB
330
1F
100
AcDbEntity
  8
0
  6
Continuous
 62
     7
370
    25
100
AcDbSpline
210
0.0
220
0.0
230
1.0
 70
     8
 71
     3
 72
    14
 73
    10
 74
     0
 42
0.00000001
 43
0.00000001
 40
0.0
 40
0.0
 40
0.0
 40
0.0
 40
0.2499999999999998
 40
0.2499999999999998
 40
0.4999999999999999
 40
0.4999999999999999
 40
0.7499999999999999
 40
0.7499999999999999
 40
1.0
 40
1.0
 40
1.0
 40
1.0
 10
240.7579069767442
 20
86.7316393360598
 30
0.0
 10
240.7579069767442
 20
86.75254908167922
 30
0.0
 10
240.751514115433
 20
86.77284319305963
 30
0.0
 10
240.7263857715575
 20
86.81448636512594
 30
0.0
 10
240.7080640057358
 20
86.83498300577251
 30
0.0
 10
240.6616174473162
 20
86.8766001297883
 30
0.0
 10
240.6341413873986
 20
86.89712860197447
 30
0.0
 10
240.5734770163621
 20
86.93871163012562
 30
0.0
 10
240.5409387820689
 20
86.95931537840389
 30
0.0
 10
240.5079069767442
 20
86.98022512249744
 30
0.0
  0
LINE
  5
3BC
330
1F
100
AcDbEntity
  8
0
  6
Continuous
 62
     7
370
    25
100
AcDbLine
 10
240.5079069767
 20
110.4302251225
 30
0.0
 11
240.9979069767
 21
110.4302251225
 31
0.0
  0
LINE
  5
3BD
330
1F
100
AcDbEntity
  8
0
  6
Continuous
 62
     7
370
    25
100
AcDbLine
 10
240.9979069767
 20
86.7316393361
 30
0.0
 11
240.9979069767
 21
110.4302251225
 31
0.0
  0
SPLINE
  5
3BE
330
1F
100
AcDbEntity
  8
0
  6
Continuous
 62
     7
370
    25
100
AcDbSpline
210
0.0
220
0.0
230
1.0
 70
     8
 71
     3
 72
    22
 73
    18
 74
     0
 42
0.00000001
 43
0.00000001
 40
0.0
 40
0.0
 40
0.0
 40
0.0
 40
0.125
 40
0.125
 40
0.25
 40
0.25
 40
0.375
 40
0.375
 40
0.5
 40
0.5
 40
0.625
 40
0.625
 40
0.7500000000000001
 40
0.7500000000000001
 40
0.8750000000000001
 40
0.8750000000000001
 40
1.0
 40
1.0
 40
1.0
 40
1.0
 10
240.5079069767442
 20
86.98022512249744
 30
0.0
 10
240.5183561967043
 20
86.94787145369926
 30
0.0
 10
240.5286407350532
 20
86.91603263500484
 30
0.0
 10
240.5492450878816
 20
86.8534557333535
 30
0.0
 10
240.5596550023905
 20
86.82245631903672
 30
0.0
 10
240.5804389118821
 20
86.76300115689344
 30
0.0
 10
240.5907030671145
 20
86.73484431163091
 30
0.0
 10
240.6113337451951
 20
86.68170458142357
 30
0.0
 10
240.6218087179128
 20
86.65649919157876
 30
0.0
 10
240.6425068231051
 20
86.61117077722167
 30
0.0
 10
240.6527634270921
 20
86.59091306584679
 30
0.0
 10
240.6734472425412
 20
86.55527460113126
 30
0.0
 10
240.6839279106252
 20
86.53988730121635
 30
0.0
 10
240.7045676842954
 20
86.51539464651704
 30
0.0
 10
240.7148293650849
 20
86.50607951822822
 30
0.0
 10
240.7355936437671
 20
86.4934532941246
 30
0.0
 10
240.7460435426967
 20
86.49022512249743
 30
0.0
 10
240.7564927631818
 20
86.49022512249743
 30
0.0
  0
SPLINE
  5
3BF
330
1F
100
AcDbEntity
  8
0
  6
Continuous
 62
     7
370
    25
100
AcDbSpline
210
0.0
220
0.0
230
1.0
 70
     8
 71
     3
 72
    14
 73
    10
 74
     0
 42
0.00000001
 43
0.00000001
 40
0.0
 40
0.0
 40
0.0
 40
0.0
 40
0.25
 40
0.25
 40
0.5
 40
0.5
 40
0.75
 40
0.75
 40
1.0
 40
1.0
 40
1.0
 40
1.0
 10
240.5079069767442
 20
86.98022512249744
 30
0.0
 10
240.5288167223636
 20
86.94719331476229
 30
0.0
 10
240.549110833744
 20
86.91512920928426
 30
0.0
 10
240.5907540058103
 20
86.85433258040653
 30
0.0
 10
240.6112506464569
 20
86.82687022035901
 30
0.0
 10
240.6528677704727
 20
86.78034102232631
 30
0.0
 10
240.6733962426589
 20
86.76195083283731
 30
0.0
 10
240.71497927081
 20
86.7367515882799
 30
0.0
 10
240.7355830190883
 20
86.73022512249743
 30
0.0
 10
240.7564927631818
 20
86.73022512249743
 30
0.0
  0
LINE
  5
3C0
330
1F
100
AcDbEntity
  8
0
  6
Continuous
 62
     7
370
    25
100
AcDbLine
 10
240.7564927632
 20
86.4902251225
 30
0.0
 11
240.7564927632
 21
86.7302251225
 31
0.0
  0
LINE
  5
3C1
330
1F
100
AcDbEntity
  8
0
  6
Continuous
 62
     7
370
    25
100
AcDbLine
 10
240.7564927632
 20
86.4902251225
 30
0.0
 11
221.7747034188
 21
86.4902251225
 31
0.0
  0
LINE
  5
3C2
330
1F
100
AcDbEntity
  8
0
  6
Continuous
 62
     7
370
    25
100
AcDbLine
 10
220.8051245593
 20
86.4902251225
 30
0.0
 11
215.9506893942
 21
86.4902251225
 31
0.0
  0
LINE
  5
3C3
330
1F
100
AcDbEntity
  8
0
  6
Continuous
 62
     7
370
    25
100
AcDbLine
 10
214.9811105347
 20
86.4902251225
 30
0.0
 11
187.0147034188
 21
86.4902251225
 31
0.0
  0
LINE
  5
3C4
330
1F
100
AcDbEntity
  8
0
  6
Continuous
 62
     7
370
    25
100
AcDbLine
 10
186.0451245593
 20
86.4902251225
 30
0.0
 11
181.1906893942
 21
86.4902251225
 31
0.0
  0
LINE
  5
3C5
330
1F
100
AcDbEntity
  8
0
  6
Continuous
 62
     7
370
    25
100
AcDbLine
 10
180.2211105347
 20
86.4902251225
 30
0.0
 11
161.2393211903
 21
86.4902251225
 31
0.0
  0
SPLINE
  5
3C6
330
1F
100
AcDbEntity
  8
0
  6
Continuous
 62
     7
370
    25
100
AcDbSpline
210
0.0
220
0.0
230
1.0
 70
     8
 71
     3
 72
    22
 73
    18
 74
     0
 42
0.00000001
 43
0.00000001
 40
0.0
 40
0.0
 40
0.0
 40
0.0
 40
0.125
 40
0.125
 40
0.25
 40
0.25
 40
0.375
 40
0.375
 40
0.5
 40
0.5
 40
0.625
 40
0.625
 40
0.75
 40
0.75
 40
0.875
 40
0.875
 40
1.0
 40
1.0
 40
1.0
 40
1.0
 10
161.2393211903065
 20
86.49022512249743
 30
0.0
 10
161.2497704102667
 20
86.49022512249743
 30
0.0
 10
161.2600549486155
 20
86.49340181754354
 30
0.0
 10
161.280659301444
 20
86.50583379914427
 30
0.0
 10
161.2910692159529
 20
86.51520434594406
 30
0.0
 10
161.3118531254445
 20
86.53982863438814
 30
0.0
 10
161.3221172806768
 20
86.55489176275977
 30
0.0
 10
161.3427479587575
 20
86.59034604405873
 30
0.0
 10
161.3532229314752
 20
86.61099848758812
 30
0.0
 10
161.3739210366674
 20
86.65630279151561
 30
0.0
 10
161.3841776406544
 20
86.6809566912329
 30
0.0
 10
161.4048614561036
 20
86.73417121418525
 30
0.0
 10
161.4153421241876
 20
86.76291518542448
 30
0.0
 10
161.4359818978578
 20
86.82194172412265
 30
0.0
 10
161.4462435786473
 20
86.85247767718589
 30
0.0
 10
161.4670078573295
 20
86.91552078775837
 30
0.0
 10
161.477457756259
 20
86.94787145207371
 30
0.0
 10
161.4879069767442
 20
86.98022512249744
 30
0.0
  0
LINE
  5
3C7
330
1F
100
AcDbEntity
  8
0
  6
Continuous
 62
     7
370
    25
100
AcDbLine
 10
161.2393211903
 20
86.4902251225
 30
0.0
 11
161.2393211903
 21
86.7302251225
 31
0.0
  0
SPLINE
  5
3C8
330
1F
100
AcDbEntity
  8
0
  6
Continuous
 62
     7
370
    25
100
AcDbSpline
210
0.0
220
0.0
230
1.0
 70
     8
 71
     3
 72
    14
 73
    10
 74
     0
 42
0.00000001
 43
0.00000001
 40
0.0
 40
0.0
 40
0.0
 40
0.0
 40
0.2500000000000002
 40
0.2500000000000002
 40
0.5000000000000001
 40
0.5000000000000001
 40
0.75
 40
0.75
 40
1.0
 40
1.0
 40
1.0
 40
1.0
 10
161.2393211903065
 20
86.73022512249743
 30
0.0
 10
161.260230935926
 20
86.73022512249743
 30
0.0
 10
161.2805250473064
 20
86.73661798380861
 30
0.0
 10
161.3221682193727
 20
86.76174632768407
 30
0.0
 10
161.3426648600193
 20
86.78006809350578
 30
0.0
 10
161.384281984035
 20
86.82651465192555
 30
0.0
 10
161.4048104562212
 20
86.85399071184307
 30
0.0
 10
161.4463934843724
 20
86.91465508287949
 30
0.0
 10
161.4669972326506
 20
86.94719331717276
 30
0.0
 10
161.4879069767442
 20
86.98022512249744
 30
0.0
  0
ARC
  5
3C9
330
1F
100
AcDbEntity
  8
0
  6
Continuous
 62
     7
370
    25
100
AcDbCircle
 10
240.5044927632
 20
240.0002251225
 30
0.0
 40
0.2499999999999931
100
AcDbArc
 50
17.9560661185
 51
70.9946249539
  0
LINE
  5
3CA
330
1F
100
AcDbEntity
  8
0
  6
Continuous
 62
     7
370
    25
100
AcDbLine
 10
240.7544927632
 20
213.2102251225
 30
0.0
 11
240.7544927632
 21
229.5102251225
 31
0.0
  0
LINE
  5
3CB
330
1F
100
AcDbEntity
  8
0
  6
Continuous
 62
     7
370
    25
100
AcDbLine
 10
237.4964927632
 20
213.2102251225
 30
0.0
 11
240.7544927632
 21
213.2102251225
 31
0.0
  0
LINE
  5
3CC
330
1F
100
AcDbEntity
  8
0
  6
Continuous
 62
     7
370
    25
100
AcDbLine
 10
237.4964927632
 20
213.4622251225
 30
0.0
 11
237.4964927632
 21
213.2102251225
 31
0.0
  0
LINE
  5
3CD
330
1F
100
AcDbEntity
  8
0
  6
Continuous
 62
     7
370
    25
100
AcDbLine
 10
237.3964927632
 20
213.4622251225
 30
0.0
 11
237.4964927632
 21
213.4622251225
 31
0.0
  0
LINE
  5
3CE
330
1F
100
AcDbEntity
  8
0
  6
Continuous
 62
     7
370
    25
100
AcDbLine
 10
237.3964927632
 20
213.4602251225
 30
0.0
 11
237.3964927632
 21
213.4622251225
 31
0.0
  0
LINE
  5
3CF
330
1F
100
AcDbEntity
  8
0
  6
Continuous
 62
     7
370
    25
100
AcDbLine
 10
164.5993211903
 20
213.4622251225
 30
0.0
 11
164.5993211903
 21
213.4602251225
 31
0.0
  0
LINE
  5
3D0
330
1F
100
AcDbEntity
  8
0
  6
Continuous
 62
     7
370
    25
100
AcDbLine
 10
164.4993211903
 20
213.4622251225
 30
0.0
 11
164.5993211903
 21
213.4622251225
 31
0.0
  0
LINE
  5
3D1
330
1F
100
AcDbEntity
  8
0
  6
Continuous
 62
     7
370
    25
100
AcDbLine
 10
164.4993211903
 20
213.2102251225
 30
0.0
 11
164.4993211903
 21
213.4622251225
 31
0.0
  0
LINE
  5
3D2
330
1F
100
AcDbEntity
  8
0
  6
Continuous
 62
     7
370
    25
100
AcDbLine
 10
161.2413211903
 20
213.2102251225
 30
0.0
 11
164.4993211903
 21
213.2102251225
 31
0.0
  0
LINE
  5
3D3
330
1F
100
AcDbEntity
  8
0
  6
Continuous
 62
     7
370
    25
100
AcDbLine
 10
161.2413211903
 20
229.5102251225
 30
0.0
 11
161.2413211903
 21
213.2102251225
 31
0.0
  0
ARC
  5
3D4
330
1F
100
AcDbEntity
  8
0
  6
Continuous
 62
     7
370
    25
100
AcDbCircle
 10
161.4913211903
 20
240.0002251225
 30
0.0
 40
0.2500000000000018
100
AcDbArc
 50
109.0053750459
 51
162.0439338815
  0
LINE
  5
3D5
330
1F
100
AcDbEntity
  8
0
  6
Continuous
 62
     7
370
    25
100
AcDbLine
 10
164.5993211903
 20
212.9702251225
 30
0.0
 11
164.5993211903
 21
213.4602251225
 31
0.0
  0
LINE
  5
3D6
330
1F
100
AcDbEntity
  8
0
  6
Continuous
 62
     7
370
    25
100
AcDbLine
 10
237.3964927632
 20
213.4602251225
 30
0.0
 11
237.3964927632
 21
212.9702251225
 31
0.0
  0
LINE
  5
3D7
330
1F
100
AcDbEntity
  8
0
  6
Continuous
 62
     7
370
    25
100
AcDbLine
 10
237.3964927632
 20
212.9702251225
 30
0.0
 11
232.1979069767
 21
212.9702251225
 31
0.0
  0
LINE
  5
3D8
330
1F
100
AcDbEntity
  8
0
  6
Continuous
 62
     7
370
    25
100
AcDbLine
 10
230.5979069767
 20
212.9702251225
 30
0.0
 11
230.4979069767
 21
212.9702251225
 31
0.0
  0
LINE
  5
3D9
330
1F
100
AcDbEntity
  8
0
  6
Continuous
 62
     7
370
    25
100
AcDbLine
 10
171.4979069767
 20
212.9702251225
 30
0.0
 11
171.3979069767
 21
212.9702251225
 31
0.0
  0
LINE
  5
3DA
330
1F
100
AcDbEntity
  8
0
  6
Continuous
 62
     7
370
    25
100
AcDbLine
 10
169.7979069767
 20
212.9702251225
 30
0.0
 11
164.5993211903
 21
212.9702251225
 31
0.0
  0
SPLINE
  5
3DB
330
1F
100
AcDbEntity
  8
0
  6
Continuous
 62
     7
370
    25
100
AcDbSpline
210
0.0
220
0.0
230
1.0
 70
     8
 71
     3
 72
    22
 73
    18
 74
     0
 42
0.00000001
 43
0.00000001
 40
0.0
 40
0.0
 40
0.0
 40
0.0
 40
0.125
 40
0.125
 40
0.2500000000000001
 40
0.2500000000000001
 40
0.3750000000000001
 40
0.3750000000000001
 40
0.5000000000000001
 40
0.5000000000000001
 40
0.6250000000000001
 40
0.6250000000000001
 40
0.7500000000000002
 40
0.7500000000000002
 40
0.8750000000000002
 40
0.8750000000000002
 40
1.0
 40
1.0
 40
1.0
 40
1.0
 10
161.4879069767442
 20
86.98022512249744
 30
0.0
 10
161.455553307946
 20
86.96977590253728
 30
0.0
 10
161.4237144892516
 20
86.95949136418848
 30
0.0
 10
161.3611375876003
 20
86.93888701136001
 30
0.0
 10
161.3301381732835
 20
86.92847709685115
 30
0.0
 10
161.2706830111402
 20
86.90769318735951
 30
0.0
 10
161.2425261658777
 20
86.89742903212715
 30
0.0
 10
161.1893864356703
 20
86.87679835404647
 30
0.0
 10
161.1641810458255
 20
86.8663233813288
 30
0.0
 10
161.1188526314684
 20
86.8456252761366
 30
0.0
 10
161.0985949200936
 20
86.8353686721496
 30
0.0
 10
161.062956455378
 20
86.81468485670045
 30
0.0
 10
161.0475691554631
 20
86.80420418861641
 30
0.0
 10
161.0230765007638
 20
86.78356441494623
 30
0.0
 10
161.013761372475
 20
86.77330273415672
 30
0.0
 10
161.0011351483714
 20
86.7525384554745
 30
0.0
 10
160.9979069767442
 20
86.74208855654496
 30
0.0
 10
160.9979069767442
 20
86.7316393360598
 30
0.0
  0
LINE
  5
3DC
330
1F
100
AcDbEntity
  8
0
  6
Continuous
 62
     7
370
    25
100
AcDbLine
 10
160.9979069767
 20
86.7316393361
 30
0.0
 11
160.9979069767
 21
110.4302251225
 31
0.0
  0
LINE
  5
3DD
330
1F
100
AcDbEntity
  8
0
  6
Continuous
 62
     7
370
    25
100
AcDbLine
 10
160.9979069767
 20
110.4302251225
 30
0.0
 11
161.4879069767
 21
110.4302251225
 31
0.0
  0
SPLINE
  5
3DE
330
1F
100
AcDbEntity
  8
0
  6
Continuous
 62
     7
370
    25
100
AcDbSpline
210
0.0
220
0.0
230
1.0
 70
     8
 71
     3
 72
    14
 73
    10
 74
     0
 42
0.00000001
 43
0.00000001
 40
0.0
 40
0.0
 40
0.0
 40
0.0
 40
0.25
 40
0.25
 40
0.5
 40
0.5
 40
0.75
 40
0.75
 40
1.0
 40
1.0
 40
1.0
 40
1.0
 10
161.4879069767442
 20
86.98022512249744
 30
0.0
 10
161.4548751690091
 20
86.95931537687802
 30
0.0
 10
161.422811063531
 20
86.93902126549762
 30
0.0
 10
161.3620144346533
 20
86.8973780934313
 30
0.0
 10
161.3345520746058
 20
86.8768814527847
 30
0.0
 10
161.2880228765731
 20
86.83526432876894
 30
0.0
 10
161.2696326870841
 20
86.81473585658276
 30
0.0
 10
161.2444334425267
 20
86.7731528284316
 30
0.0
 10
161.2379069767442
 20
86.75254908015333
 30
0.0
 10
161.2379069767442
 20
86.7316393360598
 30
0.0
  0
LINE
  5
3DF
330
1F
100
AcDbEntity
  8
0
  6
Continuous
 62
     7
370
    25
100
AcDbLine
 10
160.9979069767
 20
86.7316393361
 30
0.0
 11
161.2379069767
 21
86.7316393361
 31
0.0
  0
LINE
  5
3E0
330
1F
100
AcDbEntity
  8
0
  6
Continuous
 62
     7
370
    25
100
AcDbLine
 10
161.4879069767
 20
110.5302251225
 30
0.0
 11
164.1079069767
 21
110.5302251225
 31
0.0
  0
LINE
  5
3E1
330
1F
100
AcDbEntity
  8
0
  6
Continuous
 62
     7
370
    25
100
AcDbLine
 10
164.1079069767
 20
213.1108109089
 30
0.0
 11
161.4879069767
 21
213.1108109089
 31
0.0
  0
LINE
  5
3E2
330
1F
100
AcDbEntity
  8
0
  6
Continuous
 62
     7
370
    25
100
AcDbLine
 10
161.4879069767
 20
110.5302251225
 30
0.0
 11
160.9979069767
 21
110.5302251225
 31
0.0
  0
LINE
  5
3E3
330
1F
100
AcDbEntity
  8
0
  6
Continuous
 62
     7
370
    25
100
AcDbLine
 10
160.9979069767
 20
110.5302251225
 30
0.0
 11
160.9979069767
 21
213.1108109089
 31
0.0
  0
LINE
  5
3E4
330
1F
100
AcDbEntity
  8
0
  6
Continuous
 62
     7
370
    25
100
AcDbLine
 10
160.9979069767
 20
213.1108109089
 30
0.0
 11
161.4879069767
 21
213.1108109089
 31
0.0
  0
SPLINE
  5
3E5
330
1F
100
AcDbEntity
  8
0
  6
Continuous
 62
     7
370
    25
100
AcDbSpline
210
0.0
220
0.0
230
1.0
 70
     8
 71
     3
 72
    20
 73
    16
 74
     0
 42
0.00000001
 43
0.00000001
 40
0.0
 40
0.0
 40
0.0
 40
0.0
 40
0.1249999999999999
 40
0.1249999999999999
 40
0.25
 40
0.25
 40
0.3750000000000001
 40
0.3750000000000001
 40
0.5000000000000001
 40
0.5000000000000001
 40
0.6250000000000001
 40
0.6250000000000001
 40
0.7499999999999991
 40
0.7499999999999991
 40
1.0
 40
1.0
 40
1.0
 40
1.0
 10
164.597906976744
 20
110.6722251224974
 30
0.0
 10
164.597906976744
 20
110.6662564848792
 30
0.0
 10
164.5947330508189
 20
110.6603850326252
 30
0.0
 10
164.5823023763565
 20
110.6486142926865
 30
0.0
 10
164.5729055323346
 20
110.6426541263795
 30
0.0
 10
164.5483207958986
 20
110.6308011484299
 30
0.0
 10
164.5332785207876
 20
110.6249427443837
 30
0.0
 10
164.4977880690521
 20
110.6131445238399
 30
0.0
 10
164.4771107457838
 20
110.6071553799356
 30
0.0
 10
164.4319075297846
 20
110.5953574094194
 30
0.0
 10
164.4072666426952
 20
110.5894988753039
 30
0.0
 10
164.3538788585438
 20
110.5776450719743
 30
0.0
 10
164.3252625595736
 20
110.5716860814588
 30
0.0
 10
164.2368736950349
 20
110.5540295406579
 30
0.0
 10
164.1726112299465
 20
110.5421623979794
 30
0.0
 10
164.1079069767441
 20
110.5302251224974
 30
0.0
  0
SPLINE
  5
3E6
330
1F
100
AcDbEntity
  8
0
  6
Continuous
 62
     7
370
    25
100
AcDbSpline
210
0.0
220
0.0
230
1.0
 70
     8
 71
     3
 72
    20
 73
    16
 74
     0
 42
0.00000001
 43
0.00000001
 40
0.0
 40
0.0
 40
0.0
 40
0.0
 40
0.125
 40
0.125
 40
0.2500000000000001
 40
0.2500000000000001
 40
0.3750000000000001
 40
0.3750000000000001
 40
0.5000000000000001
 40
0.5000000000000001
 40
0.6250000000000001
 40
0.6250000000000001
 40
0.7500000000000002
 40
0.7500000000000002
 40
1.0
 40
1.0
 40
1.0
 40
1.0
 10
164.1079069767442
 20
213.1108109089351
 30
0.0
 10
164.1402591026802
 20
213.1048422713168
 30
0.0
 10
164.1720796547573
 20
213.0989708190629
 30
0.0
 10
164.2346617156263
 20
213.0872000791242
 30
0.0
 10
164.2657305271479
 20
213.0812399128172
 30
0.0
 10
164.3250880018387
 20
213.0693869348677
 30
0.0
 10
164.3532262951902
 20
213.0635285308215
 30
0.0
 10
164.4064287554228
 20
213.0517303102776
 30
0.0
 10
164.4316521691965
 20
213.0457411663732
 30
0.0
 10
164.4768866704111
 20
213.0339431958571
 30
0.0
 10
164.4971574950201
 20
213.0280846617417
 30
0.0
 10
164.5329128695743
 20
213.0162308584119
 30
0.0
 10
164.5482185221995
 20
213.0102718678965
 30
0.0
 10
164.5849168418069
 20
212.9926153270956
 30
0.0
 10
164.597906976744
 20
212.9807481844171
 30
0.0
 10
164.597906976744
 20
212.9688109089351
 30
0.0
  0
LINE
  5
3E7
330
1F
100
AcDbEntity
  8
0
  6
Continuous
 62
     7
370
    25
100
AcDbLine
 10
164.5979069767
 20
212.9688109089
 30
0.0
 11
164.5979069767
 21
210.6295549849
 31
0.0
  0
LINE
  5
3E8
330
1F
100
AcDbEntity
  8
0
  6
Continuous
 62
     7
370
    25
100
AcDbLine
 10
164.5979069767
 20
209.0295549849
 30
0.0
 11
164.5979069767
 21
110.6722251225
 31
0.0
  0
ARC
  5
3E9
330
1F
100
AcDbEntity
  8
0
  6
Continuous
 62
     7
370
    25
100
AcDbCircle
 10
161.4879069767
 20
240.0008109089
 30
0.0
 40
0.24999999999999
100
AcDbArc
 50
108.1798011892
 51
162.1850039115
  0
LINE
  5
3EA
330
1F
100
AcDbEntity
  8
0
  6
Continuous
 62
     7
370
    25
100
AcDbLine
 10
160.9979069767
 20
213.2108109089
 30
0.0
 11
161.2379069767
 21
213.2108109089
 31
0.0
  0
LINE
  5
3EB
330
1F
100
AcDbEntity
  8
0
  6
Continuous
 62
     7
370
    25
100
AcDbLine
 10
160.9979069767
 20
229.6722251225
 30
0.0
 11
160.9979069767
 21
213.2108109089
 31
0.0
  0
LINE
  5
3EC
330
1F
100
AcDbEntity
  8
0
  6
Continuous
 62
     7
370
    25
100
AcDbLine
 10
161.2379069767
 20
229.5102251225
 30
0.0
 11
161.2379069767
 21
213.2108109089
 31
0.0
  0
LINE
  5
3ED
330
1F
100
AcDbEntity
  8
0
  6
Continuous
 62
     7
370
    25
100
AcDbLine
 10
240.9979069767
 20
213.2108109089
 30
0.0
 11
240.9979069767
 21
229.6722251225
 31
0.0
  0
LINE
  5
3EE
330
1F
100
AcDbEntity
  8
0
  6
Continuous
 62
     7
370
    25
100
AcDbLine
 10
240.9979069767
 20
213.2108109089
 30
0.0
 11
240.7579069767
 21
213.2108109089
 31
0.0
  0
LINE
  5
3EF
330
1F
100
AcDbEntity
  8
0
  6
Continuous
 62
     7
370
    25
100
AcDbLine
 10
240.7579069767
 20
213.2108109089
 30
0.0
 11
240.7579069767
 21
229.5102251225
 31
0.0
  0
ARC
  5
3F0
330
1F
100
AcDbEntity
  8
0
  6
Continuous
 62
     7
370
    25
100
AcDbCircle
 10
240.5079069767
 20
240.0008109089
 30
0.0
 40
0.2500000000000074
100
AcDbArc
 50
17.8149960885
 51
71.8201988105
  0
LINE
  5
3F1
330
1F
100
AcDbEntity
  8
0
  6
Continuous
 62
     7
370
    25
100
AcDbLine
 10
240.7579069767
 20
213.1108109089
 30
0.0
 11
240.7579069767
 21
213.2108109089
 31
0.0
  0
LINE
  5
3F2
330
1F
100
AcDbEntity
  8
0
  6
Continuous
 62
     7
370
    25
100
AcDbLine
 10
240.9979069767
 20
213.1108109089
 30
0.0
 11
240.9979069767
 21
213.2108109089
 31
0.0
  0
LINE
  5
3F3
330
1F
100
AcDbEntity
  8
0
  6
Continuous
 62
     7
370
    25
100
AcDbLine
 10
161.2379069767
 20
213.2108109089
 30
0.0
 11
161.2379069767
 21
213.1108109089
 31
0.0
  0
LINE
  5
3F4
330
1F
100
AcDbEntity
  8
0
  6
Continuous
 62
     7
370
    25
100
AcDbLine
 10
160.9979069767
 20
213.2108109089
 30
0.0
 11
160.9979069767
 21
213.1108109089
 31
0.0
  0
LINE
  5
3F5
330
1F
100
AcDbEntity
  8
0
  6
Continuous
 62
     7
370
    25
100
AcDbLine
 10
237.3979069767
 20
110.9202251225
 30
0.0
 11
237.1479069767
 21
110.9202251225
 31
0.0
  0
SPLINE
  5
3F6
330
1F
100
AcDbEntity
  8
0
  6
Continuous
 62
     7
370
    25
100
AcDbSpline
210
0.0
220
0.0
230
1.0
 70
     8
 71
     3
 72
    18
 73
    14
 74
     0
 42
0.00000001
 43
0.00000001
 40
0.0
 40
0.0
 40
0.0
 40
0.0
 40
0.2500000000000212
 40
0.2500000000000212
 40
0.5000000000000424
 40
0.5000000000000424
 40
0.6250000000000318
 40
0.6250000000000318
 40
0.7500000000000212
 40
0.7500000000000212
 40
0.8750000000000105
 40
0.8750000000000105
 40
1.0
 40
1.0
 40
1.0
 40
1.0
 10
237.1479069767442
 20
212.7202251224975
 30
0.0
 10
237.1760887697443
 20
212.7483881016316
 30
0.0
 10
237.2039614056287
 20
212.775740718794
 30
0.0
 10
237.2583198346326
 20
212.8294735158495
 30
0.0
 10
237.2846412891855
 20
212.856302267647
 30
0.0
 10
237.3205915905633
 20
212.8926414687033
 30
0.0
 10
237.3323340927186
 20
212.9040418204938
 30
0.0
 10
237.3537331599788
 20
212.9239581351635
 30
0.0
 10
237.3634581080366
 20
212.9326721412542
 30
0.0
 10
237.3800029671505
 20
212.9476554280511
 30
0.0
 10
237.3864989094243
 20
212.953637010754
 30
0.0
 10
237.395473460196
 20
212.9631259799968
 30
0.0
 10
237.3979069767442
 20
212.9666076972825
 30
0.0
 10
237.3979069767442
 20
212.9688109089351
 30
0.0
  0
LINE
  5
3F7
330
1F
100
AcDbEntity
  8
0
  6
Continuous
 62
     7
370
    25
100
AcDbLine
 10
164.8479069767
 20
110.9202251225
 30
0.0
 11
164.5979069767
 21
110.9202251225
 31
0.0
  0
SPLINE
  5
3F8
330
1F
100
AcDbEntity
  8
0
  6
Continuous
 62
     7
370
    25
100
AcDbSpline
210
0.0
220
0.0
230
1.0
 70
     8
 71
     3
 72
    18
 73
    14
 74
     0
 42
0.00000001
 43
0.00000001
 40
0.0
 40
0.0
 40
0.0
 40
0.0
 40
0.1249999999999994
 40
0.1249999999999994
 40
0.2499999999999989
 40
0.2499999999999989
 40
0.3749999999999983
 40
0.3749999999999983
 40
0.4999999999999978
 40
0.4999999999999978
 40
0.7499999999999989
 40
0.7499999999999989
 40
1.0
 40
1.0
 40
1.0
 40
1.0
 10
164.5979069767442
 20
212.9688109089351
 30
0.0
 10
164.5979069767442
 20
212.9666118488047
 30
0.0
 10
164.6002532949935
 20
212.9632336140924
 30
0.0
 10
164.6091717090227
 20
212.9537735162355
 30
0.0
 10
164.6158053686268
 20
212.9476590379342
 30
0.0
 10
164.632092858024
 20
212.9329130953407
 30
0.0
 10
164.6419514674666
 20
212.9240933096407
 30
0.0
 10
164.6633402661825
 20
212.9041842482648
 30
0.0
 10
164.674891169911
 20
212.8929626850235
 30
0.0
 10
164.711121553148
 20
212.8564293527756
 30
0.0
 10
164.7367927505721
 20
212.8301707667824
 30
0.0
 10
164.7915337862221
 20
212.7760519293411
 30
0.0
 10
164.8197396127935
 20
212.7483736822148
 30
0.0
 10
164.8479069767442
 20
212.7202251224975
 30
0.0
  0
SPLINE
  5
3F9
330
1F
100
AcDbEntity
  8
0
  6
Continuous
 62
     7
370
    25
100
AcDbSpline
210
0.0
220
0.0
230
1.0
 70
     8
 71
     3
 72
    28
 73
    24
 74
     0
 42
0.00000001
 43
0.00000001
 40
0.0
 40
0.0
 40
0.0
 40
0.0
 40
0.25
 40
0.25
 40
0.375
 40
0.375
 40
0.4375
 40
0.4375
 40
0.46875
 40
0.46875
 40
0.484375
 40
0.484375
 40
0.4921875
 40
0.4921875
 40
0.49609375
 40
0.49609375
 40
0.498046875
 40
0.498046875
 40
0.5
 40
0.5
 40
0.75
 40
0.75
 40
1.0
 40
1.0
 40
1.0
 40
1.0
 10
164.8479069767442
 20
212.7202251224975
 30
0.0
 10
164.8061071702316
 20
212.7620528527589
 30
0.0
 10
164.7710870379355
 20
212.7980639141375
 30
0.0
 10
164.7283225456978
 20
212.8408034985126
 30
0.0
 10
164.7157177662706
 20
212.8532432129742
 30
0.0
 10
164.6992856741081
 20
212.8694124115892
 30
0.0
 10
164.6942208228836
 20
212.8743897273892
 30
0.0
 10
164.6872423152913
 20
212.8812815825696
 30
0.0
 10
164.6850192743013
 20
212.8834832632223
 30
0.0
 10
164.6818394051275
 20
212.8866485019693
 30
0.0
 10
164.6808052307881
 20
212.8876807041258
 30
0.0
 10
164.6792926423567
 20
212.8891954782986
 30
0.0
 10
164.6787948917259
 20
212.8896948149685
 30
0.0
 10
164.6780579340491
 20
212.8904355372336
 30
0.0
 10
164.6778138928684
 20
212.8906810642045
 30
0.0
 10
164.6774502481647
 20
212.8910472964505
 30
0.0
 10
164.6773294361081
 20
212.8911690308311
 30
0.0
 10
164.6770886176839
 20
212.891411815604
 30
0.0
 10
164.6770181839236
 20
212.8914828350146
 30
0.0
 10
164.6551944631158
 20
212.9135083493828
 30
0.0
 10
164.6379065393197
 20
212.9331368325356
 30
0.0
 10
164.6120639334908
 20
212.9615342019511
 30
0.0
 10
164.6035174139156
 20
212.9702251224975
 30
0.0
 10
164.5993211903065
 20
212.9702251224975
 30
0.0
  0
SPLINE
  5
3FA
330
1F
100
AcDbEntity
  8
0
  6
Continuous
 62
     7
370
    25
100
AcDbSpline
210
0.0
220
0.0
230
1.0
 70
     8
 71
     3
 72
    24
 73
    20
 74
     0
 42
0.00000001
 43
0.00000001
 40
0.0
 40
0.0
 40
0.0
 40
0.0
 40
0.25
 40
0.25
 40
0.375
 40
0.375
 40
0.4375
 40
0.4375
 40
0.46875
 40
0.46875
 40
0.484375
 40
0.484375
 40
0.4921875
 40
0.4921875
 40
0.5
 40
0.5
 40
0.75
 40
0.75
 40
1.0
 40
1.0
 40
1.0
 40
1.0
 10
237.3964927631817
 20
212.9702251224975
 30
0.0
 10
237.3883384776737
 20
212.9702251224975
 30
0.0
 10
237.3778860971633
 20
212.9595369510147
 30
0.0
 10
237.3586229770995
 20
212.9371860414334
 30
0.0
 10
237.351612145906
 20
212.9286735200662
 30
0.0
 10
237.3402112123574
 20
212.9153050374129
 30
0.0
 10
237.3362634533815
 20
212.9107467134115
 30
0.0
 10
237.3301206432281
 20
212.9038593347596
 30
0.0
 10
237.3280361778954
 20
212.9015550772328
 30
0.0
 10
237.3248541869739
 20
212.8980975769779
 30
0.0
 10
237.3237843078462
 20
212.896944881998
 30
0.0
 10
237.3221656659243
 20
212.8952169125995
 30
0.0
 10
237.3216238147452
 20
212.8946411010761
 30
0.0
 10
237.3205355046435
 20
212.8934900553567
 30
0.0
 10
237.3199320906322
 20
212.8928551598358
 30
0.0
 10
237.3037024363445
 20
212.8758543495194
 30
0.0
 10
237.2815390708716
 20
212.8538742785149
 30
0.0
 10
237.2243613021441
 20
212.7964378546418
 30
0.0
 10
237.1894237715927
 20
212.7608503892847
 30
0.0
 10
237.1479069767441
 20
212.7202251224975
 30
0.0
  0
LINE
  5
3FB
330
1F
100
AcDbEntity
  8
0
  6
Continuous
 62
     7
370
    25
100
AcDbLine
 10
164.8479069767
 20
110.9202251225
 30
0.0
 11
164.8479069767
 21
110.6702251225
 31
0.0
  0
LINE
  5
3FC
330
1F
100
AcDbEntity
  8
0
  6
Continuous
 62
     7
370
    25
100
AcDbLine
 10
237.1479069767
 20
110.6702251225
 30
0.0
 11
237.1479069767
 21
110.9202251225
 31
0.0
  0
LINE
  5
3FD
330
1F
100
AcDbEntity
  8
0
  6
Continuous
 62
     7
370
    25
100
AcDbLine
 10
190.9979069767
 20
116.8702251225
 30
0.0
 11
186.3679069767
 21
116.8702251225
 31
0.0
  0
LINE
  5
3FE
330
1F
100
AcDbEntity
  8
0
  6
Continuous
 62
     7
370
    25
100
AcDbLine
 10
185.4079069767
 20
116.8702251225
 30
0.0
 11
184.8179069767
 21
116.8702251225
 31
0.0
  0
LINE
  5
3FF
330
1F
100
AcDbEntity
  8
0
  6
Continuous
 62
     7
370
    25
100
AcDbLine
 10
183.8579069767
 20
116.8702251225
 30
0.0
 11
183.3779069767
 21
116.8702251225
 31
0.0
  0
LINE
  5
400
330
1F
100
AcDbEntity
  8
0
  6
Continuous
 62
     7
370
    25
100
AcDbLine
 10
182.4179069767
 20
116.8702251225
 30
0.0
 11
181.8279069767
 21
116.8702251225
 31
0.0
  0
LINE
  5
401
330
1F
100
AcDbEntity
  8
0
  6
Continuous
 62
     7
370
    25
100
AcDbLine
 10
180.8679069767
 20
116.8702251225
 30
0.0
 11
179.2979069767
 21
116.8702251225
 31
0.0
  0
LINE
  5
402
330
1F
100
AcDbEntity
  8
0
  6
Continuous
 62
     7
370
    25
100
AcDbLine
 10
167.2979069767
 20
211.2702251225
 30
0.0
 11
169.7979069767
 21
211.2702251225
 31
0.0
  0
LINE
  5
403
330
1F
100
AcDbEntity
  8
0
  6
Continuous
 62
     7
370
    25
100
AcDbLine
 10
171.3979069767
 20
211.2702251225
 30
0.0
 11
171.4979069767
 21
211.2702251225
 31
0.0
  0
LINE
  5
404
330
1F
100
AcDbEntity
  8
0
  6
Continuous
 62
     7
370
    25
100
AcDbLine
 10
167.2979069767
 20
211.1302251225
 30
0.0
 11
167.2979069767
 21
211.2702251225
 31
0.0
  0
LINE
  5
405
330
1F
100
AcDbEntity
  8
0
  6
Continuous
 62
     7
370
    25
100
AcDbLine
 10
223.2979069767
 20
116.8702251225
 30
0.0
 11
221.1279069767
 21
116.8702251225
 31
0.0
  0
LINE
  5
406
330
1F
100
AcDbEntity
  8
0
  6
Continuous
 62
     7
370
    25
100
AcDbLine
 10
220.1679069767
 20
116.8702251225
 30
0.0
 11
219.5779069767
 21
116.8702251225
 31
0.0
  0
LINE
  5
407
330
1F
100
AcDbEntity
  8
0
  6
Continuous
 62
     7
370
    25
100
AcDbLine
 10
218.6179069767
 20
116.8702251225
 30
0.0
 11
218.1379069767
 21
116.8702251225
 31
0.0
  0
LINE
  5
408
330
1F
100
AcDbEntity
  8
0
  6
Continuous
 62
     7
370
    25
100
AcDbLine
 10
217.1779069767
 20
116.8702251225
 30
0.0
 11
216.5879069767
 21
116.8702251225
 31
0.0
  0
LINE
  5
409
330
1F
100
AcDbEntity
  8
0
  6
Continuous
 62
     7
370
    25
100
AcDbLine
 10
215.6279069767
 20
116.8702251225
 30
0.0
 11
211.2979069767
 21
116.8702251225
 31
0.0
  0
LINE
  5
40A
330
1F
100
AcDbEntity
  8
0
  6
Continuous
 62
     7
370
    25
100
AcDbLine
 10
234.6979069767
 20
211.2702251225
 30
0.0
 11
234.6979069767
 21
211.1302251225
 31
0.0
  0
LINE
  5
40B
330
1F
100
AcDbEntity
  8
0
  6
Continuous
 62
     7
370
    25
100
AcDbLine
 10
230.4979069767
 20
211.2702251225
 30
0.0
 11
230.5979069767
 21
211.2702251225
 31
0.0
  0
LINE
  5
40C
330
1F
100
AcDbEntity
  8
0
  6
Continuous
 62
     7
370
    25
100
AcDbLine
 10
232.1979069767
 20
211.2702251225
 30
0.0
 11
234.6979069767
 21
211.2702251225
 31
0.0
  0
ENDSEC
  0
SECTION
  2
OBJECTS
  0
DICTIONARY
  5
C
330
0
100
AcDbDictionary
281
     1
  3
ACAD_GROUP
350
D
  3
ACAD_LAYOUT
350
1A
  3
ACAD_MLINESTYLE
350
17
  3
ACAD_PLOTSETTINGS
350
19
  3
ACAD_PLOTSTYLENAME
350
E
  3
ACAD_SCALELIST
350
47
  3
DWGPROPS
350
40D
  0
DICTIONARY
  5
D
102
{ACAD_REACTORS
330
C
102
}
330
C
100
AcDbDictionary
281
     1
  0
DICTIONARY
  5
1A
102
{ACAD_REACTORS
330
C
102
}
330
C
100
AcDbDictionary
281
     1
  3
Layout1
350
1E
  3
Layout2
350
26
  3
Model
350
22
  0
DICTIONARY
  5
17
102
{ACAD_REACTORS
330
C
102
}
330
C
100
AcDbDictionary
281
     1
  3
Standard
350
18
  0
DICTIONARY
  5
19
102
{ACAD_REACTORS
330
C
102
}
330
C
100
AcDbDictionary
281
     1
  0
ACDBDICTIONARYWDFLT
  5
E
102
{ACAD_REACTORS
330
C
102
}
330
C
100
AcDbDictionary
281
     1
  3
Normal
350
F
100
AcDbDictionaryWithDefault
340
F
  0
DICTIONARY
  5
47
102
{ACAD_REACTORS
330
C
102
}
330
C
100
AcDbDictionary
281
     1
  3
A0
350
48
  3
A1
350
49
  3
A2
350
4A
  3
A3
350
4B
  3
A4
350
4C
  3
A5
350
4D
  3
A6
350
4E
  3
A7
350
4F
  3
A8
350
50
  3
A9
350
51
  3
B0
350
52
  3
B1
350
53
  3
B2
350
54
  3
B3
350
55
  3
B4
350
56
  3
B5
350
57
  3
B6
350
58
  3
B7
350
59
  3
B8
350
5A
  3
B9
350
5B
  3
C0
350
5C
  3
C1
350
5D
  3
C2
350
5E
  3
C3
350
5F
  3
C4
350
60
  3
C5
350
61
  3
C6
350
62
  3
C7
350
63
  3
C8
350
64
  3
C9
350
65
  3
D0
350
66
  3
D1
350
67
  3
D2
350
68
  0
XRECORD
  5
40D
102
{ACAD_REACTORS
330
C
102
}
330
C
100
AcDbXrecord
280
     1
  1
DWGPROPS COOKIE
  2

  3

  4

  6

  7

  8
rnd14
  9

300
=
301
=
302
=
303
=
304
=
305
=
306
=
307
=
308
=
309
=
 40
0.0
 41
2460438.600720567
 42
2460438.600720961
  1

 90
        0
  0
LAYOUT
  5
1E
102
{ACAD_REACTORS
330
1A
102
}
330
1A
100
AcDbPlotSettings
  1

  2
none_device
  4

  6

 40
0.0
 41
0.0
 42
0.0
 43
0.0
 44
0.0
 45
0.0
 46
0.0
 47
0.0
 48
0.0
 49
0.0
140
0.0
141
0.0
142
1.0
143
1.0
 70
   688
 72
     1
 73
     0
 74
     5
  7

 75
    16
147
1.0
148
0.0
149
0.0
100
AcDbLayout
  1
Layout1
 70
     1
 71
     1
 10
0.0
 20
0.0
 11
420.0
 21
297.0
 12
0.0
 22
0.0
 32
0.0
 14
1.0000000000E+20
 24
1.0000000000E+20
 34
1.0000000000E+20
 15
-1.0000000000E+20
 25
-1.0000000000E+20
 35
-1.0000000000E+20
146
0.0
 13
0.0
 23
0.0
 33
0.0
 16
1.0
 26
0.0
 36
0.0
 17
0.0
 27
1.0
 37
0.0
 76
     0
330
1B
  0
LAYOUT
  5
26
102
{ACAD_REACTORS
330
1A
102
}
330
1A
100
AcDbPlotSettings
  1

  2
none_device
  4

  6

 40
0.0
 41
0.0
 42
0.0
 43
0.0
 44
0.0
 45
0.0
 46
0.0
 47
0.0
 48
0.0
 49
0.0
140
0.0
141
0.0
142
1.0
143
1.0
 70
   688
 72
     1
 73
     0
 74
     5
  7

 75
    16
147
1.0
148
0.0
149
0.0
100
AcDbLayout
  1
Layout2
 70
     1
 71
     2
 10
0.0
 20
0.0
 11
0.0
 21
0.0
 12
0.0
 22
0.0
 32
0.0
 14
0.0
 24
0.0
 34
0.0
 15
0.0
 25
0.0
 35
0.0
146
0.0
 13
0.0
 23
0.0
 33
0.0
 16
1.0
 26
0.0
 36
0.0
 17
0.0
 27
1.0
 37
0.0
 76
     0
330
23
  0
LAYOUT
  5
22
102
{ACAD_REACTORS
330
1A
102
}
330
1A
100
AcDbPlotSettings
  1

  2
none_device
  4
Letter_(8.50_x_11.00_Inches)
  6

 40
6.35
 41
6.35
 42
6.35000508
 43
6.35000508
 44
215.9
 45
279.4
 46
0.0
 47
0.0
 48
0.0
 49
0.0
140
0.0
141
0.0
142
1.0
143
1.0
 70
  1712
 72
     1
 73
     0
 74
     0
  7

 75
     0
147
1.0
148
0.0
149
0.0
100
AcDbLayout
  1
Model
 70
     1
 71
     0
 10
0.0
 20
0.0
 11
420.0
 21
297.0
 12
0.0
 22
0.0
 32
0.0
 14
0.0
 24
0.0
 34
0.0
 15
420.0
 25
297.0
 35
0.0
146
0.0
 13
0.0
 23
0.0
 33
0.0
 16
1.0
 26
0.0
 36
0.0
 17
0.0
 27
1.0
 37
0.0
 76
     0
330
1F
331
29
  0
MLINESTYLE
  5
18
102
{ACAD_REACTORS
330
17
102
}
330
17
100
AcDbMlineStyle
  2
Standard
 70
     0
  3

 62
   256
 51
90.0
 52
90.0
 71
     2
 49
0.5
 62
   256
  6
BYLAYER
 49
-0.5
 62
   256
  6
BYLAYER
  0
ACDBPLACEHOLDER
  5
F
102
{ACAD_REACTORS
330
E
102
}
330
E
  0
SCALE
  5
48
102
{ACAD_REACTORS
330
47
102
}
330
47
100
AcDbScale
 70
     0
300
1:1
140
1.0
141
1.0
290
     1
  0
SCALE
  5
49
102
{ACAD_REACTORS
330
47
102
}
330
47
100
AcDbScale
 70
     0
300
1:2
140
1.0
141
2.0
290
     0
  0
SCALE
  5
4A
102
{ACAD_REACTORS
330
47
102
}
330
47
100
AcDbScale
 70
     0
300
1:4
140
1.0
141
4.0
290
     0
  0
SCALE
  5
4B
102
{ACAD_REACTORS
330
47
102
}
330
47
100
AcDbScale
 70
     0
300
1:5
140
1.0
141
5.0
290
     0
  0
SCALE
  5
4C
102
{ACAD_REACTORS
330
47
102
}
330
47
100
AcDbScale
 70
     0
300
1:8
140
1.0
141
8.0
290
     0
  0
SCALE
  5
4D
102
{ACAD_REACTORS
330
47
102
}
330
47
100
AcDbScale
 70
     0
300
1:10
140
1.0
141
10.0
290
     0
  0
SCALE
  5
4E
102
{ACAD_REACTORS
330
47
102
}
330
47
100
AcDbScale
 70
     0
300
1:16
140
1.0
141
16.0
290
     0
  0
SCALE
  5
4F
102
{ACAD_REACTORS
330
47
102
}
330
47
100
AcDbScale
 70
     0
300
1:20
140
1.0
141
20.0
290
     0
  0
SCALE
  5
50
102
{ACAD_REACTORS
330
47
102
}
330
47
100
AcDbScale
 70
     0
300
1:30
140
1.0
141
30.0
290
     0
  0
SCALE
  5
51
102
{ACAD_REACTORS
330
47
102
}
330
47
100
AcDbScale
 70
     0
300
1:40
140
1.0
141
40.0
290
     0
  0
SCALE
  5
52
102
{ACAD_REACTORS
330
47
102
}
330
47
100
AcDbScale
 70
     0
300
1:50
140
1.0
141
50.0
290
     0
  0
SCALE
  5
53
102
{ACAD_REACTORS
330
47
102
}
330
47
100
AcDbScale
 70
     0
300
1:100
140
1.0
141
100.0
290
     0
  0
SCALE
  5
54
102
{ACAD_REACTORS
330
47
102
}
330
47
100
AcDbScale
 70
     0
300
2:1
140
2.0
141
1.0
290
     0
  0
SCALE
  5
55
102
{ACAD_REACTORS
330
47
102
}
330
47
100
AcDbScale
 70
     0
300
4:1
140
4.0
141
1.0
290
     0
  0
SCALE
  5
56
102
{ACAD_REACTORS
330
47
102
}
330
47
100
AcDbScale
 70
     0
300
8:1
140
8.0
141
1.0
290
     0
  0
SCALE
  5
57
102
{ACAD_REACTORS
330
47
102
}
330
47
100
AcDbScale
 70
     0
300
10:1
140
10.0
141
1.0
290
     0
  0
SCALE
  5
58
102
{ACAD_REACTORS
330
47
102
}
330
47
100
AcDbScale
 70
     0
300
100:1
140
100.0
141
1.0
290
     0
  0
SCALE
  5
59
102
{ACAD_REACTORS
330
47
102
}
330
47
100
AcDbScale
 70
     0
300
1/128" = 1'-0"
140
0.0078125
141
12.0
290
     0
  0
SCALE
  5
5A
102
{ACAD_REACTORS
330
47
102
}
330
47
100
AcDbScale
 70
     0
300
1/64" = 1'-0"
140
0.015625
141
12.0
290
     0
  0
SCALE
  5
5B
102
{ACAD_REACTORS
330
47
102
}
330
47
100
AcDbScale
 70
     0
300
1/32" = 1'-0"
140
0.03125
141
12.0
290
     0
  0
SCALE
  5
5C
102
{ACAD_REACTORS
330
47
102
}
330
47
100
AcDbScale
 70
     0
300
1/16" = 1'-0"
140
0.0625
141
12.0
290
     0
  0
SCALE
  5
5D
102
{ACAD_REACTORS
330
47
102
}
330
47
100
AcDbScale
 70
     0
300
3/32" = 1'-0"
140
0.09375
141
12.0
290
     0
  0
SCALE
  5
5E
102
{ACAD_REACTORS
330
47
102
}
330
47
100
AcDbScale
 70
     0
300
1/8" = 1'-0"
140
0.125
141
12.0
290
     0
  0
SCALE
  5
5F
102
{ACAD_REACTORS
330
47
102
}
330
47
100
AcDbScale
 70
     0
300
3/16" = 1'-0"
140
0.1875
141
12.0
290
     0
  0
SCALE
  5
60
102
{ACAD_REACTORS
330
47
102
}
330
47
100
AcDbScale
 70
     0
300
1/4" = 1'-0"
140
0.25
141
12.0
290
     0
  0
SCALE
  5
61
102
{ACAD_REACTORS
330
47
102
}
330
47
100
AcDbScale
 70
     0
300
3/8" = 1'-0"
140
0.375
141
12.0
290
     0
  0
SCALE
  5
62
102
{ACAD_REACTORS
330
47
102
}
330
47
100
AcDbScale
 70
     0
300
1/2" = 1'-0"
140
0.5
141
12.0
290
     0
  0
SCALE
  5
63
102
{ACAD_REACTORS
330
47
102
}
330
47
100
AcDbScale
 70
     0
300
3/4" = 1'-0"
140
0.75
141
12.0
290
     0
  0
SCALE
  5
64
102
{ACAD_REACTORS
330
47
102
}
330
47
100
AcDbScale
 70
     0
300
1" = 1'-0"
140
1.0
141
12.0
290
     0
  0
SCALE
  5
65
102
{ACAD_REACTORS
330
47
102
}
330
47
100
AcDbScale
 70
     0
300
1-1/2" = 1'-0"
140
1.5
141
12.0
290
     0
  0
SCALE
  5
66
102
{ACAD_REACTORS
330
47
102
}
330
47
100
AcDbScale
 70
     0
300
3" = 1'-0"
140
3.0
141
12.0
290
     0
  0
SCALE
  5
67
102
{ACAD_REACTORS
330
47
102
}
330
47
100
AcDbScale
 70
     0
300
6" = 1'-0"
140
6.0
141
12.0
290
     0
  0
SCALE
  5
68
102
{ACAD_REACTORS
330
47
102
}
330
47
100
AcDbScale
 70
     0
300
1'-0" = 1'-0"
140
12.0
141
12.0
290
     0
  0
ENDSEC
  0
EOF
