  0
SECTION
  2
HEADER
  9
$ACADVER
  1
AC1015
  9
$ACADMAINTVER
 70
     6
  9
$DWGCODEPAGE
  3
ANSI_1252
  9
$INSBASE
 10
0.0
 20
0.0
 30
0.0
  9
$EXTMIN
 10
0.0
 20
0.0
 30
0.0
  9
$EXTMAX
 10
1000.0
 20
1200.0
 30
0.0
  9
$LIMMIN
 10
0.0
 20
0.0
  9
$LIMMAX
 10
1000.0
 20
1200.0
  9
$ORTHOMODE
 70
     0
  9
$REGENMODE
 70
     1
  9
$FILLMODE
 70
     1
  9
$QTEXTMODE
 70
     0
  9
$MIRRTEXT
 70
     1
  9
$LTSCALE
 40
1.0
  9
$ATTMODE
 70
     1
  9
$TEXTSIZE
 40
3.5
  9
$TRACEWID
 40
1.0
  9
$TEXTSTYLE
  7
Standard
  9
$CLAYER
  8
0
  9
$CELTYPE
  6
ByLayer
  9
$CECOLOR
 62
   256
  9
$CELTSCALE
 40
1.0
  9
$DISPSILH
 70
     0
  9
$DIMSCALE
 40
1.0
  9
$DIMASZ
 40
3.302
  9
$DIMEXO
 40
1.0
  9
$DIMDLI
 40
3.75
  9
$DIMRND
 40
0.0
  9
$DIMDLE
 40
0.0
  9
$DIMEXE
 40
1.0
  9
$DIMTP
 40
0.0
  9
$DIMTM
 40
0.0
  9
$DIMTXT
 40
3.5
  9
$DIMCEN
 40
2.5
  9
$DIMTSZ
 40
0.0
  9
$DIMTOL
 70
     0
  9
$DIMLIM
 70
     0
  9
$DIMTIH
 70
     1
  9
$DIMTOH
 70
     1
  9
$DIMSE1
 70
     0
  9
$DIMSE2
 70
     0
  9
$DIMTAD
 70
     1
  9
$DIMZIN
 70
     0
  9
$DIMBLK
  1

  9
$DIMASO
 70
     1
  9
$DIMSHO
 70
     1
  9
$DIMPOST
  1

  9
$DIMAPOST
  1

  9
$DIMALT
 70
     0
  9
$DIMALTD
 70
     3
  9
$DIMALTF
 40
0.0393700787
  9
$DIMLFAC
 40
1.0
  9
$DIMTOFL
 70
     1
  9
$DIMTVP
 40
0.0
  9
$DIMTIX
 70
     0
  9
$DIMSOXD
 70
     0
  9
$DIMSAH
 70
     0
  9
$DIMBLK1
  1

  9
$DIMBLK2
  1

  9
$DIMSTYLE
  2
ISO-25
  9
$DIMCLRD
 70
     0
  9
$DIMCLRE
 70
     0
  9
$DIMCLRT
 70
     0
  9
$DIMTFAC
 40
1.0
  9
$DIMGAP
 40
1.524
  9
$DIMJUST
 70
     0
  9
$DIMSD1
 70
     0
  9
$DIMSD2
 70
     0
  9
$DIMTOLJ
 70
     0
  9
$DIMTZIN
 70
     0
  9
$DIMALTZ
 70
     0
  9
$DIMALTTZ
 70
     0
  9
$DIMUPT
 70
     0
  9
$DIMDEC
 70
     1
  9
$DIMTDEC
 70
     1
  9
$DIMALTU
 70
     2
  9
$DIMALTTD
 70
     3
  9
$DIMTXSTY
  7
Standard
  9
$DIMAUNIT
 70
     0
  9
$DIMADEC
 70
     1
  9
$DIMALTRND
 40
0.0
  9
$DIMAZIN
 70
     0
  9
$DIMDSEP
 70
    44
  9
$DIMATFIT
 70
     3
  9
$DIMFRAC
 70
     0
  9
$DIMLDRBLK
  1

  9
$DIMLUNIT
 70
     2
  9
$DIMLWD
 70
    -2
  9
$DIMLWE
 70
    -2
  9
$DIMTMOVE
 70
     0
  9
$LUNITS
 70
     2
  9
$LUPREC
 70
     1
  9
$SKETCHINC
 40
1.0
  9
$FILLETRAD
 40
10.0
  9
$AUNITS
 70
     0
  9
$AUPREC
 70
     1
  9
$MENU
  1
.
  9
$ELEVATION
 40
0.0
  9
$PELEVATION
 40
0.0
  9
$THICKNESS
 40
0.0
  9
$LIMCHECK
 70
     0
  9
$CHAMFERA
 40
10.0
  9
$CHAMFERB
 40
10.0
  9
$CHAMFERC
 40
20.0
  9
$CHAMFERD
 40
0.0
  9
$SKPOLY
 70
     0
  9
$TDCREATE
 40
2455756.647677732
  9
$TDUCREATE
 40
2455756.606011065
  9
$TDUPDATE
 40
2455756.647677743
  9
$TDUUPDATE
 40
2455756.606011076
  9
$TDINDWG
 40
0.0000000116
  9
$TDUSRTIMER
 40
0.0000000116
  9
$USRTIMER
 70
     1
  9
$ANGBASE
 50
0.0
  9
$ANGDIR
 70
     0
  9
$PDMODE
 70
     0
  9
$PDSIZE
 40
-1.0
  9
$PLINEWID
 40
0.0
  9
$SPLFRAME
 70
     0
  9
$SPLINETYPE
 70
     6
  9
$SPLINESEGS
 70
     8
  9
$HANDSEED
  5
3AC
  9
$SURFTAB1
 70
     6
  9
$SURFTAB2
 70
     6
  9
$SURFTYPE
 70
     6
  9
$SURFU
 70
     6
  9
$SURFV
 70
     6
  9
$UCSBASE
  2

  9
$UCSNAME
  2

  9
$UCSORG
 10
0.0
 20
0.0
 30
0.0
  9
$UCSXDIR
 10
1.0
 20
0.0
 30
0.0
  9
$UCSYDIR
 10
0.0
 20
1.0
 30
0.0
  9
$UCSORTHOREF
  2

  9
$UCSORTHOVIEW
 70
     0
  9
$UCSORGTOP
 10
0.0
 20
0.0
 30
0.0
  9
$UCSORGBOTTOM
 10
0.0
 20
0.0
 30
0.0
  9
$UCSORGLEFT
 10
0.0
 20
0.0
 30
0.0
  9
$UCSORGRIGHT
 10
0.0
 20
0.0
 30
0.0
  9
$UCSORGFRONT
 10
0.0
 20
0.0
 30
0.0
  9
$UCSORGBACK
 10
0.0
 20
0.0
 30
0.0
  9
$PUCSBASE
  2

  9
$PUCSNAME
  2

  9
$PUCSORG
 10
0.0
 20
0.0
 30
0.0
  9
$PUCSXDIR
 10
1.0
 20
0.0
 30
0.0
  9
$PUCSYDIR
 10
0.0
 20
1.0
 30
0.0
  9
$PUCSORTHOREF
  2

  9
$PUCSORTHOVIEW
 70
     0
  9
$PUCSORGTOP
 10
0.0
 20
0.0
 30
0.0
  9
$PUCSORGBOTTOM
 10
0.0
 20
0.0
 30
0.0
  9
$PUCSORGLEFT
 10
0.0
 20
0.0
 30
0.0
  9
$PUCSORGRIGHT
 10
0.0
 20
0.0
 30
0.0
  9
$PUCSORGFRONT
 10
0.0
 20
0.0
 30
0.0
  9
$PUCSORGBACK
 10
0.0
 20
0.0
 30
0.0
  9
$USERI1
 70
     0
  9
$USERI2
 70
     0
  9
$USERI3
 70
     0
  9
$USERI4
 70
     0
  9
$USERI5
 70
     0
  9
$USERR1
 40
0.0
  9
$USERR2
 40
0.0
  9
$USERR3
 40
0.0
  9
$USERR4
 40
0.0
  9
$USERR5
 40
0.0
  9
$WORLDVIEW
 70
     1
  9
$SHADEDGE
 70
     3
  9
$SHADEDIF
 70
    70
  9
$TILEMODE
 70
     1
  9
$MAXACTVP
 70
    64
  9
$PINSBASE
 10
0.0
 20
0.0
 30
0.0
  9
$PLIMCHECK
 70
     0
  9
$PEXTMIN
 10
1.0000000000E+20
 20
1.0000000000E+20
 30
1.0000000000E+20
  9
$PEXTMAX
 10
-1.0000000000E+20
 20
-1.0000000000E+20
 30
-1.0000000000E+20
  9
$PLIMMIN
 10
0.0
 20
0.0
  9
$PLIMMAX
 10
420.0
 20
297.0
  9
$UNITMODE
 70
     0
  9
$VISRETAIN
 70
     1
  9
$PLINEGEN
 70
     0
  9
$PSLTSCALE
 70
     1
  9
$TREEDEPTH
 70
  3020
  9
$CMLSTYLE
  2
Standard
  9
$CMLJUST
 70
     0
  9
$CMLSCALE
 40
20.0
  9
$PROXYGRAPHICS
 70
     1
  9
$MEASUREMENT
 70
     1
  9
$CELWEIGHT
370
    -1
  9
$ENDCAPS
280
     0
  9
$JOINSTYLE
280
     0
  9
$LWDISPLAY
290
     1
  9
$INSUNITS
 70
     4
  9
$HYPERLINKBASE
  1

  9
$STYLESHEET
  1

  9
$XEDIT
290
     1
  9
$CEPSNTYPE
380
     0
  9
$PSTYLEMODE
290
     1
  9
$FINGERPRINTGUID
  2
{B9ED9B69-149B-47D0-BFB6-74C7E59C0DCC}
  9
$VERSIONGUID
  2
{FAEB1C32-E019-11D5-929B-00C0DF256EC4}
  9
$EXTNAMES
290
     1
  9
$PSVPSCALE
 40
0.0
  9
$OLESTARTUP
290
     0
  0
ENDSEC
  0
SECTION
  2
CLASSES
  0
CLASS
  1
ACDBDICTIONARYWDFLT
  2
AcDbDictionaryWithDefault
  3
ObjectDBX Classes
 90
        0
280
     0
281
     0
  0
CLASS
  1
VISUALSTYLE
  2
AcDbVisualStyle
  3
ObjectDBX Classes
 90
     4095
280
     0
281
     0
  0
CLASS
  1
MATERIAL
  2
AcDbMaterial
  3
ObjectDBX Classes
 90
     1153
280
     0
281
     0
  0
CLASS
  1
ACDBPLACEHOLDER
  2
AcDbPlaceHolder
  3
ObjectDBX Classes
 90
        0
280
     0
281
     0
  0
CLASS
  1
LAYOUT
  2
AcDbLayout
  3
ObjectDBX Classes
 90
        0
280
     0
281
     0
  0
ENDSEC
  0
SECTION
  2
TABLES
  0
TABLE
  2
VPORT
  5
8
330
0
100
AcDbSymbolTable
 70
     1
  0
VPORT
  5
29
330
8
100
AcDbSymbolTableRecord
100
AcDbViewportTableRecord
  2
*Active
 70
     0
 10
0.0
 20
0.0
 11
1.0
 21
1.0
 12
500.0
 22
600.0
 13
0.0
 23
0.0
 14
10.0
 24
10.0
 15
10.0
 25
10.0
 16
0.0
 26
0.0
 36
1.0
 17
0.0
 27
0.0
 37
0.0
 40
1200.0
 41
0.8333333333
 42
50.0
 43
0.0
 44
0.0
 50
0.0
 51
0.0
 71
     0
 72
  2000
 73
     1
 74
     3
 75
     0
 76
     0
 77
     0
 78
     0
281
     0
 65
     1
110
0.0
120
0.0
130
0.0
111
1.0
121
0.0
131
0.0
112
0.0
122
1.0
132
0.0
 79
     0
146
0.0
  0
ENDTAB
  0
TABLE
  2
LTYPE
  5
5
330
0
100
AcDbSymbolTable
 70
     6
  0
LTYPE
  5
14
330
5
100
AcDbSymbolTableRecord
100
AcDbLinetypeTableRecord
  2
ByBlock
 70
     0
  3

 72
    65
 73
     0
 40
0.0
  0
LTYPE
  5
15
330
5
100
AcDbSymbolTableRecord
100
AcDbLinetypeTableRecord
  2
ByLayer
 70
     0
  3

 72
    65
 73
     0
 40
0.0
  0
LTYPE
  5
16
330
5
100
AcDbSymbolTableRecord
100
AcDbLinetypeTableRecord
  2
Continuous
 70
     0
  3
Solid line
 72
    65
 73
     0
 40
0.0
  0
LTYPE
  5
3F
330
5
100
AcDbSymbolTableRecord
100
AcDbLinetypeTableRecord
  2
HIDDEN
 70
     0
  3
Hidden __ __ __ __ __ __ __ __ __ __ __ __ __ __
 72
    65
 73
     2
 40
1.905
 49
1.27
 74
     0
 49
-0.635
 74
     0
  0
LTYPE
  5
40
330
5
100
AcDbSymbolTableRecord
100
AcDbLinetypeTableRecord
  2
PHANTOM
 70
     0
  3
Phantom ______  __  __  ______  __  __  ______
 72
    65
 73
     6
 40
12.7
 49
6.35
 74
     0
 49
-1.27
 74
     0
 49
1.27
 74
     0
 49
-1.27
 74
     0
 49
1.27
 74
     0
 49
-1.27
 74
     0
  0
LTYPE
  5
41
330
5
100
AcDbSymbolTableRecord
100
AcDbLinetypeTableRecord
  2
CENTER
 70
     0
  3
Center ____ _ ____ _ ____ _ ____ _ ____ _ ____
 72
    65
 73
     4
 40
10.16
 49
6.35
 74
     0
 49
-1.27
 74
     0
 49
1.27
 74
     0
 49
-1.27
 74
     0
  0
LTYPE
  5
42
330
5
100
AcDbSymbolTableRecord
100
AcDbLinetypeTableRecord
  2
CENTERX2
 70
     0
  3
Center (2x) ________  __  ________  __  _____
 72
    65
 73
     4
 40
20.32
 49
12.7
 74
     0
 49
-2.54
 74
     0
 49
2.54
 74
     0
 49
-2.54
 74
     0
  0
LTYPE
  5
43
330
5
100
AcDbSymbolTableRecord
100
AcDbLinetypeTableRecord
  2
DOT2
 70
     0
  3
Dot (.5x) ........................................
 72
    65
 73
     2
 40
0.635
 49
0.0
 74
     0
 49
-0.635
 74
     0
  0
ENDTAB
  0
TABLE
  2
LAYER
  5
2
330
0
100
AcDbSymbolTable
 70
     4
  0
LAYER
  5
10
330
2
100
AcDbSymbolTableRecord
100
AcDbLayerTableRecord
  2
0
 70
     0
 62
     7
  6
Continuous
370
    -3
390
F
  0
LAYER
  5
44
330
2
100
AcDbSymbolTableRecord
100
AcDbLayerTableRecord
  2
FORMAT
 70
     0
 62
     7
  6
Continuous
370
    -3
390
F
  0
LAYER
  5
45
330
2
100
AcDbSymbolTableRecord
100
AcDbLayerTableRecord
  2
SLD-0
 70
     0
 62
     1
  6
Continuous
370
    -3
390
F
  0
LAYER
  5
46
330
2
100
AcDbSymbolTableRecord
100
AcDbLayerTableRecord
  2
WATERMARK
 70
     0
 62
     1
  6
Continuous
370
    -3
390
F
  0
ENDTAB
  0
TABLE
  2
STYLE
  5
3
330
0
100
AcDbSymbolTable
 70
     1
  0
STYLE
  5
11
330
3
100
AcDbSymbolTableRecord
100
AcDbTextStyleTableRecord
  2
Standard
 70
     0
 40
0.0
 41
1.0
 50
0.0
 71
     0
 42
2.5
  3
txt
  4

  0
ENDTAB
  0
TABLE
  2
VIEW
  5
6
330
0
100
AcDbSymbolTable
 70
     0
  0
ENDTAB
  0
TABLE
  2
UCS
  5
7
330
0
100
AcDbSymbolTable
 70
     0
  0
ENDTAB
  0
TABLE
  2
APPID
  5
9
330
0
100
AcDbSymbolTable
 70
     1
  0
APPID
  5
12
330
9
100
AcDbSymbolTableRecord
100
AcDbRegAppTableRecord
  2
ACAD
 70
     0
  0
ENDTAB
  0
TABLE
  2
DIMSTYLE
  5
A
330
0
100
AcDbSymbolTable
 70
     1
100
AcDbDimStyleTable
  0
DIMSTYLE
105
27
330
A
100
AcDbSymbolTableRecord
100
AcDbDimStyleTableRecord
  2
ISO-25
 70
     0
 41
2.5
 42
0.625
 43
3.75
 44
1.25
 73
     0
 74
     0
 77
     1
 78
     8
140
2.5
141
2.5
143
0.0393700787
147
0.625
171
     3
172
     1
271
     2
272
     2
274
     3
278
    44
283
     0
284
     8
340
11
  0
ENDTAB
  0
TABLE
  2
BLOCK_RECORD
  5
1
330
0
100
AcDbSymbolTable
 70
     1
  0
BLOCK_RECORD
  5
1F
330
1
100
AcDbSymbolTableRecord
100
AcDbBlockTableRecord
  2
*Model_Space
340
22
  0
BLOCK_RECORD
  5
1B
330
1
100
AcDbSymbolTableRecord
100
AcDbBlockTableRecord
  2
*Paper_Space
340
1E
  0
BLOCK_RECORD
  5
23
330
1
100
AcDbSymbolTableRecord
100
AcDbBlockTableRecord
  2
*Paper_Space0
340
26
  0
ENDTAB
  0
ENDSEC
  0
SECTION
  2
BLOCKS
  0
BLOCK
  5
20
330
1F
100
AcDbEntity
  8
0
100
AcDbBlockBegin
  2
*Model_Space
 70
     0
 10
0.0
 20
0.0
 30
0.0
  3
*Model_Space
  1

  0
ENDBLK
  5
21
330
1F
100
AcDbEntity
  8
0
100
AcDbBlockEnd
  0
BLOCK
  5
1C
330
1B
100
AcDbEntity
 67
     1
  8
0
100
AcDbBlockBegin
  2
*Paper_Space
 70
     0
 10
0.0
 20
0.0
 30
0.0
  3
*Paper_Space
  1

  0
ENDBLK
  5
1D
330
1B
100
AcDbEntity
 67
     1
  8
0
100
AcDbBlockEnd
  0
BLOCK
  5
24
330
23
100
AcDbEntity
  8
0
100
AcDbBlockBegin
  2
*Paper_Space0
 70
     0
 10
0.0
 20
0.0
 30
0.0
  3
*Paper_Space0
  1

  0
ENDBLK
  5
25
330
23
100
AcDbEntity
  8
0
100
AcDbBlockEnd
  0
ENDSEC
  0
SECTION
  2
ENTITIES
  0
ARC
  5
47
330
1F
100
AcDbEntity
  8
0
  6
Continuous
 62
     7
370
    15
100
AcDbCircle
 10
878.5133949622
 20
1042.2056315612
 30
0.0
 40
3.000000000000389
100
AcDbArc
 50
283.8621084807
 51
103.8621084807
  0
LWPOLYLINE
  5
48
330
1F
100
AcDbEntity
  8
0
  6
Continuous
 62
     7
370
    15
100
AcDbPolyline
 90
       11
 70
   128
 43
0.0
 10
877.7946338948
 20
1045.1182676051
 10
877.6153431233
 20
1045.0740409587
 10
877.0818666514
 20
1044.9423742984
 10
876.2073547538
 20
1044.7265458797
 10
875.0133247074
 20
1044.4319201205
 10
873.5291988548
 20
1044.0656495784
 10
871.7914999422
 20
1043.6368537639
 10
869.843031555
 20
1043.1560230945
 10
867.7317605313
 20
1042.6350188945
 10
865.5096844729
 20
1042.0866561626
 10
863.2315092679
 20
1041.524465153
  0
LWPOLYLINE
  5
49
330
1F
100
AcDbEntity
  8
0
  6
Continuous
 62
     7
370
    15
100
AcDbPolyline
 90
       11
 70
   128
 43
0.0
 10
864.6690242883
 20
1035.6992436145
 10
866.9471994933
 20
1036.261434624
 10
869.1692830022
 20
1036.8097377513
 10
871.2805465754
 20
1037.3307419513
 10
873.2290149625
 20
1037.8115726207
 10
874.9667138751
 20
1038.2404280399
 10
876.4508397277
 20
1038.6066389774
 10
877.6448697742
 20
1038.9013243411
 10
878.5193816718
 20
1039.1170931552
 10
879.0528581437
 20
1039.2487598155
 10
879.2321563657
 20
1039.2929864619
  0
LINE
  5
4A
330
1F
100
AcDbEntity
  8
0
  6
Continuous
 62
     7
370
    15
100
AcDbLine
 10
863.2315092679
 20
1041.524465153
 30
0.0
 11
702.3896158632
 21
1001.8330169414
 31
0.0
  0
LINE
  5
4B
330
1F
100
AcDbEntity
  8
0
  6
Continuous
 62
     7
370
    15
100
AcDbLine
 10
727.4328128394
 20
1001.8330169414
 30
0.0
 11
864.6690242883
 21
1035.6992436145
 31
0.0
  0
LINE
  5
4C
330
1F
100
AcDbEntity
  8
0
  6
Continuous
 62
     7
370
    15
100
AcDbLine
 10
814.6620078903
 20
763.8329816554
 30
0.0
 11
808.176936857
 21
762.2117353175
 31
0.0
  0
LINE
  5
4D
330
1F
100
AcDbEntity
  8
0
  6
Continuous
 62
     7
370
    15
100
AcDbLine
 10
808.176936857
 20
754.4542504047
 30
0.0
 11
814.6620078903
 21
752.8329742644
 31
0.0
  0
ARC
  5
4E
330
1F
100
AcDbEntity
  8
0
  6
Continuous
 62
     7
370
    15
100
AcDbCircle
 10
808.6620081957
 20
756.394541144
 30
0.0
 40
2.000000000005842
100
AcDbArc
 50
233.1301023541
 51
255.9637565331
  0
ARC
  5
4F
330
1F
100
AcDbEntity
  8
0
  6
Continuous
 62
     7
370
    15
100
AcDbCircle
 10
808.6620081957
 20
760.2714355183
 30
0.0
 40
2.000000000005732
100
AcDbArc
 50
104.0362434669
 51
126.8698976459
  0
LINE
  5
50
330
1F
100
AcDbEntity
  8
0
  6
Continuous
 62
     7
370
    15
100
AcDbLine
 10
814.6620078903
 20
344.8329893444
 30
0.0
 11
808.176936857
 21
343.2117206548
 31
0.0
  0
LINE
  5
51
330
1F
100
AcDbEntity
  8
0
  6
Continuous
 62
     7
370
    15
100
AcDbLine
 10
808.176936857
 20
335.4542543684
 30
0.0
 11
814.6620078903
 21
333.832989404
 31
0.0
  0
ARC
  5
52
330
1F
100
AcDbEntity
  8
0
  6
Continuous
 62
     7
370
    15
100
AcDbCircle
 10
808.6620081957
 20
337.394541144
 30
0.0
 40
2.000000000005898
100
AcDbArc
 50
233.1301023542
 51
255.9637565331
  0
ARC
  5
53
330
1F
100
AcDbEntity
  8
0
  6
Continuous
 62
     7
370
    15
100
AcDbCircle
 10
808.6620081957
 20
341.2714355183
 30
0.0
 40
2.000000000005898
100
AcDbArc
 50
104.0362434669
 51
126.8698976458
  0
LINE
  5
54
330
1F
100
AcDbEntity
  8
0
  6
Continuous
 62
     7
370
    15
100
AcDbLine
 10
814.6620078903
 20
558.8329983447
 30
0.0
 11
808.0620081589
 21
558.8329983447
 31
0.0
  0
LINE
  5
55
330
1F
100
AcDbEntity
  8
0
  6
Continuous
 62
     7
370
    15
100
AcDbLine
 10
808.0620081589
 20
538.8329876159
 30
0.0
 11
814.6620078903
 21
538.8329876159
 31
0.0
  0
LINE
  5
56
330
1F
100
AcDbEntity
  8
0
  6
Continuous
 62
     7
370
    15
100
AcDbLine
 10
574.3824646767
 20
1001.8330169414
 30
0.0
 11
566.3089112338
 21
1038.8644886707
 31
0.0
  0
ARC
  5
57
330
1F
100
AcDbEntity
  8
0
  6
Continuous
 62
     7
370
    15
100
AcDbCircle
 10
286.0716583898
 20
-1142.448454278
 30
0.0
 40
2203.9000000166
100
AcDbArc
 50
82.8511702807
 51
87.3056035116
  0
ARC
  5
58
330
1F
100
AcDbEntity
  8
0
  6
Continuous
 62
     7
370
    15
100
AcDbCircle
 10
273.1434638439
 20
-1266.3890406532
 30
0.0
 40
2306.499999710803
100
AcDbArc
 50
83.3030611363
 51
86.664596036
  0
LINE
  5
59
330
1F
100
AcDbEntity
  8
0
  6
Continuous
 62
     7
370
    15
100
AcDbLine
 10
382.5011209544
 20
1053.4919453357
 30
0.0
 11
371.4120046195
 21
1001.8330169414
 31
0.0
  0
ARC
  5
5A
330
1F
100
AcDbEntity
  8
0
  6
Continuous
 62
     7
370
    15
100
AcDbCircle
 10
389.3452017578
 20
1052.022822645
 30
0.0
 40
7.000000016603653
100
AcDbArc
 50
87.3056035116
 51
167.8847581975
  0
ARC
  5
5B
330
1F
100
AcDbEntity
  8
0
  6
Continuous
 62
     7
370
    15
100
AcDbCircle
 10
559.4695716928
 20
1037.3733712393
 30
0.0
 40
7.00000001660304
100
AcDbArc
 50
12.2990746699
 51
82.8511702807
  0
ARC
  5
5C
330
1F
100
AcDbEntity
  8
0
  6
Continuous
 62
     7
370
    15
100
AcDbCircle
 10
406.9304596144
 20
1029.2157358192
 30
0.0
 40
6.99999971080765
100
AcDbArc
 50
86.664596036
 51
167.8847581975
  0
ARC
  5
5D
330
1F
100
AcDbEntity
  8
0
  6
Continuous
 62
     7
370
    15
100
AcDbCircle
 10
541.305807269
 20
1017.4211983047
 30
0.0
 40
6.999999710807685
100
AcDbArc
 50
12.2990746699
 51
83.3030611363
  0
LINE
  5
5E
330
1F
100
AcDbEntity
  8
0
  6
Continuous
 62
     7
370
    15
100
AcDbLine
 10
393.8930288847
 20
1001.8330169414
 30
0.0
 11
400.0863687094
 21
1030.6848836635
 31
0.0
  0
LINE
  5
5F
330
1F
100
AcDbEntity
  8
0
  6
Continuous
 62
     7
370
    15
100
AcDbLine
 10
548.1451407965
 20
1018.9123106692
 30
0.0
 11
551.8687621649
 21
1001.8330169414
 31
0.0
  0
LINE
  5
60
330
1F
100
AcDbEntity
  8
0
  6
Continuous
 62
     7
370
    15
100
AcDbLine
 10
843.2606712874
 20
897.1120072101
 30
0.0
 11
846.2340005632
 21
899.2872787212
 31
0.0
  0
LINE
  5
61
330
1F
100
AcDbEntity
  8
0
  6
Continuous
 62
     7
370
    15
100
AcDbLine
 10
842.1240740415
 20
911.9363380168
 30
0.0
 11
838.4400078054
 21
911.9484973643
 31
0.0
  0
LINE
  5
62
330
1F
100
AcDbEntity
  8
0
  6
Continuous
 62
     7
370
    15
100
AcDbLine
 10
852.7955071028
 20
874.2389631961
 30
0.0
 11
861.0700027045
 21
881.133313248
 31
0.0
  0
LINE
  5
63
330
1F
100
AcDbEntity
  8
0
  6
Continuous
 62
     7
370
    15
100
AcDbLine
 10
835.2040623274
 20
935.8918619846
 30
0.0
 11
832.7094011899
 21
936.0576225017
 31
0.0
  0
LINE
  5
64
330
1F
100
AcDbEntity
  8
0
  6
Continuous
 62
     7
370
    15
100
AcDbLine
 10
843.4560329612
 20
935.3435588573
 30
0.0
 11
840.1928984519
 21
935.560400555
 31
0.0
  0
LINE
  5
65
330
1F
100
AcDbEntity
  8
0
  6
Continuous
 62
     7
370
    15
100
AcDbLine
 10
861.0700027045
 20
881.133313248
 30
0.0
 11
876.8311993178
 21
895.438606808
 31
0.0
  0
LINE
  5
66
330
1F
100
AcDbEntity
  8
0
  6
Continuous
 62
     7
370
    15
100
AcDbLine
 10
843.9530835446
 20
935.2893186305
 30
0.0
 11
843.4560329612
 21
935.3435588573
 31
0.0
  0
ARC
  5
67
330
1F
100
AcDbEntity
  8
0
  6
Continuous
 62
     7
370
    15
100
AcDbCircle
 10
876.1591174797
 20
896.1791121947
 30
0.0
 40
1.000000000000155
100
AcDbArc
 50
312.227745318
 51
18.0
  0
LINE
  5
68
330
1F
100
AcDbEntity
  8
0
  6
Continuous
 62
     7
370
    15
100
AcDbLine
 10
844.9502357241
 20
898.3480883334
 30
0.0
 11
844.9609124061
 21
898.3513665889
 31
0.0
  0
LINE
  5
69
330
1F
100
AcDbEntity
  8
0
  6
Continuous
 62
     7
370
    15
100
AcDbLine
 10
840.1963890489
 20
935.5701757167
 30
0.0
 11
835.2019426372
 21
935.9020543788
 31
0.0
  0
LINE
  5
6A
330
1F
100
AcDbEntity
  8
0
  6
Continuous
 62
     7
370
    15
100
AcDbLine
 10
864.9620071944
 20
812.833006451
 30
0.0
 11
864.4620099064
 21
813.3329702113
 31
0.0
  0
LINE
  5
6B
330
1F
100
AcDbEntity
  8
0
  6
Continuous
 62
     7
370
    15
100
AcDbLine
 10
848.4620072838
 20
813.3329702113
 30
0.0
 11
847.9620099958
 21
812.833006451
 31
0.0
  0
LINE
  5
6C
330
1F
100
AcDbEntity
  8
0
  6
Continuous
 62
     7
370
    15
100
AcDbLine
 10
847.9620099958
 20
811.3329959605
 30
0.0
 11
848.2620076235
 21
811.0330057834
 31
0.0
  0
LINE
  5
6D
330
1F
100
AcDbEntity
  8
0
  6
Continuous
 62
     7
370
    15
100
AcDbLine
 10
864.4620099064
 20
810.8329725955
 30
0.0
 11
864.9620071944
 21
811.3329959605
 31
0.0
  0
LINE
  5
6E
330
1F
100
AcDbEntity
  8
0
  6
Continuous
 62
     7
370
    15
100
AcDbLine
 10
864.9620071944
 20
811.3329959605
 30
0.0
 11
864.9620071944
 21
812.833006451
 31
0.0
  0
LINE
  5
6F
330
1F
100
AcDbEntity
  8
0
  6
Continuous
 62
     7
370
    15
100
AcDbLine
 10
847.9620099958
 20
812.833006451
 30
0.0
 11
847.9620099958
 21
811.3329959605
 31
0.0
  0
LINE
  5
70
330
1F
100
AcDbEntity
  8
0
  6
Continuous
 62
     7
370
    15
100
AcDbLine
 10
862.9620068665
 20
809.5622611736
 30
0.0
 11
862.9620068665
 21
809.6330118869
 31
0.0
  0
LINE
  5
71
330
1F
100
AcDbEntity
  8
0
  6
Continuous
 62
     7
370
    15
100
AcDbLine
 10
849.9620065983
 20
809.6330118869
 30
0.0
 11
849.9620065983
 21
809.5622611736
 31
0.0
  0
LINE
  5
72
330
1F
100
AcDbEntity
  8
0
  6
Continuous
 62
     7
370
    15
100
AcDbLine
 10
847.9620099958
 20
284.8329883572
 30
0.0
 11
848.4620072838
 21
284.3329882753
 31
0.0
  0
LINE
  5
73
330
1F
100
AcDbEntity
  8
0
  6
Continuous
 62
     7
370
    15
100
AcDbLine
 10
864.4620099064
 20
284.3329882753
 30
0.0
 11
864.9620071944
 21
284.8329883572
 31
0.0
  0
LINE
  5
74
330
1F
100
AcDbEntity
  8
0
  6
Continuous
 62
     7
370
    15
100
AcDbLine
 10
864.9620071944
 20
286.3329881374
 30
0.0
 11
864.4620099064
 21
286.8329882194
 31
0.0
  0
LINE
  5
75
330
1F
100
AcDbEntity
  8
0
  6
Continuous
 62
     7
370
    15
100
AcDbLine
 10
848.4620072838
 20
286.8329882194
 30
0.0
 11
847.9620099958
 21
286.3329881374
 31
0.0
  0
LINE
  5
76
330
1F
100
AcDbEntity
  8
0
  6
Continuous
 62
     7
370
    15
100
AcDbLine
 10
847.9620099958
 20
286.3329881374
 30
0.0
 11
847.9620099958
 21
284.8329883572
 31
0.0
  0
LINE
  5
77
330
1F
100
AcDbEntity
  8
0
  6
Continuous
 62
     7
370
    15
100
AcDbLine
 10
864.9620071944
 20
284.8329883572
 30
0.0
 11
864.9620071944
 21
286.3329881374
 31
0.0
  0
LINE
  5
78
330
1F
100
AcDbEntity
  8
0
  6
Continuous
 62
     7
370
    15
100
AcDbLine
 10
849.9620065983
 20
288.1036991757
 30
0.0
 11
849.9620065983
 21
288.0329885092
 31
0.0
  0
LINE
  5
79
330
1F
100
AcDbEntity
  8
0
  6
Continuous
 62
     7
370
    15
100
AcDbLine
 10
862.9620068665
 20
288.0329885092
 30
0.0
 11
862.9620068665
 21
288.1036991757
 31
0.0
  0
LINE
  5
7A
330
1F
100
AcDbEntity
  8
0
  6
Continuous
 62
     7
370
    15
100
AcDbLine
 10
864.4620099064
 20
281.8329883311
 30
0.0
 11
864.4620099064
 21
284.3329882753
 31
0.0
  0
LINE
  5
7B
330
1F
100
AcDbEntity
  8
0
  6
Continuous
 62
     7
370
    15
100
AcDbLine
 10
860.362007558
 20
281.3329883074
 30
0.0
 11
860.362007558
 21
281.8329883311
 31
0.0
  0
LINE
  5
7C
330
1F
100
AcDbEntity
  8
0
  6
Continuous
 62
     7
370
    15
100
AcDbLine
 10
852.5620096322
 20
281.8329883311
 30
0.0
 11
852.5620096322
 21
281.3329883074
 31
0.0
  0
LINE
  5
7D
330
1F
100
AcDbEntity
  8
0
  6
Continuous
 62
     7
370
    15
100
AcDbLine
 10
852.5620096322
 20
816.3329911922
 30
0.0
 11
852.5620096322
 21
815.8329678271
 31
0.0
  0
LINE
  5
7E
330
1F
100
AcDbEntity
  8
0
  6
Continuous
 62
     7
370
    15
100
AcDbLine
 10
860.362007558
 20
815.8329678271
 30
0.0
 11
860.362007558
 21
816.3329911922
 31
0.0
  0
LINE
  5
7F
330
1F
100
AcDbEntity
  8
0
  6
Continuous
 62
     7
370
    15
100
AcDbLine
 10
864.4620099064
 20
813.3329702113
 30
0.0
 11
864.4620099064
 21
815.8329678271
 31
0.0
  0
LINE
  5
80
330
1F
100
AcDbEntity
  8
0
  6
Continuous
 62
     7
370
    15
100
AcDbLine
 10
167.7120284136
 20
1090.4090357516
 30
0.0
 11
161.8405536707
 21
1089.6905017589
 31
0.0
  0
LINE
  5
81
330
1F
100
AcDbEntity
  8
0
  6
Continuous
 62
     7
370
    15
100
AcDbLine
 10
161.8405536707
 20
1072.9754520152
 30
0.0
 11
167.7120284136
 21
1072.2569180225
 31
0.0
  0
ARC
  5
82
330
1F
100
AcDbEntity
  8
0
  6
Continuous
 62
     7
370
    15
100
AcDbCircle
 10
161.9620081957
 20
1088.6979056404
 30
0.0
 40
1.000000000000061
100
AcDbArc
 50
96.9770293009
 51
180.0
  0
ARC
  5
83
330
1F
100
AcDbEntity
  8
0
  6
Continuous
 62
     7
370
    15
100
AcDbCircle
 10
161.9620081957
 20
1073.9680710219
 30
0.0
 40
1.000000000000061
100
AcDbArc
 50
180.0
 51
263.0229706992
  0
LINE
  5
84
330
1F
100
AcDbEntity
  8
0
  6
Continuous
 62
     7
370
    15
100
AcDbLine
 10
232.7126220759
 20
1026.0617089961
 30
0.0
 11
231.7126349505
 21
1027.7937603687
 31
0.0
  0
LINE
  5
85
330
1F
100
AcDbEntity
  8
0
  6
Continuous
 62
     7
370
    15
100
AcDbLine
 10
240.0615767535
 20
1001.8330169414
 30
0.0
 11
232.2329834994
 21
1015.3924775813
 31
0.0
  0
LINE
  5
86
330
1F
100
AcDbEntity
  8
0
  6
Continuous
 62
     7
370
    15
100
AcDbLine
 10
233.7485508021
 20
1016.2674737666
 30
0.0
 11
231.2485531863
 21
1020.5976320003
 31
0.0
  0
LINE
  5
87
330
1F
100
AcDbEntity
  8
0
  6
Continuous
 62
     7
370
    15
100
AcDbLine
 10
234.279628187
 20
1022.3476243709
 30
0.0
 11
235.1773933466
 21
1023.7319422458
 31
0.0
  0
LINE
  5
88
330
1F
100
AcDbEntity
  8
0
  6
Continuous
 62
     7
370
    15
100
AcDbLine
 10
233.9273647364
 20
1025.8970213626
 30
0.0
 11
232.2796539362
 21
1025.8117271159
 31
0.0
  0
LINE
  5
89
330
1F
100
AcDbEntity
  8
0
  6
Continuous
 62
     7
370
    15
100
AcDbLine
 10
239.7729114588
 20
1033.8329625819
 30
0.0
 11
239.7679046687
 21
1033.8416648601
 31
0.0
  0
LINE
  5
8A
330
1F
100
AcDbEntity
  8
0
  6
Continuous
 62
     7
370
    15
100
AcDbLine
 10
786.9620074477
 20
113.8329905961
 30
0.0
 11
786.9620074477
 21
117.8329838012
 31
0.0
  0
LINE
  5
8B
330
1F
100
AcDbEntity
  8
0
  6
Continuous
 62
     7
370
    15
100
AcDbLine
 10
729.9620092805
 20
117.8329838012
 30
0.0
 11
729.9620092805
 21
113.8329905961
 31
0.0
  0
ARC
  5
8C
330
1F
100
AcDbEntity
  8
0
  6
Continuous
 62
     7
370
    15
100
AcDbCircle
 10
784.9620081957
 20
113.8329883311
 30
0.0
 40
2.0
100
AcDbArc
 50
270.0
 51
0.0
  0
ARC
  5
8D
330
1F
100
AcDbEntity
  8
0
  6
Continuous
 62
     7
370
    15
100
AcDbCircle
 10
731.9620081957
 20
113.8329883311
 30
0.0
 40
2.0
100
AcDbArc
 50
180.0
 51
270.0
  0
ARC
  5
8E
330
1F
100
AcDbEntity
  8
0
  6
Continuous
 62
     7
370
    15
100
AcDbCircle
 10
199.9620081957
 20
113.8329883311
 30
0.0
 40
2.000000000000014
100
AcDbArc
 50
270.0
 51
0.0
  0
ARC
  5
8F
330
1F
100
AcDbEntity
  8
0
  6
Continuous
 62
     7
370
    15
100
AcDbCircle
 10
146.9620081957
 20
113.8329883311
 30
0.0
 40
2.000000000000014
100
AcDbArc
 50
180.0
 51
270.0
  0
LINE
  5
90
330
1F
100
AcDbEntity
  8
0
  6
Continuous
 62
     7
370
    15
100
AcDbLine
 10
201.9619897898
 20
113.8329905961
 30
0.0
 11
201.9619897898
 21
117.8329838012
 31
0.0
  0
LINE
  5
91
330
1F
100
AcDbEntity
  8
0
  6
Continuous
 62
     7
370
    15
100
AcDbLine
 10
144.9620083865
 20
117.8329838012
 30
0.0
 11
144.9620083865
 21
113.8329905961
 31
0.0
  0
LINE
  5
92
330
1F
100
AcDbEntity
  8
0
  6
Continuous
 62
     7
370
    15
100
AcDbLine
 10
201.7620162066
 20
117.8329838012
 30
0.0
 11
201.7620162066
 21
185.8329874967
 31
0.0
  0
LINE
  5
93
330
1F
100
AcDbEntity
  8
0
  6
Continuous
 62
     7
370
    15
100
AcDbLine
 10
145.1619819697
 20
185.8329874967
 30
0.0
 11
145.1619819697
 21
117.8329838012
 31
0.0
  0
LINE
  5
94
330
1F
100
AcDbEntity
  8
0
  6
Continuous
 62
     7
370
    15
100
AcDbLine
 10
786.7620077874
 20
117.8329838012
 30
0.0
 11
786.7620077874
 21
185.8329874967
 31
0.0
  0
LINE
  5
95
330
1F
100
AcDbEntity
  8
0
  6
Continuous
 62
     7
370
    15
100
AcDbLine
 10
730.1620052155
 20
185.8329874967
 30
0.0
 11
730.1620052155
 21
117.8329838012
 31
0.0
  0
ARC
  5
96
330
1F
100
AcDbEntity
  8
0
  6
Continuous
 62
     7
370
    15
100
AcDbCircle
 10
791.8620081957
 20
278.3329883311
 30
0.0
 40
1.5
100
AcDbArc
 50
90.0
 51
180.0
  0
ARC
  5
97
330
1F
100
AcDbEntity
  8
0
  6
Continuous
 62
     7
370
    15
100
AcDbCircle
 10
725.0620081957
 20
278.3329883311
 30
0.0
 40
1.5
100
AcDbArc
 50
0.0
 51
90.0
  0
ARC
  5
98
330
1F
100
AcDbEntity
  8
0
  6
Continuous
 62
     7
370
    15
100
AcDbCircle
 10
785.6620081957
 20
191.8655542768
 30
0.0
 40
4.700000000000045
100
AcDbArc
 50
350.5402980318
 51
0.0
  0
ARC
  5
99
330
1F
100
AcDbEntity
  8
0
  6
Continuous
 62
     7
370
    15
100
AcDbCircle
 10
731.2620081957
 20
191.8655542768
 30
0.0
 40
4.700000000000045
100
AcDbArc
 50
180.0
 51
189.4597019682
  0
LINE
  5
9A
330
1F
100
AcDbEntity
  8
0
  6
Continuous
 62
     7
370
    15
100
AcDbLine
 10
790.3620081913
 20
191.8655512427
 30
0.0
 11
790.3620081913
 21
278.3329882231
 31
0.0
  0
LINE
  5
9B
330
1F
100
AcDbEntity
  8
0
  6
Continuous
 62
     7
370
    15
100
AcDbLine
 10
726.5620113309
 20
278.3329882231
 30
0.0
 11
726.5620113309
 21
191.8655512427
 31
0.0
  0
LINE
  5
9C
330
1F
100
AcDbEntity
  8
0
  6
Continuous
 62
     7
370
    15
100
AcDbLine
 10
726.6259224113
 20
191.0930899475
 30
0.0
 11
727.5023565587
 21
185.8329874967
 31
0.0
  0
LINE
  5
9D
330
1F
100
AcDbEntity
  8
0
  6
Continuous
 62
     7
370
    15
100
AcDbLine
 10
789.4216583069
 20
185.8329874967
 30
0.0
 11
790.2980952483
 21
191.0930899475
 31
0.0
  0
ARC
  5
9E
330
1F
100
AcDbEntity
  8
0
  6
Continuous
 62
     7
370
    15
100
AcDbCircle
 10
206.8620081957
 20
278.3329883311
 30
0.0
 40
1.5
100
AcDbArc
 50
90.0
 51
180.0
  0
ARC
  5
9F
330
1F
100
AcDbEntity
  8
0
  6
Continuous
 62
     7
370
    15
100
AcDbCircle
 10
140.0620081957
 20
278.3329883311
 30
0.0
 40
1.5
100
AcDbArc
 50
0.0
 51
90.0
  0
LINE
  5
A0
330
1F
100
AcDbEntity
  8
0
  6
Continuous
 62
     7
370
    15
100
AcDbLine
 10
205.3620175417
 20
191.8655512427
 30
0.0
 11
205.3620175417
 21
278.3329882231
 31
0.0
  0
LINE
  5
A1
330
1F
100
AcDbEntity
  8
0
  6
Continuous
 62
     7
370
    15
100
AcDbLine
 10
141.5619806345
 20
278.3329882231
 30
0.0
 11
141.5619806345
 21
191.8655512427
 31
0.0
  0
ARC
  5
A2
330
1F
100
AcDbEntity
  8
0
  6
Continuous
 62
     7
370
    15
100
AcDbCircle
 10
200.6620081957
 20
191.8655542768
 30
0.0
 40
4.700000000000017
100
AcDbArc
 50
350.5402980318
 51
0.0
  0
ARC
  5
A3
330
1F
100
AcDbEntity
  8
0
  6
Continuous
 62
     7
370
    15
100
AcDbCircle
 10
146.2620081957
 20
191.8655542768
 30
0.0
 40
4.700000000000045
100
AcDbArc
 50
180.0
 51
189.4597019682
  0
LINE
  5
A4
330
1F
100
AcDbEntity
  8
0
  6
Continuous
 62
     7
370
    15
100
AcDbLine
 10
141.6259364184
 20
191.0930899475
 30
0.0
 11
142.5023631152
 21
185.8329874967
 31
0.0
  0
LINE
  5
A5
330
1F
100
AcDbEntity
  8
0
  6
Continuous
 62
     7
370
    15
100
AcDbLine
 10
204.4216350611
 20
185.8329874967
 30
0.0
 11
205.2981213625
 21
191.0930899475
 31
0.0
  0
ARC
  5
A6
330
1F
100
AcDbEntity
  8
0
  6
Continuous
 62
     7
370
    15
100
AcDbCircle
 10
74.6182556937
 20
682.4579883311
 30
0.0
 40
8.00000000000001
100
AcDbArc
 50
192.635625093
 51
270.0
  0
ARC
  5
A7
330
1F
100
AcDbEntity
  8
0
  6
Continuous
 62
     7
370
    15
100
AcDbCircle
 10
74.6182556937
 20
700.2079883311
 30
0.0
 40
8.000000000000048
100
AcDbArc
 50
90.0
 51
167.364374907
  0
LINE
  5
A8
330
1F
100
AcDbEntity
  8
0
  6
Continuous
 62
     7
370
    15
100
AcDbLine
 10
75.7620290812
 20
708.2079900001
 30
0.0
 11
74.6182755526
 21
708.2079900001
 31
0.0
  0
LINE
  5
A9
330
1F
100
AcDbEntity
  8
0
  6
Continuous
 62
     7
370
    15
100
AcDbLine
 10
74.6182755526
 20
674.4579923843
 30
0.0
 11
75.7620290812
 21
674.4579923843
 31
0.0
  0
LINE
  5
AA
330
1F
100
AcDbEntity
  8
0
  6
Continuous
 62
     7
370
    15
100
AcDbLine
 10
87.7619937952
 20
708.2079900001
 30
0.0
 11
81.1620310839
 21
708.2079900001
 31
0.0
  0
LINE
  5
AB
330
1F
100
AcDbEntity
  8
0
  6
Continuous
 62
     7
370
    15
100
AcDbLine
 10
81.1620310839
 20
674.4579923843
 30
0.0
 11
87.7619937952
 21
674.4579923843
 31
0.0
  0
LINE
  5
AC
330
1F
100
AcDbEntity
  8
0
  6
Continuous
 62
     7
370
    15
100
AcDbLine
 10
93.111987501
 20
707.1829987262
 30
0.0
 11
87.7619937952
 21
707.1829987262
 31
0.0
  0
LINE
  5
AD
330
1F
100
AcDbEntity
  8
0
  6
Continuous
 62
     7
370
    15
100
AcDbLine
 10
87.7619937952
 20
675.4829836581
 30
0.0
 11
93.111987501
 21
675.4829836581
 31
0.0
  0
LINE
  5
AE
330
1F
100
AcDbEntity
  8
0
  6
Continuous
 62
     7
370
    15
100
AcDbLine
 10
96.0620001849
 20
706.2579942439
 30
0.0
 11
93.111987501
 21
706.2579942439
 31
0.0
  0
LINE
  5
AF
330
1F
100
AcDbEntity
  8
0
  6
Continuous
 62
     7
370
    15
100
AcDbLine
 10
93.111987501
 20
676.4079881404
 30
0.0
 11
96.0620001849
 21
676.4079881404
 31
0.0
  0
ARC
  5
B0
330
1F
100
AcDbEntity
  8
0
  6
Continuous
 62
     7
370
    15
100
AcDbCircle
 10
88.0120081957
 20
423.0829883311
 30
0.0
 40
0.2499999999999716
100
AcDbArc
 50
0.0
 51
43.4670535275
  0
SPLINE
  5
B1
330
1F
100
AcDbEntity
  8
0
  6
Continuous
 62
     7
370
    15
100
AcDbSpline
210
0.0
220
0.0
230
1.0
 70
     8
 71
     3
 72
    13
 73
     9
 74
     0
 42
0.00000001
 43
0.00000001
 40
0.0
 40
0.0
 40
0.0
 40
0.0
 40
0.0719373314999458
 40
0.2495494782680164
 40
0.44057994176062
 40
0.6643396279282112
 40
0.938149363167903
 40
1.0
 40
1.0
 40
1.0
 40
1.0
 10
88.51193943581248
 20
407.8524363730602
 30
0.0
 10
88.50132667879862
 20
407.8518167090123
 30
0.0
 10
88.46451119064325
 20
407.8496671041182
 30
0.0
 10
88.40224560458465
 20
407.8708047228628
 30
0.0
 10
88.3344267147923
 20
407.9147537818133
 30
0.0
 10
88.28326294714672
 20
407.9840218300289
 30
0.0
 10
88.25997691415621
 20
408.0475290724414
 30
0.0
 10
88.26376325803764
 20
408.0858752381308
 30
0.0
 10
88.26446095070494
 20
408.0929411147289
 30
0.0
  0
LINE
  5
B2
330
1F
100
AcDbEntity
  8
0
  6
Continuous
 62
     7
370
    15
100
AcDbLine
 10
93.612010866
 20
407.8497392629
 30
0.0
 11
88.5119990405
 21
407.8497392629
 31
0.0
  0
ARC
  5
B3
330
1F
100
AcDbEntity
  8
0
  6
Continuous
 62
     7
370
    15
100
AcDbCircle
 10
93.6120081957
 20
407.5997438364
 30
0.0
 40
0.2499999999999716
100
AcDbArc
 50
0.0
 51
90.0
  0
ARC
  5
B4
330
1F
100
AcDbEntity
  8
0
  6
Continuous
 62
     7
370
    15
100
AcDbCircle
 10
93.6120081957
 20
404.7076158865
 30
0.0
 40
0.2500000000000853
100
AcDbArc
 50
270.0
 51
0.0
  0
LINE
  5
B5
330
1F
100
AcDbEntity
  8
0
  6
Continuous
 62
     7
370
    15
100
AcDbLine
 10
88.5119990405
 20
404.457616577
 30
0.0
 11
93.612010866
 21
404.457616577
 31
0.0
  0
LINE
  5
B6
330
1F
100
AcDbEntity
  8
0
  6
Continuous
 62
     7
370
    15
100
AcDbLine
 10
93.612010866
 20
424.8083633874
 30
0.0
 11
88.5119990405
 21
424.8083633874
 31
0.0
  0
ARC
  5
B7
330
1F
100
AcDbEntity
  8
0
  6
Continuous
 62
     7
370
    15
100
AcDbCircle
 10
93.6120081957
 20
424.5583607758
 30
0.0
 40
0.2499999999999716
100
AcDbArc
 50
0.0
 51
90.0
  0
LINE
  5
B8
330
1F
100
AcDbEntity
  8
0
  6
Continuous
 62
     7
370
    15
100
AcDbLine
 10
89.4620374735
 20
421.4162332509
 30
0.0
 11
93.612010866
 21
421.4162332509
 31
0.0
  0
ARC
  5
B9
330
1F
100
AcDbEntity
  8
0
  6
Continuous
 62
     7
370
    15
100
AcDbCircle
 10
93.6120081957
 20
421.6662328259
 30
0.0
 40
0.2499999999999716
100
AcDbArc
 50
270.0
 51
0.0
  0
SPLINE
  5
BA
330
1F
100
AcDbEntity
  8
0
  6
Continuous
 62
     7
370
    15
100
AcDbSpline
210
0.0
220
0.0
230
1.0
 70
     8
 71
     3
 72
    13
 73
     9
 74
     0
 42
0.00000001
 43
0.00000001
 40
0.0
 40
0.0
 40
0.0
 40
0.0
 40
0.1123751151794243
 40
0.3879119197904718
 40
0.626683047742555
 40
0.8262024663071916
 40
0.9943251155743472
 40
1.0
 40
1.0
 40
1.0
 40
1.0
 10
88.01203528008128
 20
414.1971421931439
 30
0.0
 10
88.02926548097145
 20
414.1974717267738
 30
0.0
 10
88.0887430645544
 20
414.1986092564024
 30
0.0
 10
88.18113110475024
 20
414.1885873113531
 30
0.0
 10
88.26650963940719
 20
414.1710876469743
 30
0.0
 10
88.31149333087451
 20
414.1565038362024
 30
0.0
 10
88.32682578506778
 20
414.146696933748
 30
0.0
 10
88.32305619297765
 20
414.1495154577227
 30
0.0
 10
88.32293310722972
 20
414.1496074889355
 30
0.0
  0
ARC
  5
BB
330
1F
100
AcDbEntity
  8
0
  6
Continuous
 62
     7
370
    15
100
AcDbCircle
 10
82.9120081957
 20
414.448561027
 30
0.0
 40
0.2499999999999716
100
AcDbArc
 50
180.0
 51
270.0
  0
LINE
  5
BC
330
1F
100
AcDbEntity
  8
0
  6
Continuous
 62
     7
370
    15
100
AcDbLine
 10
82.9120234545
 20
414.1985578035
 30
0.0
 11
88.0120352801
 21
414.1985578035
 31
0.0
  0
ARC
  5
BD
330
1F
100
AcDbEntity
  8
0
  6
Continuous
 62
     7
370
    15
100
AcDbCircle
 10
82.9120081957
 20
420.3869755765
 30
0.0
 40
0.25
100
AcDbArc
 50
90.0
 51
180.0
  0
LINE
  5
BE
330
1F
100
AcDbEntity
  8
0
  6
Continuous
 62
     7
370
    15
100
AcDbLine
 10
88.0120352801
 20
420.6369770263
 30
0.0
 11
82.9120234545
 21
420.6369770263
 31
0.0
  0
ARC
  5
BF
330
1F
100
AcDbEntity
  8
0
  6
Continuous
 62
     7
370
    15
100
AcDbCircle
 10
89.2120081957
 20
423.0829883311
 30
0.0
 40
0.2500000000000568
100
AcDbArc
 50
0.0
 51
90.0
  0
ARC
  5
C0
330
1F
100
AcDbEntity
  8
0
  6
Continuous
 62
     7
370
    15
100
AcDbCircle
 10
88.5120081957
 20
423.0829883311
 30
0.0
 40
0.25
100
AcDbArc
 50
90.0
 51
180.0
  0
LINE
  5
C1
330
1F
100
AcDbEntity
  8
0
  6
Continuous
 62
     7
370
    15
100
AcDbLine
 10
89.2119959887
 20
423.3329845164
 30
0.0
 11
88.5119990405
 21
423.3329845164
 31
0.0
  0
LINE
  5
C2
330
1F
100
AcDbEntity
  8
0
  6
Continuous
 62
     7
370
    15
100
AcDbLine
 10
82.9120234545
 20
408.6289954875
 30
0.0
 11
87.061996847
 21
408.6289954875
 31
0.0
  0
ARC
  5
C3
330
1F
100
AcDbEntity
  8
0
  6
Continuous
 62
     7
370
    15
100
AcDbCircle
 10
82.9120081957
 20
408.8790010858
 30
0.0
 40
0.2499999999999716
100
AcDbArc
 50
180.0
 51
270.0
  0
LINE
  5
C4
330
1F
100
AcDbEntity
  8
0
  6
Continuous
 62
     7
370
    15
100
AcDbLine
 10
89.6667794283
 20
419.9876291249
 30
0.0
 11
89.4620374735
 21
419.6329814885
 31
0.0
  0
LINE
  5
C5
330
1F
100
AcDbEntity
  8
0
  6
Continuous
 62
     7
370
    15
100
AcDbLine
 10
94.6620062884
 20
419.6329814885
 30
0.0
 11
94.4572643336
 21
419.9876291249
 31
0.0
  0
LINE
  5
C6
330
1F
100
AcDbEntity
  8
0
  6
Continuous
 62
     7
370
    15
100
AcDbLine
 10
94.4572643336
 20
409.2783433889
 30
0.0
 11
94.6620062884
 21
409.6329910253
 31
0.0
  0
LINE
  5
C7
330
1F
100
AcDbEntity
  8
0
  6
Continuous
 62
     7
370
    15
100
AcDbLine
 10
89.4620374735
 20
409.6329910253
 30
0.0
 11
89.6667794283
 21
409.2783433889
 31
0.0
  0
LINE
  5
C8
330
1F
100
AcDbEntity
  8
0
  6
Continuous
 62
     7
370
    15
100
AcDbLine
 10
94.9119881686
 20
409.6329910253
 30
0.0
 11
94.9732617434
 21
409.5268649553
 31
0.0
  0
LINE
  5
C9
330
1F
100
AcDbEntity
  8
0
  6
Continuous
 62
     7
370
    15
100
AcDbLine
 10
94.9732617434
 20
419.7391224597
 30
0.0
 11
94.9119881686
 21
419.6329814885
 31
0.0
  0
LINE
  5
CA
330
1F
100
AcDbEntity
  8
0
  6
Continuous
 62
     7
370
    15
100
AcDbLine
 10
94.9119881686
 20
417.6329923366
 30
0.0
 11
94.6620062884
 21
417.6329923366
 31
0.0
  0
LINE
  5
CB
330
1F
100
AcDbEntity
  8
0
  6
Continuous
 62
     7
370
    15
100
AcDbLine
 10
94.6620062884
 20
411.6329950784
 30
0.0
 11
94.9119881686
 21
411.6329950784
 31
0.0
  0
LINE
  5
CC
330
1F
100
AcDbEntity
  8
0
  6
Continuous
 62
     7
370
    15
100
AcDbLine
 10
808.0620081589
 20
558.8329983447
 30
0.0
 11
808.0620081589
 21
538.8329876159
 31
0.0
  0
LWPOLYLINE
  5
CD
330
1F
100
AcDbEntity
  8
0
  6
Continuous
 62
     7
370
    15
100
AcDbPolyline
 90
       15
 70
   128
 43
0.0
 10
842.1240740415
 20
911.9363380168
 10
842.168982416
 20
911.7981148456
 10
842.3216932412
 20
911.3281322215
 10
842.5745361443
 20
910.5499339793
 10
842.9138765629
 20
909.5056009982
 10
843.3214233216
 20
908.2512808536
 10
843.7752046581
 20
906.8546844218
 10
844.2507565912
 20
905.3910923694
 10
844.7224416729
 20
903.9393616412
 10
845.1648310717
 20
902.5778723453
 10
845.5540754791
 20
901.3798785899
 10
845.8691940602
 20
900.4100514148
 10
846.0931957658
 20
899.7206640933
 10
846.2140032049
 20
899.3488503192
 10
846.2340005632
 20
899.2872787212
  0
LWPOLYLINE
  5
CE
330
1F
100
AcDbEntity
  8
0
  6
Continuous
 62
     7
370
    15
100
AcDbPolyline
 90
       14
 70
   128
 43
0.0
 10
852.7955071028
 20
874.2389631961
 10
852.7404882904
 20
874.4082403873
 10
852.5760390755
 20
874.9144030307
 10
852.3039624985
 20
875.7517290805
 10
851.9272387918
 20
876.9112182353
 10
851.4499918517
 20
878.3799958919
 10
850.8774519857
 20
880.1420880054
 10
850.215896308
 20
882.1781826709
 10
849.472566783
 20
884.4659281467
 10
848.6556106206
 20
886.9802308772
 10
847.7739796933
 20
889.6936131213
 10
846.8373299535
 20
892.5763321613
 10
845.8559283014
 20
895.5967975352
 10
844.9609124061
 20
898.3513665889
  0
LWPOLYLINE
  5
CF
330
1F
100
AcDbEntity
  8
0
  6
Continuous
 62
     7
370
    15
100
AcDbPolyline
 90
       14
 70
   128
 43
0.0
 10
840.5451879796
 20
911.9415236209
 10
839.6489799913
 20
914.6997881625
 10
838.6675746139
 20
917.7202535365
 10
837.7309285994
 20
920.6029725764
 10
836.8492939468
 20
923.3163548206
 10
836.032339647
 20
925.8306575511
 10
835.289010122
 20
928.1184030269
 10
834.6274525817
 20
930.1544380878
 10
834.0549145784
 20
931.9165302013
 10
833.5776676383
 20
933.3853674625
 10
833.2009420689
 20
934.5447970126
 10
832.928865492
 20
935.3821826671
 10
832.7644181397
 20
935.8882857059
 10
832.7094011899
 20
936.0576225017
  0
LWPOLYLINE
  5
D0
330
1F
100
AcDbEntity
  8
0
  6
Continuous
 62
     7
370
    15
100
AcDbPolyline
 90
        6
 70
   128
 43
0.0
 10
844.9393839534
 20
930.7782603
 10
844.4153548177
 20
932.391102383
 10
844.0000482794
 20
933.6692643855
 10
843.6992199119
 20
934.5951033328
 10
843.5170420404
 20
935.1558042262
 10
843.4560329612
 20
935.3435588573
  0
LWPOLYLINE
  5
D1
330
1F
100
AcDbEntity
  8
0
  6
Continuous
 62
     7
370
    15
100
AcDbPolyline
 90
        6
 70
   128
 43
0.0
 10
861.0700027045
 20
881.133313248
 10
861.0089936253
 20
881.3211274837
 10
860.8268157538
 20
881.8817687724
 10
860.5259873863
 20
882.8076673244
 10
860.1106845733
 20
884.0858293269
 10
859.5866517123
 20
885.6986118053
  0
SPLINE
  5
D2
330
1F
100
AcDbEntity
  8
0
  6
Continuous
 62
     7
370
    15
100
AcDbSpline
210
0.0
220
0.0
230
1.0
 70
     8
 71
     3
 72
    13
 73
     9
 74
     0
 42
0.00000001
 43
0.00000001
 40
0.0
 40
0.0
 40
0.0
 40
0.0
 40
0.1251011795601312
 40
0.2500295286173475
 40
0.3701843056723909
 40
0.4998759533389738
 40
0.7494254051858714
 40
1.0
 40
1.0
 40
1.0
 40
1.0
 10
853.6913351114716
 20
887.392575809782
 30
0.0
 10
853.6762485020511
 20
887.4511727649879
 30
0.0
 10
853.6460961257495
 20
887.5682857221959
 30
0.0
 10
853.6648021360056
 20
887.7729526290061
 30
0.0
 10
853.7411514573971
 20
887.9857902240018
 30
0.0
 10
853.9125295457743
 20
888.2520825686635
 30
0.0
 10
854.2023963349372
 20
888.5330105890623
 30
0.0
 10
854.4548483153953
 20
888.7042243506819
 30
0.0
 10
854.5813330408063
 20
888.790006706541
 30
0.0
  0
SPLINE
  5
D3
330
1F
100
AcDbEntity
  8
0
  6
Continuous
 62
     7
370
    15
100
AcDbSpline
210
0.0
220
0.0
230
1.0
 70
     8
 71
     3
 72
     9
 73
     5
 74
     0
 42
0.00000001
 43
0.00000001
 40
0.0
 40
0.0
 40
0.0
 40
0.0
 40
0.4997417825378221
 40
1.0
 40
1.0
 40
1.0
 40
1.0
 10
853.8546518381562
 20
887.1610117648296
 30
0.0
 10
853.8187000107906
 20
887.1913484290758
 30
0.0
 10
853.7467592033141
 20
887.2520531075841
 30
0.0
 10
853.7098161683103
 20
887.3457187849737
 30
0.0
 10
853.6913351114716
 20
887.392575809782
 30
0.0
  0
SPLINE
  5
D4
330
1F
100
AcDbEntity
  8
0
  6
Continuous
 62
     7
370
    15
100
AcDbSpline
210
0.0
220
0.0
230
1.0
 70
     8
 71
     3
 72
    12
 73
     8
 74
     0
 42
0.00000001
 43
0.00000001
 40
0.0
 40
0.0
 40
0.0
 40
0.0
 40
0.2863775854760275
 40
0.571650230246972
 40
0.7146455960928608
 40
0.8572877077920668
 40
1.0
 40
1.0
 40
1.0
 40
1.0
 10
854.5813330408063
 20
888.790006706541
 30
0.0
 10
854.7089961025604
 20
888.8699661231469
 30
0.0
 10
854.9638296591896
 20
889.0295764461308
 30
0.0
 10
855.3015057611215
 20
889.1597874545351
 30
0.0
 10
855.5587518342368
 20
889.1807501719377
 30
0.0
 10
855.7334699954463
 20
889.1369862460026
 30
0.0
 10
855.8082418442866
 20
889.054287580348
 30
0.0
 10
855.8456369634595
 20
889.012928078001
 30
0.0
  0
LINE
  5
D5
330
1F
100
AcDbEntity
  8
0
  6
Continuous
 62
     7
370
    15
100
AcDbLine
 10
854.3169529136
 20
885.695810387
 30
0.0
 11
854.0321060415
 21
886.5079832767
 31
0.0
  0
SPLINE
  5
D6
330
1F
100
AcDbEntity
  8
0
  6
Continuous
 62
     7
370
    15
100
AcDbSpline
210
0.0
220
0.0
230
1.0
 70
     8
 71
     3
 72
    10
 73
     6
 74
     0
 42
0.00000001
 43
0.00000001
 40
0.0
 40
0.0
 40
0.0
 40
0.0
 40
0.2499611872548351
 40
0.5002195346472288
 40
0.9999999999999999
 40
0.9999999999999999
 40
0.9999999999999999
 40
0.9999999999999999
 10
855.3309434052434
 20
886.722500393217
 30
0.0
 10
855.3399616991233
 20
886.7038138639712
 30
0.0
 10
855.3580090080574
 20
886.6664185904636
 30
0.0
 10
855.4235996068622
 20
886.619110924563
 30
0.0
 10
855.4892277952482
 20
886.6101537153693
 30
0.0
 10
855.5329584475484
 20
886.6041851733379
 30
0.0
  0
SPLINE
  5
D7
330
1F
100
AcDbEntity
  8
0
  6
Continuous
 62
     7
370
    15
100
AcDbSpline
210
0.0
220
0.0
230
1.0
 70
     8
 71
     3
 72
    11
 73
     7
 74
     0
 42
0.00000001
 43
0.00000001
 40
0.0
 40
0.0
 40
0.0
 40
0.0
 40
0.2503190005427084
 40
0.5002080669329967
 40
0.750111030279444
 40
0.9999999999999999
 40
0.9999999999999999
 40
0.9999999999999999
 40
0.9999999999999999
 10
855.8948443230119
 20
886.7813897822551
 30
0.0
 10
855.9184496850864
 20
886.8133706973454
 30
0.0
 10
855.9656198659636
 20
886.8772775988643
 30
0.0
 10
856.010088146474
 20
886.9807316949186
 30
0.0
 10
856.0294666075164
 20
887.0822058703851
 30
0.0
 10
856.0161985038433
 20
887.1382007253433
 30
0.0
 10
856.009564637753
 20
887.166197368925
 30
0.0
  0
LINE
  5
D8
330
1F
100
AcDbEntity
  8
0
  6
Continuous
 62
     7
370
    15
100
AcDbLine
 10
856.0086035129
 20
886.4415240977
 30
0.0
 11
855.894844323
 21
886.7813897823
 31
0.0
  0
SPLINE
  5
D9
330
1F
100
AcDbEntity
  8
0
  6
Continuous
 62
     7
370
    15
100
AcDbSpline
210
0.0
220
0.0
230
1.0
 70
     8
 71
     3
 72
    12
 73
     8
 74
     0
 42
0.00000001
 43
0.00000001
 40
0.0
 40
0.0
 40
0.0
 40
0.0
 40
0.3196659624830779
 40
0.4784336421910243
 40
0.6407263779199716
 40
0.9602515074278585
 40
1.0
 40
1.0
 40
1.0
 40
1.0
 10
855.4439947899308
 20
887.5105930064373
 30
0.0
 10
855.5416002233059
 20
887.5686689093723
 30
0.0
 10
855.687683098769
 20
887.6555892231551
 30
0.0
 10
855.8845682863567
 20
887.6963495152096
 30
0.0
 10
856.0632711795084
 20
887.6934709822249
 30
0.0
 10
856.2119915105486
 20
887.6660839070698
 30
0.0
 10
856.259904361572
 20
887.5916634432681
 30
0.0
 10
856.2652052339043
 20
887.5834298823528
 30
0.0
  0
SPLINE
  5
DA
330
1F
100
AcDbEntity
  8
0
  6
Continuous
 62
     7
370
    15
100
AcDbSpline
210
0.0
220
0.0
230
1.0
 70
     8
 71
     3
 72
    13
 73
     9
 74
     0
 42
0.00000001
 43
0.00000001
 40
0.0
 40
0.0
 40
0.0
 40
0.0
 40
0.2493816622024133
 40
0.3726993603612019
 40
0.4998212498557625
 40
0.624378260737587
 40
0.7503394467637329
 40
1.0
 40
1.0
 40
1.0
 40
1.0
 10
854.9479388590779
 20
886.4822936747723
 30
0.0
 10
854.9303870287797
 20
886.5624170312584
 30
0.0
 10
854.9041559263501
 20
886.6821608947349
 30
0.0
 10
854.9461899295976
 20
886.8743945958573
 30
0.0
 10
855.0040763417682
 20
887.0197925343291
 30
0.0
 10
855.086240294834
 20
887.1629134483597
 30
0.0
 10
855.2246414223594
 20
887.3409325524417
 30
0.0
 10
855.3564121352497
 20
887.4428515665868
 30
0.0
 10
855.4439947899308
 20
887.5105930064373
 30
0.0
  0
LINE
  5
DB
330
1F
100
AcDbEntity
  8
0
  6
Continuous
 62
     7
370
    15
100
AcDbLine
 10
855.006031036
 20
886.384601662
 30
0.0
 11
854.9479388591
 21
886.4822936748
 31
0.0
  0
LINE
  5
DC
330
1F
100
AcDbEntity
  8
0
  6
Continuous
 62
     7
370
    15
100
AcDbLine
 10
854.6004214283
 20
886.1920786594
 30
0.0
 11
855.006031036
 21
886.384601662
 31
0.0
  0
LINE
  5
DD
330
1F
100
AcDbEntity
  8
0
  6
Continuous
 62
     7
370
    15
100
AcDbLine
 10
854.0321060415
 20
886.5079832767
 30
0.0
 11
854.3991700705
 21
886.7608857845
 31
0.0
  0
LINE
  5
DE
330
1F
100
AcDbEntity
  8
0
  6
Continuous
 62
     7
370
    15
100
AcDbLine
 10
854.7567718621
 20
884.3902302478
 30
0.0
 11
854.6135120984
 21
884.8565173839
 31
0.0
  0
LINE
  5
DF
330
1F
100
AcDbEntity
  8
0
  6
Continuous
 62
     7
370
    15
100
AcDbLine
 10
854.6135120984
 20
884.8565173839
 30
0.0
 11
856.7085334059
 21
886.2977576945
 31
0.0
  0
SPLINE
  5
E0
330
1F
100
AcDbEntity
  8
0
  6
Continuous
 62
     7
370
    15
100
AcDbSpline
210
0.0
220
0.0
230
1.0
 70
     8
 71
     3
 72
    13
 73
     9
 74
     0
 42
0.00000001
 43
0.00000001
 40
0.0
 40
0.0
 40
0.0
 40
0.0
 40
0.1250904356863411
 40
0.2500009272938473
 40
0.374884381170459
 40
0.4999306945636991
 40
0.7494649241199176
 40
1.0
 40
1.0
 40
1.0
 40
1.0
 10
856.396070956799
 20
879.1378689501934
 30
0.0
 10
856.3928542433832
 20
879.1655479328691
 30
0.0
 10
856.3864254438322
 20
879.2208660816748
 30
0.0
 10
856.4351649218204
 20
879.3476826947189
 30
0.0
 10
856.536610312929
 20
879.5022971700782
 30
0.0
 10
856.7264415957382
 20
879.7240774615962
 30
0.0
 10
857.0181189521542
 20
879.9984835203786
 30
0.0
 10
857.2622910481205
 20
880.1958928776174
 30
0.0
 10
857.3846214409795
 20
880.2947951052837
 30
0.0
  0
SPLINE
  5
E1
330
1F
100
AcDbEntity
  8
0
  6
Continuous
 62
     7
370
    15
100
AcDbSpline
210
0.0
220
0.0
230
1.0
 70
     8
 71
     3
 72
    13
 73
     9
 74
     0
 42
0.00000001
 43
0.00000001
 40
0.0
 40
0.0
 40
0.0
 40
0.0
 40
0.2505486036670681
 40
0.5001713025263959
 40
0.6321778597933643
 40
0.7500357919053927
 40
0.874893392040163
 40
0.9999999999999999
 40
0.9999999999999999
 40
0.9999999999999999
 40
0.9999999999999999
 10
857.3846214409795
 20
880.2947951052837
 30
0.0
 10
857.5072170241963
 20
880.3908165055675
 30
0.0
 10
857.7519551374569
 20
880.582504458114
 30
0.0
 10
858.0662201521384
 20
880.7896817171738
 30
0.0
 10
858.291327609144
 20
880.9000396656352
 30
0.0
 10
858.4300667606531
 20
880.9380705878649
 30
0.0
 10
858.5166913345311
 20
880.9204461364898
 30
0.0
 10
858.5367399064612
 20
880.8764851229182
 30
0.0
 10
858.5467741783585
 20
880.8544827197246
 30
0.0
  0
LINE
  5
E2
330
1F
100
AcDbEntity
  8
0
  6
Continuous
 62
     7
370
    15
100
AcDbLine
 10
856.5903858241
 20
878.5791946147
 30
0.0
 11
856.7252264317
 21
878.819758961
 31
0.0
  0
SPLINE
  5
E3
330
1F
100
AcDbEntity
  8
0
  6
Continuous
 62
     7
370
    15
100
AcDbSpline
210
0.0
220
0.0
230
1.0
 70
     8
 71
     3
 72
    11
 73
     7
 74
     0
 42
0.00000001
 43
0.00000001
 40
0.0
 40
0.0
 40
0.0
 40
0.0
 40
0.2499753786595093
 40
0.4999372438644747
 40
0.7499482548455824
 40
0.9999999999999999
 40
0.9999999999999999
 40
0.9999999999999999
 40
0.9999999999999999
 10
858.0345206852879
 20
879.9893213008098
 30
0.0
 10
858.1190196722736
 20
880.0539879584093
 30
0.0
 10
858.2880130783019
 20
880.183317777784
 30
0.0
 10
858.5111509837931
 20
880.3005121671823
 30
0.0
 10
858.6815119627452
 20
880.3530454863318
 30
0.0
 10
858.7125616661482
 20
880.3129016867944
 30
0.0
 10
858.728087782475
 20
880.2928281520061
 30
0.0
  0
SPLINE
  5
E4
330
1F
100
AcDbEntity
  8
0
  6
Continuous
 62
     7
370
    15
100
AcDbSpline
210
0.0
220
0.0
230
1.0
 70
     8
 71
     3
 72
    12
 73
     8
 74
     0
 42
0.00000001
 43
0.00000001
 40
0.0
 40
0.0
 40
0.0
 40
0.0
 40
0.2495841033988377
 40
0.3725939791092904
 40
0.5004906959878455
 40
0.750103064295013
 40
1.0
 40
1.0
 40
1.0
 40
1.0
 10
857.4482233222451
 20
879.2628598902875
 30
0.0
 10
857.4493284924438
 20
879.2964659778161
 30
0.0
 10
857.4509783561825
 20
879.346635142054
 30
0.0
 10
857.5221928215864
 20
879.4633714081407
 30
0.0
 10
857.6189069600675
 20
879.5930246936956
 30
0.0
 10
857.786514795019
 20
879.7794717842689
 30
0.0
 10
857.9518206639506
 20
879.919344900343
 30
0.0
 10
858.0345206852879
 20
879.9893213008098
 30
0.0
  0
LINE
  5
E5
330
1F
100
AcDbEntity
  8
0
  6
Continuous
 62
     7
370
    15
100
AcDbLine
 10
856.7252264317
 20
878.819758961
 30
0.0
 11
857.4482233222
 21
879.2628598903
 31
0.0
  0
LINE
  5
E6
330
1F
100
AcDbEntity
  8
0
  6
Continuous
 62
     7
370
    15
100
AcDbLine
 10
856.8079167005
 20
878.1100464557
 30
0.0
 11
856.7759425338
 21
878.2463622783
 31
0.0
  0
LINE
  5
E7
330
1F
100
AcDbEntity
  8
0
  6
Continuous
 62
     7
370
    15
100
AcDbLine
 10
856.7759425338
 20
878.2463622783
 30
0.0
 11
858.7973372038
 21
879.900868008
 31
0.0
  0
SPLINE
  5
E8
330
1F
100
AcDbEntity
  8
0
  6
Continuous
 62
     7
370
    15
100
AcDbSpline
210
0.0
220
0.0
230
1.0
 70
     8
 71
     3
 72
    13
 73
     9
 74
     0
 42
0.00000001
 43
0.00000001
 40
0.0
 40
0.0
 40
0.0
 40
0.0
 40
0.1250805113934408
 40
0.2499748623471439
 40
0.3708226444351653
 40
0.4998948185453748
 40
0.749440815413041
 40
1.0
 40
1.0
 40
1.0
 40
1.0
 10
849.3886881466832
 20
900.721068451231
 30
0.0
 10
849.3689492408813
 20
900.7958896941847
 30
0.0
 10
849.3295008071824
 20
900.945420821773
 30
0.0
 10
849.3386735796927
 20
901.1817641554139
 30
0.0
 10
849.411381338532
 20
901.4074668721368
 30
0.0
 10
849.5848030941947
 20
901.6645373352884
 30
0.0
 10
849.8876137654554
 20
901.8984685828156
 30
0.0
 10
850.1545409769875
 20
902.0173394561107
 30
0.0
 10
850.2882749732461
 20
902.0768953059368
 30
0.0
  0
SPLINE
  5
E9
330
1F
100
AcDbEntity
  8
0
  6
Continuous
 62
     7
370
    15
100
AcDbSpline
210
0.0
220
0.0
230
1.0
 70
     8
 71
     3
 72
    12
 73
     8
 74
     0
 42
0.00000001
 43
0.00000001
 40
0.0
 40
0.0
 40
0.0
 40
0.0
 40
0.1252243103642693
 40
0.2503727618112133
 40
0.500193269137045
 40
0.7500051378988818
 40
1.0
 40
1.0
 40
1.0
 40
1.0
 10
849.8994105454411
 20
900.2072764132671
 30
0.0
 10
849.8702418233102
 20
900.21634057782
 30
0.0
 10
849.8119220490013
 20
900.2344634159972
 30
0.0
 10
849.7007294333723
 20
900.2867518619988
 30
0.0
 10
849.5758552077865
 20
900.3817327758877
 30
0.0
 10
849.4589631046898
 20
900.5365017965446
 30
0.0
 10
849.4121188496864
 20
900.6595312181555
 30
0.0
 10
849.3886881466832
 20
900.721068451231
 30
0.0
  0
SPLINE
  5
EA
330
1F
100
AcDbEntity
  8
0
  6
Continuous
 62
     7
370
    15
100
AcDbSpline
210
0.0
220
0.0
230
1.0
 70
     8
 71
     3
 72
    10
 73
     6
 74
     0
 42
0.00000001
 43
0.00000001
 40
0.0
 40
0.0
 40
0.0
 40
0.0
 40
0.497686646438048
 40
0.99348646885639
 40
1.0
 40
1.0
 40
1.0
 40
1.0
 10
850.2882749732461
 20
902.0768953059368
 30
0.0
 10
850.4231081307513
 20
902.1266072646212
 30
0.0
 10
850.6922632678104
 20
902.2258427145706
 30
0.0
 10
850.9882707410792
 20
902.287695932859
 30
0.0
 10
851.1281421652166
 20
902.2537061970248
 30
0.0
 10
851.1299558874097
 20
902.2532654498273
 30
0.0
  0
LINE
  5
EB
330
1F
100
AcDbEntity
  8
0
  6
Continuous
 62
     7
370
    15
100
AcDbLine
 10
849.9487445649
 20
898.9247632716
 30
0.0
 11
849.7973636683
 21
899.385805199
 31
0.0
  0
LINE
  5
EC
330
1F
100
AcDbEntity
  8
0
  6
Continuous
 62
     7
370
    15
100
AcDbLine
 10
851.6427532729
 20
900.2120447848
 30
0.0
 11
852.1050170954
 21
900.4191709254
 31
0.0
  0
LINE
  5
ED
330
1F
100
AcDbEntity
  8
0
  6
Continuous
 62
     7
370
    15
100
AcDbLine
 10
851.1741750833
 20
900.2510858272
 30
0.0
 11
851.5704267617
 21
900.4282308314
 31
0.0
  0
LINE
  5
EE
330
1F
100
AcDbEntity
  8
0
  6
Continuous
 62
     7
370
    15
100
AcDbLine
 10
851.2464866932
 20
900.0348997806
 30
0.0
 11
851.1741750833
 21
900.2510858272
 31
0.0
  0
LINE
  5
EF
330
1F
100
AcDbEntity
  8
0
  6
Continuous
 62
     7
370
    15
100
AcDbLine
 10
849.7973636683
 20
899.385805199
 30
0.0
 11
851.2464866932
 21
900.0348997806
 31
0.0
  0
LINE
  5
F0
330
1F
100
AcDbEntity
  8
0
  6
Continuous
 62
     7
370
    15
100
AcDbLine
 10
850.8272387978
 20
896.4809132312
 30
0.0
 11
850.6149941083
 21
897.1508694385
 31
0.0
  0
LINE
  5
F1
330
1F
100
AcDbEntity
  8
0
  6
Continuous
 62
     7
370
    15
100
AcDbLine
 10
850.6149941083
 20
897.1508694385
 30
0.0
 11
852.8342687484
 21
898.2014013026
 31
0.0
  0
LINE
  5
F2
330
1F
100
AcDbEntity
  8
0
  6
Continuous
 62
     7
370
    15
100
AcDbLine
 10
838.6300758418
 20
932.5813008044
 30
0.0
 11
837.5759639736
 21
932.6000166629
 31
0.0
  0
SPLINE
  5
F3
330
1F
100
AcDbEntity
  8
0
  6
Continuous
 62
     7
370
    15
100
AcDbSpline
210
0.0
220
0.0
230
1.0
 70
     8
 71
     3
 72
    10
 73
     6
 74
     0
 42
0.00000001
 43
0.00000001
 40
0.0
 40
0.0
 40
0.0
 40
0.0
 40
0.4562486834993618
 40
0.9122836177876223
 40
1.0
 40
1.0
 40
1.0
 40
1.0
 10
836.8216746445622
 20
932.5175238345319
 30
0.0
 10
836.8096384861057
 20
932.5549776186664
 30
0.0
 10
836.7855718080458
 20
932.629867640108
 30
0.0
 10
836.7695059618857
 20
932.711145790527
 30
0.0
 10
836.781782026178
 20
932.7519780728754
 30
0.0
 10
836.7837623651948
 20
932.7585650180034
 30
0.0
  0
LINE
  5
F4
330
1F
100
AcDbEntity
  8
0
  6
Continuous
 62
     7
370
    15
100
AcDbLine
 10
837.2479819652
 20
931.2537265514
 30
0.0
 11
836.8216746446
 21
932.5175238345
 31
0.0
  0
SPLINE
  5
F5
330
1F
100
AcDbEntity
  8
0
  6
Continuous
 62
     7
370
    15
100
AcDbSpline
210
0.0
220
0.0
230
1.0
 70
     8
 71
     3
 72
    13
 73
     9
 74
     0
 42
0.00000001
 43
0.00000001
 40
0.0
 40
0.0
 40
0.0
 40
0.0
 40
0.2502164730815458
 40
0.3752519059502882
 40
0.4999169842183805
 40
0.6245555789070147
 40
0.7497002609082545
 40
1.0
 40
1.0
 40
1.0
 40
1.0
 10
838.6054367717232
 20
930.5947972033672
 30
0.0
 10
838.439577312494
 20
930.6008178583305
 30
0.0
 10
838.1908363825736
 20
930.609847088989
 30
0.0
 10
837.8607283791708
 20
930.6699127518294
 30
0.0
 10
837.6286834937576
 20
930.7491098174883
 30
0.0
 10
837.4677865731924
 20
930.8684178238686
 30
0.0
 10
837.3262122760797
 20
931.0388333915274
 30
0.0
 10
837.2792743489441
 20
931.1677685748235
 30
0.0
 10
837.247981965157
 20
931.2537265513591
 30
0.0
  0
LINE
  5
F6
330
1F
100
AcDbEntity
  8
0
  6
Continuous
 62
     7
370
    15
100
AcDbLine
 10
841.1733948585
 20
930.5488420222
 30
0.0
 11
838.6054367717
 21
930.5947972034
 31
0.0
  0
SPLINE
  5
F7
330
1F
100
AcDbEntity
  8
0
  6
Continuous
 62
     7
370
    15
100
AcDbSpline
210
0.0
220
0.0
230
1.0
 70
     8
 71
     3
 72
    12
 73
     8
 74
     0
 42
0.00000001
 43
0.00000001
 40
0.0
 40
0.0
 40
0.0
 40
0.0
 40
0.1669464607897807
 40
0.3331981728002662
 40
0.4994110110527467
 40
0.6662523175262591
 40
0.9999999999999999
 40
0.9999999999999999
 40
0.9999999999999999
 40
0.9999999999999999
 10
842.2005393501248
 20
930.9112978671245
 30
0.0
 10
842.1929375435008
 20
930.8688274181972
 30
0.0
 10
842.17776556522
 20
930.7840632613909
 30
0.0
 10
842.0769300380697
 20
930.6696868477859
 30
0.0
 10
841.8874534714603
 20
930.597472314998
 30
0.0
 10
841.5849841791731
 20
930.5497106828261
 30
0.0
 10
841.3380370066724
 20
930.5491895000271
 30
0.0
 10
841.1733948584523
 20
930.5488420222454
 30
0.0
  0
LINE
  5
F8
330
1F
100
AcDbEntity
  8
0
  6
Continuous
 62
     7
370
    15
100
AcDbLine
 10
839.6841877099
 20
932.562584946
 30
0.0
 11
839.7105404135
 21
933.0041957591
 31
0.0
  0
LINE
  5
F9
330
1F
100
AcDbEntity
  8
0
  6
Continuous
 62
     7
370
    15
100
AcDbLine
 10
840.9139879938
 20
932.5408292506
 30
0.0
 11
839.6841877099
 21
932.562584946
 31
0.0
  0
LINE
  5
FA
330
1F
100
AcDbEntity
  8
0
  6
Continuous
 62
     7
370
    15
100
AcDbLine
 10
841.3993150886
 20
931.1079335902
 30
0.0
 11
840.9139879938
 21
932.5408292506
 31
0.0
  0
SPLINE
  5
FB
330
1F
100
AcDbEntity
  8
0
  6
Continuous
 62
     7
370
    15
100
AcDbSpline
210
0.0
220
0.0
230
1.0
 70
     8
 71
     3
 72
    10
 73
     6
 74
     0
 42
0.00000001
 43
0.00000001
 40
0.0
 40
0.0
 40
0.0
 40
0.0
 40
0.3438677528059054
 40
0.6873432795847174
 40
1.0
 40
1.0
 40
1.0
 40
1.0
 10
844.4491506513085
 20
915.8785296176128
 30
0.0
 10
844.4300420834536
 20
915.950029146417
 30
0.0
 10
844.3918467435581
 20
916.092946649486
 30
0.0
 10
844.4027623976187
 20
916.304446507702
 30
0.0
 10
844.462750581679
 20
916.421890514511
 30
0.0
 10
844.4913358386483
 20
916.4778543208294
 30
0.0
  0
SPLINE
  5
FC
330
1F
100
AcDbEntity
  8
0
  6
Continuous
 62
     7
370
    15
100
AcDbSpline
210
0.0
220
0.0
230
1.0
 70
     8
 71
     3
 72
    12
 73
     8
 74
     0
 42
0.00000001
 43
0.00000001
 40
0.0
 40
0.0
 40
0.0
 40
0.0
 40
0.1252480348353064
 40
0.2503932519381573
 40
0.5001354256720277
 40
0.7499234359617898
 40
1.0
 40
1.0
 40
1.0
 40
1.0
 10
844.9804329272237
 20
915.3181863520794
 30
0.0
 10
844.9495931096535
 20
915.3315580118181
 30
0.0
 10
844.8879387913188
 20
915.3582903543269
 30
0.0
 10
844.7711992998754
 20
915.4264277381957
 30
0.0
 10
844.640588754343
 20
915.5354191247692
 30
0.0
 10
844.5193202250745
 20
915.6975454608847
 30
0.0
 10
844.4725495089118
 20
915.8181783530342
 30
0.0
 10
844.4491506513085
 20
915.8785296176128
 30
0.0
  0
SPLINE
  5
FD
330
1F
100
AcDbEntity
  8
0
  6
Continuous
 62
     7
370
    15
100
AcDbSpline
210
0.0
220
0.0
230
1.0
 70
     8
 71
     3
 72
     9
 73
     5
 74
     0
 42
0.00000001
 43
0.00000001
 40
0.0
 40
0.0
 40
0.0
 40
0.0
 40
0.5015916404188766
 40
1.0
 40
1.0
 40
1.0
 40
1.0
 10
846.0058749612298
 20
915.3042984698467
 30
0.0
 10
845.8379081687584
 20
915.2725474980505
 30
0.0
 10
845.5030405614532
 20
915.2092470575369
 30
0.0
 10
845.154265388859
 20
915.2819503989498
 30
0.0
 10
844.9804329272237
 20
915.3181863520795
 30
0.0
  0
SPLINE
  5
FE
330
1F
100
AcDbEntity
  8
0
  6
Continuous
 62
     7
370
    15
100
AcDbSpline
210
0.0
220
0.0
230
1.0
 70
     8
 71
     3
 72
    10
 73
     6
 74
     0
 42
0.00000001
 43
0.00000001
 40
0.0
 40
0.0
 40
0.0
 40
0.0
 40
0.2018716967879529
 40
0.6000768354186594
 40
1.0
 40
1.0
 40
1.0
 40
1.0
 10
846.9284095760312
 20
915.7755923960857
 30
0.0
 10
846.8850168935103
 20
915.7208371447119
 30
0.0
 10
846.7560293037598
 20
915.5580735751291
 30
0.0
 10
846.4281532329301
 20
915.3982326018627
 30
0.0
 10
846.1468362365108
 20
915.3356547482271
 30
0.0
 10
846.0058749612298
 20
915.3042984698467
 30
0.0
  0
SPLINE
  5
FF
330
1F
100
AcDbEntity
  8
0
  6
Continuous
 62
     7
370
    15
100
AcDbSpline
210
0.0
220
0.0
230
1.0
 70
     8
 71
     3
 72
    14
 73
    10
 74
     0
 42
0.00000001
 43
0.00000001
 40
0.0
 40
0.0
 40
0.0
 40
0.0
 40
0.125235850480202
 40
0.2502517516553236
 40
0.3733670659427977
 40
0.5003686194226082
 40
0.6210924297221931
 40
0.7504700299457895
 40
1.0
 40
1.0
 40
1.0
 40
1.0
 10
845.6462205346551
 20
914.3522930834941
 30
0.0
 10
845.6307951641281
 20
914.3479548921175
 30
0.0
 10
845.5999715143545
 20
914.3392861284459
 30
0.0
 10
845.559490853748
 20
914.3151135003856
 30
0.0
 10
845.5267313901071
 20
914.2818929889281
 30
0.0
 10
845.5029187029281
 20
914.2422478167133
 30
0.0
 10
845.4887907523272
 20
914.1969319704967
 30
0.0
 10
845.482711347827
 20
914.1328446642815
 30
0.0
 10
845.4952663536487
 20
914.0838159537177
 30
0.0
 10
845.5035344656434
 20
914.0515280459575
 30
0.0
  0
SPLINE
  5
100
330
1F
100
AcDbEntity
  8
0
  6
Continuous
 62
     7
370
    15
100
AcDbSpline
210
0.0
220
0.0
230
1.0
 70
     8
 71
     3
 72
    13
 73
     9
 74
     0
 42
0.00000001
 43
0.00000001
 40
0.0
 40
0.0
 40
0.0
 40
0.0
 40
0.2505439458479308
 40
0.5000408148597895
 40
0.6282741555398672
 40
0.7501034454223743
 40
0.8750900048474107
 40
1.0
 40
1.0
 40
1.0
 40
1.0
 10
846.0836105938878
 20
914.0000892375164
 30
0.0
 10
846.0632721250909
 20
914.0466309234962
 30
0.0
 10
846.0226801863165
 20
914.1395197877775
 30
0.0
 10
845.9469878927912
 20
914.247423585821
 30
0.0
 10
845.8645002422923
 20
914.3119015897048
 30
0.0
 10
845.794133461
 20
914.3449396955692
 30
0.0
 10
845.7192760483626
 20
914.3618550085944
 30
0.0
 10
845.6705673980427
 20
914.3554797407677
 30
0.0
 10
845.6462205346551
 20
914.3522930834941
 30
0.0
  0
LINE
  5
101
330
1F
100
AcDbEntity
  8
0
  6
Continuous
 62
     7
370
    15
100
AcDbLine
 10
846.4739502367
 20
914.08776767
 30
0.0
 11
846.0836068686
 21
914.0000892375
 31
0.0
  0
SPLINE
  5
102
330
1F
100
AcDbEntity
  8
0
  6
Continuous
 62
     7
370
    15
100
AcDbSpline
210
0.0
220
0.0
230
1.0
 70
     8
 71
     3
 72
    13
 73
     9
 74
     0
 42
0.00000001
 43
0.00000001
 40
0.0
 40
0.0
 40
0.0
 40
0.0
 40
0.2496597012008421
 40
0.372675481009537
 40
0.5002267670334977
 40
0.6271354408982418
 40
0.7507327610714096
 40
1.0
 40
1.0
 40
1.0
 40
1.0
 10
847.1575223799672
 20
914.4372893069439
 30
0.0
 10
847.1376174671739
 20
914.4846359911477
 30
0.0
 10
847.1079047305408
 20
914.5553119882147
 30
0.0
 10
847.0363967448437
 20
914.6325220617382
 30
0.0
 10
846.9729451138953
 20
914.6797147220543
 30
0.0
 10
846.9027230991153
 20
914.7151481059841
 30
0.0
 10
846.8033272802733
 20
914.7453539737637
 30
0.0
 10
846.72942187568
 20
914.7364065065228
 30
0.0
 10
846.6800146695103
 20
914.7304249499492
 30
0.0
  0
SPLINE
  5
103
330
1F
100
AcDbEntity
  8
0
  6
Continuous
 62
     7
370
    15
100
AcDbSpline
210
0.0
220
0.0
230
1.0
 70
     8
 71
     3
 72
     9
 73
     5
 74
     0
 42
0.00000001
 43
0.00000001
 40
0.0
 40
0.0
 40
0.0
 40
0.0
 40
0.3333586932725649
 40
1.0
 40
1.0
 40
1.0
 40
1.0
 10
847.1707844134297
 20
914.213533470457
 30
0.0
 10
847.1757381894528
 20
914.2378152543146
 30
0.0
 10
847.1905983869609
 20
914.3106550642475
 30
0.0
 10
847.1707524807902
 20
914.386636766
 30
0.0
 10
847.1575223799672
 20
914.4372893069439
 30
0.0
  0
LINE
  5
104
330
1F
100
AcDbEntity
  8
0
  6
Continuous
 62
     7
370
    15
100
AcDbLine
 10
847.0672623213
 20
913.5091853831
 30
0.0
 11
846.9192267354
 21
913.9676643108
 31
0.0
  0
SPLINE
  5
105
330
1F
100
AcDbEntity
  8
0
  6
Continuous
 62
     7
370
    15
100
AcDbSpline
210
0.0
220
0.0
230
1.0
 70
     8
 71
     3
 72
     9
 73
     5
 74
     0
 42
0.00000001
 43
0.00000001
 40
0.0
 40
0.0
 40
0.0
 40
0.0
 40
0.3368436291611502
 40
1.0
 40
1.0
 40
1.0
 40
1.0
 10
847.4712141748395
 20
913.7490344737224
 30
0.0
 10
847.4335387522135
 20
913.7115268456778
 30
0.0
 10
847.3216903473028
 20
913.6001765786767
 30
0.0
 10
847.1687113307546
 20
913.5454666325011
 30
0.0
 10
847.0672623213258
 20
913.5091853831462
 30
0.0
  0
SPLINE
  5
106
330
1F
100
AcDbEntity
  8
0
  6
Continuous
 62
     7
370
    15
100
AcDbSpline
210
0.0
220
0.0
230
1.0
 70
     8
 71
     3
 72
    10
 73
     6
 74
     0
 42
0.00000001
 43
0.00000001
 40
0.0
 40
0.0
 40
0.0
 40
0.0
 40
0.4895862339867589
 40
0.9782633375749533
 40
1.0
 40
1.0
 40
1.0
 40
1.0
 10
846.077247798058
 20
914.5788503382854
 30
0.0
 10
846.0810121991614
 20
914.6480500619825
 30
0.0
 10
846.0885340111153
 20
914.786321009905
 30
0.0
 10
846.1374790331437
 20
914.9262202422597
 30
0.0
 10
846.1900354023466
 20
914.9729910108539
 30
0.0
 10
846.1922735866036
 20
914.9749828074627
 30
0.0
  0
SPLINE
  5
107
330
1F
100
AcDbEntity
  8
0
  6
Continuous
 62
     7
370
    15
100
AcDbSpline
210
0.0
220
0.0
230
1.0
 70
     8
 71
     3
 72
    11
 73
     7
 74
     0
 42
0.00000001
 43
0.00000001
 40
0.0
 40
0.0
 40
0.0
 40
0.0
 40
0.3331326909024815
 40
0.6658172218485334
 40
0.8329529015142023
 40
1.0
 40
1.0
 40
1.0
 40
1.0
 10
845.0603404041257
 20
913.9682007525615
 30
0.0
 10
845.0382554001147
 20
914.0579086555862
 30
0.0
 10
844.9941151028202
 20
914.237203778523
 30
0.0
 10
845.0479544010711
 20
914.4549094460314
 30
0.0
 10
845.1315971245781
 20
914.6046954105323
 30
0.0
 10
845.1927871205289
 20
914.66475802532
 30
0.0
 10
845.2233740087476
 20
914.6947813723735
 30
0.0
  0
SPLINE
  5
108
330
1F
100
AcDbEntity
  8
0
  6
Continuous
 62
     7
370
    15
100
AcDbSpline
210
0.0
220
0.0
230
1.0
 70
     8
 71
     3
 72
     9
 73
     5
 74
     0
 42
0.00000001
 43
0.00000001
 40
0.0
 40
0.0
 40
0.0
 40
0.0
 40
0.4996911665459082
 40
1.0
 40
1.0
 40
1.0
 40
1.0
 10
845.467607766005
 20
913.4631109927349
 30
0.0
 10
845.3749543279957
 20
913.5289083295197
 30
0.0
 10
845.1895329233113
 20
913.6605843350009
 30
0.0
 10
845.1034223064138
 20
913.8656197321815
 30
0.0
 10
845.0603404041257
 20
913.9682007525615
 30
0.0
  0
SPLINE
  5
109
330
1F
100
AcDbEntity
  8
0
  6
Continuous
 62
     7
370
    15
100
AcDbSpline
210
0.0
220
0.0
230
1.0
 70
     8
 71
     3
 72
     9
 73
     5
 74
     0
 42
0.00000001
 43
0.00000001
 40
0.0
 40
0.0
 40
0.0
 40
0.0
 40
0.500622594499835
 40
1.0
 40
1.0
 40
1.0
 40
1.0
 10
845.9566936787095
 20
913.3644057009868
 30
0.0
 10
845.8730118468017
 20
913.3613692235042
 30
0.0
 10
845.7058563232051
 20
913.3553038211115
 30
0.0
 10
845.5469579989232
 20
913.4272051124262
 30
0.0
 10
845.467607766005
 20
913.4631109927349
 30
0.0
  0
LINE
  5
10A
330
1F
100
AcDbEntity
  8
0
  6
Continuous
 62
     7
370
    15
100
AcDbLine
 10
845.8965004381
 20
911.6235924457
 30
0.0
 11
845.6707813736
 21
912.3241854404
 31
0.0
  0
LINE
  5
10B
330
1F
100
AcDbEntity
  8
0
  6
Continuous
 62
     7
370
    15
100
AcDbLine
 10
846.4072489139
 20
911.4549709056
 30
0.0
 11
845.8965004381
 21
911.6235924457
 31
0.0
  0
LINE
  5
10C
330
1F
100
AcDbEntity
  8
0
  6
Continuous
 62
     7
370
    15
100
AcDbLine
 10
848.1991955038
 20
912.4394608234
 30
0.0
 11
846.2460481521
 21
911.9632793163
 31
0.0
  0
SPLINE
  5
10D
330
1F
100
AcDbEntity
  8
0
  6
Continuous
 62
     7
370
    15
100
AcDbSpline
210
0.0
220
0.0
230
1.0
 70
     8
 71
     3
 72
    16
 73
    12
 74
     0
 42
0.00000001
 43
0.00000001
 40
0.0
 40
0.0
 40
0.0
 40
0.0
 40
0.0000597256174209
 40
0.1251209337565135
 40
0.2500907867161334
 40
0.3750583928703477
 40
0.5000243693824106
 40
0.6249880119017224
 40
0.7499515743067713
 40
0.8749147344507181
 40
1.0
 40
1.0
 40
1.0
 40
1.0
 10
835.2040623273577
 20
935.8918619845562
 30
0.0
 10
835.2040325118992
 20
935.8918619852609
 30
0.0
 10
835.1415712401707
 20
935.8918634617231
 30
0.0
 10
835.3624225406631
 20
935.873318843913
 30
0.0
 10
835.8783542902746
 20
935.8002095009557
 30
0.0
 10
836.7160186475301
 20
935.7080507978894
 30
0.0
 10
837.6910140233003
 20
935.6265674053537
 30
0.0
 10
838.6732598657976
 20
935.5758090879558
 30
0.0
 10
839.5000158836159
 20
935.557412086218
 30
0.0
 10
840.0790573630186
 20
935.5587345349287
 30
0.0
 10
840.1549390705748
 20
935.5598450341874
 30
0.0
 10
840.1928984518971
 20
935.5604005549602
 30
0.0
  0
SPLINE
  5
10E
330
1F
100
AcDbEntity
  8
0
  6
Continuous
 62
     7
370
    15
100
AcDbSpline
210
0.0
220
0.0
230
1.0
 70
     8
 71
     3
 72
    16
 73
    12
 74
     0
 42
0.00000001
 43
0.00000001
 40
0.0
 40
0.0
 40
0.0
 40
0.0
 40
0.0451128340684763
 40
0.1644669708471594
 40
0.2838511950718369
 40
0.4032078626945432
 40
0.522536717450673
 40
0.6419321650434506
 40
0.7612617387002693
 40
0.8806225013286227
 40
1.0
 40
1.0
 40
1.0
 40
1.0
 10
855.8930152054753
 20
878.140981266325
 30
0.0
 10
855.8867223178444
 20
878.1590079630497
 30
0.0
 10
855.8637804613215
 20
878.2247275363354
 30
0.0
 10
855.6370170807317
 20
878.1859583451283
 30
0.0
 10
855.2616611069226
 20
878.02342030326
 30
0.0
 10
854.8001414689251
 20
877.7209508470172
 30
0.0
 10
854.3418186493703
 20
877.3363444449503
 30
0.0
 10
853.9499970601679
 20
876.9232744136293
 30
0.0
 10
853.6876484685421
 20
876.5537759945121
 30
0.0
 10
853.5733222371407
 20
876.2720694303783
 30
0.0
 10
853.644823390314
 20
876.2110809017083
 30
0.0
 10
853.6805764730897
 20
876.1805844996625
 30
0.0
  0
SPLINE
  5
10F
330
1F
100
AcDbEntity
  8
0
  6
Continuous
 62
     7
370
    15
100
AcDbSpline
210
0.0
220
0.0
230
1.0
 70
     8
 71
     3
 72
    16
 73
    12
 74
     0
 42
0.00000001
 43
0.00000001
 40
0.0
 40
0.0
 40
0.0
 40
0.0
 40
0.0049919200030371
 40
0.1349226421028254
 40
0.264809598433579
 40
0.3947707060691787
 40
0.5246664417642484
 40
0.654596506086612
 40
0.7845062359453834
 40
0.9143998899447889
 40
1.0
 40
1.0
 40
1.0
 40
1.0
 10
841.685525416943
 20
914.6061492655925
 30
0.0
 10
841.6805668951275
 20
914.6016709353538
 30
0.0
 10
841.546546946115
 20
914.4806297031948
 30
0.0
 10
841.4497780572957
 20
914.1064774649608
 30
0.0
 10
841.4501460127013
 20
913.5615256120104
 30
0.0
 10
841.6883475627377
 20
913.0198920761645
 30
0.0
 10
842.1022554359221
 20
912.588830571337
 30
0.0
 10
842.6375919098775
 20
912.3246499908488
 30
0.0
 10
843.2063361139788
 20
912.2826644076542
 30
0.0
 10
843.6909804860173
 20
912.4199696143259
 30
0.0
 10
843.8925233063795
 20
912.636806770991
 30
0.0
 10
843.9725817140069
 20
912.7229405139141
 30
0.0
  0
LWPOLYLINE
  5
110
330
1F
100
AcDbEntity
  8
0
  6
Continuous
 62
     7
370
    15
100
AcDbPolyline
 90
       10
 70
   128
 43
0.0
 10
848.1988341506
 20
899.7281146739
 10
847.8360765573
 20
899.7665596698
 10
847.3223776515
 20
899.5947194789
 10
846.9000899192
 20
899.2237997745
 10
846.6338583227
 20
898.7083388065
 10
846.5600118931
 20
898.128683636
 10
846.6893167194
 20
897.5728703235
 10
847.0013358589
 20
897.1266103481
 10
847.4491716321
 20
896.8558264468
 10
847.4491716321
 20
896.8558264468
  0
SPLINE
  5
111
330
1F
100
AcDbEntity
  8
0
  6
Continuous
 62
     7
370
    15
100
AcDbSpline
210
0.0
220
0.0
230
1.0
 70
     8
 71
     3
 72
    15
 73
    11
 74
     0
 42
0.00000001
 43
0.00000001
 40
0.0
 40
0.0
 40
0.0
 40
0.0
 40
0.1083032143505821
 40
0.235727382352733
 40
0.3630948315904757
 40
0.4904875195978544
 40
0.617877480535144
 40
0.7452440381305909
 40
0.8726573133242751
 40
1.0
 40
1.0
 40
1.0
 40
1.0
 10
853.2594733830418
 20
886.0073042605571
 30
0.0
 10
853.1689967188623
 20
886.0743270142049
 30
0.0
 10
852.9720697177672
 20
886.2202054017501
 30
0.0
 10
852.5191600123431
 20
886.2177075712578
 30
0.0
 10
852.0195911970596
 20
886.0281326646966
 30
0.0
 10
851.5554015835229
 20
885.6637797565969
 30
0.0
 10
851.2029437949377
 20
885.1805010890861
 30
0.0
 10
851.0119938115075
 20
884.6599893294854
 30
0.0
 10
850.9973971174783
 20
884.168204253146
 30
0.0
 10
851.1400975432663
 20
883.9488777681746
 30
0.0
 10
851.211427986237
 20
883.8392449114971
 30
0.0
  0
SPLINE
  5
112
330
1F
100
AcDbEntity
  8
0
  6
Continuous
 62
     7
370
    15
100
AcDbSpline
210
0.0
220
0.0
230
1.0
 70
     8
 71
     3
 72
    17
 73
    13
 74
     0
 42
0.00000001
 43
0.00000001
 40
0.0
 40
0.0
 40
0.0
 40
0.0
 40
0.1239513944859281
 40
0.2494625882478037
 40
0.3120405657429339
 40
0.3745374292337799
 40
0.4998298182970285
 40
0.6248453257040137
 40
0.7497729801012641
 40
0.8749686048650746
 40
0.9373873515129287
 40
1.0
 40
1.0
 40
1.0
 40
1.0
 10
838.5616683360066
 20
929.5610738490277
 30
0.0
 10
838.5525062782748
 20
929.6253644028731
 30
0.0
 10
838.5340668678517
 20
929.7547545402622
 30
0.0
 10
838.3867754060811
 20
929.9078900504405
 30
0.0
 10
838.2259107963752
 20
930.0096853960678
 30
0.0
 10
838.0351053025167
 20
930.0923238271796
 30
0.0
 10
837.7610148482257
 20
930.1568846497676
 30
0.0
 10
837.4255762496117
 20
930.1651440505667
 30
0.0
 10
837.1383530828422
 20
930.0948571105301
 30
0.0
 10
836.9711618442146
 20
929.9857710508609
 30
0.0
 10
836.893807825589
 20
929.8763630519076
 30
0.0
 10
836.8835236334611
 20
929.8149751773014
 30
0.0
 10
836.8783735629048
 20
929.7842336390667
 30
0.0
  0
SPLINE
  5
113
330
1F
100
AcDbEntity
  8
0
  6
Continuous
 62
     7
370
    15
100
AcDbSpline
210
0.0
220
0.0
230
1.0
 70
    11
 71
     3
 72
    23
 73
    19
 74
     0
 42
0.00000001
 43
0.00000001
 40
0.0
 40
0.0
 40
0.0
 40
0.0
 40
0.0623505606779707
 40
0.1250478409389366
 40
0.1876221564576952
 40
0.2501178508716625
 40
0.3126708720568648
 40
0.3751711618723217
 40
0.4377013302256576
 40
0.5002631490913747
 40
0.5627689994635284
 40
0.6253561558979494
 40
0.6878459011693712
 40
0.7504068141716591
 40
0.8129220008485835
 40
0.8754845383095764
 40
0.9382179389084723
 40
1.0
 40
1.0
 40
1.0
 40
1.0
 10
844.3147906061139
 20
913.3416963313274
 30
0.0
 10
844.3250778957716
 20
913.5253993692974
 30
0.0
 10
844.3457096807439
 20
913.8938269828146
 30
0.0
 10
844.102080549956
 20
914.434358969349
 30
0.0
 10
843.681666482212
 20
914.8587593096722
 30
0.0
 10
843.1384087523262
 20
915.1095586368679
 30
0.0
 10
842.559821363552
 20
915.1532001229893
 30
0.0
 10
842.0348981519693
 20
914.9784489477186
 30
0.0
 10
841.6400766602478
 20
914.6180821344819
 30
0.0
 10
841.4397196575516
 20
914.1191833752775
 30
0.0
 10
841.4568084461442
 20
913.5595267996665
 30
0.0
 10
841.6917408555418
 20
913.0216870421565
 30
0.0
 10
842.1082858575242
 20
912.5895919229147
 30
0.0
 10
842.6424475421319
 20
912.3278878499632
 30
0.0
 10
843.2178121920028
 20
912.2819434197423
 30
0.0
 10
843.7426719021788
 20
912.4582664481154
 30
0.0
 10
844.1507028185284
 20
912.8274358702223
 30
0.0
 10
844.2603739849716
 20
913.1711515449527
 30
0.0
 10
844.3147906061139
 20
913.3416963313274
 30
0.0
  0
SPLINE
  5
114
330
1F
100
AcDbEntity
  8
0
  6
Continuous
 62
     7
370
    15
100
AcDbSpline
210
0.0
220
0.0
230
1.0
 70
    11
 71
     3
 72
    23
 73
    19
 74
     0
 42
0.00000001
 43
0.00000001
 40
0.0
 40
0.0
 40
0.0
 40
0.0
 40
0.062350005305501
 40
0.1250415707623595
 40
0.1876236244868224
 40
0.2501245699371253
 40
0.3126794303464126
 40
0.3751788861947953
 40
0.4377088145320716
 40
0.5002593850274469
 40
0.5627645810474116
 40
0.6253551135404177
 40
0.6878459864313844
 40
0.7504105687148833
 40
0.8129285587334929
 40
0.8754916642369742
 40
0.938221394064862
 40
1.0
 40
1.0
 40
1.0
 40
1.0
 10
849.190327614161
 20
897.8554559443645
 30
0.0
 10
849.2316006515445
 20
898.04773552814
 30
0.0
 10
849.3143728245262
 20
898.4333480242901
 30
0.0
 10
849.1768523279803
 20
899.0084491691572
 30
0.0
 10
848.8512117702544
 20
899.4678395615995
 30
0.0
 10
848.3785449859389
 20
899.7470013034437
 30
0.0
 10
847.8368312125277
 20
899.8050410175233
 30
0.0
 10
847.3097368537282
 20
899.6269401302701
 30
0.0
 10
846.8761092090544
 20
899.2466255299569
 30
0.0
 10
846.6047084840125
 20
898.716197546888
 30
0.0
 10
846.5295584902941
 20
898.1210018544937
 30
0.0
 10
846.663343198699
 20
897.5504609168279
 30
0.0
 10
846.9848314716962
 20
897.0933173339015
 30
0.0
 10
847.4440657220393
 20
896.8159215429022
 30
0.0
 10
847.977347280622
 20
896.7634575380866
 30
0.0
 10
848.5006048356383
 20
896.9418308337423
 30
0.0
 10
848.9474652370392
 20
897.3207152243435
 30
0.0
 10
849.1097868153487
 20
897.6781191116349
 30
0.0
 10
849.190327614161
 20
897.8554559443645
 30
0.0
  0
LINE
  5
115
330
1F
100
AcDbEntity
  8
0
  6
Continuous
 62
     7
370
    15
100
AcDbLine
 10
845.8995440002
 20
911.62621505
 30
0.0
 11
845.6737541553
 21
912.3270464633
 31
0.0
  0
LINE
  5
116
330
1F
100
AcDbEntity
  8
0
  6
Continuous
 62
     7
370
    15
100
AcDbLine
 10
845.6737541553
 20
912.3270464633
 30
0.0
 11
848.051763415
 21
912.9067612384
 31
0.0
  0
LINE
  5
117
330
1F
100
AcDbEntity
  8
0
  6
Continuous
 62
     7
370
    15
100
AcDbLine
 10
848.051763415
 20
912.9067612384
 30
0.0
 11
848.2022167142
 21
912.4421430324
 31
0.0
  0
LINE
  5
118
330
1F
100
AcDbEntity
  8
0
  6
Continuous
 62
     7
370
    15
100
AcDbLine
 10
848.2022167142
 20
912.4421430324
 30
0.0
 11
846.2490693625
 21
911.9659615253
 31
0.0
  0
LINE
  5
119
330
1F
100
AcDbEntity
  8
0
  6
Continuous
 62
     7
370
    15
100
AcDbLine
 10
846.2490693625
 20
911.9659615253
 30
0.0
 11
846.4103185531
 21
911.4575339053
 31
0.0
  0
LINE
  5
11A
330
1F
100
AcDbEntity
  8
0
  6
Continuous
 62
     7
370
    15
100
AcDbLine
 10
846.4103185531
 20
911.4575339053
 30
0.0
 11
845.8995440002
 21
911.62621505
 31
0.0
  0
LINE
  5
11B
330
1F
100
AcDbEntity
  8
0
  6
Continuous
 62
     7
370
    15
100
AcDbLine
 10
845.8995440002
 20
911.62621505
 30
0.0
 11
845.8965004381
 21
911.6235924457
 31
0.0
  0
LINE
  5
11C
330
1F
100
AcDbEntity
  8
0
  6
Continuous
 62
     7
370
    15
100
AcDbLine
 10
846.4103185531
 20
911.4575339053
 30
0.0
 11
846.4072489139
 21
911.4549709056
 31
0.0
  0
LINE
  5
11D
330
1F
100
AcDbEntity
  8
0
  6
Continuous
 62
     7
370
    15
100
AcDbLine
 10
845.6737541553
 20
912.3270464633
 30
0.0
 11
845.6707813736
 21
912.3241854404
 31
0.0
  0
SPLINE
  5
11E
330
1F
100
AcDbEntity
  8
0
  6
Continuous
 62
     7
370
    15
100
AcDbSpline
210
0.0
220
0.0
230
1.0
 70
     8
 71
     3
 72
    13
 73
     9
 74
     0
 42
0.00000001
 43
0.00000001
 40
0.0
 40
0.0
 40
0.0
 40
0.0
 40
0.1251019854533908
 40
0.2500153237224521
 40
0.3708762057032088
 40
0.4999336105597149
 40
0.7494682951221957
 40
1.0
 40
1.0
 40
1.0
 40
1.0
 10
849.3928083177533
 20
900.7204128001384
 30
0.0
 10
849.3730611322809
 20
900.7952539176565
 30
0.0
 10
849.3335965390485
 20
900.9448232962416
 30
0.0
 10
849.3427585876149
 20
901.1812188568281
 30
0.0
 10
849.4154121096262
 20
901.406981541827
 30
0.0
 10
849.5888694929702
 20
901.664059523954
 30
0.0
 10
849.8916308242468
 20
901.8980627214314
 30
0.0
 10
850.1585725092091
 20
902.0169272929867
 30
0.0
 10
850.2923094626393
 20
902.0764780734233
 30
0.0
  0
SPLINE
  5
11F
330
1F
100
AcDbEntity
  8
0
  6
Continuous
 62
     7
370
    15
100
AcDbSpline
210
0.0
220
0.0
230
1.0
 70
     8
 71
     3
 72
    13
 73
     9
 74
     0
 42
0.00000001
 43
0.00000001
 40
0.0
 40
0.0
 40
0.0
 40
0.0
 40
0.250514721031626
 40
0.5000738824918953
 40
0.6323933221056786
 40
0.7499608920104519
 40
0.8748405931100295
 40
1.0
 40
1.0
 40
1.0
 40
1.0
 10
850.2923094626393
 20
902.0764780734233
 30
0.0
 10
850.4276491350527
 20
902.1289355914233
 30
0.0
 10
850.6978122422751
 20
902.2336505342586
 30
0.0
 10
851.0633217853169
 20
902.2770858140904
 30
0.0
 10
851.3442698918195
 20
902.2163366898783
 30
0.0
 10
851.5326864759942
 20
902.1040138741846
 30
0.0
 10
851.6718077568834
 20
901.9305214624019
 30
0.0
 10
851.725920384322
 20
901.7880299118109
 30
0.0
 10
851.7530069645371
 20
901.7167044375591
 30
0.0
  0
SPLINE
  5
120
330
1F
100
AcDbEntity
  8
0
  6
Continuous
 62
     7
370
    15
100
AcDbSpline
210
0.0
220
0.0
230
1.0
 70
     8
 71
     3
 72
    13
 73
     9
 74
     0
 42
0.00000001
 43
0.00000001
 40
0.0
 40
0.0
 40
0.0
 40
0.0
 40
0.1251712528562406
 40
0.250122989950941
 40
0.3749926691207318
 40
0.500049778138783
 40
0.7494772468385273
 40
1.0
 40
1.0
 40
1.0
 40
1.0
 10
851.7530069645371
 20
901.7167044375591
 30
0.0
 10
851.7729387684318
 20
901.6429717264039
 30
0.0
 10
851.8127674213496
 20
901.4956356108778
 30
0.0
 10
851.8061738775156
 20
901.2597897612399
 30
0.0
 10
851.7324221245914
 20
901.0363942235124
 30
0.0
 10
851.5602289457031
 20
900.7816811336561
 30
0.0
 10
851.2626452090481
 20
900.5482872902511
 30
0.0
 10
850.9984802971908
 20
900.4314992664748
 30
0.0
 10
850.8661084767308
 20
900.3729773257427
 30
0.0
  0
SPLINE
  5
121
330
1F
100
AcDbEntity
  8
0
  6
Continuous
 62
     7
370
    15
100
AcDbSpline
210
0.0
220
0.0
230
1.0
 70
     8
 71
     3
 72
     9
 73
     5
 74
     0
 42
0.00000001
 43
0.00000001
 40
0.0
 40
0.0
 40
0.0
 40
0.0
 40
0.5015897932899749
 40
1.0
 40
1.0
 40
1.0
 40
1.0
 10
850.8661084767308
 20
900.3729773257427
 30
0.0
 10
850.709045564479
 20
900.3090138960919
 30
0.0
 10
850.395915364557
 20
900.1814925021032
 30
0.0
 10
850.0673529215718
 20
900.1981033349583
 30
0.0
 10
849.9035940464463
 20
900.2063823435955
 30
0.0
  0
SPLINE
  5
122
330
1F
100
AcDbEntity
  8
0
  6
Continuous
 62
     7
370
    15
100
AcDbSpline
210
0.0
220
0.0
230
1.0
 70
     8
 71
     3
 72
    12
 73
     8
 74
     0
 42
0.00000001
 43
0.00000001
 40
0.0
 40
0.0
 40
0.0
 40
0.0
 40
0.2499971892869109
 40
0.4997747530450121
 40
0.7495989724232505
 40
0.8747503443519793
 40
1.0
 40
1.0
 40
1.0
 40
1.0
 10
849.903590321156
 20
900.2064419482402
 30
0.0
 10
849.8455807737002
 20
900.2261166932476
 30
0.0
 10
849.7296126408718
 20
900.2654488987628
 30
0.0
 10
849.5796009978823
 20
900.3811566077777
 30
0.0
 10
849.4840342667444
 20
900.5106619944485
 30
0.0
 10
849.4253514740824
 20
900.6269744451843
 30
0.0
 10
849.4036588746827
 20
900.6892585328765
 30
0.0
 10
849.3928083177533
 20
900.7204128001384
 30
0.0
  0
SPLINE
  5
123
330
1F
100
AcDbEntity
  8
0
  6
Continuous
 62
     7
370
    15
100
AcDbSpline
210
0.0
220
0.0
230
1.0
 70
     8
 71
     3
 72
    11
 73
     7
 74
     0
 42
0.00000001
 43
0.00000001
 40
0.0
 40
0.0
 40
0.0
 40
0.0
 40
0.2499344501756062
 40
0.4997112816578237
 40
0.7497385634451131
 40
1.0
 40
1.0
 40
1.0
 40
1.0
 10
851.3562560971703
 20
901.5491557810955
 30
0.0
 10
851.3455377149284
 20
901.5763006955536
 30
0.0
 10
851.3241077098863
 20
901.6305734057972
 30
0.0
 10
851.2649559326483
 20
901.6926082094209
 30
0.0
 10
851.1933300580641
 20
901.7348335844171
 30
0.0
 10
851.1403972860099
 20
901.7475013059781
 30
0.0
 10
851.1139185126748
 20
901.7538381312542
 30
0.0
  0
SPLINE
  5
124
330
1F
100
AcDbEntity
  8
0
  6
Continuous
 62
     7
370
    15
100
AcDbSpline
210
0.0
220
0.0
230
1.0
 70
     8
 71
     3
 72
     9
 73
     5
 74
     0
 42
0.00000001
 43
0.00000001
 40
0.0
 40
0.0
 40
0.0
 40
0.0
 40
0.4986503733082807
 40
1.0
 40
1.0
 40
1.0
 40
1.0
 10
851.1139185126748
 20
901.7538381312542
 30
0.0
 10
851.0003945344936
 20
901.752129770583
 30
0.0
 10
850.7727320594249
 20
901.748703801682
 30
0.0
 10
850.5579178278892
 20
901.6601767688278
 30
0.0
 10
850.4502207931008
 20
901.6157937739544
 30
0.0
  0
SPLINE
  5
125
330
1F
100
AcDbEntity
  8
0
  6
Continuous
 62
     7
370
    15
100
AcDbSpline
210
0.0
220
0.0
230
1.0
 70
     8
 71
     3
 72
    13
 73
     9
 74
     0
 42
0.00000001
 43
0.00000001
 40
0.0
 40
0.0
 40
0.0
 40
0.0
 40
0.5002061374488188
 40
0.6253276635868842
 40
0.7503449515464137
 40
0.8748622315450759
 40
0.937404376671753
 40
1.0
 40
1.0
 40
1.0
 40
1.0
 10
850.4502207931008
 20
901.6157937739544
 30
0.0
 10
850.2914238368486
 20
901.5466910952438
 30
0.0
 10
850.0929054217321
 20
901.4603030776035
 30
0.0
 10
849.8920124450005
 20
901.2850011354814
 30
0.0
 10
849.8155075971684
 20
901.1714912240999
 30
0.0
 10
849.779492499058
 20
901.0599243173439
 30
0.0
 10
849.7788470065431
 20
900.967021033673
 30
0.0
 10
849.7906707062921
 20
900.9231423869663
 30
0.0
 10
849.796585082623
 20
900.9011936877422
 30
0.0
  0
SPLINE
  5
126
330
1F
100
AcDbEntity
  8
0
  6
Continuous
 62
     7
370
    15
100
AcDbSpline
210
0.0
220
0.0
230
1.0
 70
     8
 71
     3
 72
    13
 73
     9
 74
     0
 42
0.00000001
 43
0.00000001
 40
0.0
 40
0.0
 40
0.0
 40
0.0
 40
0.1244324496651139
 40
0.1879730355616848
 40
0.2496108558701672
 40
0.3605275914233742
 40
0.4997239820275792
 40
1.0
 40
1.0
 40
1.0
 40
1.0
 10
849.796585082623
 20
900.9011936877422
 30
0.0
 10
849.8154494884266
 20
900.858465309661
 30
0.0
 10
849.8439468750207
 20
900.7939179753109
 30
0.0
 10
849.9107941956208
 20
900.7339599720755
 30
0.0
 10
849.9822964535889
 20
900.6918143883829
 30
0.0
 10
850.0899874853393
 20
900.670947414202
 30
0.0
 10
850.3513446548625
 20
900.6872213252324
 30
0.0
 10
850.56360942725
 20
900.7730958501886
 30
0.0
 10
850.7296697195496
 20
900.8402777407817
 30
0.0
  0
SPLINE
  5
127
330
1F
100
AcDbEntity
  8
0
  6
Continuous
 62
     7
370
    15
100
AcDbSpline
210
0.0
220
0.0
230
1.0
 70
     8
 71
     3
 72
    12
 73
     8
 74
     0
 42
0.00000001
 43
0.00000001
 40
0.0
 40
0.0
 40
0.0
 40
0.0
 40
0.5003840389518701
 40
0.6309332323023088
 40
0.7506545365588733
 40
0.8754265907029679
 40
1.0
 40
1.0
 40
1.0
 40
1.0
 10
850.7296697195496
 20
900.8402777407817
 30
0.0
 10
850.8854117208485
 20
900.9074799322634
 30
0.0
 10
851.0817864982905
 20
900.9922150408775
 30
0.0
 10
851.2731937531574
 20
901.17224373441
 30
0.0
 10
851.3440560111616
 20
901.2854856546671
 30
0.0
 10
851.3842649767643
 20
901.417274993269
 30
0.0
 10
851.3655874304515
 20
901.5052188724287
 30
0.0
 10
851.3562560971703
 20
901.5491557810956
 30
0.0
  0
SPLINE
  5
128
330
1F
100
AcDbEntity
  8
0
  6
Continuous
 62
     7
370
    15
100
AcDbSpline
210
0.0
220
0.0
230
1.0
 70
     8
 71
     3
 72
     9
 73
     5
 74
     0
 42
0.00000001
 43
0.00000001
 40
0.0
 40
0.0
 40
0.0
 40
0.0
 40
0.4998892358884214
 40
1.0
 40
1.0
 40
1.0
 40
1.0
 10
849.3928083177533
 20
900.7204128001384
 30
0.0
 10
849.3921215465474
 20
900.720507188458
 30
0.0
 10
849.3907476997899
 20
900.7206960069258
 30
0.0
 10
849.3893747657667
 20
900.7209442847959
 30
0.0
 10
849.3886881466832
 20
900.721068451231
 30
0.0
  0
SPLINE
  5
129
330
1F
100
AcDbEntity
  8
0
  6
Continuous
 62
     7
370
    15
100
AcDbSpline
210
0.0
220
0.0
230
1.0
 70
     8
 71
     3
 72
     9
 73
     5
 74
     0
 42
0.00000001
 43
0.00000001
 40
0.0
 40
0.0
 40
0.0
 40
0.0
 40
0.5003442076225024
 40
1.0
 40
1.0
 40
1.0
 40
1.0
 10
849.9035940464463
 20
900.2063823435955
 30
0.0
 10
849.902896104858
 20
900.2065462118505
 30
0.0
 10
849.9015011819675
 20
900.206873722897
 30
0.0
 10
849.900107104382
 20
900.207142244762
 30
0.0
 10
849.8994105454411
 20
900.2072764132671
 30
0.0
  0
LINE
  5
12A
330
1F
100
AcDbEntity
  8
0
  6
Continuous
 62
     7
370
    15
100
AcDbLine
 10
848.2022167142
 20
912.4421430324
 30
0.0
 11
848.1991955038
 21
912.4394608234
 31
0.0
  0
SPLINE
  5
12B
330
1F
100
AcDbEntity
  8
0
  6
Continuous
 62
     7
370
    15
100
AcDbSpline
210
0.0
220
0.0
230
1.0
 70
     8
 71
     3
 72
    11
 73
     7
 74
     0
 42
0.00000001
 43
0.00000001
 40
0.0
 40
0.0
 40
0.0
 40
0.0
 40
0.2498371615568241
 40
0.4996589124105937
 40
0.7496472673447614
 40
1.0
 40
1.0
 40
1.0
 40
1.0
 10
851.3521359261002
 20
901.549811432188
 30
0.0
 10
851.341416107912
 20
901.5769324764282
 30
0.0
 10
851.3199771327658
 20
901.6311728920015
 30
0.0
 10
851.2608680943673
 20
901.693219198697
 30
0.0
 10
851.1892078839352
 20
901.7353445936155
 30
0.0
 10
851.1362984176616
 20
901.7480678943884
 30
0.0
 10
851.1098244186368
 20
901.7544341777019
 30
0.0
  0
SPLINE
  5
12C
330
1F
100
AcDbEntity
  8
0
  6
Continuous
 62
     7
370
    15
100
AcDbSpline
210
0.0
220
0.0
230
1.0
 70
     8
 71
     3
 72
    12
 73
     8
 74
     0
 42
0.00000001
 43
0.00000001
 40
0.0
 40
0.0
 40
0.0
 40
0.0
 40
0.5004294431570498
 40
0.6309953842909221
 40
0.7506853863258017
 40
0.87541797884153
 40
1.0
 40
1.0
 40
1.0
 40
1.0
 10
850.7255122955766
 20
900.8410526011638
 30
0.0
 10
850.8812564602684
 20
900.908253708327
 30
0.0
 10
851.0776354911081
 20
900.9929881079894
 30
0.0
 10
851.2690238863468
 20
901.1730130070721
 30
0.0
 10
851.3399145760326
 20
901.2861939126601
 30
0.0
 10
851.3801346145385
 20
901.4179465793725
 30
0.0
 10
851.3614650638096
 20
901.5058741822822
 30
0.0
 10
851.3521359261002
 20
901.549811432188
 30
0.0
  0
SPLINE
  5
12D
330
1F
100
AcDbEntity
  8
0
  6
Continuous
 62
     7
370
    15
100
AcDbSpline
210
0.0
220
0.0
230
1.0
 70
     8
 71
     3
 72
    11
 73
     7
 74
     0
 42
0.00000001
 43
0.00000001
 40
0.0
 40
0.0
 40
0.0
 40
0.0
 40
0.0759029862102262
 40
0.2124895915234974
 40
0.3839087036284897
 40
1.0
 40
1.0
 40
1.0
 40
1.0
 10
849.908295362803
 20
900.7362080310039
 30
0.0
 10
849.9265384494214
 20
900.7244609532752
 30
0.0
 10
849.977609773716
 20
900.691575135828
 30
0.0
 10
850.0860605061409
 20
900.6720372365193
 30
0.0
 10
850.3469334723588
 20
900.687632985127
 30
0.0
 10
850.5593404270405
 20
900.7737112109344
 30
0.0
 10
850.7255122955766
 20
900.8410526011638
 30
0.0
  0
LINE
  5
12E
330
1F
100
AcDbEntity
  8
0
  6
Continuous
 62
     7
370
    15
100
AcDbLine
 10
845.8150059875
 20
913.8129306529
 30
0.0
 11
845.9595807787
 21
913.3675051425
 31
0.0
  0
SPLINE
  5
12F
330
1F
100
AcDbEntity
  8
0
  6
Continuous
 62
     7
370
    15
100
AcDbSpline
210
0.0
220
0.0
230
1.0
 70
     8
 71
     3
 72
     9
 73
     5
 74
     0
 42
0.00000001
 43
0.00000001
 40
0.0
 40
0.0
 40
0.0
 40
0.0
 40
0.5006059238390586
 40
1.0
 40
1.0
 40
1.0
 40
1.0
 10
845.9595807786908
 20
913.3675051425151
 30
0.0
 10
845.8758951485667
 20
913.3644892304103
 30
0.0
 10
845.7087264712917
 20
913.358464707005
 30
0.0
 10
845.5498312813917
 20
913.430403724414
 30
0.0
 10
845.4704799648251
 20
913.4663296435527
 30
0.0
  0
SPLINE
  5
130
330
1F
100
AcDbEntity
  8
0
  6
Continuous
 62
     7
370
    15
100
AcDbSpline
210
0.0
220
0.0
230
1.0
 70
     8
 71
     3
 72
     9
 73
     5
 74
     0
 42
0.00000001
 43
0.00000001
 40
0.0
 40
0.0
 40
0.0
 40
0.0
 40
0.4996416040956172
 40
1.0
 40
1.0
 40
1.0
 40
1.0
 10
845.4704725142445
 20
913.4663296435529
 30
0.0
 10
845.3778105216682
 20
913.5321472758919
 30
0.0
 10
845.1923536025149
 20
913.663876963331
 30
0.0
 10
845.1062404414417
 20
913.8689754616781
 30
0.0
 10
845.063152998301
 20
913.9715982173137
 30
0.0
  0
SPLINE
  5
131
330
1F
100
AcDbEntity
  8
0
  6
Continuous
 62
     7
370
    15
100
AcDbSpline
210
0.0
220
0.0
230
1.0
 70
     8
 71
     3
 72
    14
 73
    10
 74
     0
 42
0.00000001
 43
0.00000001
 40
0.0
 40
0.0
 40
0.0
 40
0.0
 40
0.2496700359041623
 40
0.4989950340234559
 40
0.6242670308503888
 40
0.7494319699358054
 40
0.8746149394045731
 40
0.9373009893505841
 40
1.0
 40
1.0
 40
1.0
 40
1.0
 10
845.063152998301
 20
913.9715982173137
 30
0.0
 10
845.0411175991494
 20
914.0612614822118
 30
0.0
 10
844.99707725322
 20
914.2404640996041
 30
0.0
 10
845.0501646946342
 20
914.4590257379648
 30
0.0
 10
845.1353267358647
 20
914.6071885910396
 30
0.0
 10
845.2223372945169
 20
914.7024803661905
 30
0.0
 10
845.3137909883628
 20
914.7612943947311
 30
0.0
 10
845.3949472033112
 20
914.7946025207441
 30
0.0
 10
845.4379993252763
 20
914.8056202199419
 30
0.0
 10
845.4595276113477
 20
914.8111296389751
 30
0.0
  0
SPLINE
  5
132
330
1F
100
AcDbEntity
  8
0
  6
Continuous
 62
     7
370
    15
100
AcDbSpline
210
0.0
220
0.0
230
1.0
 70
     8
 71
     3
 72
    11
 73
     7
 74
     0
 42
0.00000001
 43
0.00000001
 40
0.0
 40
0.0
 40
0.0
 40
0.0
 40
0.2498455946017129
 40
0.4996199715911865
 40
0.7496356001184327
 40
1.0
 40
1.0
 40
1.0
 40
1.0
 10
845.4595276113477
 20
914.8111296389751
 30
0.0
 10
845.5147662853082
 20
914.8185603793607
 30
0.0
 10
845.6252278876387
 20
914.8334197420253
 30
0.0
 10
845.7966194376195
 20
914.7909844468022
 30
0.0
 10
845.9534078714921
 20
914.7061633277428
 30
0.0
 10
846.0377959599942
 20
914.6236516213746
 30
0.0
 10
846.0800194140401
 20
914.5823670123272
 30
0.0
  0
SPLINE
  5
133
330
1F
100
AcDbEntity
  8
0
  6
Continuous
 62
     7
370
    15
100
AcDbSpline
210
0.0
220
0.0
230
1.0
 70
     8
 71
     3
 72
    11
 73
     7
 74
     0
 42
0.00000001
 43
0.00000001
 40
0.0
 40
0.0
 40
0.0
 40
0.0
 40
0.2502780660534393
 40
0.5001394474269795
 40
0.7499253282683388
 40
1.0
 40
1.0
 40
1.0
 40
1.0
 10
846.0800194140401
 20
914.5823670123272
 30
0.0
 10
846.0825176094278
 20
914.6528258684276
 30
0.0
 10
846.0875098409906
 20
914.7936262746005
 30
0.0
 10
846.1781789862266
 20
914.9800102788621
 30
0.0
 10
846.3297796303934
 20
915.121402103256
 30
0.0
 10
846.4637835659483
 20
915.1632560478951
 30
0.0
 10
846.5308242436375
 20
915.1841951106243
 30
0.0
  0
SPLINE
  5
134
330
1F
100
AcDbEntity
  8
0
  6
Continuous
 62
     7
370
    15
100
AcDbSpline
210
0.0
220
0.0
230
1.0
 70
     8
 71
     3
 72
    14
 73
    10
 74
     0
 42
0.00000001
 43
0.00000001
 40
0.0
 40
0.0
 40
0.0
 40
0.0
 40
0.1251088682936147
 40
0.2501251263023578
 40
0.3727279929423374
 40
0.5002617471772407
 40
0.6248110449181682
 40
0.7504739169697128
 40
1.0
 40
1.0
 40
1.0
 40
1.0
 10
846.5308242436375
 20
915.1841951106243
 30
0.0
 10
846.584933851428
 20
915.19343033171
 30
0.0
 10
846.6931130130438
 20
915.2118939376238
 30
0.0
 10
846.862354449272
 20
915.1947377343224
 30
0.0
 10
847.0278340527256
 20
915.1431010027859
 30
0.0
 10
847.1822556524078
 20
915.0599606553742
 30
0.0
 10
847.3211564846116
 20
914.9504645200392
 30
0.0
 10
847.4768303881785
 20
914.7748258525774
 30
0.0
 10
847.5428613442475
 20
914.6157103543976
 30
0.0
 10
847.5867764051881
 20
914.5098877642803
 30
0.0
  0
SPLINE
  5
135
330
1F
100
AcDbEntity
  8
0
  6
Continuous
 62
     7
370
    15
100
AcDbSpline
210
0.0
220
0.0
230
1.0
 70
     8
 71
     3
 72
    13
 73
     9
 74
     0
 42
0.00000001
 43
0.00000001
 40
0.0
 40
0.0
 40
0.0
 40
0.0
 40
0.2495933020633734
 40
0.374196697964334
 40
0.4998953681217913
 40
0.6233594867645497
 40
0.750252413803532
 40
1.0
 40
1.0
 40
1.0
 40
1.0
 10
847.5867764051881
 20
914.5098877642803
 30
0.0
 10
847.6140077295019
 20
914.401387254468
 30
0.0
 10
847.6548336312997
 20
914.2387204995367
 30
0.0
 10
847.6237052610525
 20
914.0248136005375
 30
0.0
 10
847.5670669518838
 20
913.8772080389939
 30
0.0
 10
847.4778188583001
 20
913.7472235847071
 30
0.0
 10
847.3220034028969
 20
913.6054482698759
 30
0.0
 10
847.1705707578932
 20
913.5494300794804
 30
0.0
 10
847.0701568718877
 20
913.5122848246747
 30
0.0
  0
LINE
  5
136
330
1F
100
AcDbEntity
  8
0
  6
Continuous
 62
     7
370
    15
100
AcDbLine
 10
847.0701568719
 20
913.5122848247
 30
0.0
 11
846.9220765825
 21
913.9708829616
 31
0.0
  0
SPLINE
  5
137
330
1F
100
AcDbEntity
  8
0
  6
Continuous
 62
     7
370
    15
100
AcDbSpline
210
0.0
220
0.0
230
1.0
 70
     8
 71
     3
 72
    12
 73
     8
 74
     0
 42
0.00000001
 43
0.00000001
 40
0.0
 40
0.0
 40
0.0
 40
0.0
 40
0.2503837883461932
 40
0.4997762477483894
 40
0.6254265603943996
 40
0.750238513245815
 40
1.0
 40
1.0
 40
1.0
 40
1.0
 10
846.9220765825238
 20
913.9708829615764
 30
0.0
 10
846.9666770099615
 20
913.9916685553447
 30
0.0
 10
847.0557012811413
 20
914.0331574477739
 30
0.0
 10
847.1400453138011
 20
914.124847848603
 30
0.0
 10
847.176081663838
 20
914.2156522648644
 30
0.0
 10
847.1920364506526
 20
914.3145161584573
 30
0.0
 10
847.1730147269105
 20
914.3902129657039
 30
0.0
 10
847.1603312488522
 20
914.440686771696
 30
0.0
  0
SPLINE
  5
138
330
1F
100
AcDbEntity
  8
0
  6
Continuous
 62
     7
370
    15
100
AcDbSpline
210
0.0
220
0.0
230
1.0
 70
     8
 71
     3
 72
    14
 73
    10
 74
     0
 42
0.00000001
 43
0.00000001
 40
0.0
 40
0.0
 40
0.0
 40
0.0
 40
0.2493278189973339
 40
0.3721710797842509
 40
0.4996276885769869
 40
0.6263341970734696
 40
0.749800893863612
 40
0.874805687086086
 40
1.0
 40
1.0
 40
1.0
 40
1.0
 10
847.1603312488522
 20
914.440686771696
 30
0.0
 10
847.1404242216153
 20
914.4880308410322
 30
0.0
 10
847.110709046422
 20
914.5587012278231
 30
0.0
 10
847.0391737005059
 20
914.635940136805
 30
0.0
 10
846.9757760566085
 20
914.6830996493367
 30
0.0
 10
846.9054289298737
 20
914.7188613193424
 30
0.0
 10
846.8310918860393
 20
914.7404027106425
 30
0.0
 10
846.7553915996143
 20
914.7462770446745
 30
0.0
 10
846.7070002752805
 20
914.7380555067567
 30
0.0
 10
846.6827862854924
 20
914.733941623991
 30
0.0
  0
SPLINE
  5
139
330
1F
100
AcDbEntity
  8
0
  6
Continuous
 62
     7
370
    15
100
AcDbSpline
210
0.0
220
0.0
230
1.0
 70
     8
 71
     3
 72
    13
 73
     9
 74
     0
 42
0.00000001
 43
0.00000001
 40
0.0
 40
0.0
 40
0.0
 40
0.0
 40
0.1249735959265826
 40
0.2498251238966912
 40
0.3748622779859003
 40
0.5000150374276613
 40
0.7496241247432748
 40
1.0
 40
1.0
 40
1.0
 40
1.0
 10
846.6827862854924
 20
914.7339416239911
 30
0.0
 10
846.652196036175
 20
914.724431427565
 30
0.0
 10
846.5910454165655
 20
914.7054203237965
 30
0.0
 10
846.5184214256003
 20
914.6446082824741
 30
0.0
 10
846.4672128031538
 20
914.5666589602966
 30
0.0
 10
846.4255865909195
 20
914.4480653508639
 30
0.0
 10
846.424007052015
 20
914.2834649494108
 30
0.0
 10
846.4591695300134
 20
914.1552511439372
 30
0.0
 10
846.4767777319875
 20
914.0910459254436
 30
0.0
  0
LINE
  5
13A
330
1F
100
AcDbEntity
  8
0
  6
Continuous
 62
     7
370
    15
100
AcDbLine
 10
846.476777732
 20
914.0910459254
 30
0.0
 11
846.0864380892
 21
914.0034270976
 31
0.0
  0
SPLINE
  5
13B
330
1F
100
AcDbEntity
  8
0
  6
Continuous
 62
     7
370
    15
100
AcDbSpline
210
0.0
220
0.0
230
1.0
 70
     8
 71
     3
 72
    14
 73
    10
 74
     0
 42
0.00000001
 43
0.00000001
 40
0.0
 40
0.0
 40
0.0
 40
0.0
 40
0.2504294652360635
 40
0.499969444548552
 40
0.6280702558525787
 40
0.7499055754233852
 40
0.8748150330854882
 40
0.9373801776593702
 40
1.0
 40
1.0
 40
1.0
 40
1.0
 10
846.0864380892243
 20
914.0034270976238
 30
0.0
 10
846.0660872909489
 20
914.0499543078781
 30
0.0
 10
846.0254579772209
 20
914.1428434710815
 30
0.0
 10
845.9498462183934
 20
914.250939929221
 30
0.0
 10
845.8672887669459
 20
914.3151963726554
 30
0.0
 10
845.7968757969104
 20
914.348737764344
 30
0.0
 10
845.7348425406942
 20
914.3614790984709
 30
0.0
 10
845.6850217218314
 20
914.362072717065
 30
0.0
 10
845.6610154369309
 20
914.3578185572239
 30
0.0
 10
845.6490070517983
 20
914.3556905482463
 30
0.0
  0
SPLINE
  5
13C
330
1F
100
AcDbEntity
  8
0
  6
Continuous
 62
     7
370
    15
100
AcDbSpline
210
0.0
220
0.0
230
1.0
 70
     8
 71
     3
 72
    14
 73
    10
 74
     0
 42
0.00000001
 43
0.00000001
 40
0.0
 40
0.0
 40
0.0
 40
0.0
 40
0.2489521550442812
 40
0.3720643580647287
 40
0.4992342913351782
 40
0.6199784995035114
 40
0.7493974527548942
 40
0.8746756012618786
 40
1.0
 40
1.0
 40
1.0
 40
1.0
 10
845.6490070517983
 20
914.3556905482463
 30
0.0
 10
845.6184789748547
 20
914.3455376762155
 30
0.0
 10
845.5728541062973
 20
914.3303639902756
 30
0.0
 10
845.5295594377841
 20
914.2851754244781
 30
0.0
 10
845.5057485589214
 20
914.2457068869486
 30
0.0
 10
845.4914529097208
 20
914.2002881260843
 30
0.0
 10
845.4875940051713
 20
914.1522947244097
 30
0.0
 10
845.4919204005091
 20
914.1027845617066
 30
0.0
 10
845.5015375817457
 20
914.0708407564202
 30
0.0
 10
845.5063470598187
 20
914.054865906065
 30
0.0
  0
SPLINE
  5
13D
330
1F
100
AcDbEntity
  8
0
  6
Continuous
 62
     7
370
    15
100
AcDbSpline
210
0.0
220
0.0
230
1.0
 70
     8
 71
     3
 72
    12
 73
     8
 74
     0
 42
0.00000001
 43
0.00000001
 40
0.0
 40
0.0
 40
0.0
 40
0.0
 40
0.2498052238820299
 40
0.4996348908876492
 40
0.7493551500367175
 40
0.8746269051325999
 40
1.0
 40
1.0
 40
1.0
 40
1.0
 10
845.506350785109
 20
914.054865906065
 30
0.0
 10
845.5199553675396
 20
914.0233133874204
 30
0.0
 10
845.5471658635919
 20
913.9602052627574
 30
0.0
 10
845.6230482803535
 20
913.8845413039437
 30
0.0
 10
845.698881668737
 20
913.8401584008313
 30
0.0
 10
845.7646250306
 20
913.8190537030634
 30
0.0
 10
845.7982078091782
 20
913.8149722197056
 30
0.0
 10
845.8150059874978
 20
913.8129306529216
 30
0.0
  0
SPLINE
  5
13E
330
1F
100
AcDbEntity
  8
0
  6
Continuous
 62
     7
370
    15
100
AcDbSpline
210
0.0
220
0.0
230
1.0
 70
     8
 71
     3
 72
     9
 73
     5
 74
     0
 42
0.00000001
 43
0.00000001
 40
0.0
 40
0.0
 40
0.0
 40
0.0
 40
0.5010414660157599
 40
1.0
 40
1.0
 40
1.0
 40
1.0
 10
845.063152998301
 20
913.9715982173137
 30
0.0
 10
845.0626856554653
 20
913.9710176434778
 30
0.0
 10
845.0617529126337
 20
913.9698589093704
 30
0.0
 10
845.0608105860275
 20
913.9687527034473
 30
0.0
 10
845.0603404041257
 20
913.9682007525616
 30
0.0
  0
SPLINE
  5
13F
330
1F
100
AcDbEntity
  8
0
  6
Continuous
 62
     7
370
    15
100
AcDbSpline
210
0.0
220
0.0
230
1.0
 70
     8
 71
     3
 72
     9
 73
     5
 74
     0
 42
0.00000001
 43
0.00000001
 40
0.0
 40
0.0
 40
0.0
 40
0.0
 40
0.500053301845418
 40
1.0
 40
1.0
 40
1.0
 40
1.0
 10
845.4704725142445
 20
913.4663296435527
 30
0.0
 10
845.4699941502707
 20
913.4657932303494
 30
0.0
 10
845.4690375243028
 20
913.4647205182973
 30
0.0
 10
845.4680843182325
 20
913.4636474631251
 30
0.0
 10
845.467607766005
 20
913.4631109927349
 30
0.0
  0
LINE
  5
140
330
1F
100
AcDbEntity
  8
0
  6
Continuous
 62
     7
370
    15
100
AcDbLine
 10
845.9595807787
 20
913.3675051425
 30
0.0
 11
845.9566936787
 21
913.364405701
 31
0.0
  0
LINE
  5
141
330
1F
100
AcDbEntity
  8
0
  6
Continuous
 62
     7
370
    15
100
AcDbLine
 10
849.9530435499
 20
898.9235711787
 30
0.0
 11
849.8016142245
 21
899.3847323154
 31
0.0
  0
LINE
  5
142
330
1F
100
AcDbEntity
  8
0
  6
Continuous
 62
     7
370
    15
100
AcDbLine
 10
849.8016142245
 20
899.3847323154
 30
0.0
 11
851.2507372495
 21
900.033826897
 31
0.0
  0
LINE
  5
143
330
1F
100
AcDbEntity
  8
0
  6
Continuous
 62
     7
370
    15
100
AcDbLine
 10
851.2507372495
 20
900.033826897
 30
0.0
 11
851.1784032877
 21
900.2500725482
 31
0.0
  0
LINE
  5
144
330
1F
100
AcDbEntity
  8
0
  6
Continuous
 62
     7
370
    15
100
AcDbLine
 10
851.1784032877
 20
900.2500725482
 30
0.0
 11
851.5746549662
 21
900.4272175525
 31
0.0
  0
LINE
  5
145
330
1F
100
AcDbEntity
  8
0
  6
Continuous
 62
     7
370
    15
100
AcDbLine
 10
851.5746549662
 20
900.4272175525
 30
0.0
 11
851.6470038291
 21
900.2109719012
 31
0.0
  0
LINE
  5
146
330
1F
100
AcDbEntity
  8
0
  6
Continuous
 62
     7
370
    15
100
AcDbLine
 10
851.6470038291
 20
900.2109719012
 30
0.0
 11
852.1092676516
 21
900.4180980418
 31
0.0
  0
LINE
  5
147
330
1F
100
AcDbEntity
  8
0
  6
Continuous
 62
     7
370
    15
100
AcDbLine
 10
852.1092676516
 20
900.4180980418
 30
0.0
 11
852.2575193044
 21
899.9668908809
 31
0.0
  0
LINE
  5
148
330
1F
100
AcDbEntity
  8
0
  6
Continuous
 62
     7
370
    15
100
AcDbLine
 10
852.2575193044
 20
899.9668908809
 30
0.0
 11
851.7952405807
 21
899.7598243449
 31
0.0
  0
LINE
  5
149
330
1F
100
AcDbEntity
  8
0
  6
Continuous
 62
     7
370
    15
100
AcDbLine
 10
851.7952405807
 20
899.7598243449
 30
0.0
 11
852.1304533776
 21
898.7054181789
 31
0.0
  0
LINE
  5
14A
330
1F
100
AcDbEntity
  8
0
  6
Continuous
 62
     7
370
    15
100
AcDbLine
 10
852.1304533776
 20
898.7054181789
 30
0.0
 11
851.7342277761
 21
898.5282731746
 31
0.0
  0
LINE
  5
14B
330
1F
100
AcDbEntity
  8
0
  6
Continuous
 62
     7
370
    15
100
AcDbLine
 10
851.7342277761
 20
898.5282731746
 30
0.0
 11
849.9530435499
 21
898.9235711787
 31
0.0
  0
LINE
  5
14C
330
1F
100
AcDbEntity
  8
0
  6
Continuous
 62
     7
370
    15
100
AcDbLine
 10
851.5769013163
 20
899.0302634929
 30
0.0
 11
851.3989665504
 21
899.582619736
 31
0.0
  0
LINE
  5
14D
330
1F
100
AcDbEntity
  8
0
  6
Continuous
 62
     7
370
    15
100
AcDbLine
 10
851.3989665504
 20
899.582619736
 30
0.0
 11
850.6445878144
 21
899.2446017955
 31
0.0
  0
LINE
  5
14E
330
1F
100
AcDbEntity
  8
0
  6
Continuous
 62
     7
370
    15
100
AcDbLine
 10
850.6445878144
 20
899.2446017955
 30
0.0
 11
851.5769013163
 21
899.0302634929
 31
0.0
  0
LINE
  5
14F
330
1F
100
AcDbEntity
  8
0
  6
Continuous
 62
     7
370
    15
100
AcDbLine
 10
851.2507372495
 20
900.033826897
 30
0.0
 11
851.2464866932
 21
900.0348997806
 31
0.0
  0
LINE
  5
150
330
1F
100
AcDbEntity
  8
0
  6
Continuous
 62
     7
370
    15
100
AcDbLine
 10
849.8016142245
 20
899.3847323154
 30
0.0
 11
849.7973636683
 21
899.385805199
 31
0.0
  0
LINE
  5
151
330
1F
100
AcDbEntity
  8
0
  6
Continuous
 62
     7
370
    15
100
AcDbLine
 10
849.9530435499
 20
898.9235711787
 30
0.0
 11
849.9487445649
 21
898.9247632716
 31
0.0
  0
SPLINE
  5
152
330
1F
100
AcDbEntity
  8
0
  6
Continuous
 62
     7
370
    15
100
AcDbSpline
210
0.0
220
0.0
230
1.0
 70
     8
 71
     3
 72
     9
 73
     5
 74
     0
 42
0.00000001
 43
0.00000001
 40
0.0
 40
0.0
 40
0.0
 40
0.0
 40
0.5010154314169303
 40
1.0
 40
1.0
 40
1.0
 40
1.0
 10
845.6490070517983
 20
914.3556905482463
 30
0.0
 10
845.64854310578
 20
914.3551099600663
 30
0.0
 10
845.6476170943456
 20
914.3539511371164
 30
0.0
 10
845.6466854238536
 20
914.3528450192437
 30
0.0
 10
845.6462205346551
 20
914.3522930834941
 30
0.0
  0
SPLINE
  5
153
330
1F
100
AcDbEntity
  8
0
  6
Continuous
 62
     7
370
    15
100
AcDbSpline
210
0.0
220
0.0
230
1.0
 70
     8
 71
     3
 72
     9
 73
     5
 74
     0
 42
0.00000001
 43
0.00000001
 40
0.0
 40
0.0
 40
0.0
 40
0.0
 40
0.4998892358884214
 40
1.0
 40
1.0
 40
1.0
 40
1.0
 10
851.3521359261002
 20
901.549811432188
 30
0.0
 10
851.3528226973061
 20
901.5497170438686
 30
0.0
 10
851.3541965440636
 20
901.5495282254011
 30
0.0
 10
851.3555694780869
 20
901.549279947531
 30
0.0
 10
851.3562560971703
 20
901.5491557810955
 30
0.0
  0
LINE
  5
154
330
1F
100
AcDbEntity
  8
0
  6
Continuous
 62
     7
370
    15
100
AcDbLine
 10
846.0864380892
 20
914.0034270976
 30
0.0
 11
846.0836105939
 21
914.0000892375
 31
0.0
  0
SPLINE
  5
155
330
1F
100
AcDbEntity
  8
0
  6
Continuous
 62
     7
370
    15
100
AcDbSpline
210
0.0
220
0.0
230
1.0
 70
     8
 71
     3
 72
     9
 73
     5
 74
     0
 42
0.00000001
 43
0.00000001
 40
0.0
 40
0.0
 40
0.0
 40
0.0
 40
0.5010103535443547
 40
1.0
 40
1.0
 40
1.0
 40
1.0
 10
846.4767777319875
 20
914.0910459254436
 30
0.0
 10
846.4763078934009
 20
914.0904851825259
 30
0.0
 10
846.4753701112109
 20
914.0893659583144
 30
0.0
 10
846.4744228901521
 20
914.0882997145701
 30
0.0
 10
846.4739502366509
 20
914.087767669981
 30
0.0
  0
SPLINE
  5
156
330
1F
100
AcDbEntity
  8
0
  6
Continuous
 62
     7
370
    15
100
AcDbSpline
210
0.0
220
0.0
230
1.0
 70
     8
 71
     3
 72
    13
 73
     9
 74
     0
 42
0.00000001
 43
0.00000001
 40
0.0
 40
0.0
 40
0.0
 40
0.0
 40
0.1251563298502989
 40
0.2501100545452997
 40
0.3701256441910742
 40
0.4999911937300804
 40
0.749511495544908
 40
1.0
 40
1.0
 40
1.0
 40
1.0
 10
844.4517732556786
 20
915.882463524168
 30
0.0
 10
844.4324053937113
 20
915.9541606679838
 30
0.0
 10
844.3937010227951
 20
916.0974388910827
 30
0.0
 10
844.4084834634897
 20
916.31030226573
 30
0.0
 10
844.490944836349
 20
916.5025317764076
 30
0.0
 10
844.6804212290882
 20
916.7063476824242
 30
0.0
 10
845.0069785391233
 20
916.8678158787085
 30
0.0
 10
845.2925046797824
 20
916.9308182796974
 30
0.0
 10
845.4355441924062
 20
916.9623804782085
 30
0.0
  0
SPLINE
  5
157
330
1F
100
AcDbEntity
  8
0
  6
Continuous
 62
     7
370
    15
100
AcDbSpline
210
0.0
220
0.0
230
1.0
 70
     8
 71
     3
 72
    13
 73
     9
 74
     0
 42
0.00000001
 43
0.00000001
 40
0.0
 40
0.0
 40
0.0
 40
0.0
 40
0.2505198771032185
 40
0.5000927025935633
 40
0.6320894296585357
 40
0.7500084194022715
 40
0.8748879044011246
 40
1.0
 40
1.0
 40
1.0
 40
1.0
 10
845.4355441924062
 20
916.9623804782085
 30
0.0
 10
845.5801716618635
 20
916.9873767652352
 30
0.0
 10
845.8688798590192
 20
917.037274844695
 30
0.0
 10
846.2569742831897
 20
917.0159529956484
 30
0.0
 10
846.5527292952498
 20
916.9140665968397
 30
0.0
 10
846.7502446815552
 20
916.781779291259
 30
0.0
 10
846.8936216686421
 20
916.6005224789218
 30
0.0
 10
846.9481487380514
 20
916.4613677256742
 30
0.0
 10
846.975437640759
 20
916.3917256091289
 30
0.0
  0
SPLINE
  5
158
330
1F
100
AcDbEntity
  8
0
  6
Continuous
 62
     7
370
    15
100
AcDbSpline
210
0.0
220
0.0
230
1.0
 70
     8
 71
     3
 72
    13
 73
     9
 74
     0
 42
0.00000001
 43
0.00000001
 40
0.0
 40
0.0
 40
0.0
 40
0.0
 40
0.125156857647659
 40
0.2501177982330203
 40
0.3735778132154078
 40
0.5000319109869349
 40
0.7494847472903725
 40
1.0
 40
1.0
 40
1.0
 40
1.0
 10
846.975437640759
 20
916.3917256091289
 30
0.0
 10
846.994990561732
 20
916.3209129039928
 30
0.0
 10
847.0340657960794
 20
916.1793983419589
 30
0.0
 10
847.0224063691436
 20
915.9645183871543
 30
0.0
 10
846.9397785929169
 20
915.7715828094956
 30
0.0
 10
846.7531528872565
 20
915.5655329702154
 30
0.0
 10
846.4326287181636
 20
915.400742134237
 30
0.0
 10
846.1501293547886
 20
915.3389537827262
 30
0.0
 10
846.0085795219865
 20
915.3079939578228
 30
0.0
  0
SPLINE
  5
159
330
1F
100
AcDbEntity
  8
0
  6
Continuous
 62
     7
370
    15
100
AcDbSpline
210
0.0
220
0.0
230
1.0
 70
     8
 71
     3
 72
     9
 73
     5
 74
     0
 42
0.00000001
 43
0.00000001
 40
0.0
 40
0.0
 40
0.0
 40
0.0
 40
0.5015823175775702
 40
1.0
 40
1.0
 40
1.0
 40
1.0
 10
846.0085795219865
 20
915.3079939578228
 30
0.0
 10
845.8406110963814
 20
915.2762384186713
 30
0.0
 10
845.5057340089746
 20
915.2129276957077
 30
0.0
 10
845.156953506137
 20
915.285680273491
 30
0.0
 10
844.9831151362386
 20
915.3219414447002
 30
0.0
  0
SPLINE
  5
15A
330
1F
100
AcDbEntity
  8
0
  6
Continuous
 62
     7
370
    15
100
AcDbSpline
210
0.0
220
0.0
230
1.0
 70
     8
 71
     3
 72
    12
 73
     8
 74
     0
 42
0.00000001
 43
0.00000001
 40
0.0
 40
0.0
 40
0.0
 40
0.0
 40
0.2500076230851568
 40
0.4997241200111377
 40
0.7496050280834643
 40
0.8747707181723167
 40
1.0
 40
1.0
 40
1.0
 40
1.0
 10
844.9831114109483
 20
915.3219414447002
 30
0.0
 10
844.9219019833607
 20
915.3502539065826
 30
0.0
 10
844.7995544046746
 20
915.4068458613593
 30
0.0
 10
844.6429168981141
 20
915.5395988825695
 30
0.0
 10
844.5434512370789
 20
915.674648282434
 30
0.0
 10
844.4846060926317
 20
915.791613208683
 30
0.0
 10
844.4627193874871
 20
915.8521749588034
 30
0.0
 10
844.4517732556786
 20
915.882463524168
 30
0.0
  0
SPLINE
  5
15B
330
1F
100
AcDbEntity
  8
0
  6
Continuous
 62
     7
370
    15
100
AcDbSpline
210
0.0
220
0.0
230
1.0
 70
     8
 71
     3
 72
    11
 73
     7
 74
     0
 42
0.00000001
 43
0.00000001
 40
0.0
 40
0.0
 40
0.0
 40
0.0
 40
0.2499379418291865
 40
0.4997745469666365
 40
0.7497178615128227
 40
1.0
 40
1.0
 40
1.0
 40
1.0
 10
846.5503596659627
 20
916.3069081996135
 30
0.0
 10
846.5395061811068
 20
916.3333980359606
 30
0.0
 10
846.5178036119124
 20
916.3863669684188
 30
0.0
 10
846.4572136660393
 20
916.4532143978257
 30
0.0
 10
846.3820618286644
 20
916.5031065648681
 30
0.0
 10
846.3265106894711
 20
916.5236590756351
 30
0.0
 10
846.2987163063016
 20
916.533942291563
 30
0.0
  0
SPLINE
  5
15C
330
1F
100
AcDbEntity
  8
0
  6
Continuous
 62
     7
370
    15
100
AcDbSpline
210
0.0
220
0.0
230
1.0
 70
     8
 71
     3
 72
     9
 73
     5
 74
     0
 42
0.00000001
 43
0.00000001
 40
0.0
 40
0.0
 40
0.0
 40
0.0
 40
0.4986072275233963
 40
1.0
 40
1.0
 40
1.0
 40
1.0
 10
846.2987163063016
 20
916.5339422915631
 30
0.0
 10
846.1783397414578
 20
916.5513167508491
 30
0.0
 10
845.9369141098201
 20
916.586162734475
 30
0.0
 10
845.7071616363864
 20
916.5417741053507
 30
0.0
 10
845.5919654067483
 20
916.5195179675273
 30
0.0
  0
SPLINE
  5
15D
330
1F
100
AcDbEntity
  8
0
  6
Continuous
 62
     7
370
    15
100
AcDbSpline
210
0.0
220
0.0
230
1.0
 70
     8
 71
     3
 72
    13
 73
     9
 74
     0
 42
0.00000001
 43
0.00000001
 40
0.0
 40
0.0
 40
0.0
 40
0.0
 40
0.5001872309256598
 40
0.6253210548164302
 40
0.7503294262772214
 40
0.8748896725998956
 40
0.9374149494537403
 40
1.0
 40
1.0
 40
1.0
 40
1.0
 10
845.5919654067483
 20
916.5195179675273
 30
0.0
 10
845.4219283213844
 20
916.4837652157195
 30
0.0
 10
845.209352383808
 20
916.4390680561546
 30
0.0
 10
844.9934243594391
 20
916.312497459242
 30
0.0
 10
844.9092153150447
 20
916.2227393573033
 30
0.0
 10
844.8683832192149
 20
916.1271592207144
 30
0.0
 10
844.8660754650252
 20
916.0425190843857
 30
0.0
 10
844.8774248592803
 20
916.0004335148878
 30
0.0
 10
844.8831022675957
 20
915.9793806765728
 30
0.0
  0
SPLINE
  5
15E
330
1F
100
AcDbEntity
  8
0
  6
Continuous
 62
     7
370
    15
100
AcDbSpline
210
0.0
220
0.0
230
1.0
 70
     8
 71
     3
 72
    13
 73
     9
 74
     0
 42
0.00000001
 43
0.00000001
 40
0.0
 40
0.0
 40
0.0
 40
0.0
 40
0.1245468548313622
 40
0.1873879275895753
 40
0.2496876129139041
 40
0.3608267807397935
 40
0.4997596921229246
 40
0.9999999999999999
 40
0.9999999999999999
 40
0.9999999999999999
 40
0.9999999999999999
 10
844.8831022675957
 20
915.9793806765728
 30
0.0
 10
844.902185447843
 20
915.9370161271511
 30
0.0
 10
844.9308971933394
 20
915.8732762187435
 30
0.0
 10
845.0003943496645
 20
915.806553283874
 30
0.0
 10
845.0757604049455
 20
915.755904790395
 30
0.0
 10
845.1897231479078
 20
915.7177829786583
 30
0.0
 10
845.4676487690554
 20
915.6877601178131
 30
0.0
 10
845.6945135752177
 20
915.7303438684586
 30
0.0
 10
845.8720662589993
 20
915.7636714671306
 30
0.0
  0
SPLINE
  5
15F
330
1F
100
AcDbEntity
  8
0
  6
Continuous
 62
     7
370
    15
100
AcDbSpline
210
0.0
220
0.0
230
1.0
 70
     8
 71
     3
 72
    12
 73
     8
 74
     0
 42
0.00000001
 43
0.00000001
 40
0.0
 40
0.0
 40
0.0
 40
0.0
 40
0.5003709491639767
 40
0.6255972119667993
 40
0.750712798215296
 40
0.8754303422621477
 40
1.0
 40
1.0
 40
1.0
 40
1.0
 10
845.8720662589993
 20
915.7636714671306
 30
0.0
 10
846.0384242237398
 20
915.7990265620942
 30
0.0
 10
846.2464160727949
 20
915.8432298654133
 30
0.0
 10
846.4542586007817
 20
915.9739249388134
 30
0.0
 10
846.5321057614001
 20
916.0657044474478
 30
0.0
 10
846.5774241881475
 20
916.1815754554701
 30
0.0
 10
846.559377604726
 20
916.2651471441625
 30
0.0
 10
846.5503596659627
 20
916.3069081996135
 30
0.0
  0
LINE
  5
160
330
1F
100
AcDbEntity
  8
0
  6
Continuous
 62
     7
370
    15
100
AcDbLine
 10
844.4517732557
 20
915.8824635242
 30
0.0
 11
844.4491506513
 21
915.8785296176
 31
0.0
  0
SPLINE
  5
161
330
1F
100
AcDbEntity
  8
0
  6
Continuous
 62
     7
370
    15
100
AcDbSpline
210
0.0
220
0.0
230
1.0
 70
     8
 71
     3
 72
     9
 73
     5
 74
     0
 42
0.00000001
 43
0.00000001
 40
0.0
 40
0.0
 40
0.0
 40
0.0
 40
0.4988805977751789
 40
1.0
 40
1.0
 40
1.0
 40
1.0
 10
844.9831151362386
 20
915.3219414447002
 30
0.0
 10
844.9826676032266
 20
915.3213297774539
 30
0.0
 10
844.9817705288285
 20
915.3201036980089
 30
0.0
 10
844.980879459402
 20
915.3188264205809
 30
0.0
 10
844.9804329272237
 20
915.3181863520794
 30
0.0
  0
LINE
  5
162
330
1F
100
AcDbEntity
  8
0
  6
Continuous
 62
     7
370
    15
100
AcDbLine
 10
850.6402925547
 20
899.2457938884
 30
0.0
 11
851.5725501772
 21
899.0316343997
 31
0.0
  0
LINE
  5
163
330
1F
100
AcDbEntity
  8
0
  6
Continuous
 62
     7
370
    15
100
AcDbLine
 10
851.5725501772
 20
899.0316343997
 30
0.0
 11
851.5769013163
 21
899.0302634929
 31
0.0
  0
LINE
  5
164
330
1F
100
AcDbEntity
  8
0
  6
Continuous
 62
     7
370
    15
100
AcDbLine
 10
851.5725501772
 20
899.0316343997
 30
0.0
 11
851.3946675654
 21
899.5838118289
 31
0.0
  0
SPLINE
  5
165
330
1F
100
AcDbEntity
  8
0
  6
Continuous
 62
     7
370
    15
100
AcDbSpline
210
0.0
220
0.0
230
1.0
 70
     8
 71
     3
 72
     9
 73
     5
 74
     0
 42
0.00000001
 43
0.00000001
 40
0.0
 40
0.0
 40
0.0
 40
0.0
 40
0.4999460480653374
 40
1.0
 40
1.0
 40
1.0
 40
1.0
 10
847.0701568718877
 20
913.5122848246746
 30
0.0
 10
847.0696753520275
 20
913.5117682232224
 30
0.0
 10
847.0687122083801
 20
913.5107349088194
 30
0.0
 10
847.0677456517757
 20
913.5097019288581
 30
0.0
 10
847.0672623213258
 20
913.5091853831462
 30
0.0
  0
LINE
  5
166
330
1F
100
AcDbEntity
  8
0
  6
Continuous
 62
     7
370
    15
100
AcDbLine
 10
846.9220765825
 20
913.9708829616
 30
0.0
 11
846.9192267354
 21
913.9676643108
 31
0.0
  0
SPLINE
  5
167
330
1F
100
AcDbEntity
  8
0
  6
Continuous
 62
     7
370
    15
100
AcDbSpline
210
0.0
220
0.0
230
1.0
 70
     8
 71
     3
 72
     9
 73
     5
 74
     0
 42
0.00000001
 43
0.00000001
 40
0.0
 40
0.0
 40
0.0
 40
0.0
 40
0.4988710593293146
 40
1.0
 40
1.0
 40
1.0
 40
1.0
 10
846.6827862854924
 20
914.733941623991
 30
0.0
 10
846.6823238303467
 20
914.7333697317279
 30
0.0
 10
846.6813968269918
 20
914.732223358827
 30
0.0
 10
846.6804760816487
 20
914.7310253212509
 30
0.0
 10
846.6800146695103
 20
914.7304249499492
 30
0.0
  0
LINE
  5
168
330
1F
100
AcDbEntity
  8
0
  6
Continuous
 62
     7
370
    15
100
AcDbLine
 10
851.1784032877
 20
900.2500725482
 30
0.0
 11
851.1741750833
 21
900.2510858272
 31
0.0
  0
LINE
  5
169
330
1F
100
AcDbEntity
  8
0
  6
Continuous
 62
     7
370
    15
100
AcDbLine
 10
851.5746549662
 20
900.4272175525
 30
0.0
 11
851.5704267617
 21
900.4282308314
 31
0.0
  0
SPLINE
  5
16A
330
1F
100
AcDbEntity
  8
0
  6
Continuous
 62
     7
370
    15
100
AcDbSpline
210
0.0
220
0.0
230
1.0
 70
     8
 71
     3
 72
     9
 73
     5
 74
     0
 42
0.00000001
 43
0.00000001
 40
0.0
 40
0.0
 40
0.0
 40
0.0
 40
0.501010774039207
 40
0.9999999999999999
 40
0.9999999999999999
 40
0.9999999999999999
 40
0.9999999999999999
 10
847.1603312488522
 20
914.440686771696
 30
0.0
 10
847.1598635791438
 20
914.44010618095
 30
0.0
 10
847.1589301267456
 20
914.4389473421065
 30
0.0
 10
847.1579909960607
 20
914.4378412399851
 30
0.0
 10
847.1575223799672
 20
914.4372893069439
 30
0.0
  0
SPLINE
  5
16B
330
1F
100
AcDbEntity
  8
0
  6
Continuous
 62
     7
370
    15
100
AcDbSpline
210
0.0
220
0.0
230
1.0
 70
     8
 71
     3
 72
    13
 73
     9
 74
     0
 42
0.00000001
 43
0.00000001
 40
0.0
 40
0.0
 40
0.0
 40
0.0
 40
0.5001984506868818
 40
0.6253420288162103
 40
0.750323117400477
 40
0.8748884139354647
 40
0.9373653475748844
 40
1.0
 40
1.0
 40
1.0
 40
1.0
 10
845.5893800552811
 20
916.5154052470378
 30
0.0
 10
845.419339927968
 20
916.479684890798
 30
0.0
 10
845.2067578257081
 20
916.4350277352021
 30
0.0
 10
844.9908494461588
 20
916.3084383469037
 30
0.0
 10
844.9066034811406
 20
916.2187526157908
 30
0.0
 10
844.8657794487865
 20
916.1231718994129
 30
0.0
 10
844.8634711027712
 20
916.0385582968848
 30
0.0
 10
844.8748078628003
 20
915.9964618984667
 30
0.0
 10
844.8804833885159
 20
915.9753871653728
 30
0.0
  0
SPLINE
  5
16C
330
1F
100
AcDbEntity
  8
0
  6
Continuous
 62
     7
370
    15
100
AcDbSpline
210
0.0
220
0.0
230
1.0
 70
     8
 71
     3
 72
     9
 73
     5
 74
     0
 42
0.00000001
 43
0.00000001
 40
0.0
 40
0.0
 40
0.0
 40
0.0
 40
0.4985928545963595
 40
1.0
 40
1.0
 40
1.0
 40
1.0
 10
846.2961197789635
 20
916.5299487803632
 30
0.0
 10
846.1757462402144
 20
916.5473029317831
 30
0.0
 10
845.9343197182748
 20
916.5821091895543
 30
0.0
 10
845.7045754653254
 20
916.5376815719551
 30
0.0
 10
845.5893800552811
 20
916.5154052470378
 30
0.0
  0
SPLINE
  5
16D
330
1F
100
AcDbEntity
  8
0
  6
Continuous
 62
     7
370
    15
100
AcDbSpline
210
0.0
220
0.0
230
1.0
 70
     8
 71
     3
 72
    11
 73
     7
 74
     0
 42
0.00000001
 43
0.00000001
 40
0.0
 40
0.0
 40
0.0
 40
0.0
 40
0.2498419204188966
 40
0.499600490043311
 40
0.7495985082289159
 40
1.0
 40
1.0
 40
1.0
 40
1.0
 10
846.5477407868829
 20
916.3029742930584
 30
0.0
 10
846.5368901289878
 20
916.3294451810391
 30
0.0
 10
846.5151924331307
 20
916.3823781259382
 30
0.0
 10
846.4545901433052
 20
916.4491667407798
 30
0.0
 10
846.3794512221738
 20
916.4990454936132
 30
0.0
 10
846.3239118538852
 20
916.5196421490654
 30
0.0
 10
846.2961197789635
 20
916.529948780363
 30
0.0
  0
SPLINE
  5
16E
330
1F
100
AcDbEntity
  8
0
  6
Continuous
 62
     7
370
    15
100
AcDbSpline
210
0.0
220
0.0
230
1.0
 70
     8
 71
     3
 72
    10
 73
     6
 74
     0
 42
0.00000001
 43
0.00000001
 40
0.0
 40
0.0
 40
0.0
 40
0.0
 40
0.3342278442554882
 40
0.6672538779439248
 40
1.0
 40
1.0
 40
1.0
 40
1.0
 10
846.4472957845654
 20
915.9744930957012
 30
0.0
 10
846.4750979693629
 20
916.0032460660716
 30
0.0
 10
846.5306023683538
 20
916.0606486173909
 30
0.0
 10
846.574505044213
 20
916.1779416172742
 30
0.0
 10
846.5566597050782
 20
916.2613084178087
 30
0.0
 10
846.5477407868829
 20
916.3029742930584
 30
0.0
  0
LINE
  5
16F
330
1F
100
AcDbEntity
  8
0
  6
Continuous
 62
     7
370
    15
100
AcDbLine
 10
850.8317799266
 20
896.4789462779
 30
0.0
 11
850.6194681819
 21
897.1490812991
 31
0.0
  0
LINE
  5
170
330
1F
100
AcDbEntity
  8
0
  6
Continuous
 62
     7
370
    15
100
AcDbLine
 10
850.6194681819
 20
897.1490812991
 30
0.0
 11
852.8387465473
 21
898.1996727679
 31
0.0
  0
LINE
  5
171
330
1F
100
AcDbEntity
  8
0
  6
Continuous
 62
     7
370
    15
100
AcDbLine
 10
852.8387465473
 20
898.1996727679
 30
0.0
 11
852.9804491397
 21
897.75466449
 31
0.0
  0
LINE
  5
172
330
1F
100
AcDbEntity
  8
0
  6
Continuous
 62
     7
370
    15
100
AcDbLine
 10
852.9804491397
 20
897.75466449
 30
0.0
 11
851.1574261781
 21
896.8912912105
 31
0.0
  0
LINE
  5
173
330
1F
100
AcDbEntity
  8
0
  6
Continuous
 62
     7
370
    15
100
AcDbLine
 10
851.1574261781
 20
896.8912912105
 30
0.0
 11
851.3081402477
 21
896.4073014949
 31
0.0
  0
LINE
  5
174
330
1F
100
AcDbEntity
  8
0
  6
Continuous
 62
     7
370
    15
100
AcDbLine
 10
851.3081402477
 20
896.4073014949
 30
0.0
 11
850.8317799266
 21
896.4789462779
 31
0.0
  0
LINE
  5
175
330
1F
100
AcDbEntity
  8
0
  6
Continuous
 62
     7
370
    15
100
AcDbLine
 10
852.8387465473
 20
898.1996727679
 30
0.0
 11
852.8342687484
 21
898.2014013026
 31
0.0
  0
LINE
  5
176
330
1F
100
AcDbEntity
  8
0
  6
Continuous
 62
     7
370
    15
100
AcDbLine
 10
850.6194681819
 20
897.1490812991
 30
0.0
 11
850.6149941083
 21
897.1508694385
 31
0.0
  0
LINE
  5
177
330
1F
100
AcDbEntity
  8
0
  6
Continuous
 62
     7
370
    15
100
AcDbLine
 10
850.8317799266
 20
896.4789462779
 30
0.0
 11
850.8272387978
 21
896.4809132312
 31
0.0
  0
LINE
  5
178
330
1F
100
AcDbEntity
  8
0
  6
Continuous
 62
     7
370
    15
100
AcDbLine
 10
852.1092676516
 20
900.4180980418
 30
0.0
 11
852.1050170954
 21
900.4191709254
 31
0.0
  0
SPLINE
  5
179
330
1F
100
AcDbEntity
  8
0
  6
Continuous
 62
     7
370
    15
100
AcDbSpline
210
0.0
220
0.0
230
1.0
 70
     8
 71
     3
 72
     9
 73
     5
 74
     0
 42
0.00000001
 43
0.00000001
 40
0.0
 40
0.0
 40
0.0
 40
0.0
 40
0.5012211428845842
 40
1.0
 40
1.0
 40
1.0
 40
1.0
 10
845.5893800552811
 20
916.5154052470378
 30
0.0
 10
845.5898104184353
 20
916.5161047848003
 30
0.0
 10
845.5906690477256
 20
916.5175004517074
 30
0.0
 10
845.5915339912204
 20
916.5188465581128
 30
0.0
 10
845.5919654067483
 20
916.5195179675273
 30
0.0
  0
LWPOLYLINE
  5
17A
330
1F
100
AcDbEntity
  8
0
  6
Continuous
 62
     7
370
    15
100
AcDbPolyline
 90
       17
 70
   128
 43
0.0
 10
845.5062390264
 20
929.0336919521
 10
846.1489261087
 20
927.0557118152
 10
846.8696244951
 20
924.8376441692
 10
847.6591327187
 20
922.4077416156
 10
848.5073775943
 20
919.7971177791
 10
849.4035408791
 20
917.0390320514
 10
850.3361896571
 20
914.1686511729
 10
851.2934179004
 20
911.2225723956
 10
852.2630178328
 20
908.2384658549
 10
853.2326177653
 20
905.2542997096
 10
854.1898497339
 20
902.308280537
 10
855.1224947866
 20
899.4378996585
 10
856.0186580714
 20
896.6797543262
 10
856.8669066723
 20
894.0691304897
 10
857.6564148959
 20
891.6392875407
 10
858.377109557
 20
889.4212198947
 10
859.0197966393
 20
887.4432397578
  0
SPLINE
  5
17B
330
1F
100
AcDbEntity
  8
0
  6
Continuous
 62
     7
370
    15
100
AcDbSpline
210
0.0
220
0.0
230
1.0
 70
     8
 71
     3
 72
     9
 73
     5
 74
     0
 42
0.00000001
 43
0.00000001
 40
0.0
 40
0.0
 40
0.0
 40
0.0
 40
0.5000488661731888
 40
1.0
 40
1.0
 40
1.0
 40
1.0
 10
846.5477407868829
 20
916.3029742930584
 30
0.0
 10
846.5481781767795
 20
916.3036299121056
 30
0.0
 10
846.5490528710868
 20
916.3049410220619
 30
0.0
 10
846.549924096053
 20
916.3062525164883
 30
0.0
 10
846.5503596659627
 20
916.3069081996135
 30
0.0
  0
SPLINE
  5
17C
330
1F
100
AcDbEntity
  8
0
  6
Continuous
 62
     7
370
    15
100
AcDbSpline
210
0.0
220
0.0
230
1.0
 70
     8
 71
     3
 72
     9
 73
     5
 74
     0
 42
0.00000001
 43
0.00000001
 40
0.0
 40
0.0
 40
0.0
 40
0.0
 40
0.4989366575093347
 40
1.0
 40
1.0
 40
1.0
 40
1.0
 10
846.2961197789635
 20
916.529948780363
 30
0.0
 10
846.2965539217381
 20
916.5306001902251
 30
0.0
 10
846.2974240577923
 20
916.5319057865407
 30
0.0
 10
846.2982849465188
 20
916.533262494792
 30
0.0
 10
846.2987163063016
 20
916.533942291563
 30
0.0
  0
SPLINE
  5
17D
330
1F
100
AcDbEntity
  8
0
  6
Continuous
 62
     7
370
    15
100
AcDbSpline
210
0.0
220
0.0
230
1.0
 70
    11
 71
     3
 72
    23
 73
    19
 74
     0
 42
0.00000001
 43
0.00000001
 40
0.0
 40
0.0
 40
0.0
 40
0.0
 40
0.0623490583233279
 40
0.1250386547521096
 40
0.1876199685715161
 40
0.250122488654025
 40
0.312681776246345
 40
0.3751829061775067
 40
0.4377079498397938
 40
0.5002611352024957
 40
0.5627624064003667
 40
0.6253485298641802
 40
0.6878396032356933
 40
0.7504086958425572
 40
0.8129298502704995
 40
0.8754934996521448
 40
0.9382236342798193
 40
1.0
 40
1.0
 40
1.0
 40
1.0
 10
853.2798022922005
 20
884.6529675219707
 30
0.0
 10
853.3591296734872
 20
884.8194705531309
 30
0.0
 10
853.5182177063756
 20
885.1533860217572
 30
0.0
 10
853.5275991675574
 20
885.6316296980078
 30
0.0
 10
853.3446975942131
 20
885.9997204762499
 30
0.0
 10
852.9908502809276
 20
886.2048975143583
 30
0.0
 10
852.5263457680668
 20
886.215641038818
 30
0.0
 10
852.0232010397638
 20
886.0218873352643
 30
0.0
 10
851.5595719135812
 20
885.6577796812325
 30
0.0
 10
851.2078441478852
 20
885.174241922077
 30
0.0
 10
851.0151793989747
 20
884.6507675508931
 30
0.0
 10
851.0103494066338
 20
884.1686157382726
 30
0.0
 10
851.1923096344698
 20
883.8042087281033
 30
0.0
 10
851.531245313017
 20
883.6097429596551
 30
0.0
 10
851.9823857769969
 20
883.6157822116273
 30
0.0
 10
852.4756027114415
 20
883.8167408423517
 30
0.0
 10
852.9481041422349
 20
884.1787812410546
 30
0.0
 10
853.1698023407638
 20
884.4957147067888
 30
0.0
 10
853.2798022922005
 20
884.6529675219708
 30
0.0
  0
SPLINE
  5
17E
330
1F
100
AcDbEntity
  8
0
  6
Continuous
 62
     7
370
    15
100
AcDbSpline
210
0.0
220
0.0
230
1.0
 70
     8
 71
     3
 72
    13
 73
     9
 74
     0
 42
0.00000001
 43
0.00000001
 40
0.0
 40
0.0
 40
0.0
 40
0.0
 40
0.1251267280705841
 40
0.2500501346627824
 40
0.3702208163739735
 40
0.4999228225821142
 40
0.7494593582759558
 40
0.9999999999999999
 40
0.9999999999999999
 40
0.9999999999999999
 40
0.9999999999999999
 10
853.6967703100171
 20
887.3878670428447
 30
0.0
 10
853.6816782178399
 20
887.4464851990547
 30
0.0
 10
853.651518556995
 20
887.5636262613996
 30
0.0
 10
853.6702078038527
 20
887.7683068402957
 30
0.0
 10
853.7465338219141
 20
887.9811991259419
 30
0.0
 10
853.9178907653076
 20
888.2475535434878
 30
0.0
 10
854.207751968799
 20
888.5285415653344
 30
0.0
 10
854.4602158047925
 20
888.6997568327333
 30
0.0
 10
854.5867011841264
 20
888.7855363581829
 30
0.0
  0
SPLINE
  5
17F
330
1F
100
AcDbEntity
  8
0
  6
Continuous
 62
     7
370
    15
100
AcDbSpline
210
0.0
220
0.0
230
1.0
 70
     8
 71
     3
 72
    13
 73
     9
 74
     0
 42
0.00000001
 43
0.00000001
 40
0.0
 40
0.0
 40
0.0
 40
0.0
 40
0.2505064651801377
 40
0.5000687356755544
 40
0.6251681897935797
 40
0.7499742833662484
 40
0.8748381483660306
 40
0.9999999999999999
 40
0.9999999999999999
 40
0.9999999999999999
 40
0.9999999999999999
 10
854.5867011841264
 20
888.7855363581829
 30
0.0
 10
854.7144104885782
 20
888.8655014504632
 30
0.0
 10
854.9693477428534
 20
889.0251302351577
 30
0.0
 10
855.3064879401029
 20
889.1549784102066
 30
0.0
 10
855.5648407851378
 20
889.1767103286243
 30
0.0
 10
855.7362406266435
 20
889.1302278214843
 30
0.0
 10
855.8609798101477
 20
889.0160257473897
 30
0.0
 10
855.904782839033
 20
888.9084236879219
 30
0.0
 10
855.9267104562249
 20
888.8545585368328
 30
0.0
  0
SPLINE
  5
180
330
1F
100
AcDbEntity
  8
0
  6
Continuous
 62
     7
370
    15
100
AcDbSpline
210
0.0
220
0.0
230
1.0
 70
     8
 71
     3
 72
    13
 73
     9
 74
     0
 42
0.00000001
 43
0.00000001
 40
0.0
 40
0.0
 40
0.0
 40
0.0
 40
0.1251477105926393
 40
0.2500775861148476
 40
0.3703220315455165
 40
0.5000159892676999
 40
0.7494875768195206
 40
1.0
 40
1.0
 40
1.0
 40
1.0
 10
855.9267104562249
 20
888.8545585368328
 30
0.0
 10
855.9417770933896
 20
888.7969658357057
 30
0.0
 10
855.9718841423734
 20
888.6818806806713
 30
0.0
 10
855.9555773300747
 20
888.4831706750483
 30
0.0
 10
855.8782711794182
 20
888.2753644708537
 30
0.0
 10
855.7074144801701
 20
888.0146663409605
 30
0.0
 10
855.4187493550422
 20
887.7376178247954
 30
0.0
 10
855.1688111950552
 20
887.5689804092445
 30
0.0
 10
855.0435819622006
 20
887.4844861720256
 30
0.0
  0
SPLINE
  5
181
330
1F
100
AcDbEntity
  8
0
  6
Continuous
 62
     7
370
    15
100
AcDbSpline
210
0.0
220
0.0
230
1.0
 70
     8
 71
     3
 72
     9
 73
     5
 74
     0
 42
0.00000001
 43
0.00000001
 40
0.0
 40
0.0
 40
0.0
 40
0.0
 40
0.5015842476282139
 40
1.0
 40
1.0
 40
1.0
 40
1.0
 10
855.0435819622006
 20
887.4844861720256
 30
0.0
 10
854.8953056445309
 20
887.3887145721834
 30
0.0
 10
854.5996896670142
 20
887.1977763593202
 30
0.0
 10
854.2966088400788
 20
887.1239552257714
 30
0.0
 10
854.1455485816922
 20
887.0871616099529
 30
0.0
  0
SPLINE
  5
182
330
1F
100
AcDbEntity
  8
0
  6
Continuous
 62
     7
370
    15
100
AcDbSpline
210
0.0
220
0.0
230
1.0
 70
     8
 71
     3
 72
    12
 73
     8
 74
     0
 42
0.00000001
 43
0.00000001
 40
0.0
 40
0.0
 40
0.0
 40
0.0
 40
0.2500007647477576
 40
0.4997433405935108
 40
0.7495443591965435
 40
0.8747393863946679
 40
1.0
 40
1.0
 40
1.0
 40
1.0
 10
854.1455448564019
 20
887.0871616099529
 30
0.0
 10
854.0928363984516
 20
887.0883330771139
 30
0.0
 10
853.9874739173399
 20
887.0906748015997
 30
0.0
 10
853.8545503437603
 20
887.149213319729
 30
0.0
 10
853.7715606289295
 20
887.2332034964015
 30
0.0
 10
853.723080952156
 20
887.3170816601553
 30
0.0
 10
853.7055420550241
 20
887.36426779643
 30
0.0
 10
853.6967703100171
 20
887.3878670428447
 30
0.0
  0
SPLINE
  5
183
330
1F
100
AcDbEntity
  8
0
  6
Continuous
 62
     7
370
    15
100
AcDbSpline
210
0.0
220
0.0
230
1.0
 70
     8
 71
     3
 72
    11
 73
     7
 74
     0
 42
0.00000001
 43
0.00000001
 40
0.0
 40
0.0
 40
0.0
 40
0.0
 40
0.2498717641466854
 40
0.4997172004935579
 40
0.7496846021053913
 40
1.0
 40
1.0
 40
1.0
 40
1.0
 10
855.551689207169
 20
888.6083317492656
 30
0.0
 10
855.542895385716
 20
888.6285733298412
 30
0.0
 10
855.5253086693727
 20
888.6690543582328
 30
0.0
 10
855.4732800488134
 20
888.7066123293306
 30
0.0
 10
855.4087024913089
 20
888.7238682802935
 30
0.0
 10
855.3602717948011
 20
888.7209927711094
 30
0.0
 10
855.3360396023717
 20
888.7195540164165
 30
0.0
  0
SPLINE
  5
184
330
1F
100
AcDbEntity
  8
0
  6
Continuous
 62
     7
370
    15
100
AcDbSpline
210
0.0
220
0.0
230
1.0
 70
     8
 71
     3
 72
     9
 73
     5
 74
     0
 42
0.00000001
 43
0.00000001
 40
0.0
 40
0.0
 40
0.0
 40
0.0
 40
0.4986174240280755
 40
1.0
 40
1.0
 40
1.0
 40
1.0
 10
855.3360396023717
 20
888.7195540164165
 30
0.0
 10
855.2305999090015
 20
888.6884951581839
 30
0.0
 10
855.0191357918467
 20
888.6262052005212
 30
0.0
 10
854.8160964768936
 20
888.4942085296708
 30
0.0
 10
854.714296102139
 20
888.4280276988201
 30
0.0
  0
SPLINE
  5
185
330
1F
100
AcDbEntity
  8
0
  6
Continuous
 62
     7
370
    15
100
AcDbSpline
210
0.0
220
0.0
230
1.0
 70
     8
 71
     3
 72
    13
 73
     9
 74
     0
 42
0.00000001
 43
0.00000001
 40
0.0
 40
0.0
 40
0.0
 40
0.0
 40
0.5001659524267124
 40
0.6253127310774922
 40
0.7503099440763961
 40
0.8748345727551706
 40
0.9373898143145445
 40
1.0
 40
1.0
 40
1.0
 40
1.0
 10
854.714296102139
 20
888.4280276988201
 30
0.0
 10
854.5642782870468
 20
888.3276102250754
 30
0.0
 10
854.3767244377487
 20
888.2020672438899
 30
0.0
 10
854.1833870032854
 20
887.9998031442682
 30
0.0
 10
854.107044406131
 20
887.8831412218495
 30
0.0
 10
854.0688495175965
 20
887.7782886271921
 30
0.0
 10
854.0648381153749
 20
887.6990879758898
 30
0.0
 10
854.0736447810144
 20
887.664704273449
 30
0.0
 10
854.0780500467744
 20
887.6475048754863
 30
0.0
  0
SPLINE
  5
186
330
1F
100
AcDbEntity
  8
0
  6
Continuous
 62
     7
370
    15
100
AcDbSpline
210
0.0
220
0.0
230
1.0
 70
     8
 71
     3
 72
    13
 73
     9
 74
     0
 42
0.00000001
 43
0.00000001
 40
0.0
 40
0.0
 40
0.0
 40
0.0
 40
0.1245209880521581
 40
0.187103060739851
 40
0.2496511744183622
 40
0.3714930566011517
 40
0.499710447477051
 40
0.9999999999999999
 40
0.9999999999999999
 40
0.9999999999999999
 40
0.9999999999999999
 10
854.0780500467744
 20
887.6475048754863
 30
0.0
 10
854.0934536347143
 20
887.6157893371621
 30
0.0
 10
854.116598796787
 20
887.5681341234806
 30
0.0
 10
854.1765295605566
 20
887.5358443424167
 30
0.0
 10
854.2434133373363
 20
887.517270559454
 30
0.0
 10
854.3434993325045
 20
887.5307811182283
 30
0.0
 10
854.5856622521127
 20
887.6128727074955
 30
0.0
 10
854.7828351729983
 20
887.7403137462837
 30
0.0
 10
854.9397841986146
 20
887.8417564128093
 30
0.0
  0
SPLINE
  5
187
330
1F
100
AcDbEntity
  8
0
  6
Continuous
 62
     7
370
    15
100
AcDbSpline
210
0.0
220
0.0
230
1.0
 70
     8
 71
     3
 72
    12
 73
     8
 74
     0
 42
0.00000001
 43
0.00000001
 40
0.0
 40
0.0
 40
0.0
 40
0.0
 40
0.5004263850479018
 40
0.6256270713506974
 40
0.750740740718788
 40
0.8753857153205357
 40
1.0
 40
1.0
 40
1.0
 40
1.0
 10
854.9397841986146
 20
887.8417564128093
 30
0.0
 10
855.0867962641742
 20
887.9400918550316
 30
0.0
 10
855.2705889872944
 20
888.063029646814
 30
0.0
 10
855.4574127119334
 20
888.2643927259567
 30
0.0
 10
855.5283795453549
 20
888.3792210284611
 30
0.0
 10
855.5715830279902
 20
888.5032805110646
 30
0.0
 10
855.5583199364389
 20
888.5733175442904
 30
0.0
 10
855.551689207169
 20
888.6083317492656
 30
0.0
  0
SPLINE
  5
188
330
1F
100
AcDbEntity
  8
0
  6
Continuous
 62
     7
370
    15
100
AcDbSpline
210
0.0
220
0.0
230
1.0
 70
     8
 71
     3
 72
     9
 73
     5
 74
     0
 42
0.00000001
 43
0.00000001
 40
0.0
 40
0.0
 40
0.0
 40
0.0
 40
0.4984944587452612
 40
1.0
 40
1.0
 40
1.0
 40
1.0
 10
853.6967703100171
 20
887.3878670428447
 30
0.0
 10
853.6958640174208
 20
887.3886381404421
 30
0.0
 10
853.6940459579008
 20
887.3901849933385
 30
0.0
 10
853.6922405390363
 20
887.3917772728059
 30
0.0
 10
853.6913351114716
 20
887.392575809782
 30
0.0
  0
SPLINE
  5
189
330
1F
100
AcDbEntity
  8
0
  6
Continuous
 62
     7
370
    15
100
AcDbSpline
210
0.0
220
0.0
230
1.0
 70
     8
 71
     3
 72
    11
 73
     7
 74
     0
 42
0.00000001
 43
0.00000001
 40
0.0
 40
0.0
 40
0.0
 40
0.0
 40
0.249883090790972
 40
0.499667736715001
 40
0.749654097805511
 40
1.0
 40
1.0
 40
1.0
 40
1.0
 10
855.5462540086236
 20
888.6130405162029
 30
0.0
 10
855.5374644524221
 20
888.6332877987661
 30
0.0
 10
855.519888802785
 20
888.6737743871986
 30
0.0
 10
855.467849088783
 20
888.711246961224
 30
0.0
 10
855.4032850322664
 20
888.7285217160027
 30
0.0
 10
855.3548577811505
 20
888.725643380602
 30
0.0
 10
855.330626755568
 20
888.724203178709
 30
0.0
  0
SPLINE
  5
18A
330
1F
100
AcDbEntity
  8
0
  6
Continuous
 62
     7
370
    15
100
AcDbSpline
210
0.0
220
0.0
230
1.0
 70
     8
 71
     3
 72
    12
 73
     8
 74
     0
 42
0.00000001
 43
0.00000001
 40
0.0
 40
0.0
 40
0.0
 40
0.0
 40
0.5004598256291501
 40
0.6256700995204135
 40
0.7507918109779683
 40
0.8754371735559525
 40
1.0
 40
1.0
 40
1.0
 40
1.0
 10
854.9343191977467
 20
887.8465247843914
 30
0.0
 10
855.0813319205024
 20
887.9448605087588
 30
0.0
 10
855.2651258239623
 20
888.0677988932215
 30
0.0
 10
855.4519539824537
 20
888.2691611552843
 30
0.0
 10
855.5229267047151
 20
888.3839837292285
 30
0.0
 10
855.5661380160032
 20
888.5080367874816
 30
0.0
 10
855.5528805474877
 20
888.578047002272
 30
0.0
 10
855.5462540086236
 20
888.613040516203
 30
0.0
  0
SPLINE
  5
18B
330
1F
100
AcDbEntity
  8
0
  6
Continuous
 62
     7
370
    15
100
AcDbSpline
210
0.0
220
0.0
230
1.0
 70
     8
 71
     3
 72
    13
 73
     9
 74
     0
 42
0.00000001
 43
0.00000001
 40
0.0
 40
0.0
 40
0.0
 40
0.0
 40
0.1244815688550028
 40
0.1870756866699049
 40
0.2496147370510099
 40
0.3714554383095037
 40
0.4996898655926162
 40
1.0
 40
1.0
 40
1.0
 40
1.0
 10
854.0726148482289
 20
887.6522136424236
 30
0.0
 10
854.0880238469089
 20
887.6205436417899
 30
0.0
 10
854.1111810824375
 20
887.5729487474623
 30
0.0
 10
854.1710665033168
 20
887.5405180322765
 30
0.0
 10
854.2379741176508
 20
887.5220936510436
 30
0.0
 10
854.3380492008099
 20
887.5355164506249
 30
0.0
 10
854.5801691951018
 20
887.6178096055623
 30
0.0
 10
854.7773593728585
 20
887.745157865995
 30
0.0
 10
854.9343191977467
 20
887.8465247843914
 30
0.0
  0
SPLINE
  5
18C
330
1F
100
AcDbEntity
  8
0
  6
Continuous
 62
     7
370
    15
100
AcDbSpline
210
0.0
220
0.0
230
1.0
 70
     8
 71
     3
 72
     9
 73
     5
 74
     0
 42
0.00000001
 43
0.00000001
 40
0.0
 40
0.0
 40
0.0
 40
0.0
 40
0.5014396569501776
 40
1.0
 40
1.0
 40
1.0
 40
1.0
 10
855.5462540086236
 20
888.6130405162029
 30
0.0
 10
855.5471594964947
 20
888.6122419282261
 30
0.0
 10
855.5489652728398
 20
888.6106493378402
 30
0.0
 10
855.5507829736364
 20
888.6091027944625
 30
0.0
 10
855.551689207169
 20
888.6083317492656
 30
0.0
  0
LINE
  5
18D
330
1F
100
AcDbEntity
  8
0
  6
Continuous
 62
     7
370
    15
100
AcDbLine
 10
854.3225594755
 20
885.6905651782
 30
0.0
 11
854.037630647
 21
886.5029764865
 31
0.0
  0
LINE
  5
18E
330
1F
100
AcDbEntity
  8
0
  6
Continuous
 62
     7
370
    15
100
AcDbLine
 10
854.037630647
 20
886.5029764865
 30
0.0
 11
854.4046984013
 21
886.7558789943
 31
0.0
  0
LINE
  5
18F
330
1F
100
AcDbEntity
  8
0
  6
Continuous
 62
     7
370
    15
100
AcDbLine
 10
854.4046984013
 20
886.7558789943
 30
0.0
 11
854.6060056385
 21
886.1869526599
 31
0.0
  0
LINE
  5
190
330
1F
100
AcDbEntity
  8
0
  6
Continuous
 62
     7
370
    15
100
AcDbLine
 10
854.6060056385
 20
886.1869526599
 30
0.0
 11
855.0116189714
 21
886.3794160579
 31
0.0
  0
LINE
  5
191
330
1F
100
AcDbEntity
  8
0
  6
Continuous
 62
     7
370
    15
100
AcDbLine
 10
855.0116189714
 20
886.3794160579
 30
0.0
 11
854.9535193439
 21
886.4771676753
 31
0.0
  0
SPLINE
  5
192
330
1F
100
AcDbEntity
  8
0
  6
Continuous
 62
     7
370
    15
100
AcDbSpline
210
0.0
220
0.0
230
1.0
 70
     8
 71
     3
 72
    13
 73
     9
 74
     0
 42
0.00000001
 43
0.00000001
 40
0.0
 40
0.0
 40
0.0
 40
0.0
 40
0.2493874053634826
 40
0.3727345834632336
 40
0.4998879342513854
 40
0.624430666426154
 40
0.7503737812633675
 40
1.0
 40
1.0
 40
1.0
 40
1.0
 10
854.9535156186547
 20
886.4771676753215
 30
0.0
 10
854.9359609009583
 20
886.5572842380142
 30
0.0
 10
854.9097236081052
 20
886.6770265063944
 30
0.0
 10
854.9517321314092
 20
886.8693311314944
 30
0.0
 10
855.0096021654765
 20
887.0147695954308
 30
0.0
 10
855.0917718961684
 20
887.1579039268457
 30
0.0
 10
855.2301626284849
 20
887.335927219276
 30
0.0
 10
855.361933040754
 20
887.4378452770784
 30
0.0
 10
855.4495156701531
 20
887.5055862162761
 30
0.0
  0
SPLINE
  5
193
330
1F
100
AcDbEntity
  8
0
  6
Continuous
 62
     7
370
    15
100
AcDbSpline
210
0.0
220
0.0
230
1.0
 70
     8
 71
     3
 72
    12
 73
     8
 74
     0
 42
0.00000001
 43
0.00000001
 40
0.0
 40
0.0
 40
0.0
 40
0.0
 40
0.249759789688625
 40
0.3737799828930526
 40
0.5006027469838836
 40
0.7502832336217395
 40
1.0
 40
1.0
 40
1.0
 40
1.0
 10
855.4495156701531
 20
887.5055862162762
 30
0.0
 10
855.5472227651269
 20
887.5638119610079
 30
0.0
 10
855.6934470886393
 20
887.6509501584611
 30
0.0
 10
855.8896297958656
 20
887.6908461968768
 30
0.0
 10
856.0714158872213
 20
887.691131542044
 30
0.0
 10
856.2766704742996
 20
887.6252950746359
 30
0.0
 10
856.350482390963
 20
887.481119644012
 30
0.0
 10
856.3873910304036
 20
887.40902669174
 30
0.0
  0
SPLINE
  5
194
330
1F
100
AcDbEntity
  8
0
  6
Continuous
 62
     7
370
    15
100
AcDbSpline
210
0.0
220
0.0
230
1.0
 70
     8
 71
     3
 72
    11
 73
     7
 74
     0
 42
0.00000001
 43
0.00000001
 40
0.0
 40
0.0
 40
0.0
 40
0.0
 40
0.2502358318894326
 40
0.5001216011626224
 40
0.7498472759121383
 40
1.0
 40
1.0
 40
1.0
 40
1.0
 10
856.3873910304036
 20
887.40902669174
 30
0.0
 10
856.4046800022662
 20
887.336479756426
 30
0.0
 10
856.4392337599161
 20
887.1914873739414
 30
0.0
 10
856.3761215936796
 20
886.926050468628
 30
0.0
 10
856.2332512857221
 20
886.6591938490685
 30
0.0
 10
856.0872877293549
 20
886.5105467328968
 30
0.0
 10
856.0142436023679
 20
886.4361596797161
 30
0.0
  0
LINE
  5
195
330
1F
100
AcDbEntity
  8
0
  6
Continuous
 62
     7
370
    15
100
AcDbLine
 10
856.0142436024
 20
886.4361596797
 30
0.0
 11
855.9004508849
 21
886.7761445735
 31
0.0
  0
SPLINE
  5
196
330
1F
100
AcDbEntity
  8
0
  6
Continuous
 62
     7
370
    15
100
AcDbSpline
210
0.0
220
0.0
230
1.0
 70
     8
 71
     3
 72
    11
 73
     7
 74
     0
 42
0.00000001
 43
0.00000001
 40
0.0
 40
0.0
 40
0.0
 40
0.0
 40
0.2502541872846539
 40
0.5001934848507337
 40
0.7500536922339794
 40
0.9999999999999999
 40
0.9999999999999999
 40
0.9999999999999999
 40
0.9999999999999999
 10
855.900450884911
 20
886.7761445735149
 30
0.0
 10
855.9240571517406
 20
886.8081237519632
 30
0.0
 10
855.9712399821174
 20
886.8720418701143
 30
0.0
 10
856.015674476298
 20
886.9755426065756
 30
0.0
 10
856.0350552137064
 20
887.0770247616027
 30
0.0
 10
856.0217850651806
 20
887.1330526162591
 30
0.0
 10
856.0151488479104
 20
887.1610713694745
 30
0.0
  0
SPLINE
  5
197
330
1F
100
AcDbEntity
  8
0
  6
Continuous
 62
     7
370
    15
100
AcDbSpline
210
0.0
220
0.0
230
1.0
 70
     8
 71
     3
 72
    13
 73
     9
 74
     0
 42
0.00000001
 43
0.00000001
 40
0.0
 40
0.0
 40
0.0
 40
0.0
 40
0.2491633396248633
 40
0.3698244794731539
 40
0.4997011229992644
 40
0.6226022308632922
 40
0.7502061192340124
 40
1.0
 40
1.0
 40
1.0
 40
1.0
 10
856.0151451226201
 20
887.1610713694744
 30
0.0
 10
855.9979649432242
 20
887.1938056737075
 30
0.0
 10
855.9724650004481
 20
887.2423920630299
 30
0.0
 10
855.9059767640917
 20
887.2742288648184
 30
0.0
 10
855.8486399550777
 20
887.2847616830477
 30
0.0
 10
855.784129640301
 20
887.2813969647898
 30
0.0
 10
855.6939858261535
 20
887.2584620861406
 30
0.0
 10
855.6266581789333
 20
887.2172185144449
 30
0.0
 10
855.5820950265851
 20
887.1899200175458
 30
0.0
  0
SPLINE
  5
198
330
1F
100
AcDbEntity
  8
0
  6
Continuous
 62
     7
370
    15
100
AcDbSpline
210
0.0
220
0.0
230
1.0
 70
     8
 71
     3
 72
    14
 73
    10
 74
     0
 42
0.00000001
 43
0.00000001
 40
0.0
 40
0.0
 40
0.0
 40
0.0
 40
0.2496306585313678
 40
0.3758083153485884
 40
0.4997448143480299
 40
0.6281759806329859
 40
0.7499832572901237
 40
0.8749314587644217
 40
1.0
 40
1.0
 40
1.0
 40
1.0
 10
855.5820950265851
 20
887.1899200175457
 30
0.0
 10
855.5414695236296
 20
887.1589842695563
 30
0.0
 10
855.480309560684
 20
887.1124118196643
 30
0.0
 10
855.4139569458192
 20
887.0319861357284
 30
0.0
 10
855.3732469099424
 20
886.9667205029178
 30
0.0
 10
855.3432551102744
 20
886.8998871365295
 30
0.0
 10
855.3257270853525
 20
886.8334816694207
 30
0.0
 10
855.3221978079222
 20
886.7708840742868
 30
0.0
 10
855.3317469972874
 20
886.735216676498
 30
0.0
 10
855.3365238901105
 20
886.7173743937664
 30
0.0
  0
SPLINE
  5
199
330
1F
100
AcDbEntity
  8
0
  6
Continuous
 62
     7
370
    15
100
AcDbSpline
210
0.0
220
0.0
230
1.0
 70
     8
 71
     3
 72
    10
 73
     6
 74
     0
 42
0.00000001
 43
0.00000001
 40
0.0
 40
0.0
 40
0.0
 40
0.0
 40
0.2500320598870923
 40
0.5002640656175202
 40
1.0
 40
1.0
 40
1.0
 40
1.0
 10
855.3365238901105
 20
886.7173743937664
 30
0.0
 10
855.345541286804
 20
886.6986635051353
 30
0.0
 10
855.3635832912302
 20
886.6612267651341
 30
0.0
 10
855.4291973214164
 20
886.613937564769
 30
0.0
 10
855.4948262065348
 20
886.604937257147
 30
0.0
 10
855.538557558867
 20
886.5989399645978
 30
0.0
  0
LINE
  5
19A
330
1F
100
AcDbEntity
  8
0
  6
Continuous
 62
     7
370
    15
100
AcDbLine
 10
855.5385575589
 20
886.5989399646
 30
0.0
 11
855.5552915629
 21
886.2845850681
 31
0.0
  0
LINE
  5
19B
330
1F
100
AcDbEntity
  8
0
  6
Continuous
 62
     7
370
    15
100
AcDbLine
 10
855.5552915629
 20
886.2845850681
 30
0.0
 11
854.3225594755
 21
885.6905651782
 31
0.0
  0
LINE
  5
19C
330
1F
100
AcDbEntity
  8
0
  6
Continuous
 62
     7
370
    15
100
AcDbLine
 10
854.4046984013
 20
886.7558789943
 30
0.0
 11
854.3991700705
 21
886.7608857845
 31
0.0
  0
LINE
  5
19D
330
1F
100
AcDbEntity
  8
0
  6
Continuous
 62
     7
370
    15
100
AcDbLine
 10
854.037630647
 20
886.5029764865
 30
0.0
 11
854.0321060415
 21
886.5079832767
 31
0.0
  0
LINE
  5
19E
330
1F
100
AcDbEntity
  8
0
  6
Continuous
 62
     7
370
    15
100
AcDbLine
 10
854.3225594755
 20
885.6905651782
 30
0.0
 11
854.3169529136
 21
885.695810387
 31
0.0
  0
LINE
  5
19F
330
1F
100
AcDbEntity
  8
0
  6
Continuous
 62
     7
370
    15
100
AcDbLine
 10
855.4495156702
 20
887.5055862163
 30
0.0
 11
855.4439947899
 21
887.5105930064
 31
0.0
  0
LINE
  5
1A0
330
1F
100
AcDbEntity
  8
0
  6
Continuous
 62
     7
370
    15
100
AcDbLine
 10
854.9535156187
 20
886.4771676753
 30
0.0
 11
854.9479388591
 21
886.4822936748
 31
0.0
  0
LINE
  5
1A1
330
1F
100
AcDbEntity
  8
0
  6
Continuous
 62
     7
370
    15
100
AcDbLine
 10
855.0116189714
 20
886.3794160579
 30
0.0
 11
855.006031036
 21
886.384601662
 31
0.0
  0
SPLINE
  5
1A2
330
1F
100
AcDbEntity
  8
0
  6
Continuous
 62
     7
370
    15
100
AcDbSpline
210
0.0
220
0.0
230
1.0
 70
    24
 71
     3
 72
     9
 73
     5
 74
     0
 42
0.00000001
 43
0.00000001
 40
0.0
 40
0.0
 40
0.0
 40
0.0
 40
0.4999392639428594
 40
1.0
 40
1.0
 40
1.0
 40
1.0
 10
856.0151451226201
 20
887.1610713694745
 30
0.0
 10
856.0142149853332
 20
887.1619257545926
 30
0.0
 10
856.0123544847604
 20
887.1636347324219
 30
0.0
 10
856.010494662061
 20
887.1653430875848
 30
0.0
 10
856.009564637753
 20
887.166197368925
 30
0.0
  0
SPLINE
  5
1A3
330
1F
100
AcDbEntity
  8
0
  6
Continuous
 62
     7
370
    15
100
AcDbSpline
210
0.0
220
0.0
230
1.0
 70
     8
 71
     3
 72
     9
 73
     5
 74
     0
 42
0.00000001
 43
0.00000001
 40
0.0
 40
0.0
 40
0.0
 40
0.0
 40
0.5000442900521062
 40
1.0
 40
1.0
 40
1.0
 40
1.0
 10
855.538557558867
 20
886.5989399645977
 30
0.0
 10
855.5376234836078
 20
886.5998141273292
 30
0.0
 10
855.5357554985557
 20
886.6015622979388
 30
0.0
 10
855.533890742824
 20
886.6033109331697
 30
0.0
 10
855.5329584475484
 20
886.6041851733379
 30
0.0
  0
LINE
  5
1A4
330
1F
100
AcDbEntity
  8
0
  6
Continuous
 62
     7
370
    15
100
AcDbLine
 10
855.9004508849
 20
886.7761445735
 30
0.0
 11
855.894844323
 21
886.7813897823
 31
0.0
  0
LINE
  5
1A5
330
1F
100
AcDbEntity
  8
0
  6
Continuous
 62
     7
370
    15
100
AcDbLine
 10
856.0142436024
 20
886.4361596797
 30
0.0
 11
856.0086035129
 21
886.4415240977
 31
0.0
  0
LINE
  5
1A6
330
1F
100
AcDbEntity
  8
0
  6
Continuous
 62
     7
370
    15
100
AcDbLine
 10
856.7142293747
 20
886.2922740672
 30
0.0
 11
856.7085334059
 21
886.2977576945
 31
0.0
  0
LINE
  5
1A7
330
1F
100
AcDbEntity
  8
0
  6
Continuous
 62
     7
370
    15
100
AcDbLine
 10
854.619204342
 20
884.8510337566
 30
0.0
 11
856.7142293747
 21
886.2922740672
 31
0.0
  0
LINE
  5
1A8
330
1F
100
AcDbEntity
  8
0
  6
Continuous
 62
     7
370
    15
100
AcDbLine
 10
854.619204342
 20
884.8510337566
 30
0.0
 11
854.6135120984
 21
884.8565173839
 31
0.0
  0
LINE
  5
1A9
330
1F
100
AcDbEntity
  8
0
  6
Continuous
 62
     7
370
    15
100
AcDbLine
 10
854.7625125345
 20
884.3845678065
 30
0.0
 11
854.619204342
 21
884.8510337566
 31
0.0
  0
LINE
  5
1AA
330
1F
100
AcDbEntity
  8
0
  6
Continuous
 62
     7
370
    15
100
AcDbLine
 10
856.7142293747
 20
886.2922740672
 30
0.0
 11
856.8102859851
 21
885.9819722865
 31
0.0
  0
LINE
  5
1AB
330
1F
100
AcDbEntity
  8
0
  6
Continuous
 62
     7
370
    15
100
AcDbLine
 10
856.8102859851
 20
885.9819722865
 30
0.0
 11
855.0899432
 21
884.798104832
 31
0.0
  0
LINE
  5
1AC
330
1F
100
AcDbEntity
  8
0
  6
Continuous
 62
     7
370
    15
100
AcDbLine
 10
855.0899432
 20
884.798104832
 30
0.0
 11
855.1899746951
 21
884.4644380305
 31
0.0
  0
LINE
  5
1AD
330
1F
100
AcDbEntity
  8
0
  6
Continuous
 62
     7
370
    15
100
AcDbLine
 10
855.1899746951
 20
884.4644380305
 30
0.0
 11
854.7625125345
 21
884.3845678065
 31
0.0
  0
LINE
  5
1AE
330
1F
100
AcDbEntity
  8
0
  6
Continuous
 62
     7
370
    15
100
AcDbLine
 10
854.7625125345
 20
884.3845678065
 30
0.0
 11
854.7567718621
 21
884.3902302478
 31
0.0
  0
SPLINE
  5
1AF
330
1F
100
AcDbEntity
  8
0
  6
Continuous
 62
     7
370
    15
100
AcDbSpline
210
0.0
220
0.0
230
1.0
 70
    11
 71
     3
 72
    27
 73
    23
 74
     0
 42
0.00000001
 43
0.00000001
 40
0.0
 40
0.0
 40
0.0
 40
0.0
 40
0.0620949906206543
 40
0.1249691534902828
 40
0.1563165232576945
 40
0.1876183549569396
 40
0.2503688268761756
 40
0.3129776330319303
 40
0.3755439883942626
 40
0.4382534379552106
 40
0.4695212758428244
 40
0.5008866307175622
 40
0.5636209184093751
 40
0.6261785537065767
 40
0.6888268382416167
 40
0.7515513796449904
 40
0.7827656125820518
 40
0.8141969899736915
 40
0.8770700246852985
 40
0.9390427273107267
 40
0.9695171925745945
 40
1.0
 40
1.0
 40
1.0
 40
1.0
 10
838.5629386599984
 20
929.569180080717
 30
0.0
 10
838.5537673452587
 20
929.6334869170167
 30
0.0
 10
838.5353096334862
 20
929.7629075162579
 30
0.0
 10
838.3880283780828
 20
929.9161346800737
 30
0.0
 10
838.2271171104323
 20
930.0178834706719
 30
0.0
 10
838.0363454576327
 20
930.1006552373406
 30
0.0
 10
837.7622461779761
 20
930.1651512915671
 30
0.0
 10
837.4267097983412
 20
930.1734383223555
 30
0.0
 10
837.1398258253195
 20
930.1031183670077
 30
0.0
 10
836.9715723399356
 20
929.9940946663236
 30
0.0
 10
836.8964473715192
 20
929.8843924106944
 30
0.0
 10
836.8668048414744
 20
929.7627881089454
 30
0.0
 10
836.9106744642187
 20
929.5986066145933
 30
0.0
 10
837.0814816490586
 20
929.4103451912413
 30
0.0
 10
837.3565389711348
 20
929.2652006169902
 30
0.0
 10
837.6293137797642
 20
929.1946316978217
 30
0.0
 10
837.8503329675708
 20
929.177941752918
 30
0.0
 10
838.0638691514615
 20
929.1902887313361
 30
0.0
 10
838.3019703892401
 20
929.2533482429136
 30
0.0
 10
838.4713639321552
 20
929.366219178399
 30
0.0
 10
838.5478417839254
 20
929.4776151718975
 30
0.0
 10
838.5579059088735
 20
929.5386556599274
 30
0.0
 10
838.5629386599984
 20
929.569180080717
 30
0.0
  0
SPLINE
  5
1B0
330
1F
100
AcDbEntity
  8
0
  6
Continuous
 62
     7
370
    15
100
AcDbSpline
210
0.0
220
0.0
230
1.0
 70
    11
 71
     3
 72
    23
 73
    19
 74
     0
 42
0.00000001
 43
0.00000001
 40
0.0
 40
0.0
 40
0.0
 40
0.0
 40
0.0624996781039575
 40
0.1250049427302053
 40
0.1875025446173
 40
0.2500024556184342
 40
0.3124985966154433
 40
0.3749976138284353
 40
0.4374958395033654
 40
0.5000011592969702
 40
0.5625005857596269
 40
0.6250012695801702
 40
0.6874952993553752
 40
0.749991600838091
 40
0.812489186847863
 40
0.8749838089456267
 40
0.9374856976716753
 40
1.0
 40
1.0
 40
1.0
 40
1.0
 10
838.1124989088502
 20
929.6300960276776
 30
0.0
 10
838.109294828362
 20
929.660130680395
 30
0.0
 10
838.1028863809894
 20
929.7202026704713
 30
0.0
 10
838.0191568389195
 20
929.8061261043945
 30
0.0
 10
837.8941095798748
 20
929.8722562667749
 30
0.0
 10
837.7416427626094
 20
929.909857808
 30
0.0
 10
837.5863309526594
 20
929.9129016288505
 30
0.0
 10
837.4514174160478
 20
929.8813647182831
 30
0.0
 10
837.3576894641794
 20
929.8195749468368
 30
0.0
 10
837.3191011477204
 20
929.7366943190481
 30
0.0
 10
837.3416920069315
 20
929.6450949472613
 30
0.0
 10
837.4218129208915
 20
929.5586328392777
 30
0.0
 10
837.5475214742817
 20
929.4907684636569
 30
0.0
 10
837.6995011276483
 20
929.452058624218
 30
0.0
 10
837.8551140575772
 20
929.448742496502
 30
0.0
 10
837.9891974098953
 20
929.481405985721
 30
0.0
 10
838.0867377608548
 20
929.5443431806317
 30
0.0
 10
838.1039112910977
 20
929.6015098531892
 30
0.0
 10
838.1124989088502
 20
929.6300960276775
 30
0.0
  0
SPLINE
  5
1B1
330
1F
100
AcDbEntity
  8
0
  6
Continuous
 62
     7
370
    15
100
AcDbSpline
210
0.0
220
0.0
230
1.0
 70
    11
 71
     3
 72
    23
 73
    19
 74
     0
 42
0.00000001
 43
0.00000001
 40
0.0
 40
0.0
 40
0.0
 40
0.0
 40
0.0625180027644393
 40
0.125015616121793
 40
0.187518186646626
 40
0.2500167892553355
 40
0.3125170200613177
 40
0.3750178650160226
 40
0.4375199375116376
 40
0.5000172080471575
 40
0.5625208147162185
 40
0.6250264480471708
 40
0.6875280576993342
 40
0.7500251689445044
 40
0.8125248831773191
 40
0.8750272005081671
 40
0.9375309781060779
 40
1.0
 40
1.0
 40
1.0
 40
1.0
 10
838.111236035439
 20
929.6219301913433
 30
0.0
 10
838.1080378694926
 20
929.6519937604326
 30
0.0
 10
838.1016425806387
 20
929.7121110937816
 30
0.0
 10
838.0178573085042
 20
929.7979413006265
 30
0.0
 10
837.8928291091986
 20
929.8641137468717
 30
0.0
 10
837.7403501836822
 20
929.9016110573275
 30
0.0
 10
837.5850687044446
 20
929.9046813057086
 30
0.0
 10
837.4501657273878
 20
929.8731410673242
 30
0.0
 10
837.3564472389814
 20
929.8113380112233
 30
0.0
 10
837.317837408164
 20
929.7285391171318
 30
0.0
 10
837.34045554381
 20
929.6369227305357
 30
0.0
 10
837.4206058094005
 20
929.5504721449302
 30
0.0
 10
837.5463279616905
 20
929.4825829585487
 30
0.0
 10
837.698319820482
 20
929.4439785603141
 30
0.0
 10
837.8539092946113
 20
929.4406111314847
 30
0.0
 10
837.9879604964675
 20
929.4733761369173
 30
0.0
 10
838.0854684430464
 20
929.5362889609682
 30
0.0
 10
838.1026484305949
 20
929.5933884077874
 30
0.0
 10
838.111236035439
 20
929.6219301913433
 30
0.0
  0
LINE
  5
1B2
330
1F
100
AcDbEntity
  8
0
  6
Continuous
 62
     7
370
    15
100
AcDbLine
 10
837.5769362744
 20
932.6090169643
 30
0.0
 11
838.0622000392
 21
931.1737967227
 31
0.0
  0
LINE
  5
1B3
330
1F
100
AcDbEntity
  8
0
  6
Continuous
 62
     7
370
    15
100
AcDbLine
 10
838.0622000392
 20
931.1737967227
 30
0.0
 11
841.4004289504
 21
931.1165166591
 31
0.0
  0
LINE
  5
1B4
330
1F
100
AcDbEntity
  8
0
  6
Continuous
 62
     7
370
    15
100
AcDbLine
 10
841.4004326757
 20
931.1165166591
 30
0.0
 11
840.9149565693
 21
932.5498891566
 31
0.0
  0
LINE
  5
1B5
330
1F
100
AcDbEntity
  8
0
  6
Continuous
 62
     7
370
    15
100
AcDbLine
 10
840.9149565693
 20
932.5498891566
 30
0.0
 11
839.6851600107
 21
932.571644852
 31
0.0
  0
LINE
  5
1B6
330
1F
100
AcDbEntity
  8
0
  6
Continuous
 62
     7
370
    15
100
AcDbLine
 10
839.6851600107
 20
932.571644852
 30
0.0
 11
839.7114680108
 21
933.0133152698
 31
0.0
  0
LINE
  5
1B7
330
1F
100
AcDbEntity
  8
0
  6
Continuous
 62
     7
370
    15
100
AcDbLine
 10
839.7114680108
 20
933.0133152698
 30
0.0
 11
840.3468684252
 21
933.0011559222
 31
0.0
  0
SPLINE
  5
1B8
330
1F
100
AcDbEntity
  8
0
  6
Continuous
 62
     7
370
    15
100
AcDbSpline
210
0.0
220
0.0
230
1.0
 70
     8
 71
     3
 72
    13
 73
     9
 74
     0
 42
0.00000001
 43
0.00000001
 40
0.0
 40
0.0
 40
0.0
 40
0.0
 40
0.2500525926509874
 40
0.375072608955044
 40
0.4996149256641094
 40
0.622819481702741
 40
0.7496102373699994
 40
1.0
 40
1.0
 40
1.0
 40
1.0
 10
840.3468684252229
 20
933.0011559222393
 30
0.0
 10
840.5187879167914
 20
932.9952656768575
 30
0.0
 10
840.7766628364204
 20
932.986430456717
 30
0.0
 10
841.1190833191517
 20
932.9341944228768
 30
0.0
 10
841.354195156983
 20
932.8665791189937
 30
0.0
 10
841.5149035718698
 20
932.7686530064271
 30
0.0
 10
841.6579265069313
 20
932.6275178010169
 30
0.0
 10
841.708396159893
 20
932.5146599808697
 30
0.0
 10
841.7419002350297
 20
932.4397397730999
 30
0.0
  0
LINE
  5
1B9
330
1F
100
AcDbEntity
  8
0
  6
Continuous
 62
     7
370
    15
100
AcDbLine
 10
841.741900235
 20
932.4397397731
 30
0.0
 11
842.1685763594
 21
931.1777306293
 31
0.0
  0
SPLINE
  5
1BA
330
1F
100
AcDbEntity
  8
0
  6
Continuous
 62
     7
370
    15
100
AcDbSpline
210
0.0
220
0.0
230
1.0
 70
     8
 71
     3
 72
    13
 73
     9
 74
     0
 42
0.00000001
 43
0.00000001
 40
0.0
 40
0.0
 40
0.0
 40
0.0
 40
0.2502985261125878
 40
0.3754705083926254
 40
0.5001295113083116
 40
0.6247429284983589
 40
0.7498138310581559
 40
1.0
 40
1.0
 40
1.0
 40
1.0
 10
842.168576359364
 20
931.1777306292705
 30
0.0
 10
842.1887585309469
 20
931.0913935985302
 30
0.0
 10
842.2190336202269
 20
930.9618802157358
 30
0.0
 10
842.1770790935589
 20
930.792669921605
 30
0.0
 10
842.0785877894108
 20
930.6781392476591
 30
0.0
 10
841.8885050567449
 20
930.6058683413146
 30
0.0
 10
841.5862279193714
 20
930.5581206349025
 30
0.0
 10
841.3392357675172
 20
930.5575960326602
 30
0.0
 10
841.174564599606
 20
930.5572462771587
 30
0.0
  0
LINE
  5
1BB
330
1F
100
AcDbEntity
  8
0
  6
Continuous
 62
     7
370
    15
100
AcDbLine
 10
841.1745645996
 20
930.5572462772
 30
0.0
 11
838.6066065129
 21
930.6032014583
 31
0.0
  0
SPLINE
  5
1BC
330
1F
100
AcDbEntity
  8
0
  6
Continuous
 62
     7
370
    15
100
AcDbSpline
210
0.0
220
0.0
230
1.0
 70
     8
 71
     3
 72
    13
 73
     9
 74
     0
 42
0.00000001
 43
0.00000001
 40
0.0
 40
0.0
 40
0.0
 40
0.0
 40
0.2501836480575192
 40
0.3752039095020944
 40
0.4998601241194511
 40
0.6245007681884661
 40
0.7496664438677964
 40
1.0
 40
1.0
 40
1.0
 40
1.0
 10
838.606606512877
 20
930.6032014582805
 30
0.0
 10
838.4407460730091
 20
930.6092491377708
 30
0.0
 10
838.1920028559631
 20
930.6183189271264
 30
0.0
 10
837.8618847898531
 20
930.678375460784
 30
0.0
 10
837.6298305585836
 20
930.7575825870888
 30
0.0
 10
837.4689188192282
 20
930.8768747736207
 30
0.0
 10
837.3273473857668
 20
931.0473870963057
 30
0.0
 10
837.2803920352725
 20
931.1763404592144
 30
0.0
 10
837.2490883763757
 20
931.2623096202068
 30
0.0
  0
LINE
  5
1BD
330
1F
100
AcDbEntity
  8
0
  6
Continuous
 62
     7
370
    15
100
AcDbLine
 10
837.2490883764
 20
931.2623096202
 30
0.0
 11
836.8226618465
 21
932.5265241359
 31
0.0
  0
SPLINE
  5
1BE
330
1F
100
AcDbEntity
  8
0
  6
Continuous
 62
     7
370
    15
100
AcDbSpline
210
0.0
220
0.0
230
1.0
 70
     8
 71
     3
 72
    13
 73
     9
 74
     0
 42
0.00000001
 43
0.00000001
 40
0.0
 40
0.0
 40
0.0
 40
0.0
 40
0.2503454568521276
 40
0.3872698340483068
 40
0.5003701861579618
 40
0.624943106708738
 40
0.7499881065831896
 40
1.0
 40
1.0
 40
1.0
 40
1.0
 10
836.8226618464913
 20
932.5265241358928
 30
0.0
 10
836.7999534939498
 20
932.6014266370057
 30
0.0
 10
836.7648249957904
 20
932.717296441637
 30
0.0
 10
836.7960932948268
 20
932.8563227717285
 30
0.0
 10
836.8813487125142
 20
932.9493392353612
 30
0.0
 10
837.0549926777862
 20
933.0093322301655
 30
0.0
 10
837.3572267396825
 20
933.0503594434784
 30
0.0
 10
837.610381553417
 20
933.0498766935627
 30
0.0
 10
837.7791338559117
 20
933.0495548937969
 30
0.0
  0
LINE
  5
1BF
330
1F
100
AcDbEntity
  8
0
  6
Continuous
 62
     7
370
    15
100
AcDbLine
 10
837.7791338559
 20
933.0495548938
 30
0.0
 11
838.2786692079
 21
933.0400181506
 31
0.0
  0
LINE
  5
1C0
330
1F
100
AcDbEntity
  8
0
  6
Continuous
 62
     7
370
    15
100
AcDbLine
 10
838.2786692079
 20
933.0400181506
 30
0.0
 11
838.6310481425
 21
932.5903607104
 31
0.0
  0
LINE
  5
1C1
330
1F
100
AcDbEntity
  8
0
  6
Continuous
 62
     7
370
    15
100
AcDbLine
 10
838.6310481425
 20
932.5903607104
 30
0.0
 11
837.5769362744
 21
932.6090169643
 31
0.0
  0
SPLINE
  5
1C2
330
1F
100
AcDbEntity
  8
0
  6
Continuous
 62
     7
370
    15
100
AcDbSpline
210
0.0
220
0.0
230
1.0
 70
     8
 71
     3
 72
    12
 73
     8
 74
     0
 42
0.00000001
 43
0.00000001
 40
0.0
 40
0.0
 40
0.0
 40
0.0
 40
0.0304567009954866
 40
0.0888181034284918
 40
0.3925369816220842
 40
0.6962995569982751
 40
1.0
 40
1.0
 40
1.0
 40
1.0
 10
859.7170480485883
 20
886.7752505038433
 30
0.0
 10
859.7205571024463
 20
886.7652488990217
 30
0.0
 10
859.7307902366433
 20
886.7360821297235
 30
0.0
 10
859.7697346132978
 20
886.6035872751999
 30
0.0
 10
859.7974075933761
 20
886.3602704174762
 30
0.0
 10
859.7468478141203
 20
886.0186956484667
 30
0.0
 10
859.6426073751215
 20
885.8256051521089
 30
0.0
 10
859.5904924865689
 20
885.7290697787456
 30
0.0
  0
SPLINE
  5
1C3
330
1F
100
AcDbEntity
  8
0
  6
Continuous
 62
     7
370
    15
100
AcDbSpline
210
0.0
220
0.0
230
1.0
 70
     8
 71
     3
 72
    10
 73
     6
 74
     0
 42
0.00000001
 43
0.00000001
 40
0.0
 40
0.0
 40
0.0
 40
0.0
 40
0.2114209230294983
 40
0.4883977917656942
 40
1.0
 40
1.0
 40
1.0
 40
1.0
 10
859.5904924865689
 20
885.7290697787456
 30
0.0
 10
859.5890528614343
 20
885.7264931803916
 30
0.0
 10
859.5857272221047
 20
885.7205410497871
 30
0.0
 10
859.5839790536352
 20
885.7094510131338
 30
0.0
 10
859.5856000604165
 20
885.7028768741017
 30
0.0
 10
859.5866517122712
 20
885.6986118052654
 30
0.0
  0
SPLINE
  5
1C4
330
1F
100
AcDbEntity
  8
0
  6
Continuous
 62
     7
370
    15
100
AcDbSpline
210
0.0
220
0.0
230
1.0
 70
     8
 71
     3
 72
    12
 73
     8
 74
     0
 42
0.00000001
 43
0.00000001
 40
0.0
 40
0.0
 40
0.0
 40
0.0
 40
0.0304726895980578
 40
0.0888333344968973
 40
0.3925461902600608
 40
0.6962712052442442
 40
0.9999999999999999
 40
0.9999999999999999
 40
0.9999999999999999
 40
0.9999999999999999
 10
845.6777029629674
 20
929.9839091990643
 30
0.0
 10
845.6746591714007
 20
929.9940687197324
 30
0.0
 10
845.6657859751731
 20
930.0236855376025
 30
0.0
 10
845.6194672991187
 20
930.153786321847
 30
0.0
 10
845.498768897288
 20
930.3668598584914
 30
0.0
 10
845.2571123644178
 20
930.613472889038
 30
0.0
 10
845.0592909914733
 20
930.7084298048588
 30
0.0
 10
844.960379689547
 20
930.7559085581951
 30
0.0
  0
SPLINE
  5
1C5
330
1F
100
AcDbEntity
  8
0
  6
Continuous
 62
     7
370
    15
100
AcDbSpline
210
0.0
220
0.0
230
1.0
 70
     8
 71
     3
 72
    11
 73
     7
 74
     0
 42
0.00000001
 43
0.00000001
 40
0.0
 40
0.0
 40
0.0
 40
0.0
 40
0.3701544136224699
 40
0.7443850702913655
 40
0.9443524115847192
 40
1.0
 40
1.0
 40
1.0
 40
1.0
 10
844.9393839534249
 20
930.778260299986
 30
0.0
 10
844.9405243112427
 20
930.7753258876845
 30
0.0
 10
844.9428175848149
 20
930.76942474852
 30
0.0
 10
844.9491990044744
 20
930.7618447254916
 30
0.0
 10
844.9562564095606
 20
930.7575394982721
 30
0.0
 10
844.959642528552
 20
930.7562001380572
 30
0.0
 10
844.960379689547
 20
930.7559085581951
 30
0.0
  0
SPLINE
  5
1C6
330
1F
100
AcDbEntity
  8
0
  6
Continuous
 62
     7
370
    15
100
AcDbSpline
210
0.0
220
0.0
230
1.0
 70
     8
 71
     3
 72
     9
 73
     5
 74
     0
 42
0.00000001
 43
0.00000001
 40
0.0
 40
0.0
 40
0.0
 40
0.0
 40
0.5024582944865599
 40
1.0
 40
1.0
 40
1.0
 40
1.0
 10
841.174564599606
 20
930.5572462771587
 30
0.0
 10
841.1743701267444
 20
930.5558340951441
 30
0.0
 10
841.1739830839515
 20
930.553023549413
 30
0.0
 10
841.173590289883
 20
930.5502312885013
 30
0.0
 10
841.1733948584523
 20
930.5488420222454
 30
0.0
  0
SPLINE
  5
1C7
330
1F
100
AcDbEntity
  8
0
  6
Continuous
 62
     7
370
    15
100
AcDbSpline
210
0.0
220
0.0
230
1.0
 70
     8
 71
     3
 72
    12
 73
     8
 74
     0
 42
0.00000001
 43
0.00000001
 40
0.0
 40
0.0
 40
0.0
 40
0.0
 40
0.2238969850769615
 40
0.4477845389534633
 40
0.6716853387501731
 40
0.895583981530982
 40
0.9999999999999999
 40
0.9999999999999999
 40
0.9999999999999999
 40
0.9999999999999999
 10
844.185444801661
 20
935.2627945635967
 30
0.0
 10
844.1577448380626
 20
935.2658747624472
 30
0.0
 10
844.10234607767
 20
935.2720350304011
 30
0.0
 10
844.03084613507
 20
935.2801914383111
 30
0.0
 10
843.978801918659
 20
935.2862490154636
 30
0.0
 10
843.9556273406554
 20
935.2890238601807
 30
0.0
 10
843.9536973514396
 20
935.2892475037291
 30
0.0
 10
843.9530835445847
 20
935.2893186305218
 30
0.0
  0
LINE
  5
1C8
330
1F
100
AcDbEntity
  8
0
  6
Continuous
 62
     7
370
    15
100
AcDbLine
 10
844.1854448017
 20
935.2627945636
 30
0.0
 11
863.1633066531
 21
933.1422997211
 31
0.0
  0
LINE
  5
1C9
330
1F
100
AcDbEntity
  8
0
  6
Continuous
 62
     7
370
    15
100
AcDbLine
 10
863.1633066531
 20
933.1422997211
 30
0.0
 11
864.6331609186
 21
932.9803539012
 31
0.0
  0
LINE
  5
1CA
330
1F
100
AcDbEntity
  8
0
  6
Continuous
 62
     7
370
    15
100
AcDbLine
 10
840.9149565693
 20
932.5498891566
 30
0.0
 11
840.9139879938
 21
932.5408292506
 31
0.0
  0
LINE
  5
1CB
330
1F
100
AcDbEntity
  8
0
  6
Continuous
 62
     7
370
    15
100
AcDbLine
 10
838.6310481425
 20
932.5903607104
 30
0.0
 11
838.6300758418
 21
932.5813008044
 31
0.0
  0
LINE
  5
1CC
330
1F
100
AcDbEntity
  8
0
  6
Continuous
 62
     7
370
    15
100
AcDbLine
 10
839.6851600107
 20
932.571644852
 30
0.0
 11
839.6841877099
 21
932.562584946
 31
0.0
  0
LINE
  5
1CD
330
1F
100
AcDbEntity
  8
0
  6
Continuous
 62
     7
370
    15
100
AcDbLine
 10
839.7114680108
 20
933.0133152698
 30
0.0
 11
839.7105404135
 21
933.0041957591
 31
0.0
  0
LWPOLYLINE
  5
1CE
330
1F
100
AcDbEntity
  8
0
  6
Continuous
 62
     7
370
    15
100
AcDbPolyline
 90
        9
 70
   128
 43
0.0
 10
866.4734766777
 20
929.2245460246
 10
867.6593967672
 20
925.5746556018
 10
868.8596517738
 20
921.8805981372
 10
870.0694994029
 20
918.1570959781
 10
871.2841452058
 20
914.4188118671
 10
872.4987984594
 20
910.6804681514
 10
873.7086460885
 20
906.9569659923
 10
874.9089048203
 20
903.2629681323
 10
876.0948211845
 20
899.6130777095
  0
LWPOLYLINE
  5
1CF
330
1F
100
AcDbEntity
  8
0
  6
Continuous
 62
     7
370
    15
100
AcDbPolyline
 90
        5
 70
   128
 43
0.0
 10
876.0948211845
 20
899.6130777095
 10
876.5314773615
 20
898.2691717838
 10
876.8505484756
 20
897.2871852611
 10
877.044904321
 20
896.6889930461
 10
877.1101714071
 20
896.4881253932
  0
LWPOLYLINE
  5
1D0
330
1F
100
AcDbEntity
  8
0
  6
Continuous
 62
     7
370
    15
100
AcDbPolyline
 90
        9
 70
   128
 43
0.0
 10
865.4765927192
 20
932.2926355098
 10
865.5189306434
 20
932.1623397563
 10
865.5855872627
 20
931.957180569
 10
865.676279455
 20
931.6780520175
 10
865.7906272407
 20
931.3260865901
 10
865.9281500574
 20
930.9028340076
 10
866.0882630344
 20
930.4100824092
 10
866.2702956196
 20
929.849858353
 10
866.4734766777
 20
929.2245460246
  0
SPLINE
  5
1D1
330
1F
100
AcDbEntity
  8
0
  6
Continuous
 62
     7
370
    15
100
AcDbSpline
210
0.0
220
0.0
230
1.0
 70
     8
 71
     3
 72
    11
 73
     7
 74
     0
 42
0.00000001
 43
0.00000001
 40
0.0
 40
0.0
 40
0.0
 40
0.0
 40
0.2933227582827584
 40
0.5866038190698099
 40
0.8805285706173896
 40
1.0
 40
1.0
 40
1.0
 40
1.0
 10
864.6331609185662
 20
932.9803539012127
 30
0.0
 10
864.7438403584378
 20
932.957004314744
 30
0.0
 10
864.9651835044697
 20
932.9103084610825
 30
0.0
 10
865.2431133335241
 20
932.7057508222495
 30
0.0
 10
865.4056683567533
 20
932.4836573905786
 30
0.0
 10
865.4606911428835
 20
932.3354635156609
 30
0.0
 10
865.4765927191701
 20
932.2926355097942
 30
0.0
  0
SPLINE
  5
1D2
330
1F
100
AcDbEntity
  8
0
  6
Continuous
 62
     7
370
    15
100
AcDbSpline
210
0.0
220
0.0
230
1.0
 70
     8
 71
     3
 72
    13
 73
     9
 74
     0
 42
0.00000001
 43
0.00000001
 40
0.0
 40
0.0
 40
0.0
 40
0.0
 40
0.1251081291719526
 40
0.2500469647259549
 40
0.3749322436443487
 40
0.4999695890358737
 40
0.7494752977411148
 40
1.0
 40
1.0
 40
1.0
 40
1.0
 10
856.4023219939198
 20
879.1306567881755
 30
0.0
 10
856.3991033705428
 20
879.1583307141108
 30
0.0
 10
856.3926704791604
 20
879.2136411182222
 30
0.0
 10
856.4413957482735
 20
879.3405335681264
 30
0.0
 10
856.542842434396
 20
879.4951327082324
 30
0.0
 10
856.7326598209769
 20
879.7169237355785
 30
0.0
 10
857.0243608406973
 20
879.9913285574066
 30
0.0
 10
857.2685186941795
 20
880.1887768299856
 30
0.0
 10
857.3908464010682
 20
880.2877021525554
 30
0.0
  0
SPLINE
  5
1D3
330
1F
100
AcDbEntity
  8
0
  6
Continuous
 62
     7
370
    15
100
AcDbSpline
210
0.0
220
0.0
230
1.0
 70
     8
 71
     3
 72
    13
 73
     9
 74
     0
 42
0.00000001
 43
0.00000001
 40
0.0
 40
0.0
 40
0.0
 40
0.0
 40
0.2505247347560977
 40
0.5001152497946975
 40
0.6321127188196288
 40
0.7499865067274186
 40
0.874862277136545
 40
0.9999999999999999
 40
0.9999999999999999
 40
0.9999999999999999
 40
0.9999999999999999
 10
857.3908464010682
 20
880.2877021525554
 30
0.0
 10
857.5134405523039
 20
880.3837317755997
 30
0.0
 10
857.758171694833
 20
880.5754329222483
 30
0.0
 10
858.0724709718227
 20
880.7825056556146
 30
0.0
 10
858.2975570342472
 20
880.8929266870686
 30
0.0
 10
858.436310903447
 20
880.9308107774018
 30
0.0
 10
858.5229412371829
 20
880.9133334890065
 30
0.0
 10
858.5429927032444
 20
880.8693069111371
 30
0.0
 10
858.5530289407697
 20
880.8472705577068
 30
0.0
  0
SPLINE
  5
1D4
330
1F
100
AcDbEntity
  8
0
  6
Continuous
 62
     7
370
    15
100
AcDbSpline
210
0.0
220
0.0
230
1.0
 70
     8
 71
     3
 72
    13
 73
     9
 74
     0
 42
0.00000001
 43
0.00000001
 40
0.0
 40
0.0
 40
0.0
 40
0.0
 40
0.1251696448147043
 40
0.2500858821192878
 40
0.3743876699674661
 40
0.5000152242159692
 40
0.7494706313443215
 40
1.0
 40
1.0
 40
1.0
 40
1.0
 10
858.5530289407697
 20
880.8472705577068
 30
0.0
 10
858.5564635714995
 20
880.8205870889425
 30
0.0
 10
858.5633258795065
 20
880.7672741724298
 30
0.0
 10
858.5150948661146
 20
880.6479328764937
 30
0.0
 10
858.4125227119301
 20
880.5004755255422
 30
0.0
 10
858.2222612232027
 20
880.2874182666443
 30
0.0
 10
857.9312718286517
 20
880.0191114992627
 30
0.0
 10
857.6897743646208
 20
879.8244312566347
 30
0.0
 10
857.5687662657227
 20
879.7268820498638
 30
0.0
  0
SPLINE
  5
1D5
330
1F
100
AcDbEntity
  8
0
  6
Continuous
 62
     7
370
    15
100
AcDbSpline
210
0.0
220
0.0
230
1.0
 70
     8
 71
     3
 72
     9
 73
     5
 74
     0
 42
0.00000001
 43
0.00000001
 40
0.0
 40
0.0
 40
0.0
 40
0.0
 40
0.5015947282607423
 40
1.0
 40
1.0
 40
1.0
 40
1.0
 10
857.5687662657227
 20
879.7268820498638
 30
0.0
 10
857.4261681204223
 20
879.6136216532724
 30
0.0
 10
857.1418785590167
 20
879.3878210413238
 30
0.0
 10
856.8712435261901
 20
879.2237536990115
 30
0.0
 10
856.736357599112
 20
879.1419816706829
 30
0.0
  0
SPLINE
  5
1D6
330
1F
100
AcDbEntity
  8
0
  6
Continuous
 62
     7
370
    15
100
AcDbSpline
210
0.0
220
0.0
230
1.0
 70
     8
 71
     3
 72
    12
 73
     8
 74
     0
 42
0.00000001
 43
0.00000001
 40
0.0
 40
0.0
 40
0.0
 40
0.0
 40
0.2500218460335598
 40
0.4997673789122251
 40
0.7495490836227754
 40
0.8747426836661827
 40
1.0
 40
1.0
 40
1.0
 40
1.0
 10
856.7363538738217
 20
879.1419816706829
 30
0.0
 10
856.691558935607
 20
879.1211737469214
 30
0.0
 10
856.6020185645743
 20
879.0795808954009
 30
0.0
 10
856.4979451524769
 20
879.0583823997314
 30
0.0
 10
856.4412864621582
 20
879.0727860684144
 30
0.0
 10
856.4130957220933
 20
879.1005757639338
 30
0.0
 10
856.4059138456826
 20
879.1206280796165
 30
0.0
 10
856.4023219939198
 20
879.1306567881755
 30
0.0
  0
SPLINE
  5
1D7
330
1F
100
AcDbEntity
  8
0
  6
Continuous
 62
     7
370
    15
100
AcDbSpline
210
0.0
220
0.0
230
1.0
 70
     8
 71
     3
 72
    11
 73
     7
 74
     0
 42
0.00000001
 43
0.00000001
 40
0.0
 40
0.0
 40
0.0
 40
0.0
 40
0.2498758277520222
 40
0.4996919686128521
 40
0.7497035973331028
 40
1.0
 40
1.0
 40
1.0
 40
1.0
 10
858.1908003385987
 20
880.5583668444805
 30
0.0
 10
858.1866628052537
 20
880.566498712329
 30
0.0
 10
858.1783887268807
 20
880.5827605055975
 30
0.0
 10
858.1395551774561
 20
880.5834517484283
 30
0.0
 10
858.0875467361255
 20
880.5687985516558
 30
0.0
 10
858.0453942026033
 20
880.5480197450307
 30
0.0
 10
858.0243059392895
 20
880.5376244280986
 30
0.0
  0
SPLINE
  5
1D8
330
1F
100
AcDbEntity
  8
0
  6
Continuous
 62
     7
370
    15
100
AcDbSpline
210
0.0
220
0.0
230
1.0
 70
     8
 71
     3
 72
     9
 73
     5
 74
     0
 42
0.00000001
 43
0.00000001
 40
0.0
 40
0.0
 40
0.0
 40
0.0
 40
0.4986113470109775
 40
0.9999999999999999
 40
0.9999999999999999
 40
0.9999999999999999
 40
0.9999999999999999
 10
858.0243059392895
 20
880.5376244280988
 30
0.0
 10
857.9289672669071
 20
880.4787472362493
 30
0.0
 10
857.7377588779402
 20
880.3606649017771
 30
0.0
 10
857.5424423992599
 20
880.2055141249713
 30
0.0
 10
857.4445129331078
 20
880.1277232859783
 30
0.0
  0
SPLINE
  5
1D9
330
1F
100
AcDbEntity
  8
0
  6
Continuous
 62
     7
370
    15
100
AcDbSpline
210
0.0
220
0.0
230
1.0
 70
     8
 71
     3
 72
    13
 73
     9
 74
     0
 42
0.00000001
 43
0.00000001
 40
0.0
 40
0.0
 40
0.0
 40
0.0
 40
0.500127442655601
 40
0.6252768872104278
 40
0.7502474359901352
 40
0.874876099326611
 40
0.9374344369918514
 40
1.0
 40
1.0
 40
1.0
 40
1.0
 10
857.4445129331078
 20
880.1277232859783
 30
0.0
 10
857.2994432711447
 20
880.0112018168813
 30
0.0
 10
857.1180720866736
 20
879.8655225853971
 30
0.0
 10
856.919570689794
 20
879.6730331766616
 30
0.0
 10
856.8352407315924
 20
879.5758874333872
 30
0.0
 10
856.7854003777032
 20
879.5005444593287
 30
0.0
 10
856.7686610566266
 20
879.4532993101157
 30
0.0
 10
856.7706841151901
 20
879.4372443816424
 30
0.0
 10
856.7716957028832
 20
879.4292164538555
 30
0.0
  0
SPLINE
  5
1DA
330
1F
100
AcDbEntity
  8
0
  6
Continuous
 62
     7
370
    15
100
AcDbSpline
210
0.0
220
0.0
230
1.0
 70
     8
 71
     3
 72
    13
 73
     9
 74
     0
 42
0.00000001
 43
0.00000001
 40
0.0
 40
0.0
 40
0.0
 40
0.0
 40
0.1244749740671817
 40
0.1868710993850129
 40
0.2496277916352957
 40
0.3606551375590631
 40
0.4997165601238518
 40
1.0
 40
1.0
 40
1.0
 40
1.0
 10
856.7716957028832
 20
879.4292164538555
 30
0.0
 10
856.7799509101966
 20
879.4175540312365
 30
0.0
 10
856.7923442420918
 20
879.4000455340251
 30
0.0
 10
856.8373320452383
 20
879.4044704352469
 30
0.0
 10
856.889917685469
 20
879.4210004553413
 30
0.0
 10
856.9761337414998
 20
879.4663644016105
 30
0.0
 10
857.197187359692
 20
879.6096170857854
 30
0.0
 10
857.3898643266153
 20
879.7623452629045
 30
0.0
 10
857.5406328733887
 20
879.8818541262798
 30
0.0
  0
SPLINE
  5
1DB
330
1F
100
AcDbEntity
  8
0
  6
Continuous
 62
     7
370
    15
100
AcDbSpline
210
0.0
220
0.0
230
1.0
 70
     8
 71
     3
 72
    12
 73
     8
 74
     0
 42
0.00000001
 43
0.00000001
 40
0.0
 40
0.0
 40
0.0
 40
0.0
 40
0.5004076598739584
 40
0.6255955522293983
 40
0.7507100451011339
 40
0.8753580027078728
 40
1.0
 40
1.0
 40
1.0
 40
1.0
 10
857.5406328733887
 20
879.8818541262798
 30
0.0
 10
857.6826399298279
 20
879.995903021706
 30
0.0
 10
857.8601731492754
 20
880.1384837362644
 30
0.0
 10
858.0533329602764
 20
880.326429586575
 30
0.0
 10
858.1326544397451
 20
880.4192136657955
 30
0.0
 10
858.1908730540844
 20
880.5067587977258
 30
0.0
 10
858.1908245767075
 20
880.5411644364324
 30
0.0
 10
858.1908003385987
 20
880.5583668444806
 30
0.0
  0
SPLINE
  5
1DC
330
1F
100
AcDbEntity
  8
0
  6
Continuous
 62
     7
370
    15
100
AcDbSpline
210
0.0
220
0.0
230
1.0
 70
     8
 71
     3
 72
     9
 73
     5
 74
     0
 42
0.00000001
 43
0.00000001
 40
0.0
 40
0.0
 40
0.0
 40
0.0
 40
0.4978450617026887
 40
1.0
 40
1.0
 40
1.0
 40
1.0
 10
856.4023219939198
 20
879.1306567881755
 30
0.0
 10
856.401277928569
 20
879.1318465247105
 30
0.0
 10
856.3991807593267
 20
879.1342362974058
 30
0.0
 10
856.3971105317834
 20
879.1366545917475
 30
0.0
 10
856.396070956799
 20
879.1378689501934
 30
0.0
  0
SPLINE
  5
1DD
330
1F
100
AcDbEntity
  8
0
  6
Continuous
 62
     7
370
    15
100
AcDbSpline
210
0.0
220
0.0
230
1.0
 70
     8
 71
     3
 72
    12
 73
     8
 74
     0
 42
0.00000001
 43
0.00000001
 40
0.0
 40
0.0
 40
0.0
 40
0.0
 40
0.5004027358873742
 40
0.625597648217156
 40
0.7507474641619679
 40
0.8753827473701361
 40
1.0
 40
1.0
 40
1.0
 40
1.0
 10
857.5343669351067
 20
879.8891258929424
 30
0.0
 10
857.6763712811118
 20
880.0031568898754
 30
0.0
 10
857.8539034537521
 20
880.1457171086535
 30
0.0
 10
858.047085716328
 20
880.3336364625283
 30
0.0
 10
858.126372857791
 20
880.4264840197535
 30
0.0
 10
858.1846158929644
 20
880.5140241857724
 30
0.0
 10
858.1845690139829
 20
880.5484346324206
 30
0.0
 10
858.1845455761876
 20
880.5656386111431
 30
0.0
  0
SPLINE
  5
1DE
330
1F
100
AcDbEntity
  8
0
  6
Continuous
 62
     7
370
    15
100
AcDbSpline
210
0.0
220
0.0
230
1.0
 70
     8
 71
     3
 72
    13
 73
     9
 74
     0
 42
0.00000001
 43
0.00000001
 40
0.0
 40
0.0
 40
0.0
 40
0.0
 40
0.1244515190559893
 40
0.1868389488571321
 40
0.249588124960549
 40
0.3606136732863488
 40
0.4996779792247483
 40
1.0
 40
1.0
 40
1.0
 40
1.0
 10
856.7654409404721
 20
879.4364286158733
 30
0.0
 10
856.773697368723
 20
879.4247488377363
 30
0.0
 10
856.7860927367137
 20
879.4072139977714
 30
0.0
 10
856.8310737548593
 20
879.4117614441587
 30
0.0
 10
856.8836573441929
 20
879.4282640768552
 30
0.0
 10
856.9698745683847
 20
879.4736410889176
 30
0.0
 10
857.1909248196537
 20
879.6168907082263
 30
0.0
 10
857.3835988429001
 20
879.7696170220603
 30
0.0
 10
857.5343669351067
 20
879.8891258929424
 30
0.0
  0
SPLINE
  5
1DF
330
1F
100
AcDbEntity
  8
0
  6
Continuous
 62
     7
370
    15
100
AcDbSpline
210
0.0
220
0.0
230
1.0
 70
    11
 71
     3
 72
    23
 73
    19
 74
     0
 42
0.00000001
 43
0.00000001
 40
0.0
 40
0.0
 40
0.0
 40
0.0
 40
0.0623388489220299
 40
0.125026729997574
 40
0.1876104093343671
 40
0.2501152250056292
 40
0.3126789211194596
 40
0.3751817618675798
 40
0.4377093858179209
 40
0.5002571056363252
 40
0.5627545864882109
 40
0.6253416805971074
 40
0.687831670709718
 40
0.7504035986794302
 40
0.8129277883043243
 40
0.8754926562435281
 40
0.9382231549534124
 40
1.0
 40
1.0
 40
1.0
 40
1.0
 10
855.4262959357228
 20
877.323086330717
 30
0.0
 10
855.5433581860565
 20
877.4486823863912
 30
0.0
 10
855.7781381125145
 20
877.700577703887
 30
0.0
 10
855.9550537621774
 20
877.9981698930443
 30
0.0
 10
855.9494359208572
 20
878.1765752831478
 30
0.0
 10
855.757742417055
 20
878.2093244078566
 30
0.0
 10
855.4147794773162
 20
878.091583591244
 30
0.0
 10
854.9733537105996
 20
877.8324914018389
 30
0.0
 10
854.5057118393793
 20
877.4718066849457
 30
0.0
 10
854.0837967136895
 20
877.0611442050231
 30
0.0
 10
853.7680200616879
 20
876.666975351745
 30
0.0
 10
853.6042742951677
 20
876.3533284688116
 30
0.0
 10
853.6149017399437
 20
876.172612411099
 30
0.0
 10
853.7946458575552
 20
876.1503824574688
 30
0.0
 10
854.1224524495655
 20
876.2910410565524
 30
0.0
 10
854.548124953614
 20
876.566277483923
 30
0.0
 10
855.0169631606309
 20
876.9329370899446
 30
0.0
 10
855.2905501830542
 20
877.1937023537564
 30
0.0
 10
855.4262959357228
 20
877.323086330717
 30
0.0
  0
SPLINE
  5
1E0
330
1F
100
AcDbEntity
  8
0
  6
Continuous
 62
     7
370
    15
100
AcDbSpline
210
0.0
220
0.0
230
1.0
 70
     8
 71
     3
 72
     9
 73
     5
 74
     0
 42
0.00000001
 43
0.00000001
 40
0.0
 40
0.0
 40
0.0
 40
0.0
 40
0.5001158010600012
 40
1.0
 40
1.0
 40
1.0
 40
1.0
 10
858.1845455761876
 20
880.5656386111431
 30
0.0
 10
858.1855888472819
 20
880.5644267904441
 30
0.0
 10
858.1876749063349
 20
880.5620037102365
 30
0.0
 10
858.1897586887136
 20
880.5595789458724
 30
0.0
 10
858.1908003385987
 20
880.5583668444805
 30
0.0
  0
SPLINE
  5
1E1
330
1F
100
AcDbEntity
  8
0
  6
Continuous
 62
     7
370
    15
100
AcDbSpline
210
0.0
220
0.0
230
1.0
 70
     8
 71
     3
 72
     9
 73
     5
 74
     0
 42
0.00000001
 43
0.00000001
 40
0.0
 40
0.0
 40
0.0
 40
0.0
 40
0.5022568332879124
 40
0.9999999999999999
 40
0.9999999999999999
 40
0.9999999999999999
 40
0.9999999999999999
 10
856.7654409404721
 20
879.4364286158733
 30
0.0
 10
856.7664819610179
 20
879.4352143800413
 30
0.0
 10
856.7685546466972
 20
879.4327968204351
 30
0.0
 10
856.7706518394975
 20
879.4304063127306
 30
0.0
 10
856.7716957028832
 20
879.4292164538556
 30
0.0
  0
LINE
  5
1E2
330
1F
100
AcDbEntity
  8
0
  6
Continuous
 62
     7
370
    15
100
AcDbLine
 10
856.5966927405
 20
878.5718036388
 30
0.0
 11
856.7315258976
 21
878.8123679851
 31
0.0
  0
LINE
  5
1E3
330
1F
100
AcDbEntity
  8
0
  6
Continuous
 62
     7
370
    15
100
AcDbLine
 10
856.7315258976
 20
878.8123679851
 30
0.0
 11
857.454533964
 21
879.2554093097
 31
0.0
  0
SPLINE
  5
1E4
330
1F
100
AcDbEntity
  8
0
  6
Continuous
 62
     7
370
    15
100
AcDbSpline
210
0.0
220
0.0
230
1.0
 70
     8
 71
     3
 72
    12
 73
     8
 74
     0
 42
0.00000001
 43
0.00000001
 40
0.0
 40
0.0
 40
0.0
 40
0.0
 40
0.249625716938292
 40
0.3726292085453971
 40
0.5005594339367879
 40
0.7501445602262117
 40
0.9999999999999999
 40
0.9999999999999999
 40
0.9999999999999999
 40
0.9999999999999999
 10
857.4545339640107
 20
879.2554093096904
 30
0.0
 10
857.455634730159
 20
879.2890395019614
 30
0.0
 10
857.4572779006768
 20
879.3392410280011
 30
0.0
 10
857.5284937091858
 20
879.4559805945278
 30
0.0
 10
857.625177570978
 20
879.5856987073313
 30
0.0
 10
857.7928019250509
 20
879.7721269595612
 30
0.0
 10
857.958112618243
 20
879.9120103697045
 30
0.0
 10
858.040812700602
 20
879.9819899295024
 30
0.0
  0
SPLINE
  5
1E5
330
1F
100
AcDbEntity
  8
0
  6
Continuous
 62
     7
370
    15
100
AcDbSpline
210
0.0
220
0.0
230
1.0
 70
     8
 71
     3
 72
    11
 73
     7
 74
     0
 42
0.00000001
 43
0.00000001
 40
0.0
 40
0.0
 40
0.0
 40
0.0
 40
0.2499400257287127
 40
0.4998908166987709
 40
0.749914696193879
 40
1.0
 40
1.0
 40
1.0
 40
1.0
 10
858.040812700602
 20
879.9819899295024
 30
0.0
 10
858.1253131255309
 20
880.0466556321912
 30
0.0
 10
858.2943176149314
 20
880.1759898228044
 30
0.0
 10
858.5174540485649
 20
880.2932061389081
 30
0.0
 10
858.6878255065698
 20
880.3456334992017
 30
0.0
 10
858.7188728472535
 20
880.3055042600184
 30
0.0
 10
858.7343984242406
 20
880.285437176054
 30
0.0
  0
SPLINE
  5
1E6
330
1F
100
AcDbEntity
  8
0
  6
Continuous
 62
     7
370
    15
100
AcDbSpline
210
0.0
220
0.0
230
1.0
 70
     8
 71
     3
 72
    12
 73
     8
 74
     0
 42
0.00000001
 43
0.00000001
 40
0.0
 40
0.0
 40
0.0
 40
0.0
 40
0.2497970739104921
 40
0.3721670685802553
 40
0.5006970576750899
 40
0.7505503945139511
 40
1.0
 40
1.0
 40
1.0
 40
1.0
 10
858.7343984242406
 20
880.285437176054
 30
0.0
 10
858.7336290616224
 20
880.2530085414298
 30
0.0
 10
858.7324828054802
 20
880.2046938446352
 30
0.0
 10
858.6628956810746
 20
880.0945147821967
 30
0.0
 10
858.5646094789747
 20
879.9695226890175
 30
0.0
 10
858.3993882838923
 20
879.7906075843819
 30
0.0
 10
858.2336715141649
 20
879.6499369980312
 30
0.0
 10
858.1508801277604
 20
879.5796585772686
 30
0.0
  0
SPLINE
  5
1E7
330
1F
100
AcDbEntity
  8
0
  6
Continuous
 62
     7
370
    15
100
AcDbSpline
210
0.0
220
0.0
230
1.0
 70
     8
 71
     3
 72
     9
 73
     5
 74
     0
 42
0.00000001
 43
0.00000001
 40
0.0
 40
0.0
 40
0.0
 40
0.0
 40
0.4985608881606239
 40
1.0
 40
1.0
 40
1.0
 40
1.0
 10
858.1508801277604
 20
879.5796585772687
 30
0.0
 10
858.0652716823338
 20
879.5142757696563
 30
0.0
 10
857.8935605684868
 20
879.3831326953298
 30
0.0
 10
857.7373617147322
 20
879.285758899505
 30
0.0
 10
857.6590375002351
 20
879.2369318698101
 30
0.0
  0
LINE
  5
1E8
330
1F
100
AcDbEntity
  8
0
  6
Continuous
 62
     7
370
    15
100
AcDbLine
 10
857.6590375002
 20
879.2369318698
 30
0.0
 11
856.5966964658
 21
878.5718036388
 31
0.0
  0
SPLINE
  5
1E9
330
1F
100
AcDbEntity
  8
0
  6
Continuous
 62
     7
370
    15
100
AcDbSpline
210
0.0
220
0.0
230
1.0
 70
     8
 71
     3
 72
    12
 73
     8
 74
     0
 42
0.00000001
 43
0.00000001
 40
0.0
 40
0.0
 40
0.0
 40
0.0
 40
0.2495359734654793
 40
0.4992033299167331
 40
0.748935099672288
 40
0.8743721721969825
 40
1.0
 40
1.0
 40
1.0
 40
1.0
 10
858.3732464309659
 20
879.9905133937054
 30
0.0
 10
858.3662505938056
 20
879.9986079038288
 30
0.0
 10
858.3522552361121
 20
880.0148011859096
 30
0.0
 10
858.2772366397083
 20
879.988845616848
 30
0.0
 10
858.1968334777935
 20
879.9430051237528
 30
0.0
 10
858.1260717112953
 20
879.8929847684324
 30
0.0
 10
858.090435814308
 20
879.8647893283406
 30
0.0
 10
858.0726043280091
 20
879.8506808970623
 30
0.0
  0
SPLINE
  5
1EA
330
1F
100
AcDbEntity
  8
0
  6
Continuous
 62
     7
370
    15
100
AcDbSpline
210
0.0
220
0.0
230
1.0
 70
     8
 71
     3
 72
    13
 73
     9
 74
     0
 42
0.00000001
 43
0.00000001
 40
0.0
 40
0.0
 40
0.0
 40
0.0
 40
0.2495830824529628
 40
0.4988572870290323
 40
0.6243350059898795
 40
0.7492916753073933
 40
0.874571231669896
 40
1.0
 40
1.0
 40
1.0
 40
1.0
 10
858.0726043280091
 20
879.8506808970623
 30
0.0
 10
858.0373297853854
 20
879.8209406932613
 30
0.0
 10
857.9668243550434
 20
879.7614970914033
 30
0.0
 10
857.8942830764403
 20
879.6828916496967
 30
0.0
 10
857.8524664008398
 20
879.6277966624924
 30
0.0
 10
857.8312117066369
 20
879.5921932464615
 30
0.0
 10
857.8195911875271
 20
879.562763019962
 30
0.0
 10
857.8211820619662
 20
879.5503462759656
 30
0.0
 10
857.8219779725995
 20
879.5441342089824
 30
0.0
  0
SPLINE
  5
1EB
330
1F
100
AcDbEntity
  8
0
  6
Continuous
 62
     7
370
    15
100
AcDbSpline
210
0.0
220
0.0
230
1.0
 70
     8
 71
     3
 72
    13
 73
     9
 74
     0
 42
0.00000001
 43
0.00000001
 40
0.0
 40
0.0
 40
0.0
 40
0.0
 40
0.249241989441846
 40
0.3719142833795327
 40
0.4997715449735357
 40
0.7492032176120287
 40
0.8745266268421217
 40
1.0
 40
1.0
 40
1.0
 40
1.0
 10
857.8219779725995
 20
879.5441342089825
 30
0.0
 10
857.8284567855166
 20
879.5359908469193
 30
0.0
 10
857.8381243502338
 20
879.5238394727752
 30
0.0
 10
857.8794223506019
 20
879.5345951745132
 30
0.0
 10
857.9304073008361
 20
879.5567212324607
 30
0.0
 10
857.9945728820004
 20
879.5949306543899
 30
0.0
 10
858.0634882267452
 20
879.644540075496
 30
0.0
 10
858.0983477229362
 20
879.672209755599
 30
0.0
 10
858.1157878931489
 20
879.6860528681926
 30
0.0
  0
SPLINE
  5
1EC
330
1F
100
AcDbEntity
  8
0
  6
Continuous
 62
     7
370
    15
100
AcDbSpline
210
0.0
220
0.0
230
1.0
 70
     8
 71
     3
 72
    11
 73
     7
 74
     0
 42
0.00000001
 43
0.00000001
 40
0.0
 40
0.0
 40
0.0
 40
0.0
 40
0.2503792056698449
 40
0.5003147565147087
 40
0.7503485528097227
 40
1.0
 40
1.0
 40
1.0
 40
1.0
 10
858.1157878931489
 20
879.6860528681926
 30
0.0
 10
858.1506338204932
 20
879.7153941050792
 30
0.0
 10
858.2202639305824
 20
879.7740245881879
 30
0.0
 10
858.305626017289
 20
879.8645283349398
 30
0.0
 10
858.3683472336785
 20
879.9463178149522
 30
0.0
 10
858.3716141984754
 20
879.9757890510535
 30
0.0
 10
858.3732464309659
 20
879.9905133937053
 30
0.0
  0
SPLINE
  5
1ED
330
1F
100
AcDbEntity
  8
0
  6
Continuous
 62
     7
370
    15
100
AcDbSpline
210
0.0
220
0.0
230
1.0
 70
     8
 71
     3
 72
     9
 73
     5
 74
     0
 42
0.00000001
 43
0.00000001
 40
0.0
 40
0.0
 40
0.0
 40
0.0
 40
0.5023057551398061
 40
1.0
 40
1.0
 40
1.0
 40
1.0
 10
858.040812700602
 20
879.9819899295024
 30
0.0
 10
858.0397655375627
 20
879.9832239284086
 30
0.0
 10
858.0376808251568
 20
879.9856805972672
 30
0.0
 10
858.0355708218102
 20
879.9881114696266
 30
0.0
 10
858.0345206852879
 20
879.9893213008098
 30
0.0
  0
LINE
  5
1EE
330
1F
100
AcDbEntity
  8
0
  6
Continuous
 62
     7
370
    15
100
AcDbLine
 10
857.454533964
 20
879.2554093097
 30
0.0
 11
857.4482233222
 21
879.2628598903
 31
0.0
  0
LINE
  5
1EF
330
1F
100
AcDbEntity
  8
0
  6
Continuous
 62
     7
370
    15
100
AcDbLine
 10
856.5966927405
 20
878.5718036388
 30
0.0
 11
856.5903858241
 21
878.5791946147
 31
0.0
  0
LINE
  5
1F0
330
1F
100
AcDbEntity
  8
0
  6
Continuous
 62
     7
370
    15
100
AcDbLine
 10
856.7315258976
 20
878.8123679851
 30
0.0
 11
856.7252264317
 21
878.819758961
 31
0.0
  0
SPLINE
  5
1F1
330
1F
100
AcDbEntity
  8
0
  6
Continuous
 62
     7
370
    15
100
AcDbSpline
210
0.0
220
0.0
230
1.0
 70
     8
 71
     3
 72
    11
 73
     7
 74
     0
 42
0.00000001
 43
0.00000001
 40
0.0
 40
0.0
 40
0.0
 40
0.0
 40
0.2504197987950902
 40
0.5003808176004405
 40
0.7504167463973708
 40
1.0
 40
1.0
 40
1.0
 40
1.0
 10
858.1094698008027
 20
879.6935034487896
 30
0.0
 10
858.1443155310076
 20
879.722844670446
 30
0.0
 10
858.21394315252
 20
879.7814733593611
 30
0.0
 10
858.299302682714
 20
879.8719708098713
 30
0.0
 10
858.3620290659785
 20
879.9537743666848
 30
0.0
 10
858.3652987187453
 20
879.9832032565882
 30
0.0
 10
858.36693206391
 20
879.9979043696576
 30
0.0
  0
SPLINE
  5
1F2
330
1F
100
AcDbEntity
  8
0
  6
Continuous
 62
     7
370
    15
100
AcDbSpline
210
0.0
220
0.0
230
1.0
 70
     8
 71
     3
 72
    13
 73
     9
 74
     0
 42
0.00000001
 43
0.00000001
 40
0.0
 40
0.0
 40
0.0
 40
0.0
 40
0.2492045948553772
 40
0.3718747726311799
 40
0.4997271037700511
 40
0.749171369837639
 40
0.8745041374169529
 40
1.0
 40
1.0
 40
1.0
 40
1.0
 10
857.8156673308339
 20
879.5515251849346
 30
0.0
 10
857.8221466469126
 20
879.5433643995303
 30
0.0
 10
857.8318153859461
 20
879.5311864931858
 30
0.0
 10
857.8731024949631
 20
879.5420655120087
 30
0.0
 10
857.9240929681202
 20
879.5641619955286
 30
0.0
 10
857.9882580659621
 20
879.602383047419
 30
0.0
 10
858.0571675347452
 20
879.6519927796189
 30
0.0
 10
858.0920281563696
 20
879.6796605623063
 30
0.0
 10
858.1094698008027
 20
879.6935034487896
 30
0.0
  0
SPLINE
  5
1F3
330
1F
100
AcDbEntity
  8
0
  6
Continuous
 62
     7
370
    15
100
AcDbSpline
210
0.0
220
0.0
230
1.0
 70
     8
 71
     3
 72
     9
 73
     5
 74
     0
 42
0.00000001
 43
0.00000001
 40
0.0
 40
0.0
 40
0.0
 40
0.0
 40
0.4998821325318814
 40
1.0
 40
1.0
 40
1.0
 40
1.0
 10
858.36693206391
 20
879.9979043696575
 30
0.0
 10
858.3679836512276
 20
879.9966723952081
 30
0.0
 10
858.3700873217716
 20
879.9942078653331
 30
0.0
 10
858.3721932290892
 20
879.9917450777697
 30
0.0
 10
858.3732464309659
 20
879.9905133937053
 30
0.0
  0
SPLINE
  5
1F4
330
1F
100
AcDbEntity
  8
0
  6
Continuous
 62
     7
370
    15
100
AcDbSpline
210
0.0
220
0.0
230
1.0
 70
     8
 71
     3
 72
     9
 73
     5
 74
     0
 42
0.00000001
 43
0.00000001
 40
0.0
 40
0.0
 40
0.0
 40
0.0
 40
0.497790781604052
 40
1.0
 40
1.0
 40
1.0
 40
1.0
 10
858.1094698008027
 20
879.6935034487897
 30
0.0
 10
858.1105251220675
 20
879.6922738236271
 30
0.0
 10
858.112645131726
 20
879.6898036590359
 30
0.0
 10
858.1147372247477
 20
879.6873068091983
 30
0.0
 10
858.1157878931489
 20
879.6860528681926
 30
0.0
  0
LINE
  5
1F5
330
1F
100
AcDbEntity
  8
0
  6
Continuous
 62
     7
370
    15
100
AcDbLine
 10
857.8156673308
 20
879.5515251849
 30
0.0
 11
857.8219779726
 21
879.544134209
 31
0.0
  0
LINE
  5
1F6
330
1F
100
AcDbEntity
  8
0
  6
Continuous
 62
     7
370
    15
100
AcDbLine
 10
856.814275771
 20
878.1024766658
 30
0.0
 11
856.7822904285
 21
878.238852093
 31
0.0
  0
LINE
  5
1F7
330
1F
100
AcDbEntity
  8
0
  6
Continuous
 62
     7
370
    15
100
AcDbLine
 10
856.7822904285
 20
878.238852093
 30
0.0
 11
858.8036850985
 21
879.8932982181
 31
0.0
  0
LINE
  5
1F8
330
1F
100
AcDbEntity
  8
0
  6
Continuous
 62
     7
370
    15
100
AcDbLine
 10
858.8036850985
 20
879.8932982181
 30
0.0
 11
858.8254743215
 21
879.8017454837
 31
0.0
  0
LINE
  5
1F9
330
1F
100
AcDbEntity
  8
0
  6
Continuous
 62
     7
370
    15
100
AcDbLine
 10
858.8254743215
 20
879.8017454837
 30
0.0
 11
857.1660772856
 21
878.4428191875
 31
0.0
  0
LINE
  5
1FA
330
1F
100
AcDbEntity
  8
0
  6
Continuous
 62
     7
370
    15
100
AcDbLine
 10
857.1660772856
 20
878.4428191875
 30
0.0
 11
857.1848788258
 21
878.3491802905
 31
0.0
  0
LINE
  5
1FB
330
1F
100
AcDbEntity
  8
0
  6
Continuous
 62
     7
370
    15
100
AcDbLine
 10
857.1848788258
 20
878.3491802905
 30
0.0
 11
856.814275771
 21
878.1024766658
 31
0.0
  0
LINE
  5
1FC
330
1F
100
AcDbEntity
  8
0
  6
Continuous
 62
     7
370
    15
100
AcDbLine
 10
858.8036850985
 20
879.8932982181
 30
0.0
 11
858.7973372038
 21
879.900868008
 31
0.0
  0
LINE
  5
1FD
330
1F
100
AcDbEntity
  8
0
  6
Continuous
 62
     7
370
    15
100
AcDbLine
 10
856.7822904285
 20
878.238852093
 30
0.0
 11
856.7759425338
 21
878.2463622783
 31
0.0
  0
LINE
  5
1FE
330
1F
100
AcDbEntity
  8
0
  6
Continuous
 62
     7
370
    15
100
AcDbLine
 10
856.814275771
 20
878.1024766658
 30
0.0
 11
856.8079167005
 21
878.1100464557
 31
0.0
  0
SPLINE
  5
1FF
330
1F
100
AcDbEntity
  8
0
  6
Continuous
 62
     7
370
    15
100
AcDbSpline
210
0.0
220
0.0
230
1.0
 70
     8
 71
     3
 72
    16
 73
    12
 74
     0
 42
0.00000001
 43
0.00000001
 40
0.0
 40
0.0
 40
0.0
 40
0.0
 40
0.0001753569347668
 40
0.1252144990604486
 40
0.2502436646335997
 40
0.3752583463513566
 40
0.5002622555674365
 40
0.6252648266842827
 40
0.7502657255272622
 40
0.8753602621290775
 40
1.0
 40
1.0
 40
1.0
 40
1.0
 10
835.2048986550298
 20
935.9018159602336
 30
0.0
 10
835.2048103760454
 20
935.9018358506091
 30
0.0
 10
835.141774324375
 20
935.9160386729875
 30
0.0
 10
835.3636209236938
 20
935.8766789156178
 30
0.0
 10
835.8796003455373
 20
935.8118751552563
 30
0.0
 10
836.7179983388945
 20
935.7173986236487
 30
0.0
 10
837.6936054717489
 20
935.6365369094315
 30
0.0
 10
838.676170856258
 20
935.5855927935977
 30
0.0
 10
839.5029060897343
 20
935.5673126691908
 30
0.0
 10
840.0803927419428
 20
935.5686978621991
 30
0.0
 10
840.1558844431103
 20
935.5698029786788
 30
0.0
 10
840.1935615535702
 20
935.5703545306377
 30
0.0
  0
LINE
  5
200
330
1F
100
AcDbEntity
  8
0
  6
Continuous
 62
     7
370
    15
100
AcDbLine
 10
807.4620082468
 20
826.0829997752
 30
0.0
 11
807.4620082468
 21
944.7706890796
 31
0.0
  0
ARC
  5
201
330
1F
100
AcDbEntity
  8
0
  6
Continuous
 62
     7
370
    15
100
AcDbCircle
 10
808.4620081957
 20
826.0829883312
 30
0.0
 40
1.0
100
AcDbArc
 50
180.0
 51
270.0
  0
ARC
  5
202
330
1F
100
AcDbEntity
  8
0
  6
Continuous
 62
     7
370
    15
100
AcDbCircle
 10
808.4620081957
 20
944.7706628583
 30
0.0
 40
1.000000000000114
100
AcDbArc
 50
90.0
 51
180.0
  0
LINE
  5
203
330
1F
100
AcDbEntity
  8
0
  6
Continuous
 62
     7
370
    15
100
AcDbLine
 10
869.0636337694
 20
825.5295110439
 30
0.0
 11
881.4823360141
 21
840.3295231555
 31
0.0
  0
LINE
  5
204
330
1F
100
AcDbEntity
  8
0
  6
Continuous
 62
     7
370
    15
100
AcDbLine
 10
869.6764663752
 20
825.0153017734
 30
0.0
 11
882.09516862
 21
839.815313885
 31
0.0
  0
ARC
  5
205
330
1F
100
AcDbEntity
  8
0
  6
Continuous
 62
     7
370
    15
100
AcDbCircle
 10
873.8218907657
 20
846.7574128143
 30
0.0
 40
10.00000000000002
100
AcDbArc
 50
320.0
 51
70.0
  0
ARC
  5
206
330
1F
100
AcDbEntity
  8
0
  6
Continuous
 62
     7
370
    15
100
AcDbCircle
 10
873.8218907657
 20
846.7574128143
 30
0.0
 40
10.79999999999998
100
AcDbArc
 50
320.0
 51
70.0
  0
ARC
  5
207
330
1F
100
AcDbEntity
  8
0
  6
Continuous
 62
     7
370
    15
100
AcDbCircle
 10
868.1060774965
 20
826.3329883312
 30
0.0
 40
1.25
100
AcDbArc
 50
270.0
 51
320.0
  0
ARC
  5
208
330
1F
100
AcDbEntity
  8
0
  6
Continuous
 62
     7
370
    15
100
AcDbCircle
 10
868.1060774965
 20
826.3329883312
 30
0.0
 40
2.050000000000068
100
AcDbArc
 50
270.0
 51
320.0
  0
LINE
  5
209
330
1F
100
AcDbEntity
  8
0
  6
Continuous
 62
     7
370
    15
100
AcDbLine
 10
807.4620082468
 20
825.0830126498
 30
0.0
 11
807.4620082468
 21
824.2829991077
 31
0.0
  0
LINE
  5
20A
330
1F
100
AcDbEntity
  8
0
  6
Continuous
 62
     7
370
    15
100
AcDbLine
 10
807.4620082468
 20
825.0830126498
 30
0.0
 11
868.1060777005
 21
825.0830126498
 31
0.0
  0
LINE
  5
20B
330
1F
100
AcDbEntity
  8
0
  6
Continuous
 62
     7
370
    15
100
AcDbLine
 10
807.4620082468
 20
824.2829991077
 30
0.0
 11
868.1060777005
 21
824.2829991077
 31
0.0
  0
LINE
  5
20C
330
1F
100
AcDbEntity
  8
0
  6
Continuous
 62
     7
370
    15
100
AcDbLine
 10
877.515706509
 20
856.9061113094
 30
0.0
 11
858.0653139349
 21
863.9854741786
 31
0.0
  0
LINE
  5
20D
330
1F
100
AcDbEntity
  8
0
  6
Continuous
 62
     7
370
    15
100
AcDbLine
 10
877.2420913871
 20
856.1543179248
 30
0.0
 11
857.7916988131
 21
863.2336807941
 31
0.0
  0
LINE
  5
20E
330
1F
100
AcDbEntity
  8
0
  6
Continuous
 62
     7
370
    15
100
AcDbLine
 10
851.9749523099
 20
870.2922416423
 30
0.0
 11
827.6508350816
 21
945.1541257594
 31
0.0
  0
LINE
  5
20F
330
1F
100
AcDbEntity
  8
0
  6
Continuous
 62
     7
370
    15
100
AcDbLine
 10
851.21410647
 20
870.0450015758
 30
0.0
 11
826.8899892416
 21
944.9069452975
 31
0.0
  0
ARC
  5
210
330
1F
100
AcDbEntity
  8
0
  6
Continuous
 62
     7
370
    15
100
AcDbCircle
 10
861.4855169865
 20
873.3823833363
 30
0.0
 40
9.999999999999948
100
AcDbArc
 50
198.0
 51
250.0
  0
ARC
  5
211
330
1F
100
AcDbEntity
  8
0
  6
Continuous
 62
     7
370
    15
100
AcDbCircle
 10
861.4855169865
 20
873.3823833363
 30
0.0
 40
10.79999999999995
100
AcDbArc
 50
198.0
 51
250.0
  0
LINE
  5
212
330
1F
100
AcDbEntity
  8
0
  6
Continuous
 62
     7
370
    15
100
AcDbLine
 10
807.4620082468
 20
945.770676205
 30
0.0
 11
825.7011690136
 21
945.770676205
 31
0.0
  0
LINE
  5
213
330
1F
100
AcDbEntity
  8
0
  6
Continuous
 62
     7
370
    15
100
AcDbLine
 10
807.4620082468
 20
946.5706897472
 30
0.0
 11
807.4620082468
 21
945.770676205
 31
0.0
  0
LINE
  5
214
330
1F
100
AcDbEntity
  8
0
  6
Continuous
 62
     7
370
    15
100
AcDbLine
 10
807.4620082468
 20
946.5706897472
 30
0.0
 11
825.7011690136
 21
946.5706897472
 31
0.0
  0
ARC
  5
215
330
1F
100
AcDbEntity
  8
0
  6
Continuous
 62
     7
370
    15
100
AcDbCircle
 10
825.7011690116
 20
944.5206628583
 30
0.0
 40
1.249999999999888
100
AcDbArc
 50
18.0
 51
90.0
  0
ARC
  5
216
330
1F
100
AcDbEntity
  8
0
  6
Continuous
 62
     7
370
    15
100
AcDbCircle
 10
825.7011690116
 20
944.5206628583
 30
0.0
 40
2.049999999999984
100
AcDbArc
 50
18.0
 51
90.0
  0
ARC
  5
217
330
1F
100
AcDbEntity
  8
0
  6
Continuous
 62
     7
370
    15
100
AcDbCircle
 10
828.4432877278
 20
946.7603135542
 30
0.0
 40
1.250000000000175
100
AcDbArc
 50
176.6669540528
 51
198.0
  0
LWPOLYLINE
  5
218
330
1F
100
AcDbEntity
  8
0
  6
Continuous
 62
     7
370
    15
100
AcDbPolyline
 90
        3
 70
   128
 43
0.0
 10
826.3945759233
 20
946.8330097888
 10
826.4108256396
 20
946.4927268718
 10
826.418287396
 20
946.4411688541
  0
LINE
  5
219
330
1F
100
AcDbEntity
  8
0
  6
Continuous
 62
     7
370
    15
100
AcDbLine
 10
827.2544679191
 20
946.374054024
 30
0.0
 11
827.6508350816
 21
945.1541257594
 31
0.0
  0
SPLINE
  5
21A
330
1F
100
AcDbEntity
  8
0
  6
Continuous
 62
     7
370
    15
100
AcDbSpline
210
0.0
220
0.0
230
1.0
 70
     8
 71
     3
 72
    11
 73
     7
 74
     0
 42
0.00000001
 43
0.00000001
 40
0.0
 40
0.0
 40
0.0
 40
0.0
 40
0.2716357820326199
 40
0.5432760396807456
 40
0.814922325268802
 40
1.0
 40
1.0
 40
1.0
 40
1.0
 10
814.6620078902569
 20
807.0830059741191
 30
0.0
 10
814.6927250448639
 20
807.18127618332
 30
0.0
 10
814.7541598601903
 20
807.377818220874
 30
0.0
 10
815.2296953762757
 20
807.672597939292
 30
0.0
 10
815.8303366835718
 20
807.9361710511025
 30
0.0
 10
816.2798520233237
 20
808.1013939028763
 30
0.0
 10
816.4620085578289
 20
808.1683469508342
 30
0.0
  0
SPLINE
  5
21B
330
1F
100
AcDbEntity
  8
0
  6
Continuous
 62
     7
370
    15
100
AcDbSpline
210
0.0
220
0.0
230
1.0
 70
     8
 71
     3
 72
    12
 73
     8
 74
     0
 42
0.00000001
 43
0.00000001
 40
0.0
 40
0.0
 40
0.0
 40
0.0
 40
0.1622326749112891
 40
0.4106806060623576
 40
0.6591304685192122
 40
0.907574474585538
 40
1.0
 40
1.0
 40
1.0
 40
1.0
 10
816.4620085578289
 20
289.497254839217
 30
0.0
 10
816.3023385267121
 20
289.5559886267946
 30
0.0
 10
815.8981450731743
 20
289.7046690790643
 30
0.0
 10
815.3332975830923
 20
289.9433421766706
 30
0.0
 10
814.8679219550279
 20
290.2130349489138
 30
0.0
 10
814.6794200827171
 20
290.4268436808622
 30
0.0
 10
814.6657220591844
 20
290.5496813768763
 30
0.0
 10
814.6620078902569
 20
290.5829883683973
 30
0.0
  0
LINE
  5
21C
330
1F
100
AcDbEntity
  8
0
  6
Continuous
 62
     7
370
    15
100
AcDbLine
 10
814.6620078903
 20
290.5829883684
 30
0.0
 11
814.6620078903
 21
807.0830059741
 31
0.0
  0
SPLINE
  5
21D
330
1F
100
AcDbEntity
  8
0
  6
Continuous
 62
     7
370
    15
100
AcDbSpline
210
0.0
220
0.0
230
1.0
 70
     8
 71
     3
 72
    10
 73
     6
 74
     0
 42
0.00000001
 43
0.00000001
 40
0.0
 40
0.0
 40
0.0
 40
0.0
 40
0.2943297872994552
 40
0.909529268456959
 40
1.0
 40
1.0
 40
1.0
 40
1.0
 10
816.4620085578289
 20
808.2831454966716
 30
0.0
 10
816.3850492292157
 20
808.2714309443548
 30
0.0
 10
816.1472317711299
 20
808.2352309786743
 30
0.0
 10
815.899392547081
 20
808.0831715140348
 30
0.0
 10
815.7991031912339
 20
807.9251003881301
 30
0.0
 10
815.7862455543008
 20
807.9048348162822
 30
0.0
  0
SPLINE
  5
21E
330
1F
100
AcDbEntity
  8
0
  6
Continuous
 62
     7
370
    15
100
AcDbSpline
210
0.0
220
0.0
230
1.0
 70
     8
 71
     3
 72
    12
 73
     8
 74
     0
 42
0.00000001
 43
0.00000001
 40
0.0
 40
0.0
 40
0.0
 40
0.0
 40
0.1622311169315135
 40
0.4106815659924977
 40
0.6591325527726515
 40
0.907586148048168
 40
0.9999999999999999
 40
0.9999999999999999
 40
0.9999999999999999
 40
0.9999999999999999
 10
816.4620085578289
 20
809.0875697825603
 30
0.0
 10
816.3023378839558
 20
809.0684657051623
 30
0.0
 10
815.8981379768753
 20
809.0201044994266
 30
0.0
 10
815.3333014986981
 20
808.6528484086926
 30
0.0
 10
814.8679135101304
 20
808.0756907968611
 30
0.0
 10
814.6794259379228
 20
807.5092163757547
 30
0.0
 10
814.6657229568461
 20
807.1739116860243
 30
0.0
 10
814.6620078902569
 20
807.0830059741191
 30
0.0
  0
SPLINE
  5
21F
330
1F
100
AcDbEntity
  8
0
  6
Continuous
 62
     7
370
    15
100
AcDbSpline
210
0.0
220
0.0
230
1.0
 70
     8
 71
     3
 72
    11
 73
     7
 74
     0
 42
0.00000001
 43
0.00000001
 40
0.0
 40
0.0
 40
0.0
 40
0.0
 40
0.2716401076986474
 40
0.5432833740832759
 40
0.8149232788315531
 40
1.0
 40
1.0
 40
1.0
 40
1.0
 10
814.6620078902569
 20
290.5829883683973
 30
0.0
 10
814.6927255057163
 20
290.3140704513103
 30
0.0
 10
814.7541610938259
 20
289.7762314901047
 30
0.0
 10
815.2296817515714
 20
289.1029899805827
 30
0.0
 10
815.830344415775
 20
288.6644564885732
 30
0.0
 10
816.2798528392912
 20
288.6062882564914
 30
0.0
 10
816.4620085578289
 20
288.5827165600412
 30
0.0
  0
SPLINE
  5
220
330
1F
100
AcDbEntity
  8
0
  6
Continuous
 62
     7
370
    15
100
AcDbSpline
210
0.0
220
0.0
230
1.0
 70
     8
 71
     3
 72
    10
 73
     6
 74
     0
 42
0.00000001
 43
0.00000001
 40
0.0
 40
0.0
 40
0.0
 40
0.0
 40
0.0939232751349647
 40
0.70721581816288
 40
1.0
 40
1.0
 40
1.0
 40
1.0
 10
815.7866283278789
 20
289.7612088863306
 30
0.0
 10
815.8000235886947
 20
289.74020926992
 30
0.0
 10
815.9008861312712
 20
289.5820880706793
 30
0.0
 10
816.148544606639
 20
289.4302191946751
 30
0.0
 10
816.385454817548
 20
289.3943176176516
 30
0.0
 10
816.4620085578289
 20
289.3827165980392
 30
0.0
  0
LINE
  5
221
330
1F
100
AcDbEntity
  8
0
  6
Continuous
 62
     7
370
    15
100
AcDbLine
 10
864.9620071944
 20
812.833006451
 30
0.0
 11
847.9620099958
 21
812.833006451
 31
0.0
  0
LINE
  5
222
330
1F
100
AcDbEntity
  8
0
  6
Continuous
 62
     7
370
    15
100
AcDbLine
 10
864.4620099064
 20
813.3329702113
 30
0.0
 11
856.4620085951
 21
813.3329702113
 31
0.0
  0
LINE
  5
223
330
1F
100
AcDbEntity
  8
0
  6
Continuous
 62
     7
370
    15
100
AcDbLine
 10
864.9620071944
 20
811.3329959605
 30
0.0
 11
847.9620099958
 21
811.3329959605
 31
0.0
  0
LINE
  5
224
330
1F
100
AcDbEntity
  8
0
  6
Continuous
 62
     7
370
    15
100
AcDbLine
 10
864.4620099064
 20
810.8329725955
 30
0.0
 11
864.0120097395
 21
810.8329725955
 31
0.0
  0
SPLINE
  5
225
330
1F
100
AcDbEntity
  8
0
  6
Continuous
 62
     7
370
    15
100
AcDbSpline
210
0.0
220
0.0
230
1.0
 70
     8
 71
     3
 72
     9
 73
     5
 74
     0
 42
0.00000001
 43
0.00000001
 40
0.0
 40
0.0
 40
0.0
 40
0.0
 40
0.9544502133730254
 40
1.0
 40
1.0
 40
1.0
 40
1.0
 10
848.4645069535699
 20
810.8329725955181
 30
0.0
 10
848.4008272977757
 20
810.896582403889
 30
0.0
 10
848.334108620466
 20
810.9632279004059
 30
0.0
 10
848.2674824944934
 20
811.0299658825382
 30
0.0
 10
848.2644476886716
 20
811.0330057833843
 30
0.0
  0
LINE
  5
226
330
1F
100
AcDbEntity
  8
0
  6
Continuous
 62
     7
370
    15
100
AcDbLine
 10
848.2620076235
 20
811.0330057834
 30
0.0
 11
848.2644476887
 21
811.0330057834
 31
0.0
  0
LINE
  5
227
330
1F
100
AcDbEntity
  8
0
  6
Continuous
 62
     7
370
    15
100
AcDbLine
 10
847.9620099958
 20
284.8329883572
 30
0.0
 11
864.9620071944
 21
284.8329883572
 31
0.0
  0
LINE
  5
228
330
1F
100
AcDbEntity
  8
0
  6
Continuous
 62
     7
370
    15
100
AcDbLine
 10
856.4620085951
 20
284.3329882753
 30
0.0
 11
864.4620099064
 21
284.3329882753
 31
0.0
  0
LINE
  5
229
330
1F
100
AcDbEntity
  8
0
  6
Continuous
 62
     7
370
    15
100
AcDbLine
 10
847.9620099958
 20
286.3329881374
 30
0.0
 11
864.9620071944
 21
286.3329881374
 31
0.0
  0
LINE
  5
22A
330
1F
100
AcDbEntity
  8
0
  6
Continuous
 62
     7
370
    15
100
AcDbLine
 10
864.0120097395
 20
286.8329882194
 30
0.0
 11
864.4620099064
 21
286.8329882194
 31
0.0
  0
SPLINE
  5
22B
330
1F
100
AcDbEntity
  8
0
  6
Continuous
 62
     7
370
    15
100
AcDbSpline
210
0.0
220
0.0
230
1.0
 70
     8
 71
     3
 72
     9
 73
     5
 74
     0
 42
0.00000001
 43
0.00000001
 40
0.0
 40
0.0
 40
0.0
 40
0.0
 40
0.9544921788443448
 40
1.0
 40
1.0
 40
1.0
 40
1.0
 10
863.0478785332169
 20
286.8329882193856
 30
0.0
 10
863.1011661468045
 20
286.7693618860692
 30
0.0
 10
863.1569943817221
 20
286.7027020068929
 30
0.0
 10
863.2128232113514
 20
286.6360229765211
 30
0.0
 10
863.2153638597455
 20
286.6329885591321
 30
0.0
  0
LINE
  5
22C
330
1F
100
AcDbEntity
  8
0
  6
Continuous
 62
     7
370
    15
100
AcDbLine
 10
863.4341427084
 20
286.6329885591
 30
0.0
 11
863.2153638597
 21
286.6329885591
 31
0.0
  0
SPLINE
  5
22D
330
1F
100
AcDbEntity
  8
0
  6
Continuous
 62
     7
370
    15
100
AcDbSpline
210
0.0
220
0.0
230
1.0
 70
     8
 71
     3
 72
     9
 73
     5
 74
     0
 42
0.00000001
 43
0.00000001
 40
0.0
 40
0.0
 40
0.0
 40
0.0
 40
0.0455174737409336
 40
1.0
 40
1.0
 40
1.0
 40
1.0
 10
863.4341427083936
 20
286.6329885591321
 30
0.0
 10
863.4316008014766
 20
286.6360229611803
 30
0.0
 10
863.375756161867
 20
286.7026875143459
 30
0.0
 10
863.3199363842348
 20
286.769355137765
 30
0.0
 10
863.266657381865
 20
286.8329882193856
 30
0.0
  0
LINE
  5
22E
330
1F
100
AcDbEntity
  8
0
  6
Continuous
 62
     7
370
    15
100
AcDbLine
 10
863.2666573819
 20
286.6329885591
 30
0.0
 11
863.2666573819
 21
286.8329882194
 31
0.0
  0
LINE
  5
22F
330
1F
100
AcDbEntity
  8
0
  6
Continuous
 62
     7
370
    15
100
AcDbLine
 10
868.0620075162
 20
318.8269724641
 30
0.0
 11
868.0620075162
 21
374.8386082743
 31
0.0
  0
LINE
  5
230
330
1F
100
AcDbEntity
  8
0
  6
Continuous
 62
     7
370
    15
100
AcDbLine
 10
866.4620065089
 20
376.8329871391
 30
0.0
 11
868.0620075162
 21
376.8329871391
 31
0.0
  0
SPLINE
  5
231
330
1F
100
AcDbEntity
  8
0
  6
Continuous
 62
     7
370
    15
100
AcDbSpline
210
0.0
220
0.0
230
1.0
 70
    24
 71
     3
 72
    11
 73
     7
 74
     0
 42
0.00000001
 43
0.00000001
 40
0.0
 40
0.0
 40
0.0
 40
0.0
 40
0.2833530359645665
 40
0.5581153225443608
 40
0.7754842357777267
 40
1.0
 40
1.0
 40
1.0
 40
1.0
 10
868.0620075162377
 20
374.8386082742863
 30
0.0
 10
868.0620075162377
 20
375.1356582099165
 30
0.0
 10
868.0620075162377
 20
375.7207520666724
 30
0.0
 10
868.0620075162377
 20
376.3688469709925
 30
0.0
 10
868.0620075162377
 20
376.7627602248805
 30
0.0
 10
868.0620075162377
 20
376.8093271167616
 30
0.0
 10
868.0620075162377
 20
376.8329871390515
 30
0.0
  0
SPLINE
  5
232
330
1F
100
AcDbEntity
  8
0
  6
Continuous
 62
     7
370
    15
100
AcDbSpline
210
0.0
220
0.0
230
1.0
 70
    24
 71
     3
 72
    11
 73
     7
 74
     0
 42
0.00000001
 43
0.00000001
 40
0.0
 40
0.0
 40
0.0
 40
0.0
 40
0.2832801907039573
 40
0.5580009480274504
 40
0.7754005787298565
 40
0.9999999999999999
 40
0.9999999999999999
 40
0.9999999999999999
 40
0.9999999999999999
 10
868.0620075162377
 20
316.832988480156
 30
0.0
 10
868.0620075162377
 20
316.871269307315
 30
0.0
 10
868.0620075162377
 20
316.9466742898975
 30
0.0
 10
868.0620075162377
 20
317.4796301628924
 30
0.0
 10
868.0620075162377
 20
318.1300479999919
 30
0.0
 10
868.0620075162377
 20
318.5921551976812
 30
0.0
 10
868.0620075162377
 20
318.8269724641495
 30
0.0
  0
LINE
  5
233
330
1F
100
AcDbEntity
  8
0
  6
Continuous
 62
     7
370
    15
100
AcDbLine
 10
866.4620065089
 20
316.8329884802
 30
0.0
 11
868.0620075162
 21
316.8329884802
 31
0.0
  0
LINE
  5
234
330
1F
100
AcDbEntity
  8
0
  6
Continuous
 62
     7
370
    15
100
AcDbLine
 10
869.4620088633
 20
374.2952746843
 30
0.0
 11
869.4620088633
 21
319.3707046602
 31
0.0
  0
SPLINE
  5
235
330
1F
100
AcDbEntity
  8
0
  6
Continuous
 62
     7
370
    15
100
AcDbSpline
210
0.0
220
0.0
230
1.0
 70
     8
 71
     3
 72
    11
 73
     7
 74
     0
 42
0.00000001
 43
0.00000001
 40
0.0
 40
0.0
 40
0.0
 40
0.0
 40
0.2514210053516528
 40
0.5021384905892152
 40
0.7627994028478972
 40
1.0
 40
1.0
 40
1.0
 40
1.0
 10
869.4620088633027
 20
319.3707046602421
 30
0.0
 10
869.4436976349748
 20
319.1185607320383
 30
0.0
 10
869.4071264163506
 20
318.6149784186099
 30
0.0
 10
869.1098618134903
 20
317.8992652467629
 30
0.0
 10
868.6662419472932
 20
317.2758920637173
 30
0.0
 10
868.256990724577
 20
316.9759110897743
 30
0.0
 10
868.0620075162377
 20
316.832988480156
 30
0.0
  0
SPLINE
  5
236
330
1F
100
AcDbEntity
  8
0
  6
Continuous
 62
     7
370
    15
100
AcDbSpline
210
0.0
220
0.0
230
1.0
 70
    24
 71
     3
 72
    13
 73
     9
 74
     0
 42
0.00000001
 43
0.00000001
 40
0.0
 40
0.0
 40
0.0
 40
0.0
 40
0.1275873997575755
 40
0.2546755973606953
 40
0.5000496065308901
 40
0.7453959712096686
 40
0.872537312392383
 40
1.0
 40
1.0
 40
1.0
 40
1.0
 10
868.0620075162377
 20
318.8269724641495
 30
0.0
 10
868.0620075162377
 20
318.693800354311
 30
0.0
 10
868.0620075162377
 20
318.4279771876866
 30
0.0
 10
868.0620075162377
 20
317.9282281033492
 30
0.0
 10
868.0620075162377
 20
317.3808400797178
 30
0.0
 10
868.0620075162377
 20
317.0150708371872
 30
0.0
 10
868.0620075162377
 20
316.8548198395539
 30
0.0
 10
868.0620075162377
 20
316.8402717205523
 30
0.0
 10
868.0620075162377
 20
316.832988480156
 30
0.0
  0
SPLINE
  5
237
330
1F
100
AcDbEntity
  8
0
  6
Continuous
 62
     7
370
    15
100
AcDbSpline
210
0.0
220
0.0
230
1.0
 70
     8
 71
     3
 72
    11
 73
     7
 74
     0
 42
0.00000001
 43
0.00000001
 40
0.0
 40
0.0
 40
0.0
 40
0.0
 40
0.2371926984125807
 40
0.4978611570550746
 40
0.7485788182236585
 40
1.0
 40
1.0
 40
1.0
 40
1.0
 10
868.0620075162377
 20
376.8329871390515
 30
0.0
 10
868.2569853587416
 20
376.690068211137
 30
0.0
 10
868.6662386575099
 20
376.3900851876597
 30
0.0
 10
869.1098585852969
 20
375.7667229390634
 30
0.0
 10
869.4071265048393
 20
375.0510004490906
 30
0.0
 10
869.4436976644986
 20
374.5474184533786
 30
0.0
 10
869.4620088633027
 20
374.2952746842556
 30
0.0
  0
SPLINE
  5
238
330
1F
100
AcDbEntity
  8
0
  6
Continuous
 62
     7
370
    15
100
AcDbSpline
210
0.0
220
0.0
230
1.0
 70
    24
 71
     3
 72
    13
 73
     9
 74
     0
 42
0.00000001
 43
0.00000001
 40
0.0
 40
0.0
 40
0.0
 40
0.0
 40
0.1275377025523152
 40
0.2545912650276452
 40
0.4999402301584671
 40
0.745331028683495
 40
0.8725051773546149
 40
1.0
 40
1.0
 40
1.0
 40
1.0
 10
868.0620075162377
 20
376.8329871390515
 30
0.0
 10
868.0620075162377
 20
376.8257210816245
 30
0.0
 10
868.0620075162377
 20
376.8112165491212
 30
0.0
 10
868.0620075162377
 20
376.6507235982909
 30
0.0
 10
868.0620075162377
 20
376.2849382814244
 30
0.0
 10
868.0620075162377
 20
375.7373725407995
 30
0.0
 10
868.0620075162377
 20
375.2375203137277
 30
0.0
 10
868.0620075162377
 20
374.971690529914
 30
0.0
 10
868.0620075162377
 20
374.8386082742863
 30
0.0
  0
LINE
  5
239
330
1F
100
AcDbEntity
  8
0
  6
Continuous
 62
     7
370
    15
100
AcDbLine
 10
866.4620065089
 20
782.0517373775
 30
0.0
 11
868.2620109018
 21
782.0517373775
 31
0.0
  0
LINE
  5
23A
330
1F
100
AcDbEntity
  8
0
  6
Continuous
 62
     7
370
    15
100
AcDbLine
 10
868.2620109018
 20
782.0517373775
 30
0.0
 11
868.2620109018
 21
780.5516970847
 31
0.0
  0
LINE
  5
23B
330
1F
100
AcDbEntity
  8
0
  6
Continuous
 62
     7
370
    15
100
AcDbLine
 10
868.2620109018
 20
742.0517159198
 30
0.0
 11
866.4620065089
 21
742.0517159198
 31
0.0
  0
LINE
  5
23C
330
1F
100
AcDbEntity
  8
0
  6
Continuous
 62
     7
370
    15
100
AcDbLine
 10
868.2620109018
 20
743.5516966079
 30
0.0
 11
868.2620109018
 21
742.0517159198
 31
0.0
  0
LINE
  5
23D
330
1F
100
AcDbEntity
  8
0
  6
Continuous
 62
     7
370
    15
100
AcDbLine
 10
868.2620109018
 20
743.5516966079
 30
0.0
 11
868.2620109018
 21
780.5516970847
 31
0.0
  0
LINE
  5
23E
330
1F
100
AcDbEntity
  8
0
  6
Continuous
 62
     7
370
    15
100
AcDbLine
 10
864.0120097395
 20
288.1036991757
 30
0.0
 11
816.4620085578
 21
288.1036991757
 31
0.0
  0
LINE
  5
23F
330
1F
100
AcDbEntity
  8
0
  6
Continuous
 62
     7
370
    15
100
AcDbLine
 10
816.4620085578
 20
809.5622611736
 30
0.0
 11
816.4620085578
 21
288.1036991757
 31
0.0
  0
LINE
  5
240
330
1F
100
AcDbEntity
  8
0
  6
Continuous
 62
     7
370
    15
100
AcDbLine
 10
864.0120097395
 20
809.5622611736
 30
0.0
 11
816.4620085578
 21
809.5622611736
 31
0.0
  0
CIRCLE
  5
241
330
1F
100
AcDbEntity
  8
0
  6
Continuous
 62
     7
370
    15
100
AcDbCircle
 10
836.4620081957
 20
548.8329883311
 30
0.0
 40
1.600000000000023
  0
CIRCLE
  5
242
330
1F
100
AcDbEntity
  8
0
  6
Continuous
 62
     7
370
    15
100
AcDbCircle
 10
836.4620081957
 20
316.8329883311
 30
0.0
 40
1.599999999999909
  0
CIRCLE
  5
243
330
1F
100
AcDbEntity
  8
0
  6
Continuous
 62
     7
370
    15
100
AcDbCircle
 10
836.4620081957
 20
780.8329883311
 30
0.0
 40
1.600000000000023
  0
SPLINE
  5
244
330
1F
100
AcDbEntity
  8
0
  6
Continuous
 62
     7
370
    15
100
AcDbSpline
210
0.0
220
0.0
230
1.0
 70
     8
 71
     3
 72
    12
 73
     8
 74
     0
 42
0.00000001
 43
0.00000001
 40
0.0
 40
0.0
 40
0.0
 40
0.0
 40
0.1953808802064342
 40
0.3907059506260152
 40
0.5864198066448754
 40
0.791810621079155
 40
1.0
 40
1.0
 40
1.0
 40
1.0
 10
864.012009739491
 20
288.1036991756909
 30
0.0
 10
864.27666478214
 20
288.1186235140069
 30
0.0
 10
864.8058992697565
 20
288.1484679275598
 30
0.0
 10
865.508759940616
 20
288.2972646608106
 30
0.0
 10
866.0435339465389
 20
288.5635093780936
 30
0.0
 10
866.3946788955992
 20
288.9068756812011
 30
0.0
 10
866.4394629580182
 20
289.1570531025789
 30
0.0
 10
866.4620065089192
 20
289.2829882484429
 30
0.0
  0
SPLINE
  5
245
330
1F
100
AcDbEntity
  8
0
  6
Continuous
 62
     7
370
    15
100
AcDbSpline
210
0.0
220
0.0
230
1.0
 70
     8
 71
     3
 72
    12
 73
     8
 74
     0
 42
0.00000001
 43
0.00000001
 40
0.0
 40
0.0
 40
0.0
 40
0.0
 40
0.2902111129284169
 40
0.5021376690124224
 40
0.7227849317794252
 40
0.8542316154215291
 40
1.0
 40
1.0
 40
1.0
 40
1.0
 10
866.4620065089192
 20
808.3829832766704
 30
0.0
 10
866.4186830726609
 20
808.559698555684
 30
0.0
 10
866.3437227133664
 20
808.8654601007448
 30
0.0
 10
865.81910659711
 20
809.2515437335853
 30
0.0
 10
865.2124767652153
 20
809.423993739393
 30
0.0
 10
864.5820593637512
 20
809.5163769022738
 30
0.0
 10
864.2084600079545
 20
809.5464485547425
 30
0.0
 10
864.012009739491
 20
809.5622611735515
 30
0.0
  0
LINE
  5
246
330
1F
100
AcDbEntity
  8
0
  6
Continuous
 62
     7
370
    15
100
AcDbLine
 10
866.4620065089
 20
808.3829832767
 30
0.0
 11
866.4620065089
 21
289.2829882484
 31
0.0
  0
SPLINE
  5
247
330
1F
100
AcDbEntity
  8
0
  6
Continuous
 62
     7
370
    15
100
AcDbSpline
210
0.0
220
0.0
230
1.0
 70
     8
 71
     3
 72
     9
 73
     5
 74
     0
 42
0.00000001
 43
0.00000001
 40
0.0
 40
0.0
 40
0.0
 40
0.0
 40
0.9814578294140841
 40
1.0
 40
1.0
 40
1.0
 40
1.0
 10
864.012009739491
 20
809.6330118868999
 30
0.0
 10
864.1998031979849
 20
809.6278879681583
 30
0.0
 10
864.3911445402881
 20
809.6226672458938
 30
0.0
 10
864.5370586020691
 20
809.515959995326
 30
0.0
 10
864.5397641654935
 20
809.5139814112835
 30
0.0
  0
LINE
  5
248
330
1F
100
AcDbEntity
  8
0
  6
Continuous
 62
     7
370
    15
100
AcDbLine
 10
864.0120097395
 20
809.6330118869
 30
0.0
 11
864.0120097395
 21
810.8329725955
 31
0.0
  0
SPLINE
  5
249
330
1F
100
AcDbEntity
  8
0
  6
Continuous
 62
     7
370
    15
100
AcDbSpline
210
0.0
220
0.0
230
1.0
 70
     8
 71
     3
 72
    12
 73
     8
 74
     0
 42
0.00000001
 43
0.00000001
 40
0.0
 40
0.0
 40
0.0
 40
0.0
 40
0.2245756408600667
 40
0.4491863893983135
 40
0.6738055312822229
 40
0.8984181093060001
 40
1.0
 40
1.0
 40
1.0
 40
1.0
 10
864.012009739491
 20
810.8329725955181
 30
0.0
 10
864.300132096125
 20
810.8033121376623
 30
0.0
 10
864.8764218512638
 20
810.7439865851615
 30
0.0
 10
865.6352623887852
 20
810.2829391983012
 30
0.0
 10
866.1903561766677
 20
809.6097619834002
 30
0.0
 10
866.4356604456635
 20
808.9294610585375
 30
0.0
 10
866.4557502423936
 20
808.5127525944062
 30
0.0
 10
866.4620065089192
 20
808.3829832766704
 30
0.0
  0
LINE
  5
24A
330
1F
100
AcDbEntity
  8
0
  6
Continuous
 62
     7
370
    15
100
AcDbLine
 10
864.0120097395
 20
809.6330118869
 30
0.0
 11
816.4620085578
 21
809.6330118869
 31
0.0
  0
LINE
  5
24B
330
1F
100
AcDbEntity
  8
0
  6
Continuous
 62
     7
370
    15
100
AcDbLine
 10
816.4620085578
 20
810.8329725955
 30
0.0
 11
816.4620085578
 21
809.6330118869
 31
0.0
  0
LINE
  5
24C
330
1F
100
AcDbEntity
  8
0
  6
Continuous
 62
     7
370
    15
100
AcDbLine
 10
864.0120097395
 20
810.8329725955
 30
0.0
 11
816.4620085578
 21
810.8329725955
 31
0.0
  0
LINE
  5
24D
330
1F
100
AcDbEntity
  8
0
  6
Continuous
 62
     7
370
    15
100
AcDbLine
 10
864.0120097395
 20
288.0329885092
 30
0.0
 11
864.0120097395
 21
286.8329882194
 31
0.0
  0
LINE
  5
24E
330
1F
100
AcDbEntity
  8
0
  6
Continuous
 62
     7
370
    15
100
AcDbLine
 10
864.0120097395
 20
286.8329882194
 30
0.0
 11
816.4620085578
 21
286.8329882194
 31
0.0
  0
LINE
  5
24F
330
1F
100
AcDbEntity
  8
0
  6
Continuous
 62
     7
370
    15
100
AcDbLine
 10
816.4620085578
 20
286.8329882194
 30
0.0
 11
816.4620085578
 21
288.0329885092
 31
0.0
  0
LINE
  5
250
330
1F
100
AcDbEntity
  8
0
  6
Continuous
 62
     7
370
    15
100
AcDbLine
 10
864.0120097395
 20
288.0329885092
 30
0.0
 11
816.4620085578
 21
288.0329885092
 31
0.0
  0
SPLINE
  5
251
330
1F
100
AcDbEntity
  8
0
  6
Continuous
 62
     7
370
    15
100
AcDbSpline
210
0.0
220
0.0
230
1.0
 70
     8
 71
     3
 72
    11
 73
     7
 74
     0
 42
0.00000001
 43
0.00000001
 40
0.0
 40
0.0
 40
0.0
 40
0.0
 40
0.2500005164466283
 40
0.5000014437948253
 40
0.7499995281301808
 40
1.0
 40
1.0
 40
1.0
 40
1.0
 10
866.4620065089192
 20
289.2829882484429
 30
0.0
 10
866.4251805806349
 20
288.9619471229368
 30
0.0
 10
866.351528663539
 20
288.3198643442606
 30
0.0
 10
865.7849681940567
 20
287.5100362769192
 30
0.0
 10
864.9751263724146
 20
286.943468080413
 30
0.0
 10
864.333049639122
 20
286.8698149569614
 30
0.0
 10
864.012009739491
 20
286.8329882193856
 30
0.0
  0
SPLINE
  5
252
330
1F
100
AcDbEntity
  8
0
  6
Continuous
 62
     7
370
    15
100
AcDbSpline
210
0.0
220
0.0
230
1.0
 70
     8
 71
     3
 72
     9
 73
     5
 74
     0
 42
0.00000001
 43
0.00000001
 40
0.0
 40
0.0
 40
0.0
 40
0.0
 40
0.0543151964002111
 40
1.0
 40
1.0
 40
1.0
 40
1.0
 10
864.5136573310818
 20
288.1437041368835
 30
0.0
 10
864.50593042282
 20
288.1384243059748
 30
0.0
 10
864.3636698995416
 20
288.0412170553585
 30
0.0
 10
864.1829313958538
 20
288.0369879293819
 30
0.0
 10
864.012009739491
 20
288.0329885092132
 30
0.0
  0
LINE
  5
253
330
1F
100
AcDbEntity
  8
0
  6
Continuous
 62
     7
370
    15
100
AcDbLine
 10
812.9620079841
 20
284.3329882753
 30
0.0
 11
856.4620085951
 21
284.3329882753
 31
0.0
  0
LINE
  5
254
330
1F
100
AcDbEntity
  8
0
  6
Continuous
 62
     7
370
    15
100
AcDbLine
 10
812.9620079841
 20
281.8329883311
 30
0.0
 11
856.4620085951
 21
281.8329883311
 31
0.0
  0
LINE
  5
255
330
1F
100
AcDbEntity
  8
0
  6
Continuous
 62
     7
370
    15
100
AcDbLine
 10
856.4620085951
 20
281.8329883311
 30
0.0
 11
864.4620099064
 21
281.8329883311
 31
0.0
  0
LINE
  5
256
330
1F
100
AcDbEntity
  8
0
  6
Continuous
 62
     7
370
    15
100
AcDbLine
 10
807.4620082468
 20
302.3329888974
 30
0.0
 11
809.9620084237
 21
302.3329888974
 31
0.0
  0
LINE
  5
257
330
1F
100
AcDbEntity
  8
0
  6
Continuous
 62
     7
370
    15
100
AcDbLine
 10
809.9620084237
 20
297.3329880778
 30
0.0
 11
809.9620084237
 21
302.3329888974
 31
0.0
  0
ARC
  5
258
330
1F
100
AcDbEntity
  8
0
  6
Continuous
 62
     7
370
    15
100
AcDbCircle
 10
812.9620081957
 20
287.3329883311
 30
0.0
 40
5.500000000000114
100
AcDbArc
 50
180.0
 51
270.0
  0
ARC
  5
259
330
1F
100
AcDbEntity
  8
0
  6
Continuous
 62
     7
370
    15
100
AcDbCircle
 10
812.9620081957
 20
287.3329883311
 30
0.0
 40
3.0
100
AcDbArc
 50
180.0
 51
270.0
  0
LINE
  5
25A
330
1F
100
AcDbEntity
  8
0
  6
Continuous
 62
     7
370
    15
100
AcDbLine
 10
809.9620084237
 20
287.3329883013
 30
0.0
 11
809.9620084237
 21
297.3329880778
 31
0.0
  0
LINE
  5
25B
330
1F
100
AcDbEntity
  8
0
  6
Continuous
 62
     7
370
    15
100
AcDbLine
 10
852.5620096322
 20
281.3329883074
 30
0.0
 11
860.362007558
 21
281.3329883074
 31
0.0
  0
LINE
  5
25C
330
1F
100
AcDbEntity
  8
0
  6
Continuous
 62
     7
370
    15
100
AcDbLine
 10
860.362007558
 20
816.3329911922
 30
0.0
 11
852.5620096322
 21
816.3329911922
 31
0.0
  0
LINE
  5
25D
330
1F
100
AcDbEntity
  8
0
  6
Continuous
 62
     7
370
    15
100
AcDbLine
 10
856.4620085951
 20
815.8329678271
 30
0.0
 11
864.4620099064
 21
815.8329678271
 31
0.0
  0
LINE
  5
25E
330
1F
100
AcDbEntity
  8
0
  6
Continuous
 62
     7
370
    15
100
AcDbLine
 10
812.9620079841
 20
813.3329702113
 30
0.0
 11
856.4620085951
 21
813.3329702113
 31
0.0
  0
LINE
  5
25F
330
1F
100
AcDbEntity
  8
0
  6
Continuous
 62
     7
370
    15
100
AcDbLine
 10
812.9620079841
 20
815.8329678271
 30
0.0
 11
856.4620085951
 21
815.8329678271
 31
0.0
  0
LINE
  5
260
330
1F
100
AcDbEntity
  8
0
  6
Continuous
 62
     7
370
    15
100
AcDbLine
 10
809.9620084237
 20
818.832988808
 30
0.0
 11
809.9620084237
 21
824.2829991077
 31
0.0
  0
ARC
  5
261
330
1F
100
AcDbEntity
  8
0
  6
Continuous
 62
     7
370
    15
100
AcDbCircle
 10
812.9620081957
 20
818.8329883311
 30
0.0
 40
5.500000000000114
100
AcDbArc
 50
180.0
 51
270.0
  0
ARC
  5
262
330
1F
100
AcDbEntity
  8
0
  6
Continuous
 62
     7
370
    15
100
AcDbCircle
 10
812.9620081957
 20
818.8329883311
 30
0.0
 40
3.000000000000114
100
AcDbArc
 50
180.0
 51
270.0
  0
LINE
  5
263
330
1F
100
AcDbEntity
  8
0
  6
Continuous
 62
     7
370
    15
100
AcDbLine
 10
160.9619812067
 20
1088.6979056094
 30
0.0
 11
160.9619812067
 21
1073.9680481647
 31
0.0
  0
LINE
  5
264
330
1F
100
AcDbEntity
  8
0
  6
Continuous
 62
     7
370
    15
100
AcDbLine
 10
254.0519789751
 20
1061.3329959605
 30
0.0
 11
263.051982313
 21
1061.3329959605
 31
0.0
  0
ARC
  5
265
330
1F
100
AcDbEntity
  8
0
  6
Continuous
 62
     7
370
    15
100
AcDbCircle
 10
254.0519700805
 20
1059.3329883312
 30
0.0
 40
2.0
100
AcDbArc
 50
90.0
 51
180.0
  0
LINE
  5
266
330
1F
100
AcDbEntity
  8
0
  6
Continuous
 62
     7
370
    15
100
AcDbLine
 10
252.0519451197
 20
1044.9880910609
 30
0.0
 11
252.0519451197
 21
1059.3329621051
 31
0.0
  0
ARC
  5
267
330
1F
100
AcDbEntity
  8
0
  6
Continuous
 62
     7
370
    15
100
AcDbCircle
 10
250.0519700805
 20
1044.9881161804
 30
0.0
 40
2.0
100
AcDbArc
 50
299.9816393689
 51
0.0
  0
LINE
  5
268
330
1F
100
AcDbEntity
  8
0
  6
Continuous
 62
     7
370
    15
100
AcDbLine
 10
239.5158366259
 20
1036.6006446574
 30
0.0
 11
251.0514215525
 21
1043.2557416652
 31
0.0
  0
ARC
  5
269
330
1F
100
AcDbEntity
  8
0
  6
Continuous
 62
     7
370
    15
100
AcDbCircle
 10
238.5164151419
 20
1038.3329883312
 30
0.0
 40
1.999999999999943
100
AcDbArc
 50
270.0
 51
299.9816393689
  0
LINE
  5
26A
330
1F
100
AcDbEntity
  8
0
  6
Continuous
 62
     7
370
    15
100
AcDbLine
 10
231.212015539
 20
1036.3329601978
 30
0.0
 11
238.5163859423
 21
1036.3329601978
 31
0.0
  0
LINE
  5
26B
330
1F
100
AcDbEntity
  8
0
  6
Continuous
 62
     7
370
    15
100
AcDbLine
 10
250.0519708689
 20
1096.3329625819
 30
0.0
 11
231.212015539
 21
1096.3329625819
 31
0.0
  0
ARC
  5
26C
330
1F
100
AcDbEntity
  8
0
  6
Continuous
 62
     7
370
    15
100
AcDbCircle
 10
250.0519700805
 20
1094.3329883312
 30
0.0
 40
2.000000000000028
100
AcDbArc
 50
360.0
 51
90.0
  0
LINE
  5
26D
330
1F
100
AcDbEntity
  8
0
  6
Continuous
 62
     7
370
    15
100
AcDbLine
 10
252.0519451197
 20
1088.3330059741
 30
0.0
 11
252.0519451197
 21
1094.3329883311
 31
0.0
  0
ARC
  5
26E
330
1F
100
AcDbEntity
  8
0
  6
Continuous
 62
     7
370
    15
100
AcDbCircle
 10
254.0519700805
 20
1088.3329883312
 30
0.0
 40
2.0
100
AcDbArc
 50
180.0
 51
270.0
  0
LINE
  5
26F
330
1F
100
AcDbEntity
  8
0
  6
Continuous
 62
     7
370
    15
100
AcDbLine
 10
263.051982313
 20
1086.3329721187
 30
0.0
 11
254.0519789751
 21
1086.3329721187
 31
0.0
  0
CIRCLE
  5
270
330
1F
100
AcDbEntity
  8
0
  6
Continuous
 62
     7
370
    15
100
AcDbCircle
 10
239.0519700805
 20
1056.3329883312
 30
0.0
 40
3.19999999999996
  0
CIRCLE
  5
271
330
1F
100
AcDbEntity
  8
0
  6
Continuous
 62
     7
370
    15
100
AcDbCircle
 10
239.0519700805
 20
1081.3329883312
 30
0.0
 40
3.19999999999996
  0
LINE
  5
272
330
1F
100
AcDbEntity
  8
0
  6
Continuous
 62
     7
370
    15
100
AcDbLine
 10
263.051982313
 20
1086.3329721187
 30
0.0
 11
270.0519517954
 21
1086.3329721187
 31
0.0
  0
LINE
  5
273
330
1F
100
AcDbEntity
  8
0
  6
Continuous
 62
     7
370
    15
100
AcDbLine
 10
270.0519517954
 20
1086.3329721187
 30
0.0
 11
270.0519517954
 21
1061.3329959605
 31
0.0
  0
LINE
  5
274
330
1F
100
AcDbEntity
  8
0
  6
Continuous
 62
     7
370
    15
100
AcDbLine
 10
270.0519517954
 20
1061.3329959605
 30
0.0
 11
263.051982313
 21
1061.3329959605
 31
0.0
  0
LINE
  5
275
330
1F
100
AcDbEntity
  8
0
  6
Continuous
 62
     7
370
    15
100
AcDbLine
 10
291.2423566874
 20
1036.7228341792
 30
0.0
 11
288.2423953112
 21
1036.7228341792
 31
0.0
  0
LINE
  5
276
330
1F
100
AcDbEntity
  8
0
  6
Continuous
 62
     7
370
    15
100
AcDbLine
 10
288.2423953112
 20
1041.7228294109
 30
0.0
 11
288.2423953112
 21
1036.7228341792
 31
0.0
  0
LINE
  5
277
330
1F
100
AcDbEntity
  8
0
  6
Continuous
 62
     7
370
    15
100
AcDbLine
 10
291.2423566874
 20
1041.7228294109
 30
0.0
 11
291.2423566874
 21
1036.7228341792
 31
0.0
  0
LINE
  5
278
330
1F
100
AcDbEntity
  8
0
  6
Continuous
 62
     7
370
    15
100
AcDbLine
 10
288.2423953112
 20
1048.3664823268
 30
0.0
 11
288.2423953112
 21
1041.7228294109
 31
0.0
  0
LINE
  5
279
330
1F
100
AcDbEntity
  8
0
  6
Continuous
 62
     7
370
    15
100
AcDbLine
 10
291.2423566874
 20
1048.3664823268
 30
0.0
 11
291.2423566874
 21
1041.7228294109
 31
0.0
  0
ARC
  5
27A
330
1F
100
AcDbEntity
  8
0
  6
Continuous
 62
     7
370
    15
100
AcDbCircle
 10
284.2423728547
 20
1048.366452647
 30
0.0
 40
7.000000000000152
100
AcDbArc
 50
360.0
 51
80.0
  0
ARC
  5
27B
330
1F
100
AcDbEntity
  8
0
  6
Continuous
 62
     7
370
    15
100
AcDbCircle
 10
284.2423728547
 20
1048.366452647
 30
0.0
 40
4.000000000000031
100
AcDbArc
 50
0.0
 51
80.0
  0
LINE
  5
27C
330
1F
100
AcDbEntity
  8
0
  6
Continuous
 62
     7
370
    15
100
AcDbLine
 10
284.9369601305
 20
1052.3056936954
 30
0.0
 11
272.8364423808
 21
1054.4393611644
 31
0.0
  0
LINE
  5
27D
330
1F
100
AcDbEntity
  8
0
  6
Continuous
 62
     7
370
    15
100
AcDbLine
 10
285.4579047259
 20
1055.260117123
 30
0.0
 11
273.3573869761
 21
1057.393784592
 31
0.0
  0
ARC
  5
27E
330
1F
100
AcDbEntity
  8
0
  6
Continuous
 62
     7
370
    15
100
AcDbCircle
 10
274.0519700805
 20
1061.3329883312
 30
0.0
 40
7.0
100
AcDbArc
 50
180.0
 51
260.0
  0
ARC
  5
27F
330
1F
100
AcDbEntity
  8
0
  6
Continuous
 62
     7
370
    15
100
AcDbCircle
 10
274.0519700805
 20
1061.3329883312
 30
0.0
 40
4.0
100
AcDbArc
 50
180.0
 51
260.0
  0
LINE
  5
280
330
1F
100
AcDbEntity
  8
0
  6
Continuous
 62
     7
370
    15
100
AcDbLine
 10
256.7549304064
 20
1105.8329892848
 30
0.0
 11
256.7549304064
 21
1098.5329700206
 31
0.0
  0
LINE
  5
281
330
1F
100
AcDbEntity
  8
0
  6
Continuous
 62
     7
370
    15
100
AcDbLine
 10
231.212015539
 20
1098.5329700206
 30
0.0
 11
256.7549304064
 21
1098.5329700206
 31
0.0
  0
SPLINE
  5
282
330
1F
100
AcDbEntity
  8
0
  6
Continuous
 62
     7
370
    15
100
AcDbSpline
210
0.0
220
0.0
230
1.0
 70
     8
 71
     3
 72
    12
 73
     8
 74
     0
 42
0.00000001
 43
0.00000001
 40
0.0
 40
0.0
 40
0.0
 40
0.0
 40
0.2276388743581598
 40
0.4553475892835119
 40
0.6830465014244201
 40
0.9107434468797775
 40
0.9999999999999999
 40
0.9999999999999999
 40
0.9999999999999999
 40
0.9999999999999999
 10
255.2620128687348
 20
1108.532960483854
 30
0.0
 10
255.3753105471196
 20
1108.499377178979
 30
0.0
 10
255.601940664095
 20
1108.432200265729
 30
0.0
 10
255.9420919312327
 20
1107.910466979479
 30
0.0
 10
256.2819448229124
 20
1107.150819928367
 30
0.0
 10
256.5535904045398
 20
1106.404706603246
 30
0.0
 10
256.7106899586598
 20
1105.958612757179
 30
0.0
 10
256.7549304064241
 20
1105.832989284819
 30
0.0
  0
LINE
  5
283
330
1F
100
AcDbEntity
  8
0
  6
Continuous
 62
     7
370
    15
100
AcDbLine
 10
175.2619699534
 20
1108.5329604839
 30
0.0
 11
255.2620128687
 21
1108.5329604839
 31
0.0
  0
SPLINE
  5
284
330
1F
100
AcDbEntity
  8
0
  6
Continuous
 62
     7
370
    15
100
AcDbSpline
210
0.0
220
0.0
230
1.0
 70
     8
 71
     3
 72
    12
 73
     8
 74
     0
 42
0.00000001
 43
0.00000001
 40
0.0
 40
0.0
 40
0.0
 40
0.0
 40
0.1219115342091824
 40
0.3807865124682734
 40
0.639664219652129
 40
0.8985307786031445
 40
1.0
 40
1.0
 40
1.0
 40
1.0
 10
173.9488796289886
 20
1106.33301264984
 30
0.0
 10
174.0022662440739
 20
1106.483534469967
 30
0.0
 10
174.169017512546
 20
1106.953684233144
 30
0.0
 10
174.4490991521335
 20
1107.640885939337
 30
0.0
 10
174.7890506515873
 20
1108.255128523522
 30
0.0
 10
175.0607242322758
 20
1108.508529441961
 30
0.0
 10
175.2177516219438
 20
1108.527592419867
 30
0.0
 10
175.2619699533906
 20
1108.532960483854
 30
0.0
  0
SPLINE
  5
285
330
1F
100
AcDbEntity
  8
0
  6
Continuous
 62
     7
370
    15
100
AcDbSpline
210
0.0
220
0.0
230
1.0
 70
     8
 71
     3
 72
    11
 73
     7
 74
     0
 42
0.00000001
 43
0.00000001
 40
0.0
 40
0.0
 40
0.0
 40
0.0
 40
0.2587472886614935
 40
0.5175717012019482
 40
0.7763802569313983
 40
1.0
 40
1.0
 40
1.0
 40
1.0
 10
175.2619699533906
 20
1108.532960483854
 30
0.0
 10
174.9396103948922
 20
1108.499467703121
 30
0.0
 10
174.2947951933344
 20
1108.432472158581
 30
0.0
 10
173.4580808763511
 20
1107.90938857078
 30
0.0
 10
172.8464873811819
 20
1107.189082272275
 30
0.0
 10
172.6980417303925
 20
1106.604147271942
 30
0.0
 10
172.6292327936616
 20
1106.333012649839
 30
0.0
  0
SPLINE
  5
286
330
1F
100
AcDbEntity
  8
0
  6
Continuous
 62
     7
370
    15
100
AcDbSpline
210
0.0
220
0.0
230
1.0
 70
     8
 71
     3
 72
     9
 73
     5
 74
     0
 42
0.00000001
 43
0.00000001
 40
0.0
 40
0.0
 40
0.0
 40
0.0
 40
0.7398700031998448
 40
1.0
 40
1.0
 40
1.0
 40
1.0
 10
174.0871028002228
 20
1106.717283794707
 30
0.0
 10
174.0072692386146
 20
1106.634012193658
 30
0.0
 10
173.8993670919363
 20
1106.521463231423
 30
0.0
 10
173.8753234755007
 20
1106.371914707015
 30
0.0
 10
173.8690690096345
 20
1106.333012649839
 30
0.0
  0
SPLINE
  5
287
330
1F
100
AcDbEntity
  8
0
  6
Continuous
 62
     7
370
    15
100
AcDbSpline
210
0.0
220
0.0
230
1.0
 70
     8
 71
     3
 72
    12
 73
     8
 74
     0
 42
0.00000001
 43
0.00000001
 40
0.0
 40
0.0
 40
0.0
 40
0.0
 40
0.2276391404097372
 40
0.4553472432869052
 40
0.6830503635209801
 40
0.9107583971052935
 40
1.0
 40
1.0
 40
1.0
 40
1.0
 10
257.9619840677704
 20
1105.832989284819
 30
0.0
 10
257.928401560641
 20
1106.154838896492
 30
0.0
 10
257.861226372681
 20
1106.798635623034
 30
0.0
 10
257.3394795873905
 20
1107.643015410665
 30
0.0
 10
256.5798462645216
 20
1108.25456066709
 30
0.0
 10
255.8337071371383
 20
1108.508570227408
 30
0.0
 10
255.3876160524883
 20
1108.527601861193
 30
0.0
 10
255.2620128687348
 20
1108.532960483854
 30
0.0
  0
LINE
  5
288
330
1F
100
AcDbEntity
  8
0
  6
Continuous
 62
     7
370
    15
100
AcDbLine
 10
257.9619840678
 20
1105.8329892848
 30
0.0
 11
256.7619637545
 21
1105.8329892848
 31
0.0
  0
SPLINE
  5
289
330
1F
100
AcDbEntity
  8
0
  6
Continuous
 62
     7
370
    15
100
AcDbSpline
210
0.0
220
0.0
230
1.0
 70
     8
 71
     3
 72
     9
 73
     5
 74
     0
 42
0.00000001
 43
0.00000001
 40
0.0
 40
0.0
 40
0.0
 40
0.0
 40
0.5140891084022406
 40
1.0
 40
1.0
 40
1.0
 40
1.0
 10
256.7619637545076
 20
1105.832989284819
 30
0.0
 10
256.7473498434457
 20
1106.009980231839
 30
0.0
 10
256.7189230380087
 20
1106.35426091028
 30
0.0
 10
256.5140289462678
 20
1106.631503845988
 30
0.0
 10
256.414468675467
 20
1106.766219208067
 30
0.0
  0
LINE
  5
28A
330
1F
100
AcDbEntity
  8
0
  6
Continuous
 62
     7
370
    15
100
AcDbLine
 10
256.7619637545
 20
1105.8329892848
 30
0.0
 11
256.7619637545
 21
1098.5329700206
 31
0.0
  0
LINE
  5
28B
330
1F
100
AcDbEntity
  8
0
  6
Continuous
 62
     7
370
    15
100
AcDbLine
 10
257.9619840678
 20
1105.8329892848
 30
0.0
 11
257.9619840678
 21
1098.5329700206
 31
0.0
  0
LINE
  5
28C
330
1F
100
AcDbEntity
  8
0
  6
Continuous
 62
     7
370
    15
100
AcDbLine
 10
257.9619840678
 20
1098.5329700206
 30
0.0
 11
256.7619637545
 21
1098.5329700206
 31
0.0
  0
LWPOLYLINE
  5
28D
330
1F
100
AcDbEntity
  8
0
  6
Continuous
 62
     7
370
    15
100
AcDbPolyline
 90
        5
 70
   128
 43
0.0
 10
231.212015539
 20
1025.1952958797
 10
231.93001309
 20
1025.6098461841
 10
232.4685410555
 20
1025.9207440112
 10
232.7028469141
 20
1026.0560465549
 10
232.7126220759
 20
1026.0617089961
  0
SPLINE
  5
28E
330
1F
100
AcDbEntity
  8
0
  6
Continuous
 62
     7
370
    15
100
AcDbSpline
210
0.0
220
0.0
230
1.0
 70
     8
 71
     3
 72
     9
 73
     5
 74
     0
 42
0.00000001
 43
0.00000001
 40
0.0
 40
0.0
 40
0.0
 40
0.0
 40
0.3099518457517361
 40
1.0
 40
1.0
 40
1.0
 40
1.0
 10
231.2120155390229
 20
1021.099503109281
 30
0.0
 10
231.4345571255371
 20
1021.122874941994
 30
0.0
 10
232.1525447405953
 20
1021.198279663832
 30
0.0
 10
232.7589267232807
 20
1021.501789308507
 30
0.0
 10
233.1773594912019
 20
1021.711225578611
 30
0.0
  0
LWPOLYLINE
  5
28F
330
1F
100
AcDbEntity
  8
0
  6
Continuous
 62
     7
370
    15
100
AcDbPolyline
 90
        4
 70
   128
 43
0.0
 10
233.1773594912
 20
1021.7112255786
 10
232.5795249041
 20
1021.3660550807
 10
231.8699316081
 20
1020.9563923572
 10
231.212015539
 20
1020.576531956
  0
SPLINE
  5
290
330
1F
100
AcDbEntity
  8
0
  6
Continuous
 62
     7
370
    15
100
AcDbSpline
210
0.0
220
0.0
230
1.0
 70
     8
 71
     3
 72
     9
 73
     5
 74
     0
 42
0.00000001
 43
0.00000001
 40
0.0
 40
0.0
 40
0.0
 40
0.0
 40
0.337711196340237
 40
1.0
 40
1.0
 40
1.0
 40
1.0
 10
233.1773594912018
 20
1021.711225578612
 30
0.0
 10
233.4393587229926
 20
1021.882595362046
 30
0.0
 10
234.2151672677796
 20
1022.390040141169
 30
0.0
 10
234.7940234068224
 20
1023.19730185265
 30
0.0
 10
235.1773933466401
 20
1023.731942245787
 30
0.0
  0
SPLINE
  5
291
330
1F
100
AcDbEntity
  8
0
  6
Continuous
 62
     7
370
    15
100
AcDbSpline
210
0.0
220
0.0
230
1.0
 70
     8
 71
     3
 72
     9
 73
     5
 74
     0
 42
0.00000001
 43
0.00000001
 40
0.0
 40
0.0
 40
0.0
 40
0.0
 40
0.4963939220123584
 40
1.0
 40
1.0
 40
1.0
 40
1.0
 10
233.9273647364106
 20
1025.897021362608
 30
0.0
 10
233.4342902641319
 20
1025.855355702887
 30
0.0
 10
232.4409773922098
 20
1025.771419018988
 30
0.0
 10
231.6006029282462
 20
1025.374978286241
 30
0.0
 10
231.1773852404084
 20
1025.175328323668
 30
0.0
  0
LINE
  5
292
330
1F
100
AcDbEntity
  8
0
  6
Continuous
 62
     7
370
    15
100
AcDbLine
 10
233.9273647364
 20
1025.8970213626
 30
0.0
 11
235.1773933466
 21
1023.7319422458
 31
0.0
  0
LWPOLYLINE
  5
293
330
1F
100
AcDbEntity
  8
0
  6
Continuous
 62
     7
370
    15
100
AcDbPolyline
 90
        6
 70
   128
 43
0.0
 10
233.7485508021
 20
1016.2674737666
 10
233.58529368
 20
1016.1732388232
 10
233.1058339175
 20
1015.8963752483
 10
232.3402122553
 20
1015.4544068072
 10
231.3366488512
 20
1014.8749304507
 10
231.212015539
 20
1014.8029876445
  0
LWPOLYLINE
  5
294
330
1F
100
AcDbEntity
  8
0
  6
Continuous
 62
     7
370
    15
100
AcDbPolyline
 90
        5
 70
   128
 43
0.0
 10
234.279628187
 20
1022.3476243709
 10
234.2092351016
 20
1022.3069740031
 10
233.9993075427
 20
1022.1857381557
 10
233.6533621844
 20
1021.9860625957
 10
233.1773594912
 20
1021.7112255786
  0
LINE
  5
295
330
1F
100
AcDbEntity
  8
0
  6
Continuous
 62
     7
370
    15
100
AcDbLine
 10
254.0519789751
 20
1042.8044748996
 30
0.0
 11
254.0519789751
 21
1061.3329959605
 31
0.0
  0
LINE
  5
296
330
1F
100
AcDbEntity
  8
0
  6
Continuous
 62
     7
370
    15
100
AcDbLine
 10
254.0519789751
 20
1086.3329721187
 30
0.0
 11
254.0519789751
 21
1098.5329700206
 31
0.0
  0
ARC
  5
297
330
1F
100
AcDbEntity
  8
0
  6
Continuous
 62
     7
370
    15
100
AcDbCircle
 10
252.8119700805
 20
1042.8044761676
 30
0.0
 40
1.240000000000009
100
AcDbArc
 50
300.0
 51
0.0
  0
LINE
  5
298
330
1F
100
AcDbEntity
  8
0
  6
Continuous
 62
     7
370
    15
100
AcDbLine
 10
231.212015539
 20
1028.9019299243
 30
0.0
 11
253.4319714602
 21
1041.7305780147
 31
0.0
  0
LINE
  5
299
330
1F
100
AcDbEntity
  8
0
  6
Continuous
 62
     7
370
    15
100
AcDbLine
 10
254.0369586047
 20
1040.6827283595
 30
0.0
 11
231.212015539
 21
1027.5047374461
 31
0.0
  0
LINE
  5
29A
330
1F
100
AcDbEntity
  8
0
  6
Continuous
 62
     7
370
    15
100
AcDbLine
 10
253.4369782504
 20
1041.7219353412
 30
0.0
 11
231.212015539
 21
1028.8903666232
 31
0.0
  0
ARC
  5
29B
330
1F
100
AcDbEntity
  8
0
  6
Continuous
 62
     7
370
    15
100
AcDbCircle
 10
252.8119700805
 20
1042.8044761676
 30
0.0
 40
2.449999999999978
100
AcDbArc
 50
300.0
 51
0.0
  0
ARC
  5
29C
330
1F
100
AcDbEntity
  8
0
  6
Continuous
 62
     7
370
    15
100
AcDbCircle
 10
252.8119700805
 20
1042.8044761676
 30
0.0
 40
1.250000000000187
100
AcDbArc
 50
300.0
 51
0.0
  0
LINE
  5
29D
330
1F
100
AcDbEntity
  8
0
  6
Continuous
 62
     7
370
    15
100
AcDbLine
 10
254.0619925555
 20
1098.5329700206
 30
0.0
 11
254.0619925555
 21
1086.3329721187
 31
0.0
  0
LINE
  5
29E
330
1F
100
AcDbEntity
  8
0
  6
Continuous
 62
     7
370
    15
100
AcDbLine
 10
254.0619925555
 20
1061.3329959605
 30
0.0
 11
254.0619925555
 21
1042.8044748996
 31
0.0
  0
LINE
  5
29F
330
1F
100
AcDbEntity
  8
0
  6
Continuous
 62
     7
370
    15
100
AcDbLine
 10
255.2619532641
 20
1098.5329700206
 30
0.0
 11
255.2619532641
 21
1086.3329721187
 31
0.0
  0
LINE
  5
2A0
330
1F
100
AcDbEntity
  8
0
  6
Continuous
 62
     7
370
    15
100
AcDbLine
 10
255.2619532641
 20
1061.3329959605
 30
0.0
 11
255.2619532641
 21
1042.8044748996
 31
0.0
  0
LINE
  5
2A1
330
1F
100
AcDbEntity
  8
0
  6
Continuous
 62
     7
370
    15
100
AcDbLine
 10
230.0119952258
 20
1105.3329659198
 30
0.0
 11
168.9119891222
 21
1105.3329659198
 31
0.0
  0
LINE
  5
2A2
330
1F
100
AcDbEntity
  8
0
  6
Continuous
 62
     7
370
    15
100
AcDbLine
 10
230.0119952258
 20
1001.8330169414
 30
0.0
 11
230.0119952258
 21
1105.3329659198
 31
0.0
  0
LINE
  5
2A3
330
1F
100
AcDbEntity
  8
0
  6
Continuous
 62
     7
370
    15
100
AcDbLine
 10
168.9119891222
 20
1105.3329659198
 30
0.0
 11
168.9119891222
 21
1001.8330169414
 31
0.0
  0
LINE
  5
2A4
330
1F
100
AcDbEntity
  8
0
  6
Continuous
 62
     7
370
    15
100
AcDbLine
 10
231.212015539
 20
1105.1258993838
 30
0.0
 11
230.0119952258
 21
1105.1258993838
 31
0.0
  0
LINE
  5
2A5
330
1F
100
AcDbEntity
  8
0
  6
Continuous
 62
     7
370
    15
100
AcDbLine
 10
231.212015539
 20
1105.1258993838
 30
0.0
 11
231.212015539
 21
1001.8330169414
 31
0.0
  0
LINE
  5
2A6
330
1F
100
AcDbEntity
  8
0
  6
Continuous
 62
     7
370
    15
100
AcDbLine
 10
168.919082075
 20
1106.3330126498
 30
0.0
 11
168.919082075
 21
1105.3329659198
 31
0.0
  0
LINE
  5
2A7
330
1F
100
AcDbEntity
  8
0
  6
Continuous
 62
     7
370
    15
100
AcDbLine
 10
168.919082075
 20
1106.3330126498
 30
0.0
 11
230.0049618777
 21
1106.3330126498
 31
0.0
  0
LINE
  5
2A8
330
1F
100
AcDbEntity
  8
0
  6
Continuous
 62
     7
370
    15
100
AcDbLine
 10
230.0049618777
 20
1106.3330126498
 30
0.0
 11
230.0049618777
 21
1105.3329659198
 31
0.0
  0
LINE
  5
2A9
330
1F
100
AcDbEntity
  8
0
  6
Continuous
 62
     7
370
    15
100
AcDbLine
 10
167.7120284136
 20
1001.8330169414
 30
0.0
 11
167.7120284136
 21
1105.1258993838
 31
0.0
  0
LINE
  5
2AA
330
1F
100
AcDbEntity
  8
0
  6
Continuous
 62
     7
370
    15
100
AcDbLine
 10
167.7120284136
 20
1105.1258993838
 30
0.0
 11
168.9119891222
 21
1105.1258993838
 31
0.0
  0
ARC
  5
2AB
330
1F
100
AcDbEntity
  8
0
  6
Continuous
 62
     7
370
    15
100
AcDbCircle
 10
101.4620081957
 20
1049.9392384101
 30
0.0
 40
1.250000000000272
100
AcDbArc
 50
75.0
 51
180.0
  0
ARC
  5
2AC
330
1F
100
AcDbEntity
  8
0
  6
Continuous
 62
     7
370
    15
100
AcDbCircle
 10
128.2120081957
 20
1017.6661501377
 30
0.0
 40
25.50000000000001
100
AcDbArc
 50
0.0
 51
75.0
  0
LINE
  5
2AD
330
1F
100
AcDbEntity
  8
0
  6
Continuous
 62
     7
370
    15
100
AcDbLine
 10
100.212033182
 20
1001.8330169414
 30
0.0
 11
153.7120298441
 21
1001.8330169414
 31
0.0
  0
LINE
  5
2AE
330
1F
100
AcDbEntity
  8
0
  6
Continuous
 62
     7
370
    15
100
AcDbLine
 10
134.811873823
 20
1042.2972393726
 30
0.0
 11
101.7855361994
 21
1051.1466217731
 31
0.0
  0
LINE
  5
2AF
330
1F
100
AcDbEntity
  8
0
  6
Continuous
 62
     7
370
    15
100
AcDbLine
 10
100.212033182
 20
1049.9392104839
 30
0.0
 11
100.212033182
 21
1001.8330169414
 31
0.0
  0
LINE
  5
2B0
330
1F
100
AcDbEntity
  8
0
  6
Continuous
 62
     7
370
    15
100
AcDbLine
 10
153.7120298441
 20
1001.8330169414
 30
0.0
 11
153.7120298441
 21
1017.6661563609
 31
0.0
  0
ARC
  5
2B1
330
1F
100
AcDbEntity
  8
0
  6
Continuous
 62
     7
370
    15
100
AcDbCircle
 10
128.6620081957
 20
1017.9498136316
 30
0.0
 40
25.79999999999998
100
AcDbArc
 50
0.0
 51
75.0
  0
ARC
  5
2B2
330
1F
100
AcDbEntity
  8
0
  6
Continuous
 62
     7
370
    15
100
AcDbCircle
 10
128.6620081957
 20
1017.9498136316
 30
0.0
 40
25.0000000000001
100
AcDbArc
 50
12.0570301285
 51
52.3948047813
  0
LINE
  5
2B3
330
1F
100
AcDbEntity
  8
0
  6
Continuous
 62
     7
370
    15
100
AcDbLine
 10
102.0426110323
 20
1051.7926169131
 30
0.0
 11
135.3395537432
 21
1042.8706956599
 31
0.0
  0
LINE
  5
2B4
330
1F
100
AcDbEntity
  8
0
  6
Continuous
 62
     7
370
    15
100
AcDbLine
 10
153.7120298441
 20
1001.8330169414
 30
0.0
 11
154.4620350893
 21
1001.8330169414
 31
0.0
  0
LINE
  5
2B5
330
1F
100
AcDbEntity
  8
0
  6
Continuous
 62
     7
370
    15
100
AcDbLine
 10
154.4620350893
 20
1017.9498148654
 30
0.0
 11
154.4620350893
 21
1001.8330169414
 31
0.0
  0
LINE
  5
2B6
330
1F
100
AcDbEntity
  8
0
  6
Continuous
 62
     7
370
    15
100
AcDbLine
 10
100.212033182
 20
1001.9414973949
 30
0.0
 11
99.4620279368
 21
1001.9414973949
 31
0.0
  0
LINE
  5
2B7
330
1F
100
AcDbEntity
  8
0
  6
Continuous
 62
     7
370
    15
100
AcDbLine
 10
99.4620279368
 20
1001.9414973949
 30
0.0
 11
99.4620279368
 21
1049.8124314044
 31
0.0
  0
ARC
  5
2B8
330
1F
100
AcDbEntity
  8
0
  6
Continuous
 62
     7
370
    15
100
AcDbCircle
 10
101.5120081957
 20
1049.8124434909
 30
0.0
 40
2.050000000000083
100
AcDbArc
 50
75.0
 51
180.0
  0
LINE
  5
2B9
330
1F
100
AcDbEntity
  8
0
  6
Continuous
 62
     7
370
    15
100
AcDbLine
 10
100.2619818743
 20
1001.8330169414
 30
0.0
 11
100.2619818743
 21
1000.6274533961
 31
0.0
  0
LINE
  5
2BA
330
1F
100
AcDbEntity
  8
0
  6
Continuous
 62
     7
370
    15
100
AcDbLine
 10
99.4620279368
 20
1001.9414973949
 30
0.0
 11
99.4620279368
 21
1000.6259036754
 31
0.0
  0
LINE
  5
2BB
330
1F
100
AcDbEntity
  8
0
  6
Continuous
 62
     7
370
    15
100
AcDbLine
 10
829.7726766165
 20
963.4733153079
 30
0.0
 11
829.7193993773
 21
963.4833884929
 31
0.0
  0
LINE
  5
2BC
330
1F
100
AcDbEntity
  8
0
  6
Continuous
 62
     7
370
    15
100
AcDbLine
 10
829.7186952975
 20
968.5824466441
 30
0.0
 11
829.7726766165
 21
968.5926390384
 31
0.0
  0
LINE
  5
2BD
330
1F
100
AcDbEntity
  8
0
  6
Continuous
 62
     7
370
    15
100
AcDbLine
 10
807.2788166307
 20
966.6829658244
 30
0.0
 11
807.2788166307
 21
964.2329765056
 31
0.0
  0
LINE
  5
2BE
330
1F
100
AcDbEntity
  8
0
  6
Continuous
 62
     7
370
    15
100
AcDbLine
 10
751.4288158115
 20
964.2329765056
 30
0.0
 11
807.2788166307
 21
964.2329765056
 31
0.0
  0
LINE
  5
2BF
330
1F
100
AcDbEntity
  8
0
  6
Continuous
 62
     7
370
    15
100
AcDbLine
 10
751.4288158115
 20
964.2329765056
 30
0.0
 11
751.4288158115
 21
966.6829658244
 31
0.0
  0
LINE
  5
2C0
330
1F
100
AcDbEntity
  8
0
  6
Continuous
 62
     7
370
    15
100
AcDbLine
 10
751.4288158115
 20
1001.5329671596
 30
0.0
 11
751.4288158115
 21
966.6829658244
 31
0.0
  0
ARC
  5
2C1
330
1F
100
AcDbEntity
  8
0
  6
Continuous
 62
     7
370
    15
100
AcDbCircle
 10
830.2288166942
 20
966.0329883311
 30
0.0
 40
2.59999999999999
100
AcDbArc
 50
101.3148497955
 51
258.700947069
  0
ARC
  5
2C2
330
1F
100
AcDbEntity
  8
0
  6
Continuous
 62
     7
370
    15
100
AcDbCircle
 10
830.7288166942
 20
963.2275473948
 30
0.0
 40
0.2503511010932298
100
AcDbArc
 50
96.005776495
 51
280.1054407084
  0
LINE
  5
2C3
330
1F
100
AcDbEntity
  8
0
  6
Continuous
 62
     7
370
    15
100
AcDbLine
 10
807.5288166717
 20
966.6829658244
 30
0.0
 11
807.5288166717
 21
946.8330097888
 31
0.0
  0
ARC
  5
2C4
330
1F
100
AcDbEntity
  8
0
  6
Continuous
 62
     7
370
    15
100
AcDbCircle
 10
807.4038166942
 20
966.6829883311
 30
0.0
 40
0.1250000000001137
100
AcDbArc
 50
0.0
 51
180.0
  0
ARC
  5
2C5
330
1F
100
AcDbEntity
  8
0
  6
Continuous
 62
     7
370
    15
100
AcDbCircle
 10
830.2288166942
 20
966.0329883311
 30
0.0
 40
2.599999999999982
100
AcDbArc
 50
280.4998591652
 51
79.5001408348
  0
LINE
  5
2C6
330
1F
100
AcDbEntity
  8
0
  6
Continuous
 62
     7
370
    15
100
AcDbLine
 10
807.5288166717
 20
946.8330097888
 30
0.0
 11
827.5041927542
 21
946.8330097888
 31
0.0
  0
ARC
  5
2C7
330
1F
100
AcDbEntity
  8
0
  6
Continuous
 62
     7
370
    15
100
AcDbCircle
 10
830.7288166942
 20
968.8384292674
 30
0.0
 40
0.2503511010932182
100
AcDbArc
 50
79.8945592916
 51
263.9942235051
  0
ARC
  5
2C8
330
1F
100
AcDbEntity
  8
0
  6
Continuous
 62
     7
370
    15
100
AcDbCircle
 10
829.6905040172
 20
963.2346751832
 30
0.0
 40
0.2503794968157809
100
AcDbArc
 50
259.1110070998
 51
83.3730607602
  0
ARC
  5
2C9
330
1F
100
AcDbEntity
  8
0
  6
Continuous
 62
     7
370
    15
100
AcDbCircle
 10
830.2288166942
 20
966.0329883311
 30
0.0
 40
3.099999999999965
100
AcDbArc
 50
280.1054407084
 51
79.8945592916
  0
LINE
  5
2CA
330
1F
100
AcDbEntity
  8
0
  6
Continuous
 62
     7
370
    15
100
AcDbLine
 10
842.7288153168
 20
1001.5329671596
 30
0.0
 11
751.4288158115
 21
1001.5329671596
 31
0.0
  0
ARC
  5
2CB
330
1F
100
AcDbEntity
  8
0
  6
Continuous
 62
     7
370
    15
100
AcDbCircle
 10
830.2288166942
 20
966.0329883311
 30
0.0
 40
3.1
100
AcDbArc
 50
100.8891073053
 51
259.1110070997
  0
ARC
  5
2CC
330
1F
100
AcDbEntity
  8
0
  6
Continuous
 62
     7
370
    15
100
AcDbCircle
 10
842.7288166942
 20
978.5329883311
 30
0.0
 40
23.0
100
AcDbArc
 50
293.5
 51
90.0
  0
ARC
  5
2CD
330
1F
100
AcDbEntity
  8
0
  6
Continuous
 62
     7
370
    15
100
AcDbCircle
 10
829.6905040172
 20
968.8312713589
 30
0.0
 40
0.2504090746770187
100
AcDbArc
 50
276.4642622073
 51
100.8891073053
  0
LINE
  5
2CE
330
1F
100
AcDbEntity
  8
0
  6
Continuous
 62
     7
370
    15
100
AcDbLine
 10
827.5041927542
 20
946.8330097888
 30
0.0
 11
851.9000441726
 21
957.4406100009
 31
0.0
  0
LINE
  5
2CF
330
1F
100
AcDbEntity
  8
0
  6
Continuous
 62
     7
370
    15
100
AcDbLine
 10
750.9520084556
 20
964.2329765056
 30
0.0
 11
750.9520084556
 21
999.3829680179
 31
0.0
  0
LINE
  5
2D0
330
1F
100
AcDbEntity
  8
0
  6
Continuous
 62
     7
370
    15
100
AcDbLine
 10
101.9120172556
 20
964.2329765056
 30
0.0
 11
750.9520084556
 21
964.2329765056
 31
0.0
  0
SPLINE
  5
2D1
330
1F
100
AcDbEntity
  8
0
  6
Continuous
 62
     7
370
    15
100
AcDbSpline
210
0.0
220
0.0
230
1.0
 70
     8
 71
     3
 72
    12
 73
     8
 74
     0
 42
0.00000001
 43
0.00000001
 40
0.0
 40
0.0
 40
0.0
 40
0.0
 40
0.2256487268519571
 40
0.4513358006612549
 40
0.6770239394359561
 40
0.902703154069965
 40
1.0
 40
1.0
 40
1.0
 40
1.0
 10
100.6690815981355
 20
1001.833016941374
 30
0.0
 10
100.7625976567222
 20
1001.803075642551
 30
0.0
 10
100.9496456661027
 20
1001.743187956652
 30
0.0
 10
101.2302914038737
 20
1001.277767616133
 30
0.0
 10
101.5107599788398
 20
1000.599012078779
 30
0.0
 10
101.7385989660974
 20
999.9198098898762
 30
0.0
 10
101.8718694080408
 20
999.5072515967205
 30
0.0
 10
101.9120172556367
 20
999.3829680178814
 30
0.0
  0
LINE
  5
2D2
330
1F
100
AcDbEntity
  8
0
  6
Continuous
 62
     7
370
    15
100
AcDbLine
 10
154.4620350893
 20
1001.8330169414
 30
0.0
 11
750.9520084556
 21
1001.8330169414
 31
0.0
  0
LINE
  5
2D3
330
1F
100
AcDbEntity
  8
0
  6
Continuous
 62
     7
370
    15
100
AcDbLine
 10
750.9520084556
 20
999.3829680179
 30
0.0
 11
750.9520084556
 21
1001.8330169414
 31
0.0
  0
SPLINE
  5
2D4
330
1F
100
AcDbEntity
  8
0
  6
Continuous
 62
     7
370
    15
100
AcDbSpline
210
0.0
220
0.0
230
1.0
 70
     8
 71
     3
 72
    11
 73
     7
 74
     0
 42
0.00000001
 43
0.00000001
 40
0.0
 40
0.0
 40
0.0
 40
0.0
 40
0.2684734495082712
 40
0.5229957863180345
 40
0.7774846869406381
 40
1.0
 40
1.0
 40
1.0
 40
1.0
 10
100.6690815981355
 20
1000.632996628111
 30
0.0
 10
100.780403942027
 20
1000.611308548277
 30
0.0
 10
100.9972638098652
 20
1000.569059400783
 30
0.0
 10
101.3192986327878
 20
1000.254598321229
 30
0.0
 10
101.6226182321337
 20
999.8407676783186
 30
0.0
 10
101.8199601909628
 20
999.5285928801853
 30
0.0
 10
101.9120172556367
 20
999.3829680178814
 30
0.0
  0
LINE
  5
2D5
330
1F
100
AcDbEntity
  8
0
  6
Continuous
 62
     7
370
    15
100
AcDbLine
 10
100.6690815981
 20
1000.6329966281
 30
0.0
 11
100.6690815981
 21
1001.8330169414
 31
0.0
  0
SPLINE
  5
2D6
330
1F
100
AcDbEntity
  8
0
  6
Continuous
 62
     7
370
    15
100
AcDbSpline
210
0.0
220
0.0
230
1.0
 70
     8
 71
     3
 72
    13
 73
     9
 74
     0
 42
0.00000001
 43
0.00000001
 40
0.0
 40
0.0
 40
0.0
 40
0.0
 40
0.2927112079693091
 40
0.4989145707611563
 40
0.6164463215335758
 40
0.7386699059936596
 40
0.8663091214454919
 40
1.0
 40
1.0
 40
1.0
 40
1.0
 10
101.9120172556367
 20
999.3829680178814
 30
0.0
 10
101.5546673818252
 20
999.5619183952217
 30
0.0
 10
100.9455787851121
 20
999.8669321708047
 30
0.0
 10
100.300625394492
 20
1000.207241566761
 30
0.0
 10
99.91603450575937
 20
1000.392661759934
 30
0.0
 10
99.6695676916689
 20
1000.504702272931
 30
0.0
 10
99.49642583817331
 20
1000.586541394053
 30
0.0
 10
99.47366956084447
 20
1000.612581906822
 30
0.0
 10
99.46202793678904
 20
1000.625903675383
 30
0.0
  0
LINE
  5
2D7
330
1F
100
AcDbEntity
  8
0
  6
Continuous
 62
     7
370
    15
100
AcDbLine
 10
99.4620279368
 20
1000.6259036754
 30
0.0
 11
100.6619886454
 21
1000.6259036754
 31
0.0
  0
SPLINE
  5
2D8
330
1F
100
AcDbEntity
  8
0
  6
Continuous
 62
     7
370
    15
100
AcDbSpline
210
0.0
220
0.0
230
1.0
 70
     8
 71
     3
 72
    13
 73
     9
 74
     0
 42
0.00000001
 43
0.00000001
 40
0.0
 40
0.0
 40
0.0
 40
0.0
 40
0.3196015114196179
 40
0.5359166834266887
 40
0.6516187164642158
 40
0.7662237781790453
 40
0.8817090025000196
 40
0.9999999999999999
 40
0.9999999999999999
 40
0.9999999999999999
 40
0.9999999999999999
 10
101.9120172556367
 20
999.3829680178814
 30
0.0
 10
101.7309182789167
 20
999.5605873448344
 30
0.0
 10
101.4272464891784
 20
999.8584243612812
 30
0.0
 10
101.0977516782902
 20
1000.199396140785
 30
0.0
 10
100.8971615931611
 20
1000.38952799471
 30
0.0
 10
100.7697693597747
 20
1000.503011215852
 30
0.0
 10
100.6800918008157
 20
1000.585928829738
 30
0.0
 10
100.668071121121
 20
1000.612472534661
 30
0.0
 10
100.6619886454072
 20
1000.625903675383
 30
0.0
  0
LINE
  5
2D9
330
1F
100
AcDbEntity
  8
0
  6
Continuous
 62
     7
370
    15
100
AcDbLine
 10
99.4620279368
 20
964.2329765056
 30
0.0
 11
101.9120172556
 21
964.2329765056
 31
0.0
  0
LINE
  5
2DA
330
1F
100
AcDbEntity
  8
0
  6
Continuous
 62
     7
370
    15
100
AcDbLine
 10
99.4620279368
 20
1000.6259036754
 30
0.0
 11
99.4620279368
 21
964.2329765056
 31
0.0
  0
LINE
  5
2DB
330
1F
100
AcDbEntity
  8
0
  6
Continuous
 62
     7
370
    15
100
AcDbLine
 10
830.6826868053
 20
947.8878927921
 30
0.0
 11
852.0196706947
 21
957.1654749606
 31
0.0
  0
ARC
  5
2DC
330
1F
100
AcDbEntity
  8
0
  6
Continuous
 62
     7
370
    15
100
AcDbCircle
 10
842.7288166942
 20
978.5329883311
 30
0.0
 40
23.30000000000001
100
AcDbArc
 50
293.5
 51
90.0
  0
LINE
  5
2DD
330
1F
100
AcDbEntity
  8
0
  6
Continuous
 62
     7
370
    15
100
AcDbLine
 10
828.8485680666
 20
947.090382645
 30
0.0
 11
828.7289434072
 21
947.3655176852
 31
0.0
  0
LWPOLYLINE
  5
2DE
330
1F
100
AcDbEntity
  8
0
  6
Continuous
 62
     7
370
    15
100
AcDbPolyline
 90
        9
 70
   128
 43
0.0
 10
830.6826868053
 20
947.8878927921
 10
830.3248689469
 20
947.7323246692
 10
829.9807992723
 20
947.5827170108
 10
829.6637044247
 20
947.4448514674
 10
829.3857679661
 20
947.3239732478
 10
829.1576721664
 20
947.2247911189
 10
828.9881807711
 20
947.151119778
 10
828.8838093128
 20
947.1057010387
 10
828.8485680666
 20
947.090382645
  0
LINE
  5
2DF
330
1F
100
AcDbEntity
  8
0
  6
Continuous
 62
     7
370
    15
100
AcDbLine
 10
751.4120073017
 20
1001.8330169414
 30
0.0
 11
751.4120073017
 21
1000.6329966281
 31
0.0
  0
LINE
  5
2E0
330
1F
100
AcDbEntity
  8
0
  6
Continuous
 62
     7
370
    15
100
AcDbLine
 10
842.7288153168
 20
1001.8330169414
 30
0.0
 11
751.4120073017
 21
1001.8330169414
 31
0.0
  0
LINE
  5
2E1
330
1F
100
AcDbEntity
  8
0
  6
Continuous
 62
     7
370
    15
100
AcDbLine
 10
751.4288158115
 20
1000.6329966281
 30
0.0
 11
751.4120073017
 21
1000.6329966281
 31
0.0
  0
LINE
  5
2E2
330
1F
100
AcDbEntity
  8
0
  6
Continuous
 62
     7
370
    15
100
AcDbLine
 10
751.4120073017
 20
1001.8330169414
 30
0.0
 11
750.9520084556
 21
1001.789445946
 31
0.0
  0
LWPOLYLINE
  5
2E3
330
1F
100
AcDbEntity
  8
0
  6
Continuous
 62
     7
370
    15
100
AcDbPolyline
 90
        3
 70
   128
 43
0.0
 10
751.4120073017
 20
1000.6329966281
 10
751.1681460734
 20
1000.6089759563
 10
750.9520084556
 20
1000.545258591
  0
CIRCLE
  5
2E4
330
1F
100
AcDbEntity
  8
0
  6
Continuous
 62
     7
370
    15
100
AcDbCircle
 10
239.0519700805
 20
1056.3329883311
 30
0.0
 40
2.950000000000017
  0
CIRCLE
  5
2E5
330
1F
100
AcDbEntity
  8
0
  6
Continuous
 62
     7
370
    15
100
AcDbCircle
 10
239.0519700805
 20
1056.3329883311
 30
0.0
 40
2.525000000000006
  0
CIRCLE
  5
2E6
330
1F
100
AcDbEntity
  8
0
  6
Continuous
 62
     7
370
    15
100
AcDbCircle
 10
239.0519700805
 20
1056.3329883311
 30
0.0
 40
2.099999999999994
  0
SPLINE
  5
2E7
330
1F
100
AcDbEntity
  8
0
  6
Continuous
 62
     7
370
    15
100
AcDbSpline
210
0.0
220
0.0
230
1.0
 70
     8
 71
     3
 72
    12
 73
     8
 74
     0
 42
0.00000001
 43
0.00000001
 40
0.0
 40
0.0
 40
0.0
 40
0.0
 40
0.2301767321326402
 40
0.4604233750810302
 40
0.6906745300817961
 40
0.9209283892674164
 40
1.0
 40
1.0
 40
1.0
 40
1.0
 10
101.5120104845489
 20
283.0829883032047
 30
0.0
 10
101.2649219240385
 20
282.9876003478064
 30
0.0
 10
100.7706697556281
 20
282.7967954651425
 30
0.0
 10
100.1245464451398
 20
282.5104892589484
 30
0.0
 10
99.66064346078984
 20
282.2243765447931
 30
0.0
 10
99.47782799694038
 20
282.0002638792924
 30
0.0
 10
99.46524458353556
 20
281.8726745420656
 30
0.0
 10
99.46202793678904
 20
281.8400593991564
 30
0.0
  0
LINE
  5
2E8
330
1F
100
AcDbEntity
  8
0
  6
Continuous
 62
     7
370
    15
100
AcDbLine
 10
99.4620279368
 20
281.8400593992
 30
0.0
 11
99.4620279368
 21
963.3259130214
 31
0.0
  0
SPLINE
  5
2E9
330
1F
100
AcDbEntity
  8
0
  6
Continuous
 62
     7
370
    15
100
AcDbSpline
210
0.0
220
0.0
230
1.0
 70
     8
 71
     3
 72
    12
 73
     8
 74
     0
 42
0.00000001
 43
0.00000001
 40
0.0
 40
0.0
 40
0.0
 40
0.0
 40
0.2301677419937318
 40
0.4604218344668732
 40
0.6906784302973762
 40
0.9209172791081253
 40
1.0
 40
1.0
 40
1.0
 40
1.0
 10
99.46202793678904
 20
963.3259130213909
 30
0.0
 10
99.48810704565791
 20
963.230529876819
 30
0.0
 10
99.5402750473191
 20
963.0397278034242
 30
0.0
 10
99.94497428956583
 20
962.7534309356789
 30
0.0
 10
100.5330075849398
 20
962.467332827746
 30
0.0
 10
101.0970154945809
 20
962.2432075767716
 30
0.0
 10
101.4275136503021
 20
962.1156017233797
 30
0.0
 10
101.5120104845491
 20
962.0829773638897
 30
0.0
  0
ARC
  5
2EA
330
1F
100
AcDbEntity
  8
0
  6
Continuous
 62
     7
370
    15
100
AcDbCircle
 10
803.9120081957
 20
284.5829883311
 30
0.0
 40
1.500000000000114
100
AcDbArc
 50
270.0
 51
0.0
  0
LINE
  5
2EB
330
1F
100
AcDbEntity
  8
0
  6
Continuous
 62
     7
370
    15
100
AcDbLine
 10
803.9120082237
 20
283.0829883032
 30
0.0
 11
803.6620081827
 21
283.0829883032
 31
0.0
  0
LINE
  5
2EC
330
1F
100
AcDbEntity
  8
0
  6
Continuous
 62
     7
370
    15
100
AcDbLine
 10
805.4120082076
 20
284.8329883572
 30
0.0
 11
805.4120082076
 21
284.5829883162
 31
0.0
  0
LINE
  5
2ED
330
1F
100
AcDbEntity
  8
0
  6
Continuous
 62
     7
370
    15
100
AcDbLine
 10
803.6620081827
 20
283.0829883032
 30
0.0
 11
803.6620081827
 21
281.0329883514
 31
0.0
  0
LINE
  5
2EE
330
1F
100
AcDbEntity
  8
0
  6
Continuous
 62
     7
370
    15
100
AcDbLine
 10
100.269074827
 20
281.0329883514
 30
0.0
 11
803.6620081827
 21
281.0329883514
 31
0.0
  0
SPLINE
  5
2EF
330
1F
100
AcDbEntity
  8
0
  6
Continuous
 62
     7
370
    15
100
AcDbSpline
210
0.0
220
0.0
230
1.0
 70
     8
 71
     3
 72
    11
 73
     7
 74
     0
 42
0.00000001
 43
0.00000001
 40
0.0
 40
0.0
 40
0.0
 40
0.0
 40
0.2500020914639192
 40
0.4999998413750729
 40
0.7500020985914804
 40
0.9999999999999999
 40
0.9999999999999999
 40
0.9999999999999999
 40
0.9999999999999999
 10
100.2690748270478
 20
281.032988351354
 30
0.0
 10
100.3726404428921
 20
281.063801902066
 30
0.0
 10
100.5797698760535
 20
281.1254284683796
 30
0.0
 10
100.8905979859155
 20
281.5995008889211
 30
0.0
 10
101.2012823982832
 20
282.2771021408346
 30
0.0
 10
101.4084350573384
 20
282.8143611425455
 30
0.0
 10
101.5120104845491
 20
283.0829883032047
 30
0.0
  0
SPLINE
  5
2F0
330
1F
100
AcDbEntity
  8
0
  6
Continuous
 62
     7
370
    15
100
AcDbSpline
210
0.0
220
0.0
230
1.0
 70
     8
 71
     3
 72
    11
 73
     7
 74
     0
 42
0.00000001
 43
0.00000001
 40
0.0
 40
0.0
 40
0.0
 40
0.0
 40
0.2499979860816409
 40
0.5000060975540876
 40
0.7500024276637571
 40
1.0
 40
1.0
 40
1.0
 40
1.0
 10
100.2690748270477
 20
281.8329883311451
 30
0.0
 10
100.3726425721991
 20
281.8517793982604
 30
0.0
 10
100.5797822571916
 20
281.8893622935645
 30
0.0
 10
100.8905836708526
 20
282.1784077802112
 30
0.0
 10
101.201288348596
 20
282.5916016982618
 30
0.0
 10
101.4084362676795
 20
282.9191924969257
 30
0.0
 10
101.5120104845489
 20
283.0829883032047
 30
0.0
  0
LINE
  5
2F1
330
1F
100
AcDbEntity
  8
0
  6
Continuous
 62
     7
370
    15
100
AcDbLine
 10
100.269074827
 20
281.8329883311
 30
0.0
 11
100.269074827
 21
281.0329883514
 31
0.0
  0
SPLINE
  5
2F2
330
1F
100
AcDbEntity
  8
0
  6
Continuous
 62
     7
370
    15
100
AcDbSpline
210
0.0
220
0.0
230
1.0
 70
     8
 71
     3
 72
    11
 73
     7
 74
     0
 42
0.00000001
 43
0.00000001
 40
0.0
 40
0.0
 40
0.0
 40
0.0
 40
0.2542957001055491
 40
0.5087788859445765
 40
0.7632571822942611
 40
0.9999999999999999
 40
0.9999999999999999
 40
0.9999999999999999
 40
0.9999999999999999
 10
101.5120104845491
 20
283.0829883032047
 30
0.0
 10
101.3453874331409
 20
282.9776097413766
 30
0.0
 10
101.0120184833989
 20
282.7667749247948
 30
0.0
 10
100.5940212994477
 20
282.4505364660224
 30
0.0
 10
100.313955914393
 20
282.1414637518416
 30
0.0
 10
100.2788844709422
 20
281.9380797990831
 30
0.0
 10
100.2619818743194
 20
281.8400593991564
 30
0.0
  0
LINE
  5
2F3
330
1F
100
AcDbEntity
  8
0
  6
Continuous
 62
     7
370
    15
100
AcDbLine
 10
99.4620279368
 20
281.8400593992
 30
0.0
 11
100.2619818743
 21
281.8400593992
 31
0.0
  0
SPLINE
  5
2F4
330
1F
100
AcDbEntity
  8
0
  6
Continuous
 62
     7
370
    15
100
AcDbSpline
210
0.0
220
0.0
230
1.0
 70
     8
 71
     3
 72
    11
 73
     7
 74
     0
 42
0.00000001
 43
0.00000001
 40
0.0
 40
0.0
 40
0.0
 40
0.0
 40
0.2543061598840604
 40
0.5087755033335671
 40
0.7632668423471288
 40
1.0
 40
1.0
 40
1.0
 40
1.0
 10
805.412008207605
 20
962.0829773638897
 30
0.0
 10
805.578640373196
 20
962.1883627205502
 30
0.0
 10
805.9120116291605
 20
962.399201057708
 30
0.0
 10
806.3299955994692
 20
962.7154232250323
 30
0.0
 10
806.6101051344373
 20
963.0245297949095
 30
0.0
 10
806.6451292342772
 20
963.2279026461374
 30
0.0
 10
806.6620082087692
 20
963.3259130213909
 30
0.0
  0
LINE
  5
2F5
330
1F
100
AcDbEntity
  8
0
  6
Continuous
 62
     7
370
    15
100
AcDbLine
 10
807.4620082468
 20
963.3259130214
 30
0.0
 11
806.6620082088
 21
963.3259130214
 31
0.0
  0
SPLINE
  5
2F6
330
1F
100
AcDbEntity
  8
0
  6
Continuous
 62
     7
370
    15
100
AcDbSpline
210
0.0
220
0.0
230
1.0
 70
     8
 71
     3
 72
    12
 73
     8
 74
     0
 42
0.00000001
 43
0.00000001
 40
0.0
 40
0.0
 40
0.0
 40
0.0
 40
0.2301670061144254
 40
0.460418424816862
 40
0.6906733236513924
 40
0.9209321840472686
 40
1.0
 40
1.0
 40
1.0
 40
1.0
 10
805.412008207605
 20
962.0829773638898
 30
0.0
 10
805.6590870235502
 20
962.1783596685927
 30
0.0
 10
806.1533352703494
 20
962.3691592589779
 30
0.0
 10
806.7994649959387
 20
962.6554675289009
 30
0.0
 10
807.2634106194271
 20
962.9415395855189
 30
0.0
 10
807.4462146768318
 20
963.1657672504153
 30
0.0
 10
807.45879305421
 20
963.2933111781721
 30
0.0
 10
807.4620082467671
 20
963.3259130213909
 30
0.0
  0
SPLINE
  5
2F7
330
1F
100
AcDbEntity
  8
0
  6
Continuous
 62
     7
370
    15
100
AcDbSpline
210
0.0
220
0.0
230
1.0
 70
     8
 71
     3
 72
    11
 73
     7
 74
     0
 42
0.00000001
 43
0.00000001
 40
0.0
 40
0.0
 40
0.0
 40
0.0
 40
0.2500021376568758
 40
0.5000047167755595
 40
0.7499978623431242
 40
1.0
 40
1.0
 40
1.0
 40
1.0
 10
101.5120104845491
 20
962.0829773638897
 30
0.0
 10
101.4084353114222
 20
962.3516092789729
 30
0.0
 10
101.2012847822724
 20
962.8888735834983
 30
0.0
 10
100.8906018419784
 20
963.5664850258356
 30
0.0
 10
100.5797660502493
 20
964.0405156452754
 30
0.0
 10
100.3726398097919
 20
964.1021447867383
 30
0.0
 10
100.2690748270478
 20
964.1329599116497
 30
0.0
  0
LINE
  5
2F8
330
1F
100
AcDbEntity
  8
0
  6
Continuous
 62
     7
370
    15
100
AcDbLine
 10
806.6549371421
 20
964.1329599116
 30
0.0
 11
100.269074827
 21
964.1329599116
 31
0.0
  0
SPLINE
  5
2F9
330
1F
100
AcDbEntity
  8
0
  6
Continuous
 62
     7
370
    15
100
AcDbSpline
210
0.0
220
0.0
230
1.0
 70
     8
 71
     3
 72
    11
 73
     7
 74
     0
 42
0.00000001
 43
0.00000001
 40
0.0
 40
0.0
 40
0.0
 40
0.0
 40
0.2500037151943275
 40
0.4999921373627182
 40
0.7499962940166948
 40
0.9999999999999999
 40
0.9999999999999999
 40
0.9999999999999999
 40
0.9999999999999999
 10
806.6549371421214
 20
964.1329599116497
 30
0.0
 10
806.5513618665199
 20
964.1021463373419
 30
0.0
 10
806.34421765114
 20
964.0405210736299
 30
0.0
 10
806.0334592326808
 20
963.5664759874835
 30
0.0
 10
805.7227424442921
 20
962.888874435863
 30
0.0
 10
805.5155862242623
 20
962.351609559797
 30
0.0
 10
805.412008207605
 20
962.0829773638897
 30
0.0
  0
SPLINE
  5
2FA
330
1F
100
AcDbEntity
  8
0
  6
Continuous
 62
     7
370
    15
100
AcDbSpline
210
0.0
220
0.0
230
1.0
 70
     8
 71
     3
 72
    11
 73
     7
 74
     0
 42
0.00000001
 43
0.00000001
 40
0.0
 40
0.0
 40
0.0
 40
0.0
 40
0.2500087392979317
 40
0.4999928282810499
 40
0.7499997975567034
 40
1.0
 40
1.0
 40
1.0
 40
1.0
 10
101.5120104845491
 20
962.0829773638897
 30
0.0
 10
101.4084391691319
 20
962.2467873116386
 30
0.0
 10
101.2013067502031
 20
962.5743910558335
 30
0.0
 10
100.8905733499184
 20
962.9875524169414
 30
0.0
 10
100.5797812522958
 20
963.2765859140279
 30
0.0
 10
100.3726427010294
 20
963.3141994571027
 30
0.0
 10
100.2690748270478
 20
963.3330059741191
 30
0.0
  0
LINE
  5
2FB
330
1F
100
AcDbEntity
  8
0
  6
Continuous
 62
     7
370
    15
100
AcDbLine
 10
100.269074827
 20
964.1329599116
 30
0.0
 11
100.269074827
 21
963.3330059741
 31
0.0
  0
SPLINE
  5
2FC
330
1F
100
AcDbEntity
  8
0
  6
Continuous
 62
     7
370
    15
100
AcDbSpline
210
0.0
220
0.0
230
1.0
 70
     8
 71
     3
 72
    11
 73
     7
 74
     0
 42
0.00000001
 43
0.00000001
 40
0.0
 40
0.0
 40
0.0
 40
0.0
 40
0.2500036757119418
 40
0.5000002453801506
 40
0.7499878078054338
 40
1.0
 40
1.0
 40
1.0
 40
1.0
 10
806.6549371421214
 20
963.3330059741191
 30
0.0
 10
806.5513600400651
 20
963.3142015386838
 30
0.0
 10
806.344208780003
 20
963.2765932023057
 30
0.0
 10
806.0334812235699
 20
962.987540282985
 30
0.0
 10
805.7227213247609
 20
962.574392200857
 30
0.0
 10
805.515582647844
 20
962.2467876887638
 30
0.0
 10
805.412008207605
 20
962.0829773638897
 30
0.0
  0
LINE
  5
2FD
330
1F
100
AcDbEntity
  8
0
  6
Continuous
 62
     7
370
    15
100
AcDbLine
 10
806.6549371421
 20
963.3330059741
 30
0.0
 11
806.6549371421
 21
964.1329599116
 31
0.0
  0
SPLINE
  5
2FE
330
1F
100
AcDbEntity
  8
0
  6
Continuous
 62
     7
370
    15
100
AcDbSpline
210
0.0
220
0.0
230
1.0
 70
     8
 71
     3
 72
    11
 73
     7
 74
     0
 42
0.00000001
 43
0.00000001
 40
0.0
 40
0.0
 40
0.0
 40
0.0
 40
0.2543091670540424
 40
0.5087689057120299
 40
0.7632444286145932
 40
1.0
 40
1.0
 40
1.0
 40
1.0
 10
100.2619818743196
 20
963.3259130213909
 30
0.0
 10
100.2814539852874
 20
963.2205307585895
 30
0.0
 10
100.3204097362884
 20
963.0097038381601
 30
0.0
 10
100.6193245708142
 20
962.6934482504416
 30
0.0
 10
101.0353456537463
 20
962.3844271096197
 30
0.0
 10
101.3569897132939
 20
962.1810147458358
 30
0.0
 10
101.5120104845491
 20
962.0829773638897
 30
0.0
  0
LINE
  5
2FF
330
1F
100
AcDbEntity
  8
0
  6
Continuous
 62
     7
370
    15
100
AcDbLine
 10
99.4620279368
 20
963.3259130214
 30
0.0
 11
100.2619818743
 21
963.3259130214
 31
0.0
  0
LINE
  5
300
330
1F
100
AcDbEntity
  8
0
  6
Continuous
 62
     7
370
    15
100
AcDbLine
 10
807.4620082468
 20
284.8329883572
 30
0.0
 11
807.4620082468
 21
824.2829991077
 31
0.0
  0
LINE
  5
301
330
1F
100
AcDbEntity
  8
0
  6
Continuous
 62
     7
370
    15
100
AcDbLine
 10
807.4620082468
 20
825.0830126498
 30
0.0
 11
807.4620082468
 21
826.0829997752
 31
0.0
  0
LINE
  5
302
330
1F
100
AcDbEntity
  8
0
  6
Continuous
 62
     7
370
    15
100
AcDbLine
 10
807.4620082468
 20
944.7706890796
 30
0.0
 11
807.4620082468
 21
945.770676205
 31
0.0
  0
LINE
  5
303
330
1F
100
AcDbEntity
  8
0
  6
Continuous
 62
     7
370
    15
100
AcDbLine
 10
807.4620082468
 20
946.5706897472
 30
0.0
 11
807.4620082468
 21
963.3259130214
 31
0.0
  0
LINE
  5
304
330
1F
100
AcDbEntity
  8
0
  6
Continuous
 62
     7
370
    15
100
AcDbLine
 10
807.4620082468
 20
284.8329883572
 30
0.0
 11
805.4120082076
 21
284.8329883572
 31
0.0
  0
LINE
  5
305
330
1F
100
AcDbEntity
  8
0
  6
Continuous
 62
     7
370
    15
100
AcDbLine
 10
806.6549371421
 20
964.1329599116
 30
0.0
 11
806.6549371421
 21
964.2329765056
 31
0.0
  0
LINE
  5
306
330
1F
100
AcDbEntity
  8
0
  6
Continuous
 62
     7
370
    15
100
AcDbLine
 10
128.2619790133
 20
964.2329765056
 30
0.0
 11
128.2619790133
 21
964.1329599116
 31
0.0
  0
LINE
  5
307
330
1F
100
AcDbEntity
  8
0
  6
Continuous
 62
     7
370
    15
100
AcDbLine
 10
750.9520084556
 20
974.1330099796
 30
0.0
 11
751.4288158115
 21
974.1330099796
 31
0.0
  0
LINE
  5
308
330
1F
100
AcDbEntity
  8
0
  6
Continuous
 62
     7
370
    15
100
AcDbLine
 10
786.9620074477
 20
117.8329838012
 30
0.0
 11
729.9620092805
 21
117.8329838012
 31
0.0
  0
LINE
  5
309
330
1F
100
AcDbEntity
  8
0
  6
Continuous
 62
     7
370
    15
100
AcDbLine
 10
784.9620089825
 20
111.832986543
 30
0.0
 11
731.9620058831
 21
111.832986543
 31
0.0
  0
LINE
  5
30A
330
1F
100
AcDbEntity
  8
0
  6
Continuous
 62
     7
370
    15
100
AcDbLine
 10
199.962015539
 20
111.832986543
 30
0.0
 11
146.9619826373
 21
111.832986543
 31
0.0
  0
LINE
  5
30B
330
1F
100
AcDbEntity
  8
0
  6
Continuous
 62
     7
370
    15
100
AcDbLine
 10
201.9619897898
 20
117.8329838012
 30
0.0
 11
144.9620083865
 21
117.8329838012
 31
0.0
  0
LINE
  5
30C
330
1F
100
AcDbEntity
  8
0
  6
Continuous
 62
     7
370
    15
100
AcDbLine
 10
803.4620081732
 20
279.8329882361
 30
0.0
 11
803.4620081732
 21
281.0329883514
 31
0.0
  0
LINE
  5
30D
330
1F
100
AcDbEntity
  8
0
  6
Continuous
 62
     7
370
    15
100
AcDbLine
 10
713.4620056447
 20
279.8329882361
 30
0.0
 11
803.4620081732
 21
279.8329882361
 31
0.0
  0
LINE
  5
30E
330
1F
100
AcDbEntity
  8
0
  6
Continuous
 62
     7
370
    15
100
AcDbLine
 10
713.4620056447
 20
279.8329882361
 30
0.0
 11
713.4620056447
 21
281.0329883514
 31
0.0
  0
LINE
  5
30F
330
1F
100
AcDbEntity
  8
0
  6
Continuous
 62
     7
370
    15
100
AcDbLine
 10
789.4216583069
 20
185.8329874967
 30
0.0
 11
727.5023565587
 21
185.8329874967
 31
0.0
  0
LINE
  5
310
330
1F
100
AcDbEntity
  8
0
  6
Continuous
 62
     7
370
    15
100
AcDbLine
 10
218.4619859751
 20
279.8329882361
 30
0.0
 11
218.4619859751
 21
281.0329883514
 31
0.0
  0
LINE
  5
311
330
1F
100
AcDbEntity
  8
0
  6
Continuous
 62
     7
370
    15
100
AcDbLine
 10
128.4620122012
 20
279.8329882361
 30
0.0
 11
218.4619859751
 21
279.8329882361
 31
0.0
  0
LINE
  5
312
330
1F
100
AcDbEntity
  8
0
  6
Continuous
 62
     7
370
    15
100
AcDbLine
 10
128.4620122012
 20
279.8329882361
 30
0.0
 11
128.4620122012
 21
281.0329883514
 31
0.0
  0
LINE
  5
313
330
1F
100
AcDbEntity
  8
0
  6
Continuous
 62
     7
370
    15
100
AcDbLine
 10
204.4216350611
 20
185.8329874967
 30
0.0
 11
142.5023631152
 21
185.8329874967
 31
0.0
  0
LINE
  5
314
330
1F
100
AcDbEntity
  8
0
  6
Continuous
 62
     7
370
    15
100
AcDbLine
 10
75.7620290812
 20
686.6052997802
 30
0.0
 11
81.1620310839
 21
686.6052997802
 31
0.0
  0
LINE
  5
315
330
1F
100
AcDbEntity
  8
0
  6
Continuous
 62
     7
370
    15
100
AcDbLine
 10
75.7620290812
 20
705.4687393401
 30
0.0
 11
81.1620310839
 21
705.4687393401
 31
0.0
  0
LINE
  5
316
330
1F
100
AcDbEntity
  8
0
  6
Continuous
 62
     7
370
    15
100
AcDbLine
 10
75.7620290812
 20
686.6052997802
 30
0.0
 11
75.7620290812
 21
705.4687393401
 31
0.0
  0
LINE
  5
317
330
1F
100
AcDbEntity
  8
0
  6
Continuous
 62
     7
370
    15
100
AcDbLine
 10
81.1620310839
 20
686.6052997802
 30
0.0
 11
81.1620310839
 21
705.4687393401
 31
0.0
  0
LINE
  5
318
330
1F
100
AcDbEntity
  8
0
  6
Continuous
 62
     7
370
    15
100
AcDbLine
 10
96.0620001849
 20
687.2447384093
 30
0.0
 11
99.4620279368
 21
687.2447384093
 31
0.0
  0
LINE
  5
319
330
1F
100
AcDbEntity
  8
0
  6
Continuous
 62
     7
370
    15
100
AcDbLine
 10
96.0620001849
 20
704.6435428355
 30
0.0
 11
99.4620279368
 21
704.6435428355
 31
0.0
  0
LINE
  5
31A
330
1F
100
AcDbEntity
  8
0
  6
Continuous
 62
     7
370
    15
100
AcDbLine
 10
96.0620001849
 20
687.2447384093
 30
0.0
 11
96.0620001849
 21
704.6435428355
 31
0.0
  0
LINE
  5
31B
330
1F
100
AcDbEntity
  8
0
  6
Continuous
 62
     7
370
    15
100
AcDbLine
 10
66.8120340403
 20
688.7810779308
 30
0.0
 11
66.8120340403
 21
701.9579959605
 31
0.0
  0
LINE
  5
31C
330
1F
100
AcDbEntity
  8
0
  6
Continuous
 62
     7
370
    15
100
AcDbLine
 10
66.8120340403
 20
680.7079864238
 30
0.0
 11
66.8120340403
 21
688.7810779308
 31
0.0
  0
LINE
  5
31D
330
1F
100
AcDbEntity
  8
0
  6
Continuous
 62
     7
370
    15
100
AcDbLine
 10
87.7619937952
 20
687.2799349521
 30
0.0
 11
87.7619937952
 21
708.2079900001
 31
0.0
  0
LINE
  5
31E
330
1F
100
AcDbEntity
  8
0
  6
Continuous
 62
     7
370
    15
100
AcDbLine
 10
87.7619937952
 20
674.4579923843
 30
0.0
 11
87.7619937952
 21
687.2799349521
 31
0.0
  0
LINE
  5
31F
330
1F
100
AcDbEntity
  8
0
  6
Continuous
 62
     7
370
    15
100
AcDbLine
 10
93.111987501
 20
687.5261319373
 30
0.0
 11
93.111987501
 21
707.1829987262
 31
0.0
  0
LINE
  5
320
330
1F
100
AcDbEntity
  8
0
  6
Continuous
 62
     7
370
    15
100
AcDbLine
 10
93.111987501
 20
675.4829836581
 30
0.0
 11
93.111987501
 21
687.5261319373
 31
0.0
  0
LINE
  5
321
330
1F
100
AcDbEntity
  8
0
  6
Continuous
 62
     7
370
    15
100
AcDbLine
 10
75.7620290812
 20
672.4695516322
 30
0.0
 11
81.1620310839
 21
672.4695516322
 31
0.0
  0
LINE
  5
322
330
1F
100
AcDbEntity
  8
0
  6
Continuous
 62
     7
370
    15
100
AcDbLine
 10
75.7620290812
 20
672.4695516322
 30
0.0
 11
75.7620290812
 21
686.6052997802
 31
0.0
  0
LINE
  5
323
330
1F
100
AcDbEntity
  8
0
  6
Continuous
 62
     7
370
    15
100
AcDbLine
 10
81.1620310839
 20
672.4695516322
 30
0.0
 11
81.1620310839
 21
686.6052997802
 31
0.0
  0
LINE
  5
324
330
1F
100
AcDbEntity
  8
0
  6
Continuous
 62
     7
370
    15
100
AcDbLine
 10
96.0620001849
 20
686.3304031585
 30
0.0
 11
99.4620279368
 21
686.3304031585
 31
0.0
  0
LINE
  5
325
330
1F
100
AcDbEntity
  8
0
  6
Continuous
 62
     7
370
    15
100
AcDbLine
 10
96.0620001849
 20
686.3304031585
 30
0.0
 11
96.0620001849
 21
687.2447384093
 31
0.0
  0
LINE
  5
326
330
1F
100
AcDbEntity
  8
0
  6
Continuous
 62
     7
370
    15
100
AcDbLine
 10
96.0620001849
 20
673.2811284755
 30
0.0
 11
99.4620279368
 21
673.2811284755
 31
0.0
  0
LINE
  5
327
330
1F
100
AcDbEntity
  8
0
  6
Continuous
 62
     7
370
    15
100
AcDbLine
 10
96.0620001849
 20
673.2811284755
 30
0.0
 11
96.0620001849
 21
686.3304031585
 31
0.0
  0
LINE
  5
328
330
1F
100
AcDbEntity
  8
0
  6
Continuous
 62
     7
370
    15
100
AcDbLine
 10
75.7620290812
 20
710.1964307521
 30
0.0
 11
81.1620310839
 21
710.1964307521
 31
0.0
  0
LINE
  5
329
330
1F
100
AcDbEntity
  8
0
  6
Continuous
 62
     7
370
    15
100
AcDbLine
 10
75.7620290812
 20
705.4687393401
 30
0.0
 11
75.7620290812
 21
710.1964307521
 31
0.0
  0
LINE
  5
32A
330
1F
100
AcDbEntity
  8
0
  6
Continuous
 62
     7
370
    15
100
AcDbLine
 10
81.1620310839
 20
705.4687393401
 30
0.0
 11
81.1620310839
 21
710.1964307521
 31
0.0
  0
LINE
  5
32B
330
1F
100
AcDbEntity
  8
0
  6
Continuous
 62
     7
370
    15
100
AcDbLine
 10
96.0620001849
 20
705.296601126
 30
0.0
 11
99.4620279368
 21
705.296601126
 31
0.0
  0
LINE
  5
32C
330
1F
100
AcDbEntity
  8
0
  6
Continuous
 62
     7
370
    15
100
AcDbLine
 10
96.0620001849
 20
704.6435428355
 30
0.0
 11
96.0620001849
 21
705.296601126
 31
0.0
  0
LINE
  5
32D
330
1F
100
AcDbEntity
  8
0
  6
Continuous
 62
     7
370
    15
100
AcDbLine
 10
96.0620001849
 20
709.6461010669
 30
0.0
 11
99.4620279368
 21
709.6461010669
 31
0.0
  0
LINE
  5
32E
330
1F
100
AcDbEntity
  8
0
  6
Continuous
 62
     7
370
    15
100
AcDbLine
 10
96.0620001849
 20
705.296601126
 30
0.0
 11
96.0620001849
 21
709.6461010669
 31
0.0
  0
LINE
  5
32F
330
1F
100
AcDbEntity
  8
0
  6
Continuous
 62
     7
370
    15
100
AcDbLine
 10
96.0620001849
 20
673.0198813174
 30
0.0
 11
99.4620279368
 21
673.0198813174
 31
0.0
  0
LINE
  5
330
330
1F
100
AcDbEntity
  8
0
  6
Continuous
 62
     7
370
    15
100
AcDbLine
 10
96.0620001849
 20
673.0198813174
 30
0.0
 11
96.0620001849
 21
673.2811284755
 31
0.0
  0
SPLINE
  5
331
330
1F
100
AcDbEntity
  8
0
  6
Continuous
 62
     7
370
    15
100
AcDbSpline
210
0.0
220
0.0
230
1.0
 70
     8
 71
     3
 72
    10
 73
     6
 74
     0
 42
0.00000001
 43
0.00000001
 40
0.0
 40
0.0
 40
0.0
 40
0.0
 40
0.3483458485615772
 40
0.6961273060200487
 40
1.0
 40
1.0
 40
1.0
 40
1.0
 10
88.01203528008116
 20
423.332820603674
 30
0.0
 10
88.03654672134343
 20
423.3306218081839
 30
0.0
 10
88.08552989034912
 20
423.3262277796997
 30
0.0
 10
88.14881659566598
 20
423.296636187305
 30
0.0
 10
88.17845776103528
 20
423.2675951737833
 30
0.0
 10
88.19227972588206
 20
423.2540530656033
 30
0.0
  0
SPLINE
  5
332
330
1F
100
AcDbEntity
  8
0
  6
Continuous
 62
     7
370
    15
100
AcDbSpline
210
0.0
220
0.0
230
1.0
 70
     8
 71
     3
 72
    13
 73
     9
 74
     0
 42
0.00000001
 43
0.00000001
 40
0.0
 40
0.0
 40
0.0
 40
0.0
 40
0.1694496498193632
 40
0.3386350821558459
 40
0.5184752367249581
 40
0.7276883277923413
 40
0.9924443040703146
 40
1.0
 40
1.0
 40
1.0
 40
1.0
 10
88.01203528008128
 20
408.3238793109112
 30
0.0
 10
88.03663239154547
 20
408.324438732723
 30
0.0
 10
88.08578826097558
 20
408.3255567040578
 30
0.0
 10
88.15193303469616
 20
408.334045081188
 30
0.0
 10
88.20761550707724
 20
408.3469874138764
 30
0.0
 10
88.25026531544778
 20
408.3658888816884
 30
0.0
 10
88.2620812701288
 20
408.3814058981707
 30
0.0
 10
88.26201889106977
 20
408.3903583125673
 30
0.0
 10
88.26201716026915
 20
408.3906067107372
 30
0.0
  0
LINE
  5
333
330
1F
100
AcDbEntity
  8
0
  6
Continuous
 62
     7
370
    15
100
AcDbLine
 10
88.2620171603
 20
423.0821979736
 30
0.0
 11
88.2620171603
 21
420.5333394502
 31
0.0
  0
LINE
  5
334
330
1F
100
AcDbEntity
  8
0
  6
Continuous
 62
     7
370
    15
100
AcDbLine
 10
88.2620171603
 20
414.1614539121
 30
0.0
 11
88.2620171603
 21
408.3906067107
 31
0.0
  0
SPLINE
  5
335
330
1F
100
AcDbEntity
  8
0
  6
Continuous
 62
     7
370
    15
100
AcDbSpline
210
0.0
220
0.0
230
1.0
 70
     8
 71
     3
 72
    13
 73
     9
 74
     0
 42
0.00000001
 43
0.00000001
 40
0.0
 40
0.0
 40
0.0
 40
0.0
 40
0.0075556959296854
 40
0.2723116722076587
 40
0.481524763275042
 40
0.6613649178441542
 40
0.8305503501806368
 40
1.0
 40
1.0
 40
1.0
 40
1.0
 10
87.06199684700633
 20
408.3906067107372
 30
0.0
 10
87.06199511620561
 20
408.3903583125673
 30
0.0
 10
87.06193273714646
 20
408.3814058981714
 30
0.0
 10
87.07374869182793
 20
408.3658888816881
 30
0.0
 10
87.1163985001987
 20
408.3469874138764
 30
0.0
 10
87.17208097257945
 20
408.334045081188
 30
0.0
 10
87.23822574630013
 20
408.3255567040578
 30
0.0
 10
87.28738161573024
 20
408.324438732723
 30
0.0
 10
87.31197872719432
 20
408.3238793109112
 30
0.0
  0
LINE
  5
336
330
1F
100
AcDbEntity
  8
0
  6
Continuous
 62
     7
370
    15
100
AcDbLine
 10
87.061996847
 20
408.3906067107
 30
0.0
 11
87.061996847
 21
414.1985578035
 31
0.0
  0
LINE
  5
337
330
1F
100
AcDbEntity
  8
0
  6
Continuous
 62
     7
370
    15
100
AcDbLine
 10
87.061996847
 20
420.6369770263
 30
0.0
 11
87.061996847
 21
423.0821979736
 31
0.0
  0
LINE
  5
338
330
1F
100
AcDbEntity
  8
0
  6
Continuous
 62
     7
370
    15
100
AcDbLine
 10
88.0120352801
 20
423.3328206037
 30
0.0
 11
87.3119787272
 21
423.3328206037
 31
0.0
  0
LINE
  5
339
330
1F
100
AcDbEntity
  8
0
  6
Continuous
 62
     7
370
    15
100
AcDbLine
 10
88.0120352801
 20
408.3238793109
 30
0.0
 11
87.3119787272
 21
408.3238793109
 31
0.0
  0
SPLINE
  5
33A
330
1F
100
AcDbEntity
  8
0
  6
Continuous
 62
     7
370
    15
100
AcDbSpline
210
0.0
220
0.0
230
1.0
 70
     8
 71
     3
 72
    12
 73
     8
 74
     0
 42
0.00000001
 43
0.00000001
 40
0.0
 40
0.0
 40
0.0
 40
0.0
 40
0.22894488335835
 40
0.4594187278511104
 40
0.6825481849833285
 40
0.8947196251953701
 40
1.0
 40
1.0
 40
1.0
 40
1.0
 10
87.06199684700633
 20
405.8861014936619
 30
0.0
 10
87.07934486241619
 20
405.7178613132326
 30
0.0
 10
87.11415674837531
 20
405.3802573950646
 30
0.0
 10
87.387972008798
 20
404.9363838148375
 30
0.0
 10
87.78505551244675
 20
404.6174922518917
 30
0.0
 10
88.18591245408247
 20
404.4744337462911
 30
0.0
 10
88.4307880069497
 20
404.462269237841
 30
0.0
 10
88.51199904045725
 20
404.4582349751644
 30
0.0
  0
SPLINE
  5
33B
330
1F
100
AcDbEntity
  8
0
  6
Continuous
 62
     7
370
    15
100
AcDbSpline
210
0.0
220
0.0
230
1.0
 70
     8
 71
     3
 72
    12
 73
     8
 74
     0
 42
0.00000001
 43
0.00000001
 40
0.0
 40
0.0
 40
0.0
 40
0.0
 40
0.2028063960053696
 40
0.4049483806504216
 40
0.6098304529146366
 40
0.8226903229516174
 40
1.0
 40
1.0
 40
1.0
 40
1.0
 10
88.51199904045725
 20
406.7205069158726
 30
0.0
 10
88.35487082417026
 20
406.7346148787758
 30
0.0
 10
88.04112915727403
 20
406.7627845856711
 30
0.0
 10
87.620729122454
 20
406.981340708253
 30
0.0
 10
87.29362990635292
 20
407.305552658849
 30
0.0
 10
87.09548340828177
 20
407.6944967508002
 30
0.0
 10
87.07245976989886
 20
407.968436370829
 30
0.0
 10
87.06199684700633
 20
408.0929262135678
 30
0.0
  0
LINE
  5
33C
330
1F
100
AcDbEntity
  8
0
  6
Continuous
 62
     7
370
    15
100
AcDbLine
 10
87.061996847
 20
405.8861014937
 30
0.0
 11
87.061996847
 21
408.0929262136
 31
0.0
  0
LINE
  5
33D
330
1F
100
AcDbEntity
  8
0
  6
Continuous
 62
     7
370
    15
100
AcDbLine
 10
93.8619927462
 20
406.9144380782
 30
0.0
 11
93.8619927462
 21
404.7076133583
 31
0.0
  0
LINE
  5
33E
330
1F
100
AcDbEntity
  8
0
  6
Continuous
 62
     7
370
    15
100
AcDbLine
 10
93.8619927462
 20
407.5997424815
 30
0.0
 11
93.8619927462
 21
406.9144380782
 31
0.0
  0
LINE
  5
33F
330
1F
100
AcDbEntity
  8
0
  6
Continuous
 62
     7
370
    15
100
AcDbLine
 10
88.2620171603
 20
408.3906067107
 30
0.0
 11
88.2620171603
 21
408.0929262136
 31
0.0
  0
LINE
  5
340
330
1F
100
AcDbEntity
  8
0
  6
Continuous
 62
     7
370
    15
100
AcDbLine
 10
87.061996847
 20
408.0929262136
 30
0.0
 11
87.061996847
 21
408.3906067107
 31
0.0
  0
LINE
  5
341
330
1F
100
AcDbEntity
  8
0
  6
Continuous
 62
     7
370
    15
100
AcDbLine
 10
88.5119990405
 20
404.4582349752
 30
0.0
 11
88.5119990405
 21
404.457616577
 31
0.0
  0
LINE
  5
342
330
1F
100
AcDbEntity
  8
0
  6
Continuous
 62
     7
370
    15
100
AcDbLine
 10
88.2620171603
 20
423.3798784707
 30
0.0
 11
88.2620171603
 21
423.0829877351
 31
0.0
  0
LINE
  5
343
330
1F
100
AcDbEntity
  8
0
  6
Continuous
 62
     7
370
    15
100
AcDbLine
 10
87.061996847
 20
423.0821979736
 30
0.0
 11
87.061996847
 21
423.3798784707
 31
0.0
  0
SPLINE
  5
344
330
1F
100
AcDbEntity
  8
0
  6
Continuous
 62
     7
370
    15
100
AcDbSpline
210
0.0
220
0.0
230
1.0
 70
     8
 71
     3
 72
    12
 73
     8
 74
     0
 42
0.00000001
 43
0.00000001
 40
0.0
 40
0.0
 40
0.0
 40
0.0
 40
0.2289451017389787
 40
0.4594165112490251
 40
0.6825481467560781
 40
0.894719789349286
 40
1.0
 40
1.0
 40
1.0
 40
1.0
 10
87.06199684700633
 20
423.3798784707241
 30
0.0
 10
87.07934432695663
 20
423.5481190691086
 30
0.0
 10
87.11415493726105
 20
423.8857218750788
 30
0.0
 10
87.38797665144182
 20
424.3295890853504
 30
0.0
 10
87.78505283724114
 20
424.6484873357725
 30
0.0
 10
88.185912045184
 20
424.7915502925514
 30
0.0
 10
88.430788007548
 20
424.8037061513303
 30
0.0
 10
88.51199904045725
 20
424.807737538641
 30
0.0
  0
SPLINE
  5
345
330
1F
100
AcDbEntity
  8
0
  6
Continuous
 62
     7
370
    15
100
AcDbSpline
210
0.0
220
0.0
230
1.0
 70
     8
 71
     3
 72
    12
 73
     8
 74
     0
 42
0.00000001
 43
0.00000001
 40
0.0
 40
0.0
 40
0.0
 40
0.0
 40
0.2476826919304354
 40
0.487450245610745
 40
0.7077196682023214
 40
0.9064435567749063
 40
1.0
 40
1.0
 40
1.0
 40
1.0
 10
88.26201716026927
 20
423.3798784707241
 30
0.0
 10
88.26493401156333
 20
423.4084825465525
 30
0.0
 10
88.2706745010119
 20
423.4647766044029
 30
0.0
 10
88.3169482507773
 20
423.5404118197006
 30
0.0
 10
88.38547828340194
 20
423.5956500092789
 30
0.0
 10
88.45596320556514
 20
423.620660161183
 30
0.0
 10
88.49841165391193
 20
423.6226740973461
 30
0.0
 10
88.51199904045725
 20
423.623318741148
 30
0.0
  0
LINE
  5
346
330
1F
100
AcDbEntity
  8
0
  6
Continuous
 62
     7
370
    15
100
AcDbLine
 10
93.8619927462
 20
424.5583666061
 30
0.0
 11
93.8619927462
 21
423.8730473016
 31
0.0
  0
LINE
  5
347
330
1F
100
AcDbEntity
  8
0
  6
Continuous
 62
     7
370
    15
100
AcDbLine
 10
93.8619927462
 20
423.8730473016
 30
0.0
 11
93.8619927462
 21
421.6662300323
 31
0.0
  0
SPLINE
  5
348
330
1F
100
AcDbEntity
  8
0
  6
Continuous
 62
     7
370
    15
100
AcDbSpline
210
0.0
220
0.0
230
1.0
 70
     8
 71
     3
 72
    12
 73
     8
 74
     0
 42
0.00000001
 43
0.00000001
 40
0.0
 40
0.0
 40
0.0
 40
0.0
 40
0.2289504785697873
 40
0.4594364614006898
 40
0.6825463185779265
 40
0.8947189770320914
 40
1.0
 40
1.0
 40
1.0
 40
1.0
 10
89.4620374735322
 20
419.9999374840908
 30
0.0
 10
89.44469558368561
 20
420.0633060653622
 30
0.0
 10
89.40989549698197
 20
420.1904682225465
 30
0.0
 10
89.13599285705631
 20
420.3553329519274
 30
0.0
 10
88.73897673188836
 20
420.4730499254799
 30
0.0
 10
88.33812033386967
 20
420.525604881396
 30
0.0
 10
88.09324594880775
 20
420.5300703674314
 30
0.0
 10
88.01203528008128
 20
420.5315513108425
 30
0.0
  0
LINE
  5
349
330
1F
100
AcDbEntity
  8
0
  6
Continuous
 62
     7
370
    15
100
AcDbLine
 10
89.4620374735
 20
419.9999374841
 30
0.0
 11
89.4620374735
 21
414.2865938638
 31
0.0
  0
LINE
  5
34A
330
1F
100
AcDbEntity
  8
0
  6
Continuous
 62
     7
370
    15
100
AcDbLine
 10
82.6619819697
 20
414.6736366246
 30
0.0
 11
82.6619819697
 21
420.3869802449
 31
0.0
  0
SPLINE
  5
34B
330
1F
100
AcDbEntity
  8
0
  6
Continuous
 62
     7
370
    15
100
AcDbSpline
210
0.0
220
0.0
230
1.0
 70
     8
 71
     3
 72
    13
 73
     9
 74
     0
 42
0.00000001
 43
0.00000001
 40
0.0
 40
0.0
 40
0.0
 40
0.0
 40
0.1695917833035242
 40
0.3386488101328846
 40
0.5184914897527952
 40
0.7277059158557604
 40
0.9924480795231377
 40
1.0
 40
1.0
 40
1.0
 40
1.0
 10
89.21199598869944
 20
414.0028757546597
 30
0.0
 10
89.23661401462579
 20
414.0044795567691
 30
0.0
 10
89.28577244096813
 20
414.0076821038823
 30
0.0
 10
89.35191589613089
 20
414.031972347464
 30
0.0
 10
89.40752669336882
 20
414.0686034024403
 30
0.0
 10
89.45047086401492
 20
414.1212956856733
 30
0.0
 10
89.46135337851669
 20
414.164165584997
 30
0.0
 10
89.46201901255324
 20
414.1881618232722
 30
0.0
 10
89.4620374735322
 20
414.1888273451977
 30
0.0
  0
LINE
  5
34C
330
1F
100
AcDbEntity
  8
0
  6
Continuous
 62
     7
370
    15
100
AcDbLine
 10
89.4620374735
 20
414.1888273452
 30
0.0
 11
89.4620374735
 21
407.8497392629
 31
0.0
  0
SPLINE
  5
34D
330
1F
100
AcDbEntity
  8
0
  6
Continuous
 62
     7
370
    15
100
AcDbSpline
210
0.0
220
0.0
230
1.0
 70
     8
 71
     3
 72
    13
 73
     9
 74
     0
 42
0.00000001
 43
0.00000001
 40
0.0
 40
0.0
 40
0.0
 40
0.0
 40
0.0075507942481321
 40
0.2722973778031294
 40
0.4815152967545288
 40
0.661360978859658
 40
0.8305407705185962
 40
1.0
 40
1.0
 40
1.0
 40
1.0
 10
88.26201716026915
 20
414.1888273451977
 30
0.0
 10
88.2620154314534
 20
414.1881618215577
 30
0.0
 10
88.26195308674878
 20
414.1641616520272
 30
0.0
 10
88.27377003386705
 20
414.1212964028038
 30
0.0
 10
88.31641956961379
 20
414.0686047976032
 30
0.0
 10
88.37209839877957
 20
414.0319593756528
 30
0.0
 10
88.43825002795724
 20
414.0076963980843
 30
0.0
 10
88.48740251642285
 20
414.0044835195346
 30
0.0
 10
88.51199904045725
 20
414.0028757546597
 30
0.0
  0
LINE
  5
34E
330
1F
100
AcDbEntity
  8
0
  6
Continuous
 62
     7
370
    15
100
AcDbLine
 10
88.2620171603
 20
408.3605212663
 30
0.0
 11
88.2620171603
 21
414.1888273452
 31
0.0
  0
LINE
  5
34F
330
1F
100
AcDbEntity
  8
0
  6
Continuous
 62
     7
370
    15
100
AcDbLine
 10
88.5119990405
 20
414.0028757547
 30
0.0
 11
89.2119959887
 21
414.0028757547
 31
0.0
  0
LINE
  5
350
330
1F
100
AcDbEntity
  8
0
  6
Continuous
 62
     7
370
    15
100
AcDbLine
 10
82.6619819697
 20
414.4485545848
 30
0.0
 11
82.6619819697
 21
414.6736366246
 31
0.0
  0
LINE
  5
351
330
1F
100
AcDbEntity
  8
0
  6
Continuous
 62
     7
370
    15
100
AcDbLine
 10
89.4620374735
 20
414.2865938638
 30
0.0
 11
89.4620374735
 21
414.1888273452
 31
0.0
  0
LINE
  5
352
330
1F
100
AcDbEntity
  8
0
  6
Continuous
 62
     7
370
    15
100
AcDbLine
 10
88.0120352801
 20
420.5315513108
 30
0.0
 11
88.0120352801
 21
420.6369770263
 31
0.0
  0
LINE
  5
353
330
1F
100
AcDbEntity
  8
0
  6
Continuous
 62
     7
370
    15
100
AcDbLine
 10
89.4620374735
 20
423.0829877351
 30
0.0
 11
89.4620374735
 21
419.9021709655
 31
0.0
  0
LINE
  5
354
330
1F
100
AcDbEntity
  8
0
  6
Continuous
 62
     7
370
    15
100
AcDbLine
 10
88.2620171603
 20
420.626874039
 30
0.0
 11
88.2620171603
 21
423.0829877351
 31
0.0
  0
LINE
  5
355
330
1F
100
AcDbEntity
  8
0
  6
Continuous
 62
     7
370
    15
100
AcDbLine
 10
82.6619819697
 20
409.1040743087
 30
0.0
 11
82.6619819697
 21
409.6081507896
 31
0.0
  0
LINE
  5
356
330
1F
100
AcDbEntity
  8
0
  6
Continuous
 62
     7
370
    15
100
AcDbLine
 10
82.6619819697
 20
408.87900717
 30
0.0
 11
82.6619819697
 21
409.1040743087
 31
0.0
  0
LINE
  5
357
330
1F
100
AcDbEntity
  8
0
  6
Continuous
 62
     7
370
    15
100
AcDbLine
 10
86.70156756
 20
414.1985578035
 30
0.0
 11
87.061996847
 21
412.1706140731
 31
0.0
  0
SPLINE
  5
358
330
1F
100
AcDbEntity
  8
0
  6
Continuous
 62
     7
370
    15
100
AcDbSpline
210
0.0
220
0.0
230
1.0
 70
     8
 71
     3
 72
     9
 73
     5
 74
     0
 42
0.00000001
 43
0.00000001
 40
0.0
 40
0.0
 40
0.0
 40
0.0
 40
0.0701999653658529
 40
1.0
 40
1.0
 40
1.0
 40
1.0
 10
87.06199684700633
 20
412.170614073103
 30
0.0
 10
87.06154596630333
 20
412.111056021054
 30
0.0
 10
87.05512316109798
 20
411.2626503026393
 30
0.0
 10
86.82728384880778
 20
410.4312370033384
 30
0.0
 10
86.6154388483491
 20
409.6581888888531
 30
0.0
  0
LINE
  5
359
330
1F
100
AcDbEntity
  8
0
  6
Continuous
 62
     7
370
    15
100
AcDbLine
 10
86.6154388483
 20
409.6581888889
 30
0.0
 11
82.3085860308
 21
409.6581888889
 31
0.0
  0
SPLINE
  5
35A
330
1F
100
AcDbEntity
  8
0
  6
Continuous
 62
     7
370
    15
100
AcDbSpline
210
0.0
220
0.0
230
1.0
 70
     8
 71
     3
 72
     9
 73
     5
 74
     0
 42
0.00000001
 43
0.00000001
 40
0.0
 40
0.0
 40
0.0
 40
0.0
 40
0.0701995084743553
 40
1.0
 40
1.0
 40
1.0
 40
1.0
 10
81.86202803215647
 20
412.170614073103
 30
0.0
 10
81.86245829973726
 20
412.111056006805
 30
0.0
 10
81.86858751046967
 20
411.2626445635872
 30
0.0
 10
82.09658958751132
 20
410.4312344350378
 30
0.0
 10
82.30858603081359
 20
409.6581888888531
 30
0.0
  0
LINE
  5
35B
330
1F
100
AcDbEntity
  8
0
  6
Continuous
 62
     7
370
    15
100
AcDbLine
 10
82.3085860308
 20
414.6830243562
 30
0.0
 11
81.8620280322
 21
412.1706140731
 31
0.0
  0
LINE
  5
35C
330
1F
100
AcDbEntity
  8
0
  6
Continuous
 62
     7
370
    15
100
AcDbLine
 10
82.6619819697
 20
414.6830243562
 30
0.0
 11
82.3085860308
 21
414.6830243562
 31
0.0
  0
SPLINE
  5
35D
330
1F
100
AcDbEntity
  8
0
  6
Continuous
 62
     7
370
    15
100
AcDbSpline
210
0.0
220
0.0
230
1.0
 70
     8
 71
     3
 72
     9
 73
     5
 74
     0
 42
0.00000001
 43
0.00000001
 40
0.0
 40
0.0
 40
0.0
 40
0.0
 40
0.2575544593823592
 40
1.0
 40
1.0
 40
1.0
 40
1.0
 10
82.3085860308137
 20
414.6830243561917
 30
0.0
 10
82.24116598606668
 20
414.8918463111661
 30
0.0
 10
81.97939593204117
 20
415.7026338839198
 30
0.0
 10
81.91203778675116
 20
416.5450026532736
 30
0.0
 10
81.86202803215647
 20
417.1704155896359
 30
0.0
  0
LINE
  5
35E
330
1F
100
AcDbEntity
  8
0
  6
Continuous
 62
     7
370
    15
100
AcDbLine
 10
81.8620280322
 20
412.1706140731
 30
0.0
 11
81.8620280322
 21
417.1704155896
 31
0.0
  0
SPLINE
  5
35F
330
1F
100
AcDbEntity
  8
0
  6
Continuous
 62
     7
370
    15
100
AcDbSpline
210
0.0
220
0.0
230
1.0
 70
     8
 71
     3
 72
     9
 73
     5
 74
     0
 42
0.00000001
 43
0.00000001
 40
0.0
 40
0.0
 40
0.0
 40
0.0
 40
0.2686354561049835
 40
0.9999999999999999
 40
0.9999999999999999
 40
0.9999999999999999
 40
0.9999999999999999
 10
81.86202803215647
 20
417.1704155896359
 30
0.0
 10
81.86865340467232
 20
417.396592999921
 30
0.0
 10
81.89331646520725
 20
418.2385422108131
 30
0.0
 10
82.13316749315547
 20
419.0582884152925
 30
0.0
 10
82.3085860308137
 20
419.6578217242413
 30
0.0
  0
LINE
  5
360
330
1F
100
AcDbEntity
  8
0
  6
Continuous
 62
     7
370
    15
100
AcDbLine
 10
82.6619819697
 20
419.6578217242
 30
0.0
 11
82.3085860308
 21
419.6578217242
 31
0.0
  0
LINE
  5
361
330
1F
100
AcDbEntity
  8
0
  6
Continuous
 62
     7
370
    15
100
AcDbLine
 10
86.6154388483
 20
409.6581888889
 30
0.0
 11
87.061996847
 21
409.6331698392
 31
0.0
  0
LINE
  5
362
330
1F
100
AcDbEntity
  8
0
  6
Continuous
 62
     7
370
    15
100
AcDbLine
 10
82.3085860308
 20
409.6581888889
 30
0.0
 11
81.8620280322
 21
409.6331698392
 31
0.0
  0
LINE
  5
363
330
1F
100
AcDbEntity
  8
0
  6
Continuous
 62
     7
370
    15
100
AcDbLine
 10
81.8620280322
 20
409.6331698392
 30
0.0
 11
81.8620280322
 21
412.1706140731
 31
0.0
  0
SPLINE
  5
364
330
1F
100
AcDbEntity
  8
0
  6
Continuous
 62
     7
370
    15
100
AcDbSpline
210
0.0
220
0.0
230
1.0
 70
     8
 71
     3
 72
     9
 73
     5
 74
     0
 42
0.00000001
 43
0.00000001
 40
0.0
 40
0.0
 40
0.0
 40
0.0
 40
0.0701982830269417
 40
1.0
 40
1.0
 40
1.0
 40
1.0
 10
81.86202803215647
 20
419.6328026745968
 30
0.0
 10
81.86245831346584
 20
419.6333939671957
 30
0.0
 10
81.86858782676254
 20
419.6418171447064
 30
0.0
 10
82.09658959512112
 20
419.6501105250024
 30
0.0
 10
82.3085860308137
 20
419.6578217242413
 30
0.0
  0
LINE
  5
365
330
1F
100
AcDbEntity
  8
0
  6
Continuous
 62
     7
370
    15
100
AcDbLine
 10
81.8620280322
 20
417.1704155896
 30
0.0
 11
81.8620280322
 21
419.6328026746
 31
0.0
  0
SPLINE
  5
366
330
1F
100
AcDbEntity
  8
0
  6
Continuous
 62
     7
370
    15
100
AcDbSpline
210
0.0
220
0.0
230
1.0
 70
     8
 71
     3
 72
     9
 73
     5
 74
     0
 42
0.00000001
 43
0.00000001
 40
0.0
 40
0.0
 40
0.0
 40
0.0
 40
0.0701987399232133
 40
1.0
 40
1.0
 40
1.0
 40
1.0
 10
87.06199684700633
 20
409.6331698392086
 30
0.0
 10
87.06154595258886
 20
409.632578546752
 30
0.0
 10
87.05512283989769
 20
409.6241554260922
 30
0.0
 10
86.82728383872973
 20
409.6158620142994
 30
0.0
 10
86.6154388483491
 20
409.6081507895641
 30
0.0
  0
LINE
  5
367
330
1F
100
AcDbEntity
  8
0
  6
Continuous
 62
     7
370
    15
100
AcDbLine
 10
86.6154388483
 20
409.6081507896
 30
0.0
 11
82.3085860308
 21
409.6081507896
 31
0.0
  0
SPLINE
  5
368
330
1F
100
AcDbEntity
  8
0
  6
Continuous
 62
     7
370
    15
100
AcDbSpline
210
0.0
220
0.0
230
1.0
 70
     8
 71
     3
 72
     9
 73
     5
 74
     0
 42
0.00000001
 43
0.00000001
 40
0.0
 40
0.0
 40
0.0
 40
0.0
 40
0.0701982830269417
 40
1.0
 40
1.0
 40
1.0
 40
1.0
 10
81.86202803215647
 20
409.6331698392086
 30
0.0
 10
81.86245831346584
 20
409.6325785466097
 30
0.0
 10
81.86858782676254
 20
409.624155369099
 30
0.0
 10
82.09658959512112
 20
409.615861988803
 30
0.0
 10
82.3085860308137
 20
409.6081507895641
 30
0.0
  0
LINE
  5
369
330
1F
100
AcDbEntity
  8
0
  6
Continuous
 62
     7
370
    15
100
AcDbLine
 10
94.2154482897
 20
416.5970785115
 30
0.0
 11
94.6620062884
 21
413.755158851
 31
0.0
  0
SPLINE
  5
36A
330
1F
100
AcDbEntity
  8
0
  6
Continuous
 62
     7
370
    15
100
AcDbSpline
210
0.0
220
0.0
230
1.0
 70
     8
 71
     3
 72
     9
 73
     5
 74
     0
 42
0.00000001
 43
0.00000001
 40
0.0
 40
0.0
 40
0.0
 40
0.0
 40
0.070201015063915
 40
1.0
 40
1.0
 40
1.0
 40
1.0
 10
94.66200628838206
 20
413.7551588509731
 30
0.0
 10
94.66155541942689
 20
413.6877889132547
 30
0.0
 10
94.65513287760552
 20
412.7281170672417
 30
0.0
 10
94.42729329881372
 20
411.7876756068397
 30
0.0
 10
94.21544828972483
 20
410.9132540915661
 30
0.0
  0
LINE
  5
36B
330
1F
100
AcDbEntity
  8
0
  6
Continuous
 62
     7
370
    15
100
AcDbLine
 10
94.2154482897
 20
410.9132540916
 30
0.0
 11
89.9085954722
 21
410.9132540916
 31
0.0
  0
SPLINE
  5
36C
330
1F
100
AcDbEntity
  8
0
  6
Continuous
 62
     7
370
    15
100
AcDbSpline
210
0.0
220
0.0
230
1.0
 70
     8
 71
     3
 72
     9
 73
     5
 74
     0
 42
0.00000001
 43
0.00000001
 40
0.0
 40
0.0
 40
0.0
 40
0.0
 40
0.0702005581663452
 40
0.9999999999999999
 40
0.9999999999999999
 40
0.9999999999999999
 40
0.9999999999999999
 10
89.4620374735322
 20
413.7551588509731
 30
0.0
 10
89.46246772935329
 20
413.6877888971367
 30
0.0
 10
89.46859668092233
 20
412.728110575538
 30
0.0
 10
89.69659902237237
 20
411.7876727017207
 30
0.0
 10
89.90859547218943
 20
410.9132540915661
 30
0.0
  0
LINE
  5
36D
330
1F
100
AcDbEntity
  8
0
  6
Continuous
 62
     7
370
    15
100
AcDbLine
 10
89.9085954722
 20
416.5970785115
 30
0.0
 11
89.4620374735
 21
413.755158851
 31
0.0
  0
LINE
  5
36E
330
1F
100
AcDbEntity
  8
0
  6
Continuous
 62
     7
370
    15
100
AcDbLine
 10
94.2154482897
 20
416.5970785115
 30
0.0
 11
89.9085954722
 21
416.5970785115
 31
0.0
  0
SPLINE
  5
36F
330
1F
100
AcDbEntity
  8
0
  6
Continuous
 62
     7
370
    15
100
AcDbSpline
210
0.0
220
0.0
230
1.0
 70
     8
 71
     3
 72
     9
 73
     5
 74
     0
 42
0.00000001
 43
0.00000001
 40
0.0
 40
0.0
 40
0.0
 40
0.0
 40
0.2575490521355184
 40
1.0
 40
1.0
 40
1.0
 40
1.0
 10
94.21544828972483
 20
416.5970785115414
 30
0.0
 10
94.28284503825735
 20
416.7532175451432
 30
0.0
 10
94.54453013464526
 20
417.359467237414
 30
0.0
 10
94.61195019825219
 20
417.9893184299088
 30
0.0
 10
94.66200628838206
 20
418.4569520447903
 30
0.0
  0
LINE
  5
370
330
1F
100
AcDbEntity
  8
0
  6
Continuous
 62
     7
370
    15
100
AcDbLine
 10
94.6620062884
 20
418.4569520448
 30
0.0
 11
94.6620062884
 21
413.755158851
 31
0.0
  0
SPLINE
  5
371
330
1F
100
AcDbEntity
  8
0
  6
Continuous
 62
     7
370
    15
100
AcDbSpline
210
0.0
220
0.0
230
1.0
 70
     8
 71
     3
 72
     9
 73
     5
 74
     0
 42
0.00000001
 43
0.00000001
 40
0.0
 40
0.0
 40
0.0
 40
0.0
 40
0.2575534725660305
 40
1.0
 40
1.0
 40
1.0
 40
1.0
 10
89.90859547218943
 20
416.5970785115414
 30
0.0
 10
89.84117542414849
 20
416.7532170577455
 30
0.0
 10
89.57940435436163
 20
417.3594544524444
 30
0.0
 10
89.51204683206093
 20
417.9893145801822
 30
0.0
 10
89.4620374735322
 20
418.4569520447903
 30
0.0
  0
LINE
  5
372
330
1F
100
AcDbEntity
  8
0
  6
Continuous
 62
     7
370
    15
100
AcDbLine
 10
89.9085954722
 20
410.9132540916
 30
0.0
 11
89.4620374735
 21
409.9312079642
 31
0.0
  0
LINE
  5
373
330
1F
100
AcDbEntity
  8
0
  6
Continuous
 62
     7
370
    15
100
AcDbLine
 10
94.2154482897
 20
410.9132540916
 30
0.0
 11
94.6620062884
 21
409.9312079642
 31
0.0
  0
LINE
  5
374
330
1F
100
AcDbEntity
  8
0
  6
Continuous
 62
     7
370
    15
100
AcDbLine
 10
94.6620062884
 20
413.755158851
 30
0.0
 11
94.6620062884
 21
409.9312079642
 31
0.0
  0
SPLINE
  5
375
330
1F
100
AcDbEntity
  8
0
  6
Continuous
 62
     7
370
    15
100
AcDbSpline
210
0.0
220
0.0
230
1.0
 70
     8
 71
     3
 72
     9
 73
     5
 74
     0
 42
0.00000001
 43
0.00000001
 40
0.0
 40
0.0
 40
0.0
 40
0.0
 40
0.2686335633610137
 40
1.0
 40
1.0
 40
1.0
 40
1.0
 10
89.4620374735322
 20
418.4569520447903
 30
0.0
 10
89.46866294765732
 20
418.6260616625639
 30
0.0
 10
89.49332656020925
 20
419.2555794921968
 30
0.0
 10
89.73317694842986
 20
419.8685237899628
 30
0.0
 10
89.90859547218943
 20
420.316810676878
 30
0.0
  0
LINE
  5
376
330
1F
100
AcDbEntity
  8
0
  6
Continuous
 62
     7
370
    15
100
AcDbLine
 10
94.2154482897
 20
420.3168106769
 30
0.0
 11
89.9085954722
 21
420.3168106769
 31
0.0
  0
SPLINE
  5
377
330
1F
100
AcDbEntity
  8
0
  6
Continuous
 62
     7
370
    15
100
AcDbSpline
210
0.0
220
0.0
230
1.0
 70
     8
 71
     3
 72
     9
 73
     5
 74
     0
 42
0.00000001
 43
0.00000001
 40
0.0
 40
0.0
 40
0.0
 40
0.0
 40
0.2686335633610137
 40
1.0
 40
1.0
 40
1.0
 40
1.0
 10
94.66200628838206
 20
418.4569520447903
 30
0.0
 10
94.65538081425673
 20
418.6260616625639
 30
0.0
 10
94.6307172017048
 20
419.2555794921968
 30
0.0
 10
94.39086681348408
 20
419.8685237899628
 30
0.0
 10
94.21544828972483
 20
420.316810676878
 30
0.0
  0
SPLINE
  5
378
330
1F
100
AcDbEntity
  8
0
  6
Continuous
 62
     7
370
    15
100
AcDbSpline
210
0.0
220
0.0
230
1.0
 70
     8
 71
     3
 72
     9
 73
     5
 74
     0
 42
0.00000001
 43
0.00000001
 40
0.0
 40
0.0
 40
0.0
 40
0.0
 40
0.070203204582268
 40
1.0
 40
1.0
 40
1.0
 40
1.0
 10
94.66200628838206
 20
409.9312079642468
 30
0.0
 10
94.66155544393196
 20
409.907926380096
 30
0.0
 10
94.65513345147491
 20
409.5762950209677
 30
0.0
 10
94.42729331680665
 20
409.2513213317537
 30
0.0
 10
94.21544828972472
 20
408.9491618369274
 30
0.0
  0
LINE
  5
379
330
1F
100
AcDbEntity
  8
0
  6
Continuous
 62
     7
370
    15
100
AcDbLine
 10
94.2154482897
 20
408.9491618369
 30
0.0
 11
89.9085954722
 21
408.9491618369
 31
0.0
  0
LINE
  5
37A
330
1F
100
AcDbEntity
  8
0
  6
Continuous
 62
     7
370
    15
100
AcDbLine
 10
89.730437189
 20
409.3151045535
 30
0.0
 11
89.9085954722
 21
408.9491618369
 31
0.0
  0
LINE
  5
37B
330
1F
100
AcDbEntity
  8
0
  6
Continuous
 62
     7
370
    15
100
AcDbLine
 10
89.730437189
 20
419.9508679603
 30
0.0
 11
89.9085954722
 21
420.3168106769
 31
0.0
  0
LINE
  5
37C
330
1F
100
AcDbEntity
  8
0
  6
Continuous
 62
     7
370
    15
100
AcDbLine
 10
94.393606573
 20
419.9508679603
 30
0.0
 11
94.2154482897
 21
420.3168106769
 31
0.0
  0
LINE
  5
37D
330
1F
100
AcDbEntity
  8
0
  6
Continuous
 62
     7
370
    15
100
AcDbLine
 10
94.6620062884
 20
418.4569520448
 30
0.0
 11
94.6620062884
 21
419.6329814885
 31
0.0
  0
LINE
  5
37E
330
1F
100
AcDbEntity
  8
0
  6
Continuous
 62
     7
370
    15
100
AcDbLine
 10
94.6620062884
 20
409.9312079642
 30
0.0
 11
94.6620062884
 21
409.6329910253
 31
0.0
  0
LINE
  5
37F
330
1F
100
AcDbEntity
  8
0
  6
Continuous
 62
     7
370
    15
100
AcDbLine
 10
99.4620279368
 20
413.4619934056
 30
0.0
 11
95.3586057719
 21
413.4619934056
 31
0.0
  0
SPLINE
  5
380
330
1F
100
AcDbEntity
  8
0
  6
Continuous
 62
     7
370
    15
100
AcDbSpline
210
0.0
220
0.0
230
1.0
 70
     8
 71
     3
 72
     9
 73
     5
 74
     0
 42
0.00000001
 43
0.00000001
 40
0.0
 40
0.0
 40
0.0
 40
0.0
 40
0.0702031748790762
 40
1.0
 40
1.0
 40
1.0
 40
1.0
 10
94.91198816857005
 20
416.202778885191
 30
0.0
 10
94.91243896069601
 20
416.1378041938891
 30
0.0
 10
94.91886021054252
 20
415.2122806486396
 30
0.0
 10
95.14673164011744
 20
414.3053005872103
 30
0.0
 10
95.35860577187205
 20
413.4619934056454
 30
0.0
  0
LINE
  5
381
330
1F
100
AcDbEntity
  8
0
  6
Continuous
 62
     7
370
    15
100
AcDbLine
 10
95.3586057719
 20
418.9435643647
 30
0.0
 11
94.9119881686
 21
416.2027788852
 31
0.0
  0
LINE
  5
382
330
1F
100
AcDbEntity
  8
0
  6
Continuous
 62
     7
370
    15
100
AcDbLine
 10
99.4620279368
 20
418.9435643647
 30
0.0
 11
95.3586057719
 21
418.9435643647
 31
0.0
  0
LINE
  5
383
330
1F
100
AcDbEntity
  8
0
  6
Continuous
 62
     7
370
    15
100
AcDbLine
 10
95.3586057719
 20
413.4619934056
 30
0.0
 11
94.9119881686
 21
411.3067043517
 31
0.0
  0
LINE
  5
384
330
1F
100
AcDbEntity
  8
0
  6
Continuous
 62
     7
370
    15
100
AcDbLine
 10
94.9119881686
 20
411.3067043517
 30
0.0
 11
94.9119881686
 21
416.2027788852
 31
0.0
  0
LINE
  5
385
330
1F
100
AcDbEntity
  8
0
  6
Continuous
 62
     7
370
    15
100
AcDbLine
 10
99.4620279368
 20
409.1514152978
 30
0.0
 11
95.3586057719
 21
409.1514152978
 31
0.0
  0
SPLINE
  5
386
330
1F
100
AcDbEntity
  8
0
  6
Continuous
 62
     7
370
    15
100
AcDbSpline
210
0.0
220
0.0
230
1.0
 70
     8
 71
     3
 72
     9
 73
     5
 74
     0
 42
0.00000001
 43
0.00000001
 40
0.0
 40
0.0
 40
0.0
 40
0.0
 40
0.0702014358125594
 40
0.9999999999999999
 40
0.9999999999999999
 40
0.9999999999999999
 40
0.9999999999999999
 10
94.91198816857005
 20
411.3067043517285
 30
0.0
 10
94.91243898016222
 20
411.2556090786726
 30
0.0
 10
94.91886066637112
 20
410.5277710727348
 30
0.0
 10
95.14673165439125
 20
409.8145589269361
 30
0.0
 10
95.35860577187205
 20
409.1514152978115
 30
0.0
  0
SPLINE
  5
387
330
1F
100
AcDbEntity
  8
0
  6
Continuous
 62
     7
370
    15
100
AcDbSpline
210
0.0
220
0.0
230
1.0
 70
     8
 71
     3
 72
     9
 73
     5
 74
     0
 42
0.00000001
 43
0.00000001
 40
0.0
 40
0.0
 40
0.0
 40
0.0
 40
0.2575486895681981
 40
1.0
 40
1.0
 40
1.0
 40
1.0
 10
95.35860577187205
 20
418.9435643647366
 30
0.0
 10
95.29118659539171
 20
418.9927180347843
 30
0.0
 10
95.02941404825383
 20
419.1835699864296
 30
0.0
 10
94.96202285116229
 20
419.381848585015
 30
0.0
 10
94.91198816857005
 20
419.5290607903652
 30
0.0
  0
LINE
  5
388
330
1F
100
AcDbEntity
  8
0
  6
Continuous
 62
     7
370
    15
100
AcDbLine
 10
94.9119881686
 20
416.2027788852
 30
0.0
 11
94.9119881686
 21
419.5290607904
 31
0.0
  0
SPLINE
  5
389
330
1F
100
AcDbEntity
  8
0
  6
Continuous
 62
     7
370
    15
100
AcDbSpline
210
0.0
220
0.0
230
1.0
 70
     8
 71
     3
 72
     9
 73
     5
 74
     0
 42
0.00000001
 43
0.00000001
 40
0.0
 40
0.0
 40
0.0
 40
0.0
 40
0.2686344327892884
 40
0.9999999999999999
 40
0.9999999999999999
 40
0.9999999999999999
 40
0.9999999999999999
 10
94.91198816857005
 20
419.5290607903652
 30
0.0
 10
94.91863613287943
 20
419.582298968222
 30
0.0
 10
94.9433833860166
 20
419.7804797349391
 30
0.0
 10
95.1832070221793
 20
419.9734444031427
 30
0.0
 10
95.35860577187205
 20
420.1145721171551
 30
0.0
  0
LINE
  5
38A
330
1F
100
AcDbEntity
  8
0
  6
Continuous
 62
     7
370
    15
100
AcDbLine
 10
99.4620279368
 20
420.1145721172
 30
0.0
 11
95.3586057719
 21
420.1145721172
 31
0.0
  0
SPLINE
  5
38B
330
1F
100
AcDbEntity
  8
0
  6
Continuous
 62
     7
370
    15
100
AcDbSpline
210
0.0
220
0.0
230
1.0
 70
     8
 71
     3
 72
     9
 73
     5
 74
     0
 42
0.00000001
 43
0.00000001
 40
0.0
 40
0.0
 40
0.0
 40
0.0
 40
0.2575535482256434
 40
1.0
 40
1.0
 40
1.0
 40
1.0
 10
95.35860577187205
 20
409.1514152978115
 30
0.0
 10
95.29118661164581
 20
409.2005687992151
 30
0.0
 10
95.02941906586516
 20
409.3914164957121
 30
0.0
 10
94.9620248012233
 20
409.5896981860195
 30
0.0
 10
94.91198816857005
 20
409.7369117234402
 30
0.0
  0
LINE
  5
38C
330
1F
100
AcDbEntity
  8
0
  6
Continuous
 62
     7
370
    15
100
AcDbLine
 10
94.9119881686
 20
411.3067043517
 30
0.0
 11
94.9119881686
 21
409.6412760709
 31
0.0
  0
LINE
  5
38D
330
1F
100
AcDbEntity
  8
0
  6
Continuous
 62
     7
370
    15
100
AcDbLine
 10
121.8619898852
 20
964.1329599116
 30
0.0
 11
121.8619898852
 21
964.2329765056
 31
0.0
  0
LINE
  5
38E
330
1F
100
AcDbEntity
  8
0
  6
Continuous
 62
     7
370
    15
100
AcDbLine
 10
100.6619886454
 20
962.6771760677
 30
0.0
 11
100.6619886454
 21
963.1661725734
 31
0.0
  0
LINE
  5
38F
330
1F
100
AcDbEntity
  8
0
  6
Continuous
 62
     7
370
    15
100
AcDbLine
 10
100.6619886454
 20
964.1329599116
 30
0.0
 11
100.6619886454
 21
964.2329765056
 31
0.0
  0
LINE
  5
390
330
1F
100
AcDbEntity
  8
0
  6
Continuous
 62
     7
370
    15
100
AcDbLine
 10
803.9120082237
 20
283.0829883032
 30
0.0
 11
803.9120082237
 21
281.8329883311
 31
0.0
  0
LINE
  5
391
330
1F
100
AcDbEntity
  8
0
  6
Continuous
 62
     7
370
    15
100
AcDbLine
 10
803.9120082237
 20
281.8329883311
 30
0.0
 11
803.6620081827
 21
281.8329883311
 31
0.0
  0
LINE
  5
392
330
1F
100
AcDbEntity
  8
0
  6
Continuous
 62
     7
370
    15
100
AcDbLine
 10
806.6620082088
 20
284.8329883572
 30
0.0
 11
806.6620082088
 21
284.5829883162
 31
0.0
  0
LINE
  5
393
330
1F
100
AcDbEntity
  8
0
  6
Continuous
 62
     7
370
    15
100
AcDbLine
 10
806.6620082088
 20
284.5829883162
 30
0.0
 11
805.4120082076
 21
284.5829883162
 31
0.0
  0
ARC
  5
394
330
1F
100
AcDbEntity
  8
0
  6
Continuous
 62
     7
370
    15
100
AcDbCircle
 10
803.9120081957
 20
284.5829883311
 30
0.0
 40
2.75
100
AcDbArc
 50
270.0
 51
0.0
  0
LINE
  5
395
330
1F
100
AcDbEntity
  8
0
  6
Continuous
 62
     7
370
    15
100
AcDbLine
 10
602.4120108183
 20
280.5829883591
 30
0.0
 11
602.4120108183
 21
281.0329883514
 31
0.0
  0
LINE
  5
396
330
1F
100
AcDbEntity
  8
0
  6
Continuous
 62
     7
370
    15
100
AcDbLine
 10
256.1120347079
 20
281.0329883514
 30
0.0
 11
256.1120347079
 21
280.5829883591
 31
0.0
  0
LINE
  5
397
330
1F
100
AcDbEntity
  8
0
  6
Continuous
 62
     7
370
    15
100
AcDbLine
 10
591.9120118912
 20
269.8329882268
 30
0.0
 11
266.6119889315
 21
269.8329882268
 31
0.0
  0
LINE
  5
398
330
1F
100
AcDbEntity
  8
0
  6
Continuous
 62
     7
370
    15
100
AcDbLine
 10
602.4120108183
 20
280.3329883181
 30
0.0
 11
591.9120118912
 21
269.8329882268
 31
0.0
  0
LINE
  5
399
330
1F
100
AcDbEntity
  8
0
  6
Continuous
 62
     7
370
    15
100
AcDbLine
 10
602.4120108183
 20
280.5829883591
 30
0.0
 11
602.4120108183
 21
280.3329883181
 31
0.0
  0
LINE
  5
39A
330
1F
100
AcDbEntity
  8
0
  6
Continuous
 62
     7
370
    15
100
AcDbLine
 10
256.1120347079
 20
280.3329883181
 30
0.0
 11
256.1120347079
 21
280.5829883591
 31
0.0
  0
LINE
  5
39B
330
1F
100
AcDbEntity
  8
0
  6
Continuous
 62
     7
370
    15
100
AcDbLine
 10
266.6119889315
 20
269.8329882268
 30
0.0
 11
256.1120347079
 21
280.3329883181
 31
0.0
  0
LINE
  5
39C
330
1F
100
AcDbEntity
  8
0
  6
Continuous
 62
     7
370
    15
100
AcDbLine
 10
254.8620060976
 20
280.5829883591
 30
0.0
 11
254.8620060976
 21
280.3329883181
 31
0.0
  0
LINE
  5
39D
330
1F
100
AcDbEntity
  8
0
  6
Continuous
 62
     7
370
    15
100
AcDbLine
 10
254.8620060976
 20
280.3329883181
 30
0.0
 11
253.3619956072
 21
280.3329883181
 31
0.0
  0
LINE
  5
39E
330
1F
100
AcDbEntity
  8
0
  6
Continuous
 62
     7
370
    15
100
AcDbLine
 10
253.3619956072
 20
280.5829883591
 30
0.0
 11
253.3619956072
 21
280.3329883181
 31
0.0
  0
LINE
  5
39F
330
1F
100
AcDbEntity
  8
0
  6
Continuous
 62
     7
370
    15
100
AcDbLine
 10
254.8620060976
 20
280.3329883181
 30
0.0
 11
254.8620060976
 21
269.8329882268
 31
0.0
  0
LINE
  5
3A0
330
1F
100
AcDbEntity
  8
0
  6
Continuous
 62
     7
370
    15
100
AcDbLine
 10
254.8620060976
 20
269.8329882268
 30
0.0
 11
253.3619956072
 21
269.8329882268
 31
0.0
  0
LINE
  5
3A1
330
1F
100
AcDbEntity
  8
0
  6
Continuous
 62
     7
370
    15
100
AcDbLine
 10
253.3619956072
 20
280.3329883181
 30
0.0
 11
253.3619956072
 21
269.8329882268
 31
0.0
  0
LWPOLYLINE
  5
3A2
330
1F
100
AcDbEntity
  8
0
  6
Continuous
 62
     7
370
    15
100
AcDbPolyline
 90
        3
 70
   128
 43
0.0
 10
605.2458242472
 20
281.0329883514
 10
605.1860258873
 20
280.8268512171
 10
605.1620052155
 20
280.5829883591
  0
LINE
  5
3A3
330
1F
100
AcDbEntity
  8
0
  6
Continuous
 62
     7
370
    15
100
AcDbLine
 10
603.6990688141
 20
281.0329883514
 30
0.0
 11
603.6620096262
 21
280.5829883591
 31
0.0
  0
LINE
  5
3A4
330
1F
100
AcDbEntity
  8
0
  6
Continuous
 62
     7
370
    15
100
AcDbLine
 10
603.6620096262
 20
269.8329882268
 30
0.0
 11
605.1620052155
 21
269.8329882268
 31
0.0
  0
LINE
  5
3A5
330
1F
100
AcDbEntity
  8
0
  6
Continuous
 62
     7
370
    15
100
AcDbLine
 10
603.6620096262
 20
280.3329883181
 30
0.0
 11
605.1620052155
 21
280.3329883181
 31
0.0
  0
LINE
  5
3A6
330
1F
100
AcDbEntity
  8
0
  6
Continuous
 62
     7
370
    15
100
AcDbLine
 10
603.6620096262
 20
269.8329882268
 30
0.0
 11
603.6620096262
 21
280.3329883181
 31
0.0
  0
LINE
  5
3A7
330
1F
100
AcDbEntity
  8
0
  6
Continuous
 62
     7
370
    15
100
AcDbLine
 10
605.1620052155
 20
269.8329882268
 30
0.0
 11
605.1620052155
 21
280.3329883181
 31
0.0
  0
LINE
  5
3A8
330
1F
100
AcDbEntity
  8
0
  6
Continuous
 62
     7
370
    15
100
AcDbLine
 10
603.6620096262
 20
280.3329883181
 30
0.0
 11
603.6620096262
 21
280.5829883591
 31
0.0
  0
LINE
  5
3A9
330
1F
100
AcDbEntity
  8
0
  6
Continuous
 62
     7
370
    15
100
AcDbLine
 10
605.1620052155
 20
280.3329883181
 30
0.0
 11
605.1620052155
 21
280.5829883591
 31
0.0
  0
LWPOLYLINE
  5
3AA
330
1F
100
AcDbEntity
  8
0
  6
Continuous
 62
     7
370
    15
100
AcDbPolyline
 90
        3
 70
   128
 43
0.0
 10
253.3619956072
 20
280.5829883591
 10
253.3379749354
 20
280.8268512171
 10
253.2781914767
 20
281.0329883514
  0
LINE
  5
3AB
330
1F
100
AcDbEntity
  8
0
  6
Continuous
 62
     7
370
    15
100
AcDbLine
 10
254.8620060976
 20
280.5829883591
 30
0.0
 11
254.8249320086
 21
281.0329883514
 31
0.0
  0
ENDSEC
  0
SECTION
  2
OBJECTS
  0
DICTIONARY
  5
C
330
0
100
AcDbDictionary
281
     1
  3
ACAD_GROUP
350
D
  3
ACAD_LAYOUT
350
1A
  3
ACAD_MLINESTYLE
350
17
  3
ACAD_PLOTSETTINGS
350
19
  3
ACAD_PLOTSTYLENAME
350
E
  0
DICTIONARY
  5
D
102
{ACAD_REACTORS
330
C
102
}
330
C
100
AcDbDictionary
281
     1
  0
DICTIONARY
  5
1A
102
{ACAD_REACTORS
330
C
102
}
330
C
100
AcDbDictionary
281
     1
  3
Layout1
350
1E
  3
Layout2
350
26
  3
Model
350
22
  0
DICTIONARY
  5
17
102
{ACAD_REACTORS
330
C
102
}
330
C
100
AcDbDictionary
281
     1
  3
Standard
350
18
  0
DICTIONARY
  5
19
102
{ACAD_REACTORS
330
C
102
}
330
C
100
AcDbDictionary
281
     1
  0
ACDBDICTIONARYWDFLT
  5
E
102
{ACAD_REACTORS
330
C
102
}
330
C
100
AcDbDictionary
281
     1
  3
Normal
350
F
100
AcDbDictionaryWithDefault
340
F
  0
LAYOUT
  5
1E
102
{ACAD_REACTORS
330
1A
102
}
330
1A
100
AcDbPlotSettings
  1

  2
none_device
  4

  6

 40
0.0
 41
0.0
 42
0.0
 43
0.0
 44
0.0
 45
0.0
 46
0.0
 47
0.0
 48
0.0
 49
0.0
140
0.0
141
0.0
142
1.0
143
1.0
 70
   688
 72
     0
 73
     0
 74
     5
  7

 75
    16
147
1.0
148
0.0
149
0.0
100
AcDbLayout
  1
Layout1
 70
     1
 71
     1
 10
0.0
 20
0.0
 11
420.0
 21
297.0
 12
0.0
 22
0.0
 32
0.0
 14
1.0000000000E+20
 24
1.0000000000E+20
 34
1.0000000000E+20
 15
-1.0000000000E+20
 25
-1.0000000000E+20
 35
-1.0000000000E+20
146
0.0
 13
0.0
 23
0.0
 33
0.0
 16
1.0
 26
0.0
 36
0.0
 17
0.0
 27
1.0
 37
0.0
 76
     0
330
1B
  0
LAYOUT
  5
26
102
{ACAD_REACTORS
330
1A
102
}
330
1A
100
AcDbPlotSettings
  1

  2
none_device
  4

  6

 40
0.0
 41
0.0
 42
0.0
 43
0.0
 44
0.0
 45
0.0
 46
0.0
 47
0.0
 48
0.0
 49
0.0
140
0.0
141
0.0
142
1.0
143
1.0
 70
   688
 72
     0
 73
     0
 74
     5
  7

 75
    16
147
1.0
148
0.0
149
0.0
100
AcDbLayout
  1
Layout2
 70
     1
 71
     2
 10
0.0
 20
0.0
 11
0.0
 21
0.0
 12
0.0
 22
0.0
 32
0.0
 14
0.0
 24
0.0
 34
0.0
 15
0.0
 25
0.0
 35
0.0
146
0.0
 13
0.0
 23
0.0
 33
0.0
 16
1.0
 26
0.0
 36
0.0
 17
0.0
 27
1.0
 37
0.0
 76
     0
330
23
  0
LAYOUT
  5
22
102
{ACAD_REACTORS
330
1A
102
}
330
1A
100
AcDbPlotSettings
  1

  2
none_device
  4

  6

 40
0.0
 41
0.0
 42
0.0
 43
0.0
 44
0.0
 45
0.0
 46
0.0
 47
0.0
 48
0.0
 49
0.0
140
0.0
141
0.0
142
1.0
143
1.0
 70
  1712
 72
     0
 73
     0
 74
     0
  7

 75
     0
147
1.0
148
0.0
149
0.0
100
AcDbLayout
  1
Model
 70
     1
 71
     0
 10
0.0
 20
0.0
 11
1000.0
 21
1200.0
 12
0.0
 22
0.0
 32
0.0
 14
0.0
 24
0.0
 34
0.0
 15
1000.0
 25
1200.0
 35
0.0
146
0.0
 13
0.0
 23
0.0
 33
0.0
 16
1.0
 26
0.0
 36
0.0
 17
0.0
 27
1.0
 37
0.0
 76
     0
330
1F
331
29
  0
MLINESTYLE
  5
18
102
{ACAD_REACTORS
330
17
102
}
330
17
100
AcDbMlineStyle
  2
Standard
 70
     0
  3

 62
   256
 51
90.0
 52
90.0
 71
     2
 49
0.5
 62
   256
  6
BYLAYER
 49
-0.5
 62
   256
  6
BYLAYER
  0
ACDBPLACEHOLDER
  5
F
102
{ACAD_REACTORS
330
E
102
}
330
E
  0
ENDSEC
  0
EOF
