  0
SECTION
  2
HEADER
  9
$LIMMIN
 10
0.000000
 20
0.000000
  9
$LIMMAX
 10
81.780000
 20
60.000000
  9
$EXTMIN
 10
0.000000
 20
0.000000
  9
$EXTMAX
 10
297.301779
 20
210.224104
  9
$ANGBASE
 50
0.0
  9
$ANGDIR
 70
0
  9
$DIMRND
 40
0.100000
  9
$DIMSE1
 70
0
  9
$DIMSE2
 70
0
  9
$DIMTXT
 40
3.500000
  9
$LTSCALE
 40
1.000000
  9
$LUPREC
 70
1
  9
$AUPREC
 70
1
  9
$PDMODE
 70
2
  9
$PDSIZE
 40
1.486509
  0
ENDSEC
  0
SECTION
  2
TABLES
  0
TABLE
  2
VPORT
  70
1
  0
VPORT
  2
*ACTIVE
 70
0
  10
0.0
 20
0.0
 11
1.0
 21
1.0
 12
594.0
 22
420.0
 13
0.0
 23
0.0
 14
10.0
 24
10.0
 15
10.0
 25
10.0
 16
0.0
 26
0.0
 36
1.0
 17
594.0
 27
420.0
 37
100.0
 40
1000.0
 41
1.0
 42
50.0
 43
0.0
 44
0.0
 50
0.0
 51
0.0
 71
0
 72
2000
 73
1
 74
3
 75
0
 76
0
 77
0
 78
1
  0
ENDTAB
  0
TABLE
  2
LTYPE
 70
4
  0
LTYPE
  2
CONTINUOUS
 70
0
  3
Solid line
 72
65
 73
0
 40
0.0
  0
LTYPE
  2
DASHED
 70
0
  3
Dashed line
 72
65
 73
2
 40
6.000000
 49
3.000000
 49
-3.000000
  0
LTYPE
  2
CENTER
 70
0
  3
Chain line
 72
65
 73
4
 40
24.000000
 49
15.000000
 49
-3.000000
 49
3.000000
 49
-3.000000
  0
LTYPE
  2
RANDOM
 70
0
  3
Random line
 72
65
 73
4
 40
22.500000
 49
6.000000
 49
-3.000000
 49
4.500000
 49
-9.000000
  0
ENDTAB
  0
TABLE
  2
STYLE
 70
9
  0
STYLE
  2
STANDARD
 40
0
 41
1.0
 50
0.0
 71
0
 42
0
  3
simplex
  4

 70
0
  0
ENDTAB
  0
TABLE
  2
LAYER
 70
2
  0
LAYER
  2
0
 70
0
 62
7
  6
CONTINUOUS
  0
LAYER
  2
0
 62
1
  6
CONTINUOUS
 70
0
  0
ENDTAB
  0
ENDSEC
  0
SECTION
  2
BLOCKS
  0
ENDSEC
  0
SECTION
  2
ENTITIES
  0
LINE
  8
0
  6
CONTINUOUS
 62
1
 10
98.927879
 20
117.519679
 11
98.139300
 21
117.519679
  0
LINE
  8
0
  6
CONTINUOUS
 62
1
 10
98.139300
 20
114.019676
 11
98.927879
 21
114.019676
  0
LINE
  8
0
  6
CONTINUOUS
 62
1
 10
99.010722
 20
117.519679
 11
98.969301
 21
117.419680
  0
LINE
  8
0
  6
CONTINUOUS
 62
1
 10
98.969301
 20
114.119681
 11
99.010722
 21
114.019676
  0
LINE
  8
0
  6
CONTINUOUS
 62
1
 10
99.219301
 20
117.519679
 11
99.010722
 21
117.519679
  0
LINE
  8
0
  6
CONTINUOUS
 62
1
 10
99.010722
 20
114.019676
 11
99.219301
 21
114.019676
  0
LINE
  8
0
  6
CONTINUOUS
 62
1
 10
98.927879
 20
114.019676
 11
98.969301
 21
114.119681
  0
LINE
  8
0
  6
CONTINUOUS
 62
1
 10
98.969301
 20
117.419680
 11
98.927879
 21
117.519679
  0
LINE
  8
0
  6
CONTINUOUS
 62
1
 10
99.219301
 20
114.019676
 11
99.269300
 21
114.069679
  0
LINE
  8
0
  6
CONTINUOUS
 62
1
 10
99.269300
 20
117.469677
 11
99.219301
 21
117.519679
  0
LINE
  8
0
  6
CONTINUOUS
 62
1
 10
53.210723
 20
114.019676
 11
53.999301
 21
114.019676
  0
LINE
  8
0
  6
CONTINUOUS
 62
1
 10
53.999301
 20
117.519679
 11
53.210723
 21
117.519679
  0
LINE
  8
0
  6
CONTINUOUS
 62
1
 10
53.127880
 20
114.019676
 11
53.169301
 21
114.119681
  0
LINE
  8
0
  6
CONTINUOUS
 62
1
 10
53.169301
 20
117.419680
 11
53.127880
 21
117.519679
  0
LINE
  8
0
  6
CONTINUOUS
 62
1
 10
52.919301
 20
117.519679
 11
52.869302
 21
117.469677
  0
LINE
  8
0
  6
CONTINUOUS
 62
1
 10
52.869302
 20
114.069679
 11
52.919301
 21
114.019676
  0
LINE
  8
0
  6
CONTINUOUS
 62
1
 10
52.919301
 20
114.019676
 11
53.127880
 21
114.019676
  0
LINE
  8
0
  6
CONTINUOUS
 62
1
 10
53.127880
 20
117.519679
 11
52.919301
 21
117.519679
  0
LINE
  8
0
  6
CONTINUOUS
 62
1
 10
53.210723
 20
117.519679
 11
53.169301
 21
117.419680
  0
LINE
  8
0
  6
CONTINUOUS
 62
1
 10
53.169301
 20
114.119681
 11
53.210723
 21
114.019676
  0
LINE
  8
0
  6
CONTINUOUS
 62
1
 10
63.736259
 20
118.459680
 11
63.605052
 21
119.531824
  0
LINE
  8
0
  6
CONTINUOUS
 62
1
 10
61.933550
 20
119.531824
 11
61.802344
 21
118.459680
  0
ARC
  8
0
  6
CONTINUOUS
 62
1
 10
63.505793
 20
119.519679
 40
0.100000
 50
6.977029
 51
90.000000
  0
ARC
  8
0
  6
CONTINUOUS
 62
1
 10
62.032809
 20
119.519679
 40
0.100000
 50
90.000000
 51
173.022971
  0
LINE
  8
0
  6
CONTINUOUS
 62
1
 10
89.936259
 20
118.459680
 11
89.805053
 21
119.531824
  0
LINE
  8
0
  6
CONTINUOUS
 62
1
 10
88.133550
 20
119.531824
 11
88.002343
 21
118.459680
  0
ARC
  8
0
  6
CONTINUOUS
 62
1
 10
89.705793
 20
119.519679
 40
0.100000
 50
6.977029
 51
90.000000
  0
ARC
  8
0
  6
CONTINUOUS
 62
1
 10
88.232809
 20
119.519679
 40
0.100000
 50
90.000000
 51
173.022971
  0
ARC
  8
0
  6
CONTINUOUS
 62
1
 10
61.905821
 20
49.068532
 40
0.100000
 50
187.027166
 51
219.754658
  0
ARC
  8
0
  6
CONTINUOUS
 62
1
 10
64.032781
 20
49.068532
 40
0.100000
 50
320.245342
 51
352.972834
  0
ARC
  8
0
  6
CONTINUOUS
 62
1
 10
61.364238
 20
48.570394
 40
0.635979
 50
7.177426
 51
43.055613
  0
ARC
  8
0
  6
CONTINUOUS
 62
1
 10
61.905821
 20
48.106398
 40
0.100000
 50
189.415482
 51
258.079868
  0
ARC
  8
0
  6
CONTINUOUS
 62
1
 10
88.105821
 20
49.068532
 40
0.100000
 50
187.027166
 51
219.754658
  0
ARC
  8
0
  6
CONTINUOUS
 62
1
 10
90.232781
 20
49.068532
 40
0.100000
 50
320.245342
 51
352.972834
  0
ARC
  8
0
  6
CONTINUOUS
 62
1
 10
87.564257
 20
48.570403
 40
0.635958
 50
7.176837
 51
43.056202
  0
ARC
  8
0
  6
CONTINUOUS
 62
1
 10
88.105821
 20
48.106398
 40
0.100000
 50
189.415482
 51
258.079868
  0
LINE
  8
0
  6
CONTINUOUS
 62
1
 10
85.172862
 20
70.691652
 11
85.171757
 21
70.659154
  0
LINE
  8
0
  6
CONTINUOUS
 62
1
 10
85.171757
 20
70.659154
 11
85.199934
 21
70.571814
  0
LINE
  8
0
  6
CONTINUOUS
 62
1
 10
85.199934
 20
70.571814
 11
85.249225
 21
70.505492
  0
LINE
  8
0
  6
CONTINUOUS
 62
1
 10
85.249225
 20
70.505492
 11
85.307762
 21
70.460459
  0
LINE
  8
0
  6
CONTINUOUS
 62
1
 10
85.307762
 20
70.460459
 11
85.375735
 21
70.428916
  0
LINE
  8
0
  6
CONTINUOUS
 62
1
 10
85.375735
 20
70.428916
 11
85.456497
 21
70.406177
  0
LINE
  8
0
  6
CONTINUOUS
 62
1
 10
85.456497
 20
70.406177
 11
85.543422
 21
70.390648
  0
LINE
  8
0
  6
CONTINUOUS
 62
1
 10
85.543422
 20
70.390648
 11
85.628793
 21
70.380454
  0
LINE
  8
0
  6
CONTINUOUS
 62
1
 10
85.628793
 20
70.380454
 11
85.703060
 21
70.374364
  0
LINE
  8
0
  6
CONTINUOUS
 62
1
 10
85.703060
 20
70.374364
 11
85.775198
 21
70.370401
  0
LINE
  8
0
  6
CONTINUOUS
 62
1
 10
85.775198
 20
70.370401
 11
85.869070
 21
70.367723
  0
LINE
  8
0
  6
CONTINUOUS
 62
1
 10
85.869070
 20
70.367723
 11
85.919301
 21
70.367359
  0
LINE
  8
0
  6
CONTINUOUS
 62
1
 10
85.919301
 20
70.867359
 11
85.802232
 21
70.869707
  0
LINE
  8
0
  6
CONTINUOUS
 62
1
 10
85.802232
 20
70.869707
 11
85.758885
 21
70.871841
  0
LINE
  8
0
  6
CONTINUOUS
 62
1
 10
85.758885
 20
70.871841
 11
85.693817
 21
70.876560
  0
LINE
  8
0
  6
CONTINUOUS
 62
1
 10
85.693817
 20
70.876560
 11
85.638027
 21
70.882424
  0
LINE
  8
0
  6
CONTINUOUS
 62
1
 10
85.638027
 20
70.882424
 11
85.592402
 21
70.889022
  0
LINE
  8
0
  6
CONTINUOUS
 62
1
 10
85.592402
 20
70.889022
 11
85.561245
 21
70.895103
  0
LINE
  8
0
  6
CONTINUOUS
 62
1
 10
85.561245
 20
70.895103
 11
85.546252
 21
70.898997
  0
LINE
  8
0
  6
CONTINUOUS
 62
1
 10
85.546252
 20
70.898997
 11
85.546629
 21
70.898805
  0
LINE
  8
0
  6
CONTINUOUS
 62
1
 10
92.419301
 20
70.367359
 11
92.557743
 21
70.370162
  0
LINE
  8
0
  6
CONTINUOUS
 62
1
 10
92.557743
 20
70.370162
 11
92.609635
 21
70.372736
  0
LINE
  8
0
  6
CONTINUOUS
 62
1
 10
92.609635
 20
70.372736
 11
92.690670
 21
70.378668
  0
LINE
  8
0
  6
CONTINUOUS
 62
1
 10
92.690670
 20
70.378668
 11
92.765605
 21
70.386661
  0
LINE
  8
0
  6
CONTINUOUS
 62
1
 10
92.765605
 20
70.386661
 11
92.836728
 21
70.397254
  0
LINE
  8
0
  6
CONTINUOUS
 62
1
 10
92.836728
 20
70.397254
 11
92.902390
 21
70.410909
  0
LINE
  8
0
  6
CONTINUOUS
 62
1
 10
92.902390
 20
70.410909
 11
92.966681
 21
70.430305
  0
LINE
  8
0
  6
CONTINUOUS
 62
1
 10
92.966681
 20
70.430305
 11
93.036784
 21
70.464077
  0
LINE
  8
0
  6
CONTINUOUS
 62
1
 10
93.036784
 20
70.464077
 11
93.088151
 21
70.504282
  0
LINE
  8
0
  6
CONTINUOUS
 62
1
 10
93.088151
 20
70.504282
 11
93.133832
 21
70.563059
  0
LINE
  8
0
  6
CONTINUOUS
 62
1
 10
93.133832
 20
70.563059
 11
93.163813
 21
70.641594
  0
LINE
  8
0
  6
CONTINUOUS
 62
1
 10
93.163813
 20
70.641594
 11
93.165691
 21
70.696817
  0
LINE
  8
0
  6
CONTINUOUS
 62
1
 10
92.792747
 20
70.899037
 11
92.793551
 21
70.899381
  0
LINE
  8
0
  6
CONTINUOUS
 62
1
 10
92.793551
 20
70.899381
 11
92.778736
 21
70.895422
  0
LINE
  8
0
  6
CONTINUOUS
 62
1
 10
92.778736
 20
70.895422
 11
92.747187
 21
70.889189
  0
LINE
  8
0
  6
CONTINUOUS
 62
1
 10
92.747187
 20
70.889189
 11
92.687256
 21
70.880838
  0
LINE
  8
0
  6
CONTINUOUS
 62
1
 10
92.687256
 20
70.880838
 11
92.625217
 21
70.874930
  0
LINE
  8
0
  6
CONTINUOUS
 62
1
 10
92.625217
 20
70.874930
 11
92.570312
 21
70.871315
  0
LINE
  8
0
  6
CONTINUOUS
 62
1
 10
92.570312
 20
70.871315
 11
92.503206
 21
70.868554
  0
LINE
  8
0
  6
CONTINUOUS
 62
1
 10
92.503206
 20
70.868554
 11
92.419301
 21
70.867359
  0
LINE
  8
0
  6
CONTINUOUS
 62
1
 10
92.419301
 20
70.867359
 11
90.969301
 21
70.867359
  0
LINE
  8
0
  6
CONTINUOUS
 62
1
 10
90.369302
 20
70.867359
 11
87.969301
 21
70.867359
  0
LINE
  8
0
  6
CONTINUOUS
 62
1
 10
87.369301
 20
70.867359
 11
85.919301
 21
70.867359
  0
LINE
  8
0
  6
CONTINUOUS
 62
1
 10
85.919301
 20
70.367359
 11
87.369301
 21
70.367359
  0
LINE
  8
0
  6
CONTINUOUS
 62
1
 10
87.969301
 20
70.367359
 11
90.369302
 21
70.367359
  0
LINE
  8
0
  6
CONTINUOUS
 62
1
 10
90.969301
 20
70.367359
 11
92.419301
 21
70.367359
  0
LINE
  8
0
  6
CONTINUOUS
 62
1
 10
92.669300
 20
71.357884
 11
92.669300
 21
70.879129
  0
LINE
  8
0
  6
CONTINUOUS
 62
1
 10
93.169301
 20
70.694951
 11
93.169301
 21
71.357884
  0
LINE
  8
0
  6
CONTINUOUS
 62
1
 10
85.669301
 20
70.879137
 11
85.669301
 21
71.357884
  0
LINE
  8
0
  6
CONTINUOUS
 62
1
 10
85.169301
 20
71.357884
 11
85.169301
 21
70.694951
  0
LINE
  8
0
  6
CONTINUOUS
 62
1
 10
92.669300
 20
71.363709
 11
92.669300
 21
71.357884
  0
LINE
  8
0
  6
CONTINUOUS
 62
1
 10
93.169301
 20
71.357884
 11
93.169301
 21
71.363709
  0
LINE
  8
0
  6
CONTINUOUS
 62
1
 10
85.669301
 20
71.357884
 11
85.669301
 21
71.363709
  0
LINE
  8
0
  6
CONTINUOUS
 62
1
 10
85.169301
 20
71.363709
 11
85.169301
 21
71.357884
  0
LINE
  8
0
  6
CONTINUOUS
 62
1
 10
92.669300
 20
71.619678
 11
92.669300
 21
71.363709
  0
LINE
  8
0
  6
CONTINUOUS
 62
1
 10
93.169301
 20
71.363709
 11
93.169301
 21
71.619678
  0
LINE
  8
0
  6
CONTINUOUS
 62
1
 10
85.669301
 20
71.363709
 11
85.669301
 21
71.619678
  0
LINE
  8
0
  6
CONTINUOUS
 62
1
 10
85.169301
 20
71.619678
 11
85.169301
 21
71.363709
  0
LINE
  8
0
  6
CONTINUOUS
 62
1
 10
92.669300
 20
73.882074
 11
92.669300
 21
73.182457
  0
LINE
  8
0
  6
CONTINUOUS
 62
1
 10
92.669300
 20
73.062458
 11
92.669300
 21
72.532330
  0
LINE
  8
0
  6
CONTINUOUS
 62
1
 10
93.169301
 20
72.532330
 11
93.169301
 21
73.062458
  0
LINE
  8
0
  6
CONTINUOUS
 62
1
 10
93.169301
 20
73.182457
 11
93.169301
 21
73.882074
  0
LINE
  8
0
  6
CONTINUOUS
 62
1
 10
85.669301
 20
72.532330
 11
85.669301
 21
73.062458
  0
LINE
  8
0
  6
CONTINUOUS
 62
1
 10
85.669301
 20
73.182457
 11
85.669301
 21
73.882074
  0
LINE
  8
0
  6
CONTINUOUS
 62
1
 10
85.169301
 20
73.882074
 11
85.169301
 21
73.182457
  0
LINE
  8
0
  6
CONTINUOUS
 62
1
 10
85.169301
 20
73.062458
 11
85.169301
 21
72.532330
  0
LINE
  8
0
  6
CONTINUOUS
 62
1
 10
58.972862
 20
70.691652
 11
58.971756
 21
70.659154
  0
LINE
  8
0
  6
CONTINUOUS
 62
1
 10
58.971756
 20
70.659154
 11
58.999934
 21
70.571814
  0
LINE
  8
0
  6
CONTINUOUS
 62
1
 10
58.999934
 20
70.571814
 11
59.049226
 21
70.505492
  0
LINE
  8
0
  6
CONTINUOUS
 62
1
 10
59.049226
 20
70.505492
 11
59.107762
 21
70.460459
  0
LINE
  8
0
  6
CONTINUOUS
 62
1
 10
59.107762
 20
70.460459
 11
59.175735
 21
70.428916
  0
LINE
  8
0
  6
CONTINUOUS
 62
1
 10
59.175735
 20
70.428916
 11
59.256497
 21
70.406177
  0
LINE
  8
0
  6
CONTINUOUS
 62
1
 10
59.256497
 20
70.406177
 11
59.343421
 21
70.390648
  0
LINE
  8
0
  6
CONTINUOUS
 62
1
 10
59.343421
 20
70.390648
 11
59.428793
 21
70.380454
  0
LINE
  8
0
  6
CONTINUOUS
 62
1
 10
59.428793
 20
70.380454
 11
59.503060
 21
70.374364
  0
LINE
  8
0
  6
CONTINUOUS
 62
1
 10
59.503060
 20
70.374364
 11
59.575198
 21
70.370401
  0
LINE
  8
0
  6
CONTINUOUS
 62
1
 10
59.575198
 20
70.370401
 11
59.669071
 21
70.367723
  0
LINE
  8
0
  6
CONTINUOUS
 62
1
 10
59.669071
 20
70.367723
 11
59.719301
 21
70.367359
  0
LINE
  8
0
  6
CONTINUOUS
 62
1
 10
59.719301
 20
70.867359
 11
59.602232
 21
70.869707
  0
LINE
  8
0
  6
CONTINUOUS
 62
1
 10
59.602232
 20
70.869707
 11
59.558884
 21
70.871841
  0
LINE
  8
0
  6
CONTINUOUS
 62
1
 10
59.558884
 20
70.871841
 11
59.493817
 21
70.876560
  0
LINE
  8
0
  6
CONTINUOUS
 62
1
 10
59.493817
 20
70.876560
 11
59.438027
 21
70.882424
  0
LINE
  8
0
  6
CONTINUOUS
 62
1
 10
59.438027
 20
70.882424
 11
59.392403
 21
70.889022
  0
LINE
  8
0
  6
CONTINUOUS
 62
1
 10
59.392403
 20
70.889022
 11
59.361246
 21
70.895103
  0
LINE
  8
0
  6
CONTINUOUS
 62
1
 10
59.361246
 20
70.895103
 11
59.346252
 21
70.898997
  0
LINE
  8
0
  6
CONTINUOUS
 62
1
 10
59.346252
 20
70.898997
 11
59.346629
 21
70.898805
  0
LINE
  8
0
  6
CONTINUOUS
 62
1
 10
66.219301
 20
70.367359
 11
66.357743
 21
70.370162
  0
LINE
  8
0
  6
CONTINUOUS
 62
1
 10
66.357743
 20
70.370162
 11
66.409635
 21
70.372736
  0
LINE
  8
0
  6
CONTINUOUS
 62
1
 10
66.409635
 20
70.372736
 11
66.490670
 21
70.378668
  0
LINE
  8
0
  6
CONTINUOUS
 62
1
 10
66.490670
 20
70.378668
 11
66.565605
 21
70.386661
  0
LINE
  8
0
  6
CONTINUOUS
 62
1
 10
66.565605
 20
70.386661
 11
66.636729
 21
70.397254
  0
LINE
  8
0
  6
CONTINUOUS
 62
1
 10
66.636729
 20
70.397254
 11
66.702389
 21
70.410909
  0
LINE
  8
0
  6
CONTINUOUS
 62
1
 10
66.702389
 20
70.410909
 11
66.766682
 21
70.430305
  0
LINE
  8
0
  6
CONTINUOUS
 62
1
 10
66.766682
 20
70.430305
 11
66.836784
 21
70.464077
  0
LINE
  8
0
  6
CONTINUOUS
 62
1
 10
66.836784
 20
70.464077
 11
66.888150
 21
70.504282
  0
LINE
  8
0
  6
CONTINUOUS
 62
1
 10
66.888150
 20
70.504282
 11
66.933831
 21
70.563059
  0
LINE
  8
0
  6
CONTINUOUS
 62
1
 10
66.933831
 20
70.563059
 11
66.963814
 21
70.641594
  0
LINE
  8
0
  6
CONTINUOUS
 62
1
 10
66.963814
 20
70.641594
 11
66.965691
 21
70.696817
  0
LINE
  8
0
  6
CONTINUOUS
 62
1
 10
66.592748
 20
70.899037
 11
66.593550
 21
70.899381
  0
LINE
  8
0
  6
CONTINUOUS
 62
1
 10
66.593550
 20
70.899381
 11
66.578736
 21
70.895422
  0
LINE
  8
0
  6
CONTINUOUS
 62
1
 10
66.578736
 20
70.895422
 11
66.547188
 21
70.889189
  0
LINE
  8
0
  6
CONTINUOUS
 62
1
 10
66.547188
 20
70.889189
 11
66.487256
 21
70.880838
  0
LINE
  8
0
  6
CONTINUOUS
 62
1
 10
66.487256
 20
70.880838
 11
66.425216
 21
70.874930
  0
LINE
  8
0
  6
CONTINUOUS
 62
1
 10
66.425216
 20
70.874930
 11
66.370312
 21
70.871315
  0
LINE
  8
0
  6
CONTINUOUS
 62
1
 10
66.370312
 20
70.871315
 11
66.303207
 21
70.868554
  0
LINE
  8
0
  6
CONTINUOUS
 62
1
 10
66.303207
 20
70.868554
 11
66.219301
 21
70.867359
  0
LINE
  8
0
  6
CONTINUOUS
 62
1
 10
66.219301
 20
70.867359
 11
64.769301
 21
70.867359
  0
LINE
  8
0
  6
CONTINUOUS
 62
1
 10
64.169301
 20
70.867359
 11
61.769300
 21
70.867359
  0
LINE
  8
0
  6
CONTINUOUS
 62
1
 10
61.169301
 20
70.867359
 11
59.719301
 21
70.867359
  0
LINE
  8
0
  6
CONTINUOUS
 62
1
 10
59.719301
 20
70.367359
 11
61.169301
 21
70.367359
  0
LINE
  8
0
  6
CONTINUOUS
 62
1
 10
61.769300
 20
70.367359
 11
64.169301
 21
70.367359
  0
LINE
  8
0
  6
CONTINUOUS
 62
1
 10
64.769301
 20
70.367359
 11
66.219301
 21
70.367359
  0
LINE
  8
0
  6
CONTINUOUS
 62
1
 10
66.469301
 20
71.357884
 11
66.469301
 21
70.879129
  0
LINE
  8
0
  6
CONTINUOUS
 62
1
 10
66.969301
 20
70.694951
 11
66.969301
 21
71.357884
  0
LINE
  8
0
  6
CONTINUOUS
 62
1
 10
59.469302
 20
70.879137
 11
59.469302
 21
71.357884
  0
LINE
  8
0
  6
CONTINUOUS
 62
1
 10
58.969301
 20
71.357884
 11
58.969301
 21
70.694951
  0
LINE
  8
0
  6
CONTINUOUS
 62
1
 10
66.469301
 20
71.363709
 11
66.469301
 21
71.357884
  0
LINE
  8
0
  6
CONTINUOUS
 62
1
 10
66.969301
 20
71.357884
 11
66.969301
 21
71.363709
  0
LINE
  8
0
  6
CONTINUOUS
 62
1
 10
59.469302
 20
71.357884
 11
59.469302
 21
71.363709
  0
LINE
  8
0
  6
CONTINUOUS
 62
1
 10
58.969301
 20
71.363709
 11
58.969301
 21
71.357884
  0
LINE
  8
0
  6
CONTINUOUS
 62
1
 10
66.469301
 20
71.619678
 11
66.469301
 21
71.363709
  0
LINE
  8
0
  6
CONTINUOUS
 62
1
 10
66.969301
 20
71.363709
 11
66.969301
 21
71.619678
  0
LINE
  8
0
  6
CONTINUOUS
 62
1
 10
59.469302
 20
71.363709
 11
59.469302
 21
71.619678
  0
LINE
  8
0
  6
CONTINUOUS
 62
1
 10
58.969301
 20
71.619678
 11
58.969301
 21
71.363709
  0
LINE
  8
0
  6
CONTINUOUS
 62
1
 10
66.469301
 20
73.882074
 11
66.469301
 21
73.182457
  0
LINE
  8
0
  6
CONTINUOUS
 62
1
 10
66.469301
 20
73.062458
 11
66.469301
 21
72.532330
  0
LINE
  8
0
  6
CONTINUOUS
 62
1
 10
66.969301
 20
72.532330
 11
66.969301
 21
73.062458
  0
LINE
  8
0
  6
CONTINUOUS
 62
1
 10
66.969301
 20
73.182457
 11
66.969301
 21
73.882074
  0
LINE
  8
0
  6
CONTINUOUS
 62
1
 10
59.469302
 20
72.532330
 11
59.469302
 21
73.062458
  0
LINE
  8
0
  6
CONTINUOUS
 62
1
 10
59.469302
 20
73.182457
 11
59.469302
 21
73.882074
  0
LINE
  8
0
  6
CONTINUOUS
 62
1
 10
58.969301
 20
73.882074
 11
58.969301
 21
73.182457
  0
LINE
  8
0
  6
CONTINUOUS
 62
1
 10
58.969301
 20
73.062458
 11
58.969301
 21
72.532330
  0
LINE
  8
0
  6
CONTINUOUS
 62
1
 10
95.442816
 20
74.002074
 11
95.069301
 21
74.002074
  0
LINE
  8
0
  6
CONTINUOUS
 62
1
 10
94.969272
 20
73.882074
 11
95.521947
 21
73.882074
  0
LINE
  8
0
  6
CONTINUOUS
 62
1
 10
94.149273
 20
73.882074
 11
94.849328
 21
73.882074
  0
LINE
  8
0
  6
CONTINUOUS
 62
1
 10
93.329273
 20
73.882074
 11
94.029329
 21
73.882074
  0
LINE
  8
0
  6
CONTINUOUS
 62
1
 10
91.689273
 20
73.882074
 11
92.389328
 21
73.882074
  0
LINE
  8
0
  6
CONTINUOUS
 62
1
 10
92.509272
 20
73.882074
 11
93.209329
 21
73.882074
  0
LINE
  8
0
  6
CONTINUOUS
 62
1
 10
90.869273
 20
73.882074
 11
91.569329
 21
73.882074
  0
LINE
  8
0
  6
CONTINUOUS
 62
1
 10
79.633989
 20
73.882074
 11
80.089329
 21
73.882074
  0
LINE
  8
0
  6
CONTINUOUS
 62
1
 10
90.049272
 20
73.882074
 11
90.749329
 21
73.882074
  0
LINE
  8
0
  6
CONTINUOUS
 62
1
 10
89.229273
 20
73.882074
 11
89.929328
 21
73.882074
  0
LINE
  8
0
  6
CONTINUOUS
 62
1
 10
87.589273
 20
73.882074
 11
88.289329
 21
73.882074
  0
LINE
  8
0
  6
CONTINUOUS
 62
1
 10
88.409273
 20
73.882074
 11
89.109329
 21
73.882074
  0
LINE
  8
0
  6
CONTINUOUS
 62
1
 10
86.769273
 20
73.882074
 11
87.469329
 21
73.882074
  0
LINE
  8
0
  6
CONTINUOUS
 62
1
 10
85.949273
 20
73.882074
 11
86.649329
 21
73.882074
  0
LINE
  8
0
  6
CONTINUOUS
 62
1
 10
85.129273
 20
73.882074
 11
85.829329
 21
73.882074
  0
LINE
  8
0
  6
CONTINUOUS
 62
1
 10
84.309273
 20
73.882074
 11
85.009329
 21
73.882074
  0
LINE
  8
0
  6
CONTINUOUS
 62
1
 10
83.489273
 20
73.882074
 11
84.189329
 21
73.882074
  0
LINE
  8
0
  6
CONTINUOUS
 62
1
 10
82.669273
 20
73.882074
 11
83.369329
 21
73.882074
  0
LINE
  8
0
  6
CONTINUOUS
 62
1
 10
81.849273
 20
73.882074
 11
82.549329
 21
73.882074
  0
LINE
  8
0
  6
CONTINUOUS
 62
1
 10
81.029273
 20
73.882074
 11
81.729329
 21
73.882074
  0
LINE
  8
0
  6
CONTINUOUS
 62
1
 10
80.209273
 20
73.882074
 11
80.909329
 21
73.882074
  0
LINE
  8
0
  6
CONTINUOUS
 62
1
 10
94.969300
 20
73.182429
 11
94.969300
 21
73.882074
  0
LINE
  8
0
  6
CONTINUOUS
 62
1
 10
94.849301
 20
73.882074
 11
94.849301
 21
73.182429
  0
LINE
  8
0
  6
CONTINUOUS
 62
1
 10
94.149301
 20
73.182429
 11
94.149301
 21
73.882074
  0
LINE
  8
0
  6
CONTINUOUS
 62
1
 10
94.029301
 20
73.882074
 11
94.029301
 21
73.182429
  0
LINE
  8
0
  6
CONTINUOUS
 62
1
 10
93.329301
 20
73.182429
 11
93.329301
 21
73.882074
  0
LINE
  8
0
  6
CONTINUOUS
 62
1
 10
93.209300
 20
73.882074
 11
93.209300
 21
73.182429
  0
LINE
  8
0
  6
CONTINUOUS
 62
1
 10
91.689302
 20
73.182429
 11
91.689302
 21
73.882074
  0
LINE
  8
0
  6
CONTINUOUS
 62
1
 10
91.569301
 20
73.882074
 11
91.569301
 21
73.182429
  0
LINE
  8
0
  6
CONTINUOUS
 62
1
 10
92.509301
 20
73.182429
 11
92.509301
 21
73.882074
  0
LINE
  8
0
  6
CONTINUOUS
 62
1
 10
92.389302
 20
73.882074
 11
92.389302
 21
73.182429
  0
LINE
  8
0
  6
CONTINUOUS
 62
1
 10
90.869301
 20
73.182429
 11
90.869301
 21
73.882074
  0
LINE
  8
0
  6
CONTINUOUS
 62
1
 10
90.749301
 20
73.882074
 11
90.749301
 21
73.182429
  0
LINE
  8
0
  6
CONTINUOUS
 62
1
 10
90.049301
 20
73.182429
 11
90.049301
 21
73.882074
  0
LINE
  8
0
  6
CONTINUOUS
 62
1
 10
89.929302
 20
73.882074
 11
89.929302
 21
73.182429
  0
LINE
  8
0
  6
CONTINUOUS
 62
1
 10
89.229302
 20
73.182429
 11
89.229302
 21
73.882074
  0
LINE
  8
0
  6
CONTINUOUS
 62
1
 10
89.109301
 20
73.882074
 11
89.109301
 21
73.182429
  0
LINE
  8
0
  6
CONTINUOUS
 62
1
 10
88.409301
 20
73.182429
 11
88.409301
 21
73.882074
  0
LINE
  8
0
  6
CONTINUOUS
 62
1
 10
88.289301
 20
73.882074
 11
88.289301
 21
73.182429
  0
LINE
  8
0
  6
CONTINUOUS
 62
1
 10
87.589301
 20
73.182429
 11
87.589301
 21
73.882074
  0
LINE
  8
0
  6
CONTINUOUS
 62
1
 10
87.469301
 20
73.882074
 11
87.469301
 21
73.182429
  0
LINE
  8
0
  6
CONTINUOUS
 62
1
 10
86.769301
 20
73.182429
 11
86.769301
 21
73.882074
  0
LINE
  8
0
  6
CONTINUOUS
 62
1
 10
86.649301
 20
73.882074
 11
86.649301
 21
73.182429
  0
LINE
  8
0
  6
CONTINUOUS
 62
1
 10
85.949301
 20
73.182429
 11
85.949301
 21
73.882074
  0
LINE
  8
0
  6
CONTINUOUS
 62
1
 10
85.829301
 20
73.882074
 11
85.829301
 21
73.182429
  0
LINE
  8
0
  6
CONTINUOUS
 62
1
 10
85.129301
 20
73.182429
 11
85.129301
 21
73.882074
  0
LINE
  8
0
  6
CONTINUOUS
 62
1
 10
85.009301
 20
73.882074
 11
85.009301
 21
73.182429
  0
LINE
  8
0
  6
CONTINUOUS
 62
1
 10
84.309301
 20
73.182429
 11
84.309301
 21
73.882074
  0
LINE
  8
0
  6
CONTINUOUS
 62
1
 10
84.189301
 20
73.882074
 11
84.189301
 21
73.182429
  0
LINE
  8
0
  6
CONTINUOUS
 62
1
 10
83.489301
 20
73.182429
 11
83.489301
 21
73.882074
  0
LINE
  8
0
  6
CONTINUOUS
 62
1
 10
83.369301
 20
73.882074
 11
83.369301
 21
73.182429
  0
LINE
  8
0
  6
CONTINUOUS
 62
1
 10
82.669301
 20
73.182429
 11
82.669301
 21
73.882074
  0
LINE
  8
0
  6
CONTINUOUS
 62
1
 10
82.549301
 20
73.882074
 11
82.549301
 21
73.182429
  0
LINE
  8
0
  6
CONTINUOUS
 62
1
 10
81.849301
 20
73.182429
 11
81.849301
 21
73.882074
  0
LINE
  8
0
  6
CONTINUOUS
 62
1
 10
81.729301
 20
73.882074
 11
81.729301
 21
73.182429
  0
LINE
  8
0
  6
CONTINUOUS
 62
1
 10
81.029301
 20
73.182429
 11
81.029301
 21
73.882074
  0
LINE
  8
0
  6
CONTINUOUS
 62
1
 10
80.909301
 20
73.882074
 11
80.909301
 21
73.182429
  0
LINE
  8
0
  6
CONTINUOUS
 62
1
 10
80.209301
 20
73.182429
 11
80.209301
 21
73.882074
  0
LINE
  8
0
  6
CONTINUOUS
 62
1
 10
80.089301
 20
73.882074
 11
80.089301
 21
73.182429
  0
LINE
  8
0
  6
CONTINUOUS
 62
1
 10
95.569300
 20
73.182457
 11
94.969300
 21
73.182457
  0
LINE
  8
0
  6
CONTINUOUS
 62
1
 10
94.969272
 20
73.062458
 11
95.569300
 21
73.062458
  0
LINE
  8
0
  6
CONTINUOUS
 62
1
 10
94.849301
 20
73.182457
 11
94.149301
 21
73.182457
  0
LINE
  8
0
  6
CONTINUOUS
 62
1
 10
94.149273
 20
73.062458
 11
94.849328
 21
73.062458
  0
LINE
  8
0
  6
CONTINUOUS
 62
1
 10
94.029301
 20
73.182457
 11
93.329301
 21
73.182457
  0
LINE
  8
0
  6
CONTINUOUS
 62
1
 10
93.329273
 20
73.062458
 11
94.029329
 21
73.062458
  0
LINE
  8
0
  6
CONTINUOUS
 62
1
 10
93.209300
 20
73.182457
 11
92.509301
 21
73.182457
  0
LINE
  8
0
  6
CONTINUOUS
 62
1
 10
92.509272
 20
73.062458
 11
93.209329
 21
73.062458
  0
LINE
  8
0
  6
CONTINUOUS
 62
1
 10
92.389302
 20
73.182457
 11
91.689302
 21
73.182457
  0
LINE
  8
0
  6
CONTINUOUS
 62
1
 10
91.689273
 20
73.062458
 11
92.389328
 21
73.062458
  0
LINE
  8
0
  6
CONTINUOUS
 62
1
 10
80.089301
 20
73.182457
 11
80.049973
 21
73.182457
  0
LINE
  8
0
  6
CONTINUOUS
 62
1
 10
91.569301
 20
73.182457
 11
90.869301
 21
73.182457
  0
LINE
  8
0
  6
CONTINUOUS
 62
1
 10
90.869273
 20
73.062458
 11
91.569329
 21
73.062458
  0
LINE
  8
0
  6
CONTINUOUS
 62
1
 10
90.749301
 20
73.182457
 11
90.049301
 21
73.182457
  0
LINE
  8
0
  6
CONTINUOUS
 62
1
 10
90.049272
 20
73.062458
 11
90.749329
 21
73.062458
  0
LINE
  8
0
  6
CONTINUOUS
 62
1
 10
89.929302
 20
73.182457
 11
89.229302
 21
73.182457
  0
LINE
  8
0
  6
CONTINUOUS
 62
1
 10
89.229273
 20
73.062458
 11
89.929328
 21
73.062458
  0
LINE
  8
0
  6
CONTINUOUS
 62
1
 10
88.289301
 20
73.182457
 11
87.589301
 21
73.182457
  0
LINE
  8
0
  6
CONTINUOUS
 62
1
 10
87.589273
 20
73.062458
 11
88.289329
 21
73.062458
  0
LINE
  8
0
  6
CONTINUOUS
 62
1
 10
89.109301
 20
73.182457
 11
88.409301
 21
73.182457
  0
LINE
  8
0
  6
CONTINUOUS
 62
1
 10
88.409273
 20
73.062458
 11
89.109329
 21
73.062458
  0
LINE
  8
0
  6
CONTINUOUS
 62
1
 10
87.469301
 20
73.182457
 11
86.769301
 21
73.182457
  0
LINE
  8
0
  6
CONTINUOUS
 62
1
 10
86.769273
 20
73.062458
 11
87.469329
 21
73.062458
  0
LINE
  8
0
  6
CONTINUOUS
 62
1
 10
86.649301
 20
73.182457
 11
85.949301
 21
73.182457
  0
LINE
  8
0
  6
CONTINUOUS
 62
1
 10
85.949273
 20
73.062458
 11
86.649329
 21
73.062458
  0
LINE
  8
0
  6
CONTINUOUS
 62
1
 10
85.829301
 20
73.182457
 11
85.129301
 21
73.182457
  0
LINE
  8
0
  6
CONTINUOUS
 62
1
 10
85.129273
 20
73.062458
 11
85.829329
 21
73.062458
  0
LINE
  8
0
  6
CONTINUOUS
 62
1
 10
85.009301
 20
73.182457
 11
84.309301
 21
73.182457
  0
LINE
  8
0
  6
CONTINUOUS
 62
1
 10
84.309273
 20
73.062458
 11
85.009329
 21
73.062458
  0
LINE
  8
0
  6
CONTINUOUS
 62
1
 10
83.369301
 20
73.182457
 11
82.669301
 21
73.182457
  0
LINE
  8
0
  6
CONTINUOUS
 62
1
 10
82.669273
 20
73.062458
 11
83.369329
 21
73.062458
  0
LINE
  8
0
  6
CONTINUOUS
 62
1
 10
84.189301
 20
73.182457
 11
83.489301
 21
73.182457
  0
LINE
  8
0
  6
CONTINUOUS
 62
1
 10
83.489273
 20
73.062458
 11
84.189329
 21
73.062458
  0
LINE
  8
0
  6
CONTINUOUS
 62
1
 10
82.549301
 20
73.182457
 11
81.849301
 21
73.182457
  0
LINE
  8
0
  6
CONTINUOUS
 62
1
 10
81.849273
 20
73.062458
 11
82.549329
 21
73.062458
  0
LINE
  8
0
  6
CONTINUOUS
 62
1
 10
81.729301
 20
73.182457
 11
81.029301
 21
73.182457
  0
LINE
  8
0
  6
CONTINUOUS
 62
1
 10
81.029273
 20
73.062458
 11
81.729329
 21
73.062458
  0
LINE
  8
0
  6
CONTINUOUS
 62
1
 10
80.909301
 20
73.182457
 11
80.209301
 21
73.182457
  0
LINE
  8
0
  6
CONTINUOUS
 62
1
 10
80.209273
 20
73.062458
 11
80.909329
 21
73.062458
  0
LINE
  8
0
  6
CONTINUOUS
 62
1
 10
94.969300
 20
72.362813
 11
94.969300
 21
73.062458
  0
LINE
  8
0
  6
CONTINUOUS
 62
1
 10
94.849301
 20
73.062458
 11
94.849301
 21
72.362813
  0
LINE
  8
0
  6
CONTINUOUS
 62
1
 10
94.149301
 20
72.362813
 11
94.149301
 21
73.062458
  0
LINE
  8
0
  6
CONTINUOUS
 62
1
 10
94.029301
 20
73.062458
 11
94.029301
 21
72.362813
  0
LINE
  8
0
  6
CONTINUOUS
 62
1
 10
93.329301
 20
72.362813
 11
93.329301
 21
73.062458
  0
LINE
  8
0
  6
CONTINUOUS
 62
1
 10
93.209300
 20
73.062458
 11
93.209300
 21
72.362813
  0
LINE
  8
0
  6
CONTINUOUS
 62
1
 10
91.689302
 20
72.362813
 11
91.689302
 21
73.062458
  0
LINE
  8
0
  6
CONTINUOUS
 62
1
 10
91.569301
 20
73.062458
 11
91.569301
 21
72.362813
  0
LINE
  8
0
  6
CONTINUOUS
 62
1
 10
92.509301
 20
72.362813
 11
92.509301
 21
73.062458
  0
LINE
  8
0
  6
CONTINUOUS
 62
1
 10
92.389302
 20
73.062458
 11
92.389302
 21
72.362813
  0
LINE
  8
0
  6
CONTINUOUS
 62
1
 10
90.869301
 20
72.362813
 11
90.869301
 21
73.062458
  0
LINE
  8
0
  6
CONTINUOUS
 62
1
 10
90.749301
 20
73.062458
 11
90.749301
 21
72.362813
  0
LINE
  8
0
  6
CONTINUOUS
 62
1
 10
90.049301
 20
72.362813
 11
90.049301
 21
73.062458
  0
LINE
  8
0
  6
CONTINUOUS
 62
1
 10
89.929302
 20
73.062458
 11
89.929302
 21
72.362813
  0
LINE
  8
0
  6
CONTINUOUS
 62
1
 10
89.229302
 20
72.362813
 11
89.229302
 21
73.062458
  0
LINE
  8
0
  6
CONTINUOUS
 62
1
 10
89.109301
 20
73.062458
 11
89.109301
 21
72.362813
  0
LINE
  8
0
  6
CONTINUOUS
 62
1
 10
88.409301
 20
72.362813
 11
88.409301
 21
73.062458
  0
LINE
  8
0
  6
CONTINUOUS
 62
1
 10
88.289301
 20
73.062458
 11
88.289301
 21
72.362813
  0
LINE
  8
0
  6
CONTINUOUS
 62
1
 10
87.589301
 20
72.362813
 11
87.589301
 21
73.062458
  0
LINE
  8
0
  6
CONTINUOUS
 62
1
 10
87.469301
 20
73.062458
 11
87.469301
 21
72.362813
  0
LINE
  8
0
  6
CONTINUOUS
 62
1
 10
86.769301
 20
72.362813
 11
86.769301
 21
73.062458
  0
LINE
  8
0
  6
CONTINUOUS
 62
1
 10
86.649301
 20
73.062458
 11
86.649301
 21
72.362813
  0
LINE
  8
0
  6
CONTINUOUS
 62
1
 10
85.949301
 20
72.362813
 11
85.949301
 21
73.062458
  0
LINE
  8
0
  6
CONTINUOUS
 62
1
 10
85.829301
 20
73.062458
 11
85.829301
 21
72.362813
  0
LINE
  8
0
  6
CONTINUOUS
 62
1
 10
85.129301
 20
72.362813
 11
85.129301
 21
73.062458
  0
LINE
  8
0
  6
CONTINUOUS
 62
1
 10
85.009301
 20
73.062458
 11
85.009301
 21
72.362813
  0
LINE
  8
0
  6
CONTINUOUS
 62
1
 10
84.309301
 20
72.362813
 11
84.309301
 21
73.062458
  0
LINE
  8
0
  6
CONTINUOUS
 62
1
 10
84.189301
 20
73.062458
 11
84.189301
 21
72.362813
  0
LINE
  8
0
  6
CONTINUOUS
 62
1
 10
83.489301
 20
72.362813
 11
83.489301
 21
73.062458
  0
LINE
  8
0
  6
CONTINUOUS
 62
1
 10
83.369301
 20
73.062458
 11
83.369301
 21
72.362813
  0
LINE
  8
0
  6
CONTINUOUS
 62
1
 10
82.669301
 20
72.362813
 11
82.669301
 21
73.062458
  0
LINE
  8
0
  6
CONTINUOUS
 62
1
 10
82.549301
 20
73.062458
 11
82.549301
 21
72.362813
  0
LINE
  8
0
  6
CONTINUOUS
 62
1
 10
81.849301
 20
72.362813
 11
81.849301
 21
73.062458
  0
LINE
  8
0
  6
CONTINUOUS
 62
1
 10
81.729301
 20
73.062458
 11
81.729301
 21
72.362813
  0
LINE
  8
0
  6
CONTINUOUS
 62
1
 10
81.029301
 20
72.513383
 11
81.029301
 21
73.062458
  0
LINE
  8
0
  6
CONTINUOUS
 62
1
 10
80.909301
 20
73.062458
 11
80.909301
 21
72.567766
  0
LINE
  8
0
  6
CONTINUOUS
 62
1
 10
80.209301
 20
73.028160
 11
80.209301
 21
73.062458
  0
LINE
  8
0
  6
CONTINUOUS
 62
1
 10
82.549301
 20
72.362841
 11
81.849301
 21
72.362841
  0
LINE
  8
0
  6
CONTINUOUS
 62
1
 10
83.369301
 20
72.362841
 11
82.669301
 21
72.362841
  0
LINE
  8
0
  6
CONTINUOUS
 62
1
 10
84.189301
 20
72.362841
 11
83.489301
 21
72.362841
  0
LINE
  8
0
  6
CONTINUOUS
 62
1
 10
85.009301
 20
72.362841
 11
84.309301
 21
72.362841
  0
LINE
  8
0
  6
CONTINUOUS
 62
1
 10
85.829301
 20
72.362841
 11
85.129301
 21
72.362841
  0
LINE
  8
0
  6
CONTINUOUS
 62
1
 10
86.649301
 20
72.362841
 11
85.949301
 21
72.362841
  0
LINE
  8
0
  6
CONTINUOUS
 62
1
 10
87.469301
 20
72.362841
 11
86.769301
 21
72.362841
  0
LINE
  8
0
  6
CONTINUOUS
 62
1
 10
88.289301
 20
72.362841
 11
87.589301
 21
72.362841
  0
LINE
  8
0
  6
CONTINUOUS
 62
1
 10
89.109301
 20
72.362841
 11
88.409301
 21
72.362841
  0
LINE
  8
0
  6
CONTINUOUS
 62
1
 10
89.929302
 20
72.362841
 11
89.229302
 21
72.362841
  0
LINE
  8
0
  6
CONTINUOUS
 62
1
 10
90.749301
 20
72.362841
 11
90.049301
 21
72.362841
  0
LINE
  8
0
  6
CONTINUOUS
 62
1
 10
91.569301
 20
72.362841
 11
90.869301
 21
72.362841
  0
LINE
  8
0
  6
CONTINUOUS
 62
1
 10
92.389302
 20
72.362841
 11
91.689302
 21
72.362841
  0
LINE
  8
0
  6
CONTINUOUS
 62
1
 10
93.209300
 20
72.362841
 11
92.509301
 21
72.362841
  0
LINE
  8
0
  6
CONTINUOUS
 62
1
 10
94.029301
 20
72.362841
 11
93.329301
 21
72.362841
  0
LINE
  8
0
  6
CONTINUOUS
 62
1
 10
94.849301
 20
72.362841
 11
94.149301
 21
72.362841
  0
LINE
  8
0
  6
CONTINUOUS
 62
1
 10
95.569300
 20
72.362841
 11
94.969300
 21
72.362841
  0
LINE
  8
0
  6
CONTINUOUS
 62
1
 10
81.729301
 20
72.362841
 11
81.567173
 21
72.362841
  0
LINE
  8
0
  6
CONTINUOUS
 62
1
 10
72.049273
 20
73.882074
 11
72.507494
 21
73.882074
  0
LINE
  8
0
  6
CONTINUOUS
 62
1
 10
71.229273
 20
73.882074
 11
71.929329
 21
73.882074
  0
LINE
  8
0
  6
CONTINUOUS
 62
1
 10
70.409273
 20
73.882074
 11
71.109329
 21
73.882074
  0
LINE
  8
0
  6
CONTINUOUS
 62
1
 10
69.589273
 20
73.882074
 11
70.289329
 21
73.882074
  0
LINE
  8
0
  6
CONTINUOUS
 62
1
 10
68.769273
 20
73.882074
 11
69.469329
 21
73.882074
  0
LINE
  8
0
  6
CONTINUOUS
 62
1
 10
67.949273
 20
73.882074
 11
68.649329
 21
73.882074
  0
LINE
  8
0
  6
CONTINUOUS
 62
1
 10
67.129273
 20
73.882074
 11
67.829329
 21
73.882074
  0
LINE
  8
0
  6
CONTINUOUS
 62
1
 10
65.489273
 20
73.882074
 11
66.189329
 21
73.882074
  0
LINE
  8
0
  6
CONTINUOUS
 62
1
 10
66.309273
 20
73.882074
 11
67.009329
 21
73.882074
  0
LINE
  8
0
  6
CONTINUOUS
 62
1
 10
64.669273
 20
73.882074
 11
65.369329
 21
73.882074
  0
LINE
  8
0
  6
CONTINUOUS
 62
1
 10
63.849273
 20
73.882074
 11
64.549329
 21
73.882074
  0
LINE
  8
0
  6
CONTINUOUS
 62
1
 10
63.029272
 20
73.882074
 11
63.729329
 21
73.882074
  0
LINE
  8
0
  6
CONTINUOUS
 62
1
 10
61.389273
 20
73.882074
 11
62.089330
 21
73.882074
  0
LINE
  8
0
  6
CONTINUOUS
 62
1
 10
62.209273
 20
73.882074
 11
62.909328
 21
73.882074
  0
LINE
  8
0
  6
CONTINUOUS
 62
1
 10
60.569272
 20
73.882074
 11
61.269329
 21
73.882074
  0
LINE
  8
0
  6
CONTINUOUS
 62
1
 10
59.749274
 20
73.882074
 11
60.449329
 21
73.882074
  0
LINE
  8
0
  6
CONTINUOUS
 62
1
 10
58.929273
 20
73.882074
 11
59.629330
 21
73.882074
  0
LINE
  8
0
  6
CONTINUOUS
 62
1
 10
58.109273
 20
73.882074
 11
58.809329
 21
73.882074
  0
LINE
  8
0
  6
CONTINUOUS
 62
1
 10
57.289274
 20
73.882074
 11
57.989329
 21
73.882074
  0
LINE
  8
0
  6
CONTINUOUS
 62
1
 10
57.069301
 20
74.002074
 11
56.695786
 21
74.002074
  0
LINE
  8
0
  6
CONTINUOUS
 62
1
 10
56.616655
 20
73.882074
 11
57.169330
 21
73.882074
  0
LINE
  8
0
  6
CONTINUOUS
 62
1
 10
72.049301
 20
73.182429
 11
72.049301
 21
73.882074
  0
LINE
  8
0
  6
CONTINUOUS
 62
1
 10
71.929301
 20
73.882074
 11
71.929301
 21
73.182429
  0
LINE
  8
0
  6
CONTINUOUS
 62
1
 10
71.229301
 20
73.182429
 11
71.229301
 21
73.882074
  0
LINE
  8
0
  6
CONTINUOUS
 62
1
 10
71.109301
 20
73.882074
 11
71.109301
 21
73.182429
  0
LINE
  8
0
  6
CONTINUOUS
 62
1
 10
69.589301
 20
73.182429
 11
69.589301
 21
73.882074
  0
LINE
  8
0
  6
CONTINUOUS
 62
1
 10
69.469301
 20
73.882074
 11
69.469301
 21
73.182429
  0
LINE
  8
0
  6
CONTINUOUS
 62
1
 10
70.409301
 20
73.182429
 11
70.409301
 21
73.882074
  0
LINE
  8
0
  6
CONTINUOUS
 62
1
 10
70.289301
 20
73.882074
 11
70.289301
 21
73.182429
  0
LINE
  8
0
  6
CONTINUOUS
 62
1
 10
68.769301
 20
73.182429
 11
68.769301
 21
73.882074
  0
LINE
  8
0
  6
CONTINUOUS
 62
1
 10
68.649301
 20
73.882074
 11
68.649301
 21
73.182429
  0
LINE
  8
0
  6
CONTINUOUS
 62
1
 10
67.949301
 20
73.182429
 11
67.949301
 21
73.882074
  0
LINE
  8
0
  6
CONTINUOUS
 62
1
 10
67.829301
 20
73.882074
 11
67.829301
 21
73.182429
  0
LINE
  8
0
  6
CONTINUOUS
 62
1
 10
67.129301
 20
73.182429
 11
67.129301
 21
73.882074
  0
LINE
  8
0
  6
CONTINUOUS
 62
1
 10
67.009301
 20
73.882074
 11
67.009301
 21
73.182429
  0
LINE
  8
0
  6
CONTINUOUS
 62
1
 10
65.489301
 20
73.182429
 11
65.489301
 21
73.882074
  0
LINE
  8
0
  6
CONTINUOUS
 62
1
 10
65.369301
 20
73.882074
 11
65.369301
 21
73.182429
  0
LINE
  8
0
  6
CONTINUOUS
 62
1
 10
66.309301
 20
73.182429
 11
66.309301
 21
73.882074
  0
LINE
  8
0
  6
CONTINUOUS
 62
1
 10
66.189301
 20
73.882074
 11
66.189301
 21
73.182429
  0
LINE
  8
0
  6
CONTINUOUS
 62
1
 10
64.669301
 20
73.182429
 11
64.669301
 21
73.882074
  0
LINE
  8
0
  6
CONTINUOUS
 62
1
 10
64.549301
 20
73.882074
 11
64.549301
 21
73.182429
  0
LINE
  8
0
  6
CONTINUOUS
 62
1
 10
63.849301
 20
73.182429
 11
63.849301
 21
73.882074
  0
LINE
  8
0
  6
CONTINUOUS
 62
1
 10
63.729301
 20
73.882074
 11
63.729301
 21
73.182429
  0
LINE
  8
0
  6
CONTINUOUS
 62
1
 10
63.029301
 20
73.182429
 11
63.029301
 21
73.882074
  0
LINE
  8
0
  6
CONTINUOUS
 62
1
 10
62.909300
 20
73.882074
 11
62.909300
 21
73.182429
  0
LINE
  8
0
  6
CONTINUOUS
 62
1
 10
61.389301
 20
73.182429
 11
61.389301
 21
73.882074
  0
LINE
  8
0
  6
CONTINUOUS
 62
1
 10
61.269301
 20
73.882074
 11
61.269301
 21
73.182429
  0
LINE
  8
0
  6
CONTINUOUS
 62
1
 10
62.209300
 20
73.182429
 11
62.209300
 21
73.882074
  0
LINE
  8
0
  6
CONTINUOUS
 62
1
 10
62.089301
 20
73.882074
 11
62.089301
 21
73.182429
  0
LINE
  8
0
  6
CONTINUOUS
 62
1
 10
60.569301
 20
73.182429
 11
60.569301
 21
73.882074
  0
LINE
  8
0
  6
CONTINUOUS
 62
1
 10
60.449300
 20
73.882074
 11
60.449300
 21
73.182429
  0
LINE
  8
0
  6
CONTINUOUS
 62
1
 10
59.749300
 20
73.182429
 11
59.749300
 21
73.882074
  0
LINE
  8
0
  6
CONTINUOUS
 62
1
 10
59.629301
 20
73.882074
 11
59.629301
 21
73.182429
  0
LINE
  8
0
  6
CONTINUOUS
 62
1
 10
58.929301
 20
73.182429
 11
58.929301
 21
73.882074
  0
LINE
  8
0
  6
CONTINUOUS
 62
1
 10
58.809301
 20
73.882074
 11
58.809301
 21
73.182429
  0
LINE
  8
0
  6
CONTINUOUS
 62
1
 10
58.109301
 20
73.182429
 11
58.109301
 21
73.882074
  0
LINE
  8
0
  6
CONTINUOUS
 62
1
 10
57.989300
 20
73.882074
 11
57.989300
 21
73.182429
  0
LINE
  8
0
  6
CONTINUOUS
 62
1
 10
57.289300
 20
73.182429
 11
57.289300
 21
73.882074
  0
LINE
  8
0
  6
CONTINUOUS
 62
1
 10
57.169301
 20
73.882074
 11
57.169301
 21
73.182429
  0
LINE
  8
0
  6
CONTINUOUS
 62
1
 10
72.084679
 20
73.182457
 11
72.049301
 21
73.182457
  0
LINE
  8
0
  6
CONTINUOUS
 62
1
 10
71.929301
 20
73.182457
 11
71.229301
 21
73.182457
  0
LINE
  8
0
  6
CONTINUOUS
 62
1
 10
71.229273
 20
73.062458
 11
71.929329
 21
73.062458
  0
LINE
  8
0
  6
CONTINUOUS
 62
1
 10
71.109301
 20
73.182457
 11
70.409301
 21
73.182457
  0
LINE
  8
0
  6
CONTINUOUS
 62
1
 10
70.409273
 20
73.062458
 11
71.109329
 21
73.062458
  0
LINE
  8
0
  6
CONTINUOUS
 62
1
 10
70.289301
 20
73.182457
 11
69.589301
 21
73.182457
  0
LINE
  8
0
  6
CONTINUOUS
 62
1
 10
69.589273
 20
73.062458
 11
70.289329
 21
73.062458
  0
LINE
  8
0
  6
CONTINUOUS
 62
1
 10
69.469301
 20
73.182457
 11
68.769301
 21
73.182457
  0
LINE
  8
0
  6
CONTINUOUS
 62
1
 10
68.769273
 20
73.062458
 11
69.469329
 21
73.062458
  0
LINE
  8
0
  6
CONTINUOUS
 62
1
 10
68.649301
 20
73.182457
 11
67.949301
 21
73.182457
  0
LINE
  8
0
  6
CONTINUOUS
 62
1
 10
67.949273
 20
73.062458
 11
68.649329
 21
73.062458
  0
LINE
  8
0
  6
CONTINUOUS
 62
1
 10
67.829301
 20
73.182457
 11
67.129301
 21
73.182457
  0
LINE
  8
0
  6
CONTINUOUS
 62
1
 10
67.129273
 20
73.062458
 11
67.829329
 21
73.062458
  0
LINE
  8
0
  6
CONTINUOUS
 62
1
 10
66.189301
 20
73.182457
 11
65.489301
 21
73.182457
  0
LINE
  8
0
  6
CONTINUOUS
 62
1
 10
65.489273
 20
73.062458
 11
66.189329
 21
73.062458
  0
LINE
  8
0
  6
CONTINUOUS
 62
1
 10
67.009301
 20
73.182457
 11
66.309301
 21
73.182457
  0
LINE
  8
0
  6
CONTINUOUS
 62
1
 10
66.309273
 20
73.062458
 11
67.009329
 21
73.062458
  0
LINE
  8
0
  6
CONTINUOUS
 62
1
 10
65.369301
 20
73.182457
 11
64.669301
 21
73.182457
  0
LINE
  8
0
  6
CONTINUOUS
 62
1
 10
64.669273
 20
73.062458
 11
65.369329
 21
73.062458
  0
LINE
  8
0
  6
CONTINUOUS
 62
1
 10
64.549301
 20
73.182457
 11
63.849301
 21
73.182457
  0
LINE
  8
0
  6
CONTINUOUS
 62
1
 10
63.849273
 20
73.062458
 11
64.549329
 21
73.062458
  0
LINE
  8
0
  6
CONTINUOUS
 62
1
 10
63.729301
 20
73.182457
 11
63.029301
 21
73.182457
  0
LINE
  8
0
  6
CONTINUOUS
 62
1
 10
63.029272
 20
73.062458
 11
63.729329
 21
73.062458
  0
LINE
  8
0
  6
CONTINUOUS
 62
1
 10
62.089301
 20
73.182457
 11
61.389301
 21
73.182457
  0
LINE
  8
0
  6
CONTINUOUS
 62
1
 10
61.389273
 20
73.062458
 11
62.089330
 21
73.062458
  0
LINE
  8
0
  6
CONTINUOUS
 62
1
 10
62.909300
 20
73.182457
 11
62.209300
 21
73.182457
  0
LINE
  8
0
  6
CONTINUOUS
 62
1
 10
62.209273
 20
73.062458
 11
62.909328
 21
73.062458
  0
LINE
  8
0
  6
CONTINUOUS
 62
1
 10
61.269301
 20
73.182457
 11
60.569301
 21
73.182457
  0
LINE
  8
0
  6
CONTINUOUS
 62
1
 10
60.569272
 20
73.062458
 11
61.269329
 21
73.062458
  0
LINE
  8
0
  6
CONTINUOUS
 62
1
 10
60.449300
 20
73.182457
 11
59.749300
 21
73.182457
  0
LINE
  8
0
  6
CONTINUOUS
 62
1
 10
59.749274
 20
73.062458
 11
60.449329
 21
73.062458
  0
LINE
  8
0
  6
CONTINUOUS
 62
1
 10
59.629301
 20
73.182457
 11
58.929301
 21
73.182457
  0
LINE
  8
0
  6
CONTINUOUS
 62
1
 10
58.929273
 20
73.062458
 11
59.629330
 21
73.062458
  0
LINE
  8
0
  6
CONTINUOUS
 62
1
 10
57.989300
 20
73.182457
 11
57.289300
 21
73.182457
  0
LINE
  8
0
  6
CONTINUOUS
 62
1
 10
57.289274
 20
73.062458
 11
57.989329
 21
73.062458
  0
LINE
  8
0
  6
CONTINUOUS
 62
1
 10
58.809301
 20
73.182457
 11
58.109301
 21
73.182457
  0
LINE
  8
0
  6
CONTINUOUS
 62
1
 10
58.109273
 20
73.062458
 11
58.809329
 21
73.062458
  0
LINE
  8
0
  6
CONTINUOUS
 62
1
 10
57.169301
 20
73.182457
 11
56.569302
 21
73.182457
  0
LINE
  8
0
  6
CONTINUOUS
 62
1
 10
56.569302
 20
73.062458
 11
57.169330
 21
73.062458
  0
LINE
  8
0
  6
CONTINUOUS
 62
1
 10
71.929301
 20
73.062458
 11
71.929301
 21
73.026483
  0
LINE
  8
0
  6
CONTINUOUS
 62
1
 10
71.229301
 20
72.564318
 11
71.229301
 21
73.062458
  0
LINE
  8
0
  6
CONTINUOUS
 62
1
 10
71.109301
 20
73.062458
 11
71.109301
 21
72.516946
  0
LINE
  8
0
  6
CONTINUOUS
 62
1
 10
70.409301
 20
72.362813
 11
70.409301
 21
73.062458
  0
LINE
  8
0
  6
CONTINUOUS
 62
1
 10
70.289301
 20
73.062458
 11
70.289301
 21
72.362813
  0
LINE
  8
0
  6
CONTINUOUS
 62
1
 10
69.589301
 20
72.362813
 11
69.589301
 21
73.062458
  0
LINE
  8
0
  6
CONTINUOUS
 62
1
 10
69.469301
 20
73.062458
 11
69.469301
 21
72.362813
  0
LINE
  8
0
  6
CONTINUOUS
 62
1
 10
68.769301
 20
72.362813
 11
68.769301
 21
73.062458
  0
LINE
  8
0
  6
CONTINUOUS
 62
1
 10
68.649301
 20
73.062458
 11
68.649301
 21
72.362813
  0
LINE
  8
0
  6
CONTINUOUS
 62
1
 10
67.949301
 20
72.362813
 11
67.949301
 21
73.062458
  0
LINE
  8
0
  6
CONTINUOUS
 62
1
 10
67.829301
 20
73.062458
 11
67.829301
 21
72.362813
  0
LINE
  8
0
  6
CONTINUOUS
 62
1
 10
67.129301
 20
72.362813
 11
67.129301
 21
73.062458
  0
LINE
  8
0
  6
CONTINUOUS
 62
1
 10
67.009301
 20
73.062458
 11
67.009301
 21
72.362813
  0
LINE
  8
0
  6
CONTINUOUS
 62
1
 10
65.489301
 20
72.362813
 11
65.489301
 21
73.062458
  0
LINE
  8
0
  6
CONTINUOUS
 62
1
 10
65.369301
 20
73.062458
 11
65.369301
 21
72.362813
  0
LINE
  8
0
  6
CONTINUOUS
 62
1
 10
66.309301
 20
72.362813
 11
66.309301
 21
73.062458
  0
LINE
  8
0
  6
CONTINUOUS
 62
1
 10
66.189301
 20
73.062458
 11
66.189301
 21
72.362813
  0
LINE
  8
0
  6
CONTINUOUS
 62
1
 10
64.669301
 20
72.362813
 11
64.669301
 21
73.062458
  0
LINE
  8
0
  6
CONTINUOUS
 62
1
 10
64.549301
 20
73.062458
 11
64.549301
 21
72.362813
  0
LINE
  8
0
  6
CONTINUOUS
 62
1
 10
63.849301
 20
72.362813
 11
63.849301
 21
73.062458
  0
LINE
  8
0
  6
CONTINUOUS
 62
1
 10
63.729301
 20
73.062458
 11
63.729301
 21
72.362813
  0
LINE
  8
0
  6
CONTINUOUS
 62
1
 10
63.029301
 20
72.362813
 11
63.029301
 21
73.062458
  0
LINE
  8
0
  6
CONTINUOUS
 62
1
 10
62.909300
 20
73.062458
 11
62.909300
 21
72.362813
  0
LINE
  8
0
  6
CONTINUOUS
 62
1
 10
61.389301
 20
72.362813
 11
61.389301
 21
73.062458
  0
LINE
  8
0
  6
CONTINUOUS
 62
1
 10
61.269301
 20
73.062458
 11
61.269301
 21
72.362813
  0
LINE
  8
0
  6
CONTINUOUS
 62
1
 10
62.209300
 20
72.362813
 11
62.209300
 21
73.062458
  0
LINE
  8
0
  6
CONTINUOUS
 62
1
 10
62.089301
 20
73.062458
 11
62.089301
 21
72.362813
  0
LINE
  8
0
  6
CONTINUOUS
 62
1
 10
60.569301
 20
72.362813
 11
60.569301
 21
73.062458
  0
LINE
  8
0
  6
CONTINUOUS
 62
1
 10
60.449300
 20
73.062458
 11
60.449300
 21
72.362813
  0
LINE
  8
0
  6
CONTINUOUS
 62
1
 10
59.749300
 20
72.362813
 11
59.749300
 21
73.062458
  0
LINE
  8
0
  6
CONTINUOUS
 62
1
 10
59.629301
 20
73.062458
 11
59.629301
 21
72.362813
  0
LINE
  8
0
  6
CONTINUOUS
 62
1
 10
58.929301
 20
72.362813
 11
58.929301
 21
73.062458
  0
LINE
  8
0
  6
CONTINUOUS
 62
1
 10
58.809301
 20
73.062458
 11
58.809301
 21
72.362813
  0
LINE
  8
0
  6
CONTINUOUS
 62
1
 10
58.109301
 20
72.362813
 11
58.109301
 21
73.062458
  0
LINE
  8
0
  6
CONTINUOUS
 62
1
 10
57.989300
 20
73.062458
 11
57.989300
 21
72.362813
  0
LINE
  8
0
  6
CONTINUOUS
 62
1
 10
57.289300
 20
72.362813
 11
57.289300
 21
73.062458
  0
LINE
  8
0
  6
CONTINUOUS
 62
1
 10
57.169301
 20
73.062458
 11
57.169301
 21
72.362813
  0
LINE
  8
0
  6
CONTINUOUS
 62
1
 10
70.551034
 20
72.362841
 11
70.409301
 21
72.362841
  0
LINE
  8
0
  6
CONTINUOUS
 62
1
 10
57.169301
 20
72.362841
 11
56.569302
 21
72.362841
  0
LINE
  8
0
  6
CONTINUOUS
 62
1
 10
57.989300
 20
72.362841
 11
57.289300
 21
72.362841
  0
LINE
  8
0
  6
CONTINUOUS
 62
1
 10
58.809301
 20
72.362841
 11
58.109301
 21
72.362841
  0
LINE
  8
0
  6
CONTINUOUS
 62
1
 10
59.629301
 20
72.362841
 11
58.929301
 21
72.362841
  0
LINE
  8
0
  6
CONTINUOUS
 62
1
 10
60.449300
 20
72.362841
 11
59.749300
 21
72.362841
  0
LINE
  8
0
  6
CONTINUOUS
 62
1
 10
61.269301
 20
72.362841
 11
60.569301
 21
72.362841
  0
LINE
  8
0
  6
CONTINUOUS
 62
1
 10
62.089301
 20
72.362841
 11
61.389301
 21
72.362841
  0
LINE
  8
0
  6
CONTINUOUS
 62
1
 10
62.909300
 20
72.362841
 11
62.209300
 21
72.362841
  0
LINE
  8
0
  6
CONTINUOUS
 62
1
 10
63.729301
 20
72.362841
 11
63.029301
 21
72.362841
  0
LINE
  8
0
  6
CONTINUOUS
 62
1
 10
64.549301
 20
72.362841
 11
63.849301
 21
72.362841
  0
LINE
  8
0
  6
CONTINUOUS
 62
1
 10
65.369301
 20
72.362841
 11
64.669301
 21
72.362841
  0
LINE
  8
0
  6
CONTINUOUS
 62
1
 10
66.189301
 20
72.362841
 11
65.489301
 21
72.362841
  0
LINE
  8
0
  6
CONTINUOUS
 62
1
 10
67.009301
 20
72.362841
 11
66.309301
 21
72.362841
  0
LINE
  8
0
  6
CONTINUOUS
 62
1
 10
67.829301
 20
72.362841
 11
67.129301
 21
72.362841
  0
LINE
  8
0
  6
CONTINUOUS
 62
1
 10
68.649301
 20
72.362841
 11
67.949301
 21
72.362841
  0
LINE
  8
0
  6
CONTINUOUS
 62
1
 10
69.469301
 20
72.362841
 11
68.769301
 21
72.362841
  0
LINE
  8
0
  6
CONTINUOUS
 62
1
 10
70.289301
 20
72.362841
 11
69.589301
 21
72.362841
  0
LINE
  8
0
  6
CONTINUOUS
 62
1
 10
89.168301
 20
71.828019
 11
89.169301
 21
71.828019
  0
LINE
  8
0
  6
CONTINUOUS
 62
1
 10
89.169301
 20
71.948019
 11
89.168301
 21
71.948019
  0
LINE
  8
0
  6
CONTINUOUS
 62
1
 10
62.968301
 20
71.828019
 11
62.969301
 21
71.828019
  0
LINE
  8
0
  6
CONTINUOUS
 62
1
 10
62.969301
 20
71.948019
 11
62.968301
 21
71.948019
  0
LINE
  8
0
  6
CONTINUOUS
 62
1
 10
89.169301
 20
71.973083
 11
89.168301
 21
71.973083
  0
LINE
  8
0
  6
CONTINUOUS
 62
1
 10
62.969301
 20
71.973083
 11
62.968301
 21
71.973083
  0
LINE
  8
0
  6
CONTINUOUS
 62
1
 10
89.169301
 20
71.998148
 11
89.168301
 21
71.998148
  0
LINE
  8
0
  6
CONTINUOUS
 62
1
 10
62.969301
 20
71.998148
 11
62.968301
 21
71.998148
  0
LINE
  8
0
  6
CONTINUOUS
 62
1
 10
62.969301
 20
72.023214
 11
62.968301
 21
72.023214
  0
LINE
  8
0
  6
CONTINUOUS
 62
1
 10
89.169301
 20
72.023214
 11
89.168301
 21
72.023214
  0
LINE
  8
0
  6
CONTINUOUS
 62
1
 10
89.169301
 20
72.048277
 11
89.168301
 21
72.048277
  0
LINE
  8
0
  6
CONTINUOUS
 62
1
 10
62.969301
 20
72.048277
 11
62.968301
 21
72.048277
  0
LINE
  8
0
  6
CONTINUOUS
 62
1
 10
89.169301
 20
72.073343
 11
89.168301
 21
72.073343
  0
LINE
  8
0
  6
CONTINUOUS
 62
1
 10
62.969301
 20
72.073343
 11
62.968301
 21
72.073343
  0
LINE
  8
0
  6
CONTINUOUS
 62
1
 10
89.169301
 20
72.098408
 11
89.168301
 21
72.098408
  0
LINE
  8
0
  6
CONTINUOUS
 62
1
 10
62.969301
 20
72.098408
 11
62.968301
 21
72.098408
  0
LINE
  8
0
  6
CONTINUOUS
 62
1
 10
70.119301
 20
72.123472
 11
56.569302
 21
72.123472
  0
LINE
  8
0
  6
CONTINUOUS
 62
1
 10
95.569300
 20
72.123472
 11
82.019301
 21
72.123472
  0
LINE
  8
0
  6
CONTINUOUS
 62
1
 10
95.569300
 20
72.148537
 11
82.019301
 21
72.148537
  0
LINE
  8
0
  6
CONTINUOUS
 62
1
 10
70.119301
 20
72.148537
 11
56.569302
 21
72.148537
  0
LINE
  8
0
  6
CONTINUOUS
 62
1
 10
95.569300
 20
72.173602
 11
82.019301
 21
72.173602
  0
LINE
  8
0
  6
CONTINUOUS
 62
1
 10
70.119301
 20
72.173602
 11
56.569302
 21
72.173602
  0
LINE
  8
0
  6
CONTINUOUS
 62
1
 10
95.569300
 20
72.198666
 11
82.019301
 21
72.198666
  0
LINE
  8
0
  6
CONTINUOUS
 62
1
 10
70.119301
 20
72.198666
 11
56.569302
 21
72.198666
  0
LINE
  8
0
  6
CONTINUOUS
 62
1
 10
70.119301
 20
72.223731
 11
56.569302
 21
72.223731
  0
LINE
  8
0
  6
CONTINUOUS
 62
1
 10
95.569300
 20
72.223731
 11
82.019301
 21
72.223731
  0
LINE
  8
0
  6
CONTINUOUS
 62
1
 10
95.569300
 20
72.248796
 11
82.019301
 21
72.248796
  0
LINE
  8
0
  6
CONTINUOUS
 62
1
 10
70.119301
 20
72.248796
 11
56.569302
 21
72.248796
  0
LINE
  8
0
  6
CONTINUOUS
 62
1
 10
95.569300
 20
72.273860
 11
82.019301
 21
72.273860
  0
LINE
  8
0
  6
CONTINUOUS
 62
1
 10
70.119301
 20
72.273860
 11
56.569302
 21
72.273860
  0
LINE
  8
0
  6
CONTINUOUS
 62
1
 10
70.119301
 20
72.298925
 11
56.569302
 21
72.298925
  0
LINE
  8
0
  6
CONTINUOUS
 62
1
 10
95.569300
 20
72.298925
 11
82.019301
 21
72.298925
  0
LINE
  8
0
  6
CONTINUOUS
 62
1
 10
95.569300
 20
72.323991
 11
82.019301
 21
72.323991
  0
LINE
  8
0
  6
CONTINUOUS
 62
1
 10
70.119301
 20
72.323991
 11
56.569302
 21
72.323991
  0
LINE
  8
0
  6
CONTINUOUS
 62
1
 10
61.769300
 20
49.320853
 11
61.769300
 21
70.475600
  0
LINE
  8
0
  6
CONTINUOUS
 62
1
 10
61.169301
 20
70.475600
 11
61.169301
 21
49.320853
  0
LINE
  8
0
  6
CONTINUOUS
 62
1
 10
64.169301
 20
70.475600
 11
64.169301
 21
49.320853
  0
LINE
  8
0
  6
CONTINUOUS
 62
1
 10
64.769301
 20
49.320853
 11
64.769301
 21
70.475600
  0
ARC
  8
0
  6
CONTINUOUS
 62
1
 10
62.949288
 20
49.343424
 40
1.778997
 50
180.727946
 51
270.644585
  0
ARC
  8
0
  6
CONTINUOUS
 62
1
 10
62.993767
 20
49.338868
 40
1.774497
 50
269.209996
 51
359.416663
  0
ARC
  8
0
  6
CONTINUOUS
 62
1
 10
62.992437
 20
49.338873
 40
1.174561
 50
268.871350
 51
359.111032
  0
ARC
  8
0
  6
CONTINUOUS
 62
1
 10
62.947410
 20
49.340160
 40
1.175823
 50
180.924168
 51
271.066784
  0
LINE
  8
0
  6
CONTINUOUS
 62
1
 10
64.169301
 20
71.068358
 11
64.169301
 21
70.475600
  0
LINE
  8
0
  6
CONTINUOUS
 62
1
 10
64.769301
 20
70.475600
 11
64.769301
 21
71.068358
  0
LINE
  8
0
  6
CONTINUOUS
 62
1
 10
61.769300
 20
70.475600
 11
61.769300
 21
71.068358
  0
LINE
  8
0
  6
CONTINUOUS
 62
1
 10
61.169301
 20
71.068358
 11
61.169301
 21
70.475600
  0
LINE
  8
0
  6
CONTINUOUS
 62
1
 10
64.169301
 20
71.619678
 11
64.169301
 21
71.068358
  0
LINE
  8
0
  6
CONTINUOUS
 62
1
 10
64.769301
 20
71.068358
 11
64.769301
 21
71.619678
  0
LINE
  8
0
  6
CONTINUOUS
 62
1
 10
61.769300
 20
71.068358
 11
61.769300
 21
71.619678
  0
LINE
  8
0
  6
CONTINUOUS
 62
1
 10
61.169301
 20
71.619678
 11
61.169301
 21
71.068358
  0
LINE
  8
0
  6
CONTINUOUS
 62
1
 10
90.369302
 20
70.475600
 11
90.369302
 21
49.320853
  0
LINE
  8
0
  6
CONTINUOUS
 62
1
 10
90.969301
 20
49.320853
 11
90.969301
 21
70.475600
  0
LINE
  8
0
  6
CONTINUOUS
 62
1
 10
87.969301
 20
49.320853
 11
87.969301
 21
70.475600
  0
LINE
  8
0
  6
CONTINUOUS
 62
1
 10
87.369301
 20
70.475600
 11
87.369301
 21
49.320853
  0
ARC
  8
0
  6
CONTINUOUS
 62
1
 10
89.149288
 20
49.343425
 40
1.778998
 50
180.727988
 51
270.644543
  0
ARC
  8
0
  6
CONTINUOUS
 62
1
 10
89.193768
 20
49.338867
 40
1.774496
 50
269.209962
 51
359.416696
  0
ARC
  8
0
  6
CONTINUOUS
 62
1
 10
89.192437
 20
49.338873
 40
1.174561
 50
268.871320
 51
359.111026
  0
ARC
  8
0
  6
CONTINUOUS
 62
1
 10
89.147410
 20
49.340161
 40
1.175824
 50
180.924216
 51
271.066735
  0
LINE
  8
0
  6
CONTINUOUS
 62
1
 10
90.369302
 20
71.068358
 11
90.369302
 21
70.475600
  0
LINE
  8
0
  6
CONTINUOUS
 62
1
 10
90.969301
 20
70.475600
 11
90.969301
 21
71.068358
  0
LINE
  8
0
  6
CONTINUOUS
 62
1
 10
87.969301
 20
70.475600
 11
87.969301
 21
71.068358
  0
LINE
  8
0
  6
CONTINUOUS
 62
1
 10
87.369301
 20
71.068358
 11
87.369301
 21
70.475600
  0
LINE
  8
0
  6
CONTINUOUS
 62
1
 10
90.369302
 20
71.619678
 11
90.369302
 21
71.068358
  0
LINE
  8
0
  6
CONTINUOUS
 62
1
 10
90.969301
 20
71.068358
 11
90.969301
 21
71.619678
  0
LINE
  8
0
  6
CONTINUOUS
 62
1
 10
87.969301
 20
71.068358
 11
87.969301
 21
71.619678
  0
LINE
  8
0
  6
CONTINUOUS
 62
1
 10
87.369301
 20
71.619678
 11
87.369301
 21
71.068358
  0
ARC
  8
0
  6
CONTINUOUS
 62
1
 10
70.123594
 20
74.609886
 40
2.990211
 50
269.917737
 51
347.539100
  0
ARC
  8
0
  6
CONTINUOUS
 62
1
 10
70.124730
 20
74.607871
 40
2.488198
 50
269.874974
 51
345.019076
  0
LINE
  8
0
  6
CONTINUOUS
 62
1
 10
70.119301
 20
72.119679
 11
62.969301
 21
72.119679
  0
LINE
  8
0
  6
CONTINUOUS
 62
1
 10
62.969301
 20
71.619678
 11
70.119301
 21
71.619678
  0
LINE
  8
0
  6
CONTINUOUS
 62
1
 10
62.968301
 20
72.119679
 11
56.569302
 21
72.119679
  0
LINE
  8
0
  6
CONTINUOUS
 62
1
 10
56.569302
 20
71.619678
 11
62.968301
 21
71.619678
  0
ARC
  8
0
  6
CONTINUOUS
 62
1
 10
82.016702
 20
74.614255
 40
2.994578
 50
192.528056
 51
270.049730
  0
ARC
  8
0
  6
CONTINUOUS
 62
1
 10
82.017611
 20
74.616268
 40
2.496589
 50
195.128927
 51
270.038782
  0
LINE
  8
0
  6
CONTINUOUS
 62
1
 10
95.569300
 20
72.119679
 11
89.169301
 21
72.119679
  0
LINE
  8
0
  6
CONTINUOUS
 62
1
 10
89.169301
 20
71.619678
 11
95.569300
 21
71.619678
  0
LINE
  8
0
  6
CONTINUOUS
 62
1
 10
89.168301
 20
72.119679
 11
82.019301
 21
72.119679
  0
LINE
  8
0
  6
CONTINUOUS
 62
1
 10
82.019301
 20
71.619678
 11
89.168301
 21
71.619678
  0
LINE
  8
0
  6
CONTINUOUS
 62
1
 10
82.019301
 20
72.532330
 11
81.849301
 21
72.542048
  0
ARC
  8
0
  6
CONTINUOUS
 62
1
 10
81.964485
 20
74.829812
 40
2.292596
 50
245.926086
 51
264.112006
  0
ARC
  8
0
  6
CONTINUOUS
 62
1
 10
81.736885
 20
74.584533
 40
1.971673
 50
230.531243
 51
245.182014
  0
LINE
  8
0
  6
CONTINUOUS
 62
1
 10
80.341876
 20
73.182457
 11
80.242873
 21
73.272886
  0
LINE
  8
0
  6
CONTINUOUS
 62
1
 10
80.242873
 20
73.272886
 11
80.209301
 21
73.310410
  0
ARC
  8
0
  6
CONTINUOUS
 62
1
 10
81.617497
 20
74.767931
 40
2.021572
 50
205.989207
 51
220.892036
  0
LINE
  8
0
  6
CONTINUOUS
 62
1
 10
95.569300
 20
72.532330
 11
94.969300
 21
72.532330
  0
LINE
  8
0
  6
CONTINUOUS
 62
1
 10
94.849301
 20
72.532330
 11
94.149301
 21
72.532330
  0
LINE
  8
0
  6
CONTINUOUS
 62
1
 10
94.029301
 20
72.532330
 11
93.329301
 21
72.532330
  0
LINE
  8
0
  6
CONTINUOUS
 62
1
 10
93.209300
 20
72.532330
 11
92.509301
 21
72.532330
  0
LINE
  8
0
  6
CONTINUOUS
 62
1
 10
92.389302
 20
72.532330
 11
91.689302
 21
72.532330
  0
LINE
  8
0
  6
CONTINUOUS
 62
1
 10
91.569301
 20
72.532330
 11
90.869301
 21
72.532330
  0
LINE
  8
0
  6
CONTINUOUS
 62
1
 10
90.749301
 20
72.532330
 11
90.049301
 21
72.532330
  0
LINE
  8
0
  6
CONTINUOUS
 62
1
 10
89.929302
 20
72.532330
 11
89.229302
 21
72.532330
  0
LINE
  8
0
  6
CONTINUOUS
 62
1
 10
89.109301
 20
72.532330
 11
88.409301
 21
72.532330
  0
LINE
  8
0
  6
CONTINUOUS
 62
1
 10
88.289301
 20
72.532330
 11
87.589301
 21
72.532330
  0
LINE
  8
0
  6
CONTINUOUS
 62
1
 10
87.469301
 20
72.532330
 11
86.769301
 21
72.532330
  0
LINE
  8
0
  6
CONTINUOUS
 62
1
 10
86.649301
 20
72.532330
 11
85.949301
 21
72.532330
  0
LINE
  8
0
  6
CONTINUOUS
 62
1
 10
85.829301
 20
72.532330
 11
85.129301
 21
72.532330
  0
LINE
  8
0
  6
CONTINUOUS
 62
1
 10
85.009301
 20
72.532330
 11
84.309301
 21
72.532330
  0
LINE
  8
0
  6
CONTINUOUS
 62
1
 10
84.189301
 20
72.532330
 11
83.489301
 21
72.532330
  0
LINE
  8
0
  6
CONTINUOUS
 62
1
 10
83.369301
 20
72.532330
 11
82.669301
 21
72.532330
  0
LINE
  8
0
  6
CONTINUOUS
 62
1
 10
82.549301
 20
72.532330
 11
82.019301
 21
72.532330
  0
ARC
  8
0
  6
CONTINUOUS
 62
1
 10
70.659600
 20
74.676071
 40
1.854364
 50
318.540331
 51
334.648044
  0
LINE
  8
0
  6
CONTINUOUS
 62
1
 10
71.929301
 20
73.310623
 11
71.799307
 21
73.182457
  0
ARC
  8
0
  6
CONTINUOUS
 62
1
 10
70.471368
 20
74.472790
 40
1.840351
 50
294.320567
 51
309.973776
  0
ARC
  8
0
  6
CONTINUOUS
 62
1
 10
70.160192
 20
74.888148
 40
2.350786
 50
276.082950
 51
293.812251
  0
LINE
  8
0
  6
CONTINUOUS
 62
1
 10
70.289301
 20
72.539899
 11
70.119301
 21
72.532330
  0
LINE
  8
0
  6
CONTINUOUS
 62
1
 10
70.119301
 20
72.532330
 11
69.589301
 21
72.532330
  0
LINE
  8
0
  6
CONTINUOUS
 62
1
 10
69.469301
 20
72.532330
 11
68.769301
 21
72.532330
  0
LINE
  8
0
  6
CONTINUOUS
 62
1
 10
68.649301
 20
72.532330
 11
67.949301
 21
72.532330
  0
LINE
  8
0
  6
CONTINUOUS
 62
1
 10
67.829301
 20
72.532330
 11
67.129301
 21
72.532330
  0
LINE
  8
0
  6
CONTINUOUS
 62
1
 10
67.009301
 20
72.532330
 11
66.309301
 21
72.532330
  0
LINE
  8
0
  6
CONTINUOUS
 62
1
 10
66.189301
 20
72.532330
 11
65.489301
 21
72.532330
  0
LINE
  8
0
  6
CONTINUOUS
 62
1
 10
65.369301
 20
72.532330
 11
64.669301
 21
72.532330
  0
LINE
  8
0
  6
CONTINUOUS
 62
1
 10
64.549301
 20
72.532330
 11
63.849301
 21
72.532330
  0
LINE
  8
0
  6
CONTINUOUS
 62
1
 10
63.729301
 20
72.532330
 11
63.029301
 21
72.532330
  0
LINE
  8
0
  6
CONTINUOUS
 62
1
 10
62.909300
 20
72.532330
 11
62.209300
 21
72.532330
  0
LINE
  8
0
  6
CONTINUOUS
 62
1
 10
62.089301
 20
72.532330
 11
61.389301
 21
72.532330
  0
LINE
  8
0
  6
CONTINUOUS
 62
1
 10
61.269301
 20
72.532330
 11
60.569301
 21
72.532330
  0
LINE
  8
0
  6
CONTINUOUS
 62
1
 10
60.449300
 20
72.532330
 11
59.749300
 21
72.532330
  0
LINE
  8
0
  6
CONTINUOUS
 62
1
 10
59.629301
 20
72.532330
 11
58.929301
 21
72.532330
  0
LINE
  8
0
  6
CONTINUOUS
 62
1
 10
58.809301
 20
72.532330
 11
58.109301
 21
72.532330
  0
LINE
  8
0
  6
CONTINUOUS
 62
1
 10
57.989300
 20
72.532330
 11
57.289300
 21
72.532330
  0
LINE
  8
0
  6
CONTINUOUS
 62
1
 10
57.169301
 20
72.532330
 11
56.569302
 21
72.532330
  0
LINE
  8
0
  6
CONTINUOUS
 62
1
 10
56.569302
 20
67.884576
 11
61.169301
 21
67.884576
  0
LINE
  8
0
  6
CONTINUOUS
 62
1
 10
61.769300
 20
67.884576
 11
64.169301
 21
67.884576
  0
LINE
  8
0
  6
CONTINUOUS
 62
1
 10
64.769301
 20
67.884576
 11
73.188846
 21
67.884576
  0
LINE
  8
0
  6
CONTINUOUS
 62
1
 10
78.949756
 20
67.884576
 11
87.369301
 21
67.884576
  0
LINE
  8
0
  6
CONTINUOUS
 62
1
 10
87.969301
 20
67.884576
 11
90.369302
 21
67.884576
  0
LINE
  8
0
  6
CONTINUOUS
 62
1
 10
90.969301
 20
67.884576
 11
95.569300
 21
67.884576
  0
LINE
  8
0
  6
CONTINUOUS
 62
1
 10
51.819300
 20
48.936829
 11
51.819300
 21
48.937171
  0
LINE
  8
0
  6
CONTINUOUS
 62
1
 10
50.319302
 20
48.937171
 11
50.319302
 21
48.936829
  0
LINE
  8
0
  6
CONTINUOUS
 62
1
 10
65.119301
 20
48.561294
 11
65.119301
 21
48.560952
  0
LINE
  8
0
  6
CONTINUOUS
 62
1
 10
91.319097
 20
48.561294
 11
91.319097
 21
48.560952
  0
LINE
  8
0
  6
CONTINUOUS
 62
1
 10
65.719301
 20
48.560952
 11
65.719301
 21
48.561294
  0
LINE
  8
0
  6
CONTINUOUS
 62
1
 10
65.219301
 20
48.561294
 11
65.219301
 21
48.560952
  0
LINE
  8
0
  6
CONTINUOUS
 62
1
 10
91.919097
 20
48.560952
 11
91.919097
 21
48.561294
  0
LINE
  8
0
  6
CONTINUOUS
 62
1
 10
91.419097
 20
48.561294
 11
91.419097
 21
48.560952
  0
LINE
  8
0
  6
CONTINUOUS
 62
1
 10
46.069300
 20
47.253691
 11
106.069302
 21
47.253691
  0
LINE
  8
0
  6
CONTINUOUS
 62
1
 10
78.069301
 20
72.484679
 11
78.869301
 21
72.484679
  0
LINE
  8
0
  6
CONTINUOUS
 62
1
 10
79.784301
 20
72.484679
 11
79.869301
 21
72.484679
  0
LINE
  8
0
  6
CONTINUOUS
 62
1
 10
78.869301
 20
73.754679
 11
78.069301
 21
73.754679
  0
LINE
  8
0
  6
CONTINUOUS
 62
1
 10
79.869301
 20
72.484679
 11
79.892761
 21
72.508139
  0
LINE
  8
0
  6
CONTINUOUS
 62
1
 10
79.969301
 20
73.654679
 11
79.869301
 21
73.754679
  0
LINE
  8
0
  6
CONTINUOUS
 62
1
 10
74.069301
 20
73.754679
 11
73.269301
 21
73.754679
  0
LINE
  8
0
  6
CONTINUOUS
 62
1
 10
72.269301
 20
72.484679
 11
72.354301
 21
72.484679
  0
LINE
  8
0
  6
CONTINUOUS
 62
1
 10
73.269301
 20
72.484679
 11
74.069301
 21
72.484679
  0
LINE
  8
0
  6
CONTINUOUS
 62
1
 10
72.269301
 20
73.754679
 11
72.169301
 21
73.654679
  0
LINE
  8
0
  6
CONTINUOUS
 62
1
 10
72.246548
 20
72.507431
 11
72.269301
 21
72.484679
  0
LINE
  8
0
  6
CONTINUOUS
 62
1
 10
79.669301
 20
67.269679
 11
79.669301
 21
67.884576
  0
LINE
  8
0
  6
CONTINUOUS
 62
1
 10
78.869301
 20
67.965340
 11
78.869301
 21
67.269679
  0
LINE
  8
0
  6
CONTINUOUS
 62
1
 10
78.594301
 20
67.269679
 11
78.594301
 21
66.619679
  0
LINE
  8
0
  6
CONTINUOUS
 62
1
 10
79.944301
 20
66.619679
 11
79.944301
 21
67.269679
  0
LINE
  8
0
  6
CONTINUOUS
 62
1
 10
70.269301
 20
66.819679
 11
64.769301
 21
66.819679
  0
LINE
  8
0
  6
CONTINUOUS
 62
1
 10
64.169301
 20
66.819679
 11
61.769300
 21
66.819679
  0
LINE
  8
0
  6
CONTINUOUS
 62
1
 10
61.169301
 20
66.819679
 11
56.569302
 21
66.819679
  0
ARC
  8
0
  6
CONTINUOUS
 62
1
 10
70.269301
 20
66.469679
 40
0.350000
 50
25.376934
 51
90.000000
  0
ARC
  8
0
  6
CONTINUOUS
 62
1
 10
81.869301
 20
66.469679
 40
0.350000
 50
90.000000
 51
154.623066
  0
LINE
  8
0
  6
CONTINUOUS
 62
1
 10
95.569300
 20
66.819679
 11
90.969301
 21
66.819679
  0
LINE
  8
0
  6
CONTINUOUS
 62
1
 10
90.369302
 20
66.819679
 11
87.969301
 21
66.819679
  0
LINE
  8
0
  6
CONTINUOUS
 62
1
 10
87.369301
 20
66.819679
 11
81.869301
 21
66.819679
  0
LINE
  8
0
  6
CONTINUOUS
 62
1
 10
46.189302
 20
49.112998
 11
61.182354
 21
49.112998
  0
LINE
  8
0
  6
CONTINUOUS
 62
1
 10
61.792181
 20
49.112998
 11
64.148400
 21
49.112998
  0
LINE
  8
0
  6
CONTINUOUS
 62
1
 10
64.754536
 20
49.112998
 11
87.382353
 21
49.112998
  0
LINE
  8
0
  6
CONTINUOUS
 62
1
 10
87.992181
 20
49.112998
 11
90.348400
 21
49.112998
  0
LINE
  8
0
  6
CONTINUOUS
 62
1
 10
90.954537
 20
49.112998
 11
105.949300
 21
49.112998
  0
LINE
  8
0
  6
CONTINUOUS
 62
1
 10
46.069300
 20
49.233998
 11
46.189302
 21
49.233998
  0
LINE
  8
0
  6
CONTINUOUS
 62
1
 10
105.949300
 20
49.233998
 11
106.069302
 21
49.233998
  0
LINE
  8
0
  6
CONTINUOUS
 62
1
 10
88.206801
 20
126.939680
 11
88.206801
 21
127.599677
  0
LINE
  8
0
  6
CONTINUOUS
 62
1
 10
84.831801
 20
127.599677
 11
84.831801
 21
126.939680
  0
LINE
  8
0
  6
CONTINUOUS
 62
1
 10
88.206801
 20
128.139677
 11
88.206801
 21
128.254052
  0
LINE
  8
0
  6
CONTINUOUS
 62
1
 10
84.831801
 20
128.254052
 11
84.831801
 21
128.139677
  0
ARC
  8
0
  6
CONTINUOUS
 62
1
 10
85.631801
 20
128.254054
 40
0.800000
 50
102.635625
 51
180.000000
  0
ARC
  8
0
  6
CONTINUOUS
 62
1
 10
87.406801
 20
128.254054
 40
0.800000
 50
0.000000
 51
77.364375
  0
LINE
  8
0
  6
CONTINUOUS
 62
1
 10
88.104301
 20
126.404681
 11
88.104301
 21
126.939680
  0
LINE
  8
0
  6
CONTINUOUS
 62
1
 10
84.934301
 20
126.939680
 11
84.934301
 21
126.404681
  0
LINE
  8
0
  6
CONTINUOUS
 62
1
 10
88.011801
 20
126.109680
 11
88.011801
 21
126.404681
  0
LINE
  8
0
  6
CONTINUOUS
 62
1
 10
85.026801
 20
126.404681
 11
85.026801
 21
126.109680
  0
ARC
  8
0
  6
CONTINUOUS
 62
1
 10
99.494301
 20
126.914679
 40
0.145000
 50
202.725247
 51
270.000000
  0
ARC
  8
0
  6
CONTINUOUS
 62
1
 10
99.676577
 20
126.913835
 40
0.023722
 50
177.795846
 51
273.613713
  0
LINE
  8
0
  6
CONTINUOUS
 62
1
 10
99.652725
 20
126.914676
 11
99.652725
 21
127.424677
  0
ARC
  8
0
  6
CONTINUOUS
 62
1
 10
99.627724
 20
127.424679
 40
0.025000
 50
0.000000
 51
90.000000
  0
ARC
  8
0
  6
CONTINUOUS
 62
1
 10
101.244301
 20
126.914679
 40
0.145000
 50
270.000000
 51
336.675768
  0
LINE
  8
0
  6
CONTINUOUS
 62
1
 10
101.085877
 20
127.424677
 11
101.085877
 21
127.009680
  0
ARC
  8
0
  6
CONTINUOUS
 62
1
 10
101.110877
 20
127.424679
 40
0.025000
 50
90.000000
 51
180.000000
  0
ARC
  8
0
  6
CONTINUOUS
 62
1
 10
100.327552
 20
126.868756
 40
0.059771
 50
355.448160
 51
24.780555
  0
LINE
  8
0
  6
CONTINUOUS
 62
1
 10
100.387159
 20
126.864680
 11
100.387159
 21
126.354679
  0
ARC
  8
0
  6
CONTINUOUS
 62
1
 10
100.412158
 20
126.354679
 40
0.025000
 50
180.000000
 51
270.000000
  0
ARC
  8
0
  6
CONTINUOUS
 62
1
 10
100.997206
 20
126.354679
 40
0.025000
 50
270.000000
 51
0.000000
  0
LINE
  8
0
  6
CONTINUOUS
 62
1
 10
101.022206
 20
126.354679
 11
101.022206
 21
126.864680
  0
ARC
  8
0
  6
CONTINUOUS
 62
1
 10
101.214301
 20
126.984679
 40
0.025000
 50
0.000000
 51
90.000000
  0
ARC
  8
0
  6
CONTINUOUS
 62
1
 10
101.214301
 20
126.914679
 40
0.025000
 50
270.000000
 51
0.000000
  0
LINE
  8
0
  6
CONTINUOUS
 62
1
 10
101.239302
 20
126.914676
 11
101.239302
 21
126.984682
  0
LINE
  8
0
  6
CONTINUOUS
 62
1
 10
99.716396
 20
126.769676
 11
99.716396
 21
126.354679
  0
ARC
  8
0
  6
CONTINUOUS
 62
1
 10
99.741396
 20
126.354679
 40
0.025000
 50
180.000000
 51
270.000000
  0
LINE
  8
0
  6
CONTINUOUS
 62
1
 10
99.789026
 20
127.056029
 11
99.869301
 21
127.009680
  0
LINE
  8
0
  6
CONTINUOUS
 62
1
 10
99.869301
 20
127.529677
 11
99.789026
 21
127.483334
  0
LINE
  8
0
  6
CONTINUOUS
 62
1
 10
100.869301
 20
127.009680
 11
100.949576
 21
127.056029
  0
LINE
  8
0
  6
CONTINUOUS
 62
1
 10
100.949576
 20
127.483334
 11
100.869301
 21
127.529677
  0
LINE
  8
0
  6
CONTINUOUS
 62
1
 10
100.896178
 20
126.209160
 11
100.869301
 21
126.224681
  0
LINE
  8
0
  6
CONTINUOUS
 62
1
 10
99.869301
 20
126.224681
 11
99.842424
 21
126.209160
  0
LINE
  8
0
  6
CONTINUOUS
 62
1
 10
100.669302
 20
126.224681
 11
100.669302
 21
126.249679
  0
LINE
  8
0
  6
CONTINUOUS
 62
1
 10
100.069300
 20
126.249679
 11
100.069300
 21
126.224681
  0
LINE
  8
0
  6
CONTINUOUS
 62
1
 10
53.919301
 20
112.810685
 11
53.919301
 21
113.010683
  0
LINE
  8
0
  6
CONTINUOUS
 62
1
 10
53.919301
 20
113.010683
 11
53.999301
 21
113.010683
  0
LINE
  8
0
  6
CONTINUOUS
 62
1
 10
53.919301
 20
110.710683
 11
53.919301
 21
112.810685
  0
LINE
  8
0
  6
CONTINUOUS
 62
1
 10
98.219300
 20
113.010683
 11
98.139300
 21
113.010683
  0
LINE
  8
0
  6
CONTINUOUS
 62
1
 10
98.219300
 20
113.010683
 11
98.219300
 21
112.810685
  0
LINE
  8
0
  6
CONTINUOUS
 62
1
 10
53.919301
 20
110.510685
 11
53.999301
 21
110.510685
  0
LINE
  8
0
  6
CONTINUOUS
 62
1
 10
53.919301
 20
110.510685
 11
53.919301
 21
110.710683
  0
LINE
  8
0
  6
CONTINUOUS
 62
1
 10
98.219300
 20
112.810685
 11
98.219300
 21
110.710683
  0
LINE
  8
0
  6
CONTINUOUS
 62
1
 10
98.219300
 20
110.510685
 11
98.139300
 21
110.510685
  0
LINE
  8
0
  6
CONTINUOUS
 62
1
 10
98.219300
 20
110.710683
 11
98.219300
 21
110.510685
  0
LINE
  8
0
  6
CONTINUOUS
 62
1
 10
53.919301
 20
110.310682
 11
53.919301
 21
110.510685
  0
LINE
  8
0
  6
CONTINUOUS
 62
1
 10
98.219300
 20
110.510685
 11
98.219300
 21
110.310682
  0
LINE
  8
0
  6
CONTINUOUS
 62
1
 10
54.219301
 20
109.410682
 11
54.219301
 21
109.919681
  0
LINE
  8
0
  6
CONTINUOUS
 62
1
 10
54.219301
 20
110.114368
 11
54.219301
 21
110.157361
  0
LINE
  8
0
  6
CONTINUOUS
 62
1
 10
53.919301
 20
109.410682
 11
53.919301
 21
110.310682
  0
ARC
  8
0
  6
CONTINUOUS
 62
1
 10
54.619301
 20
109.410683
 40
0.700000
 50
180.000000
 51
270.000000
  0
ARC
  8
0
  6
CONTINUOUS
 62
1
 10
54.619301
 20
109.410683
 40
0.400000
 50
180.000000
 51
270.000000
  0
ARC
  8
0
  6
CONTINUOUS
 62
1
 10
97.519301
 20
109.410683
 40
0.700000
 50
270.000000
 51
0.000000
  0
ARC
  8
0
  6
CONTINUOUS
 62
1
 10
97.519301
 20
109.410683
 40
0.400000
 50
270.000000
 51
0.000000
  0
LINE
  8
0
  6
CONTINUOUS
 62
1
 10
97.519300
 20
108.710685
 11
54.619301
 21
108.710685
  0
LINE
  8
0
  6
CONTINUOUS
 62
1
 10
97.519300
 20
109.010681
 11
54.619301
 21
109.010681
  0
LINE
  8
0
  6
CONTINUOUS
 62
1
 10
98.219300
 20
110.310682
 11
98.219300
 21
109.410682
  0
LINE
  8
0
  6
CONTINUOUS
 62
1
 10
97.919301
 20
110.157349
 11
97.919301
 21
110.114487
  0
LINE
  8
0
  6
CONTINUOUS
 62
1
 10
97.919301
 20
109.919681
 11
97.919301
 21
109.410682
  0
LINE
  8
0
  6
CONTINUOUS
 62
1
 10
54.619301
 20
108.710685
 11
54.619301
 21
108.380141
  0
LINE
  8
0
  6
CONTINUOUS
 62
1
 10
97.519300
 20
108.380141
 11
97.519300
 21
108.710685
  0
LINE
  8
0
  6
CONTINUOUS
 62
1
 10
97.519300
 20
108.380141
 11
97.519300
 21
107.170089
  0
LINE
  8
0
  6
CONTINUOUS
 62
1
 10
54.619301
 20
107.170089
 11
54.619301
 21
108.380141
  0
LINE
  8
0
  6
CONTINUOUS
 62
1
 10
54.619301
 20
106.591644
 11
97.519300
 21
106.591644
  0
LINE
  8
0
  6
CONTINUOUS
 62
1
 10
54.619301
 20
106.591644
 11
54.619301
 21
107.170089
  0
LINE
  8
0
  6
CONTINUOUS
 62
1
 10
97.519300
 20
107.170089
 11
97.519300
 21
106.591644
  0
CIRCLE
  8
0
  6
CONTINUOUS
 62
1
 10
94.919301
 20
111.089681
 40
0.300000
  0
CIRCLE
  8
0
  6
CONTINUOUS
 62
1
 10
57.219301
 20
111.089681
 40
0.300000
  0
CIRCLE
  8
0
  6
CONTINUOUS
 62
1
 10
82.419301
 20
111.089681
 40
0.300000
  0
CIRCLE
  8
0
  6
CONTINUOUS
 62
1
 10
81.419301
 20
117.289681
 40
0.300000
  0
CIRCLE
  8
0
  6
CONTINUOUS
 62
1
 10
70.719301
 20
117.289681
 40
0.300000
  0
CIRCLE
  8
0
  6
CONTINUOUS
 62
1
 10
69.719301
 20
111.089681
 40
0.300000
  0
CIRCLE
  8
0
  6
CONTINUOUS
 62
1
 10
60.219301
 20
117.289681
 40
0.300000
  0
CIRCLE
  8
0
  6
CONTINUOUS
 62
1
 10
91.919301
 20
117.289681
 40
0.300000
  0
LINE
  8
0
  6
CONTINUOUS
 62
1
 10
54.269301
 20
118.189683
 11
54.258021
 21
118.221649
  0
LINE
  8
0
  6
CONTINUOUS
 62
1
 10
54.258021
 20
118.221649
 11
54.246868
 21
118.252822
  0
LINE
  8
0
  6
CONTINUOUS
 62
1
 10
54.246868
 20
118.252822
 11
54.235303
 21
118.284216
  0
LINE
  8
0
  6
CONTINUOUS
 62
1
 10
54.235303
 20
118.284216
 11
54.224288
 21
118.312826
  0
LINE
  8
0
  6
CONTINUOUS
 62
1
 10
54.224288
 20
118.312826
 11
54.214474
 21
118.336936
  0
LINE
  8
0
  6
CONTINUOUS
 62
1
 10
54.214474
 20
118.336936
 11
54.205618
 21
118.357357
  0
LINE
  8
0
  6
CONTINUOUS
 62
1
 10
54.205618
 20
118.357357
 11
54.201297
 21
118.366804
  0
LINE
  8
0
  6
CONTINUOUS
 62
1
 10
54.201297
 20
118.366804
 11
54.190281
 21
118.389179
  0
LINE
  8
0
  6
CONTINUOUS
 62
1
 10
54.190281
 20
118.389179
 11
54.180468
 21
118.406870
  0
LINE
  8
0
  6
CONTINUOUS
 62
1
 10
54.180468
 20
118.406870
 11
54.171611
 21
118.420853
  0
LINE
  8
0
  6
CONTINUOUS
 62
1
 10
54.171611
 20
118.420853
 11
54.167291
 21
118.426951
  0
LINE
  8
0
  6
CONTINUOUS
 62
1
 10
54.167291
 20
118.426951
 11
54.156275
 21
118.440261
  0
LINE
  8
0
  6
CONTINUOUS
 62
1
 10
54.156275
 20
118.440261
 11
54.146461
 21
118.449291
  0
LINE
  8
0
  6
CONTINUOUS
 62
1
 10
54.146461
 20
118.449291
 11
54.137605
 21
118.455066
  0
LINE
  8
0
  6
CONTINUOUS
 62
1
 10
54.137605
 20
118.455066
 11
54.133284
 21
118.457051
  0
LINE
  8
0
  6
CONTINUOUS
 62
1
 10
54.133284
 20
118.457051
 11
54.126660
 21
118.459018
  0
LINE
  8
0
  6
CONTINUOUS
 62
1
 10
54.126660
 20
118.459018
 11
54.120008
 21
118.459680
  0
LINE
  8
0
  6
CONTINUOUS
 62
1
 10
98.018594
 20
118.459680
 11
54.120008
 21
118.459680
  0
LINE
  8
0
  6
CONTINUOUS
 62
1
 10
98.018594
 20
118.459680
 11
98.007315
 21
118.457784
  0
LINE
  8
0
  6
CONTINUOUS
 62
1
 10
98.007315
 20
118.457784
 11
97.996160
 21
118.452194
  0
LINE
  8
0
  6
CONTINUOUS
 62
1
 10
97.996160
 20
118.452194
 11
97.984597
 21
118.442591
  0
LINE
  8
0
  6
CONTINUOUS
 62
1
 10
97.984597
 20
118.442591
 11
97.973580
 21
118.429961
  0
LINE
  8
0
  6
CONTINUOUS
 62
1
 10
97.973580
 20
118.429961
 11
97.963768
 21
118.415990
  0
LINE
  8
0
  6
CONTINUOUS
 62
1
 10
97.963768
 20
118.415990
 11
97.954911
 21
118.401303
  0
LINE
  8
0
  6
CONTINUOUS
 62
1
 10
97.954911
 20
118.401303
 11
97.950591
 21
118.393465
  0
LINE
  8
0
  6
CONTINUOUS
 62
1
 10
97.950591
 20
118.393465
 11
97.939574
 21
118.371614
  0
LINE
  8
0
  6
CONTINUOUS
 62
1
 10
97.939574
 20
118.371614
 11
97.929760
 21
118.350085
  0
LINE
  8
0
  6
CONTINUOUS
 62
1
 10
97.929760
 20
118.350085
 11
97.920905
 21
118.329181
  0
LINE
  8
0
  6
CONTINUOUS
 62
1
 10
97.920905
 20
118.329181
 11
97.916583
 21
118.318530
  0
LINE
  8
0
  6
CONTINUOUS
 62
1
 10
97.916583
 20
118.318530
 11
97.905567
 21
118.290224
  0
LINE
  8
0
  6
CONTINUOUS
 62
1
 10
97.905567
 20
118.290224
 11
97.895754
 21
118.263867
  0
LINE
  8
0
  6
CONTINUOUS
 62
1
 10
97.895754
 20
118.263867
 11
97.886897
 21
118.239387
  0
LINE
  8
0
  6
CONTINUOUS
 62
1
 10
97.886897
 20
118.239387
 11
97.882577
 21
118.227275
  0
LINE
  8
0
  6
CONTINUOUS
 62
1
 10
97.882577
 20
118.227275
 11
97.875954
 21
118.208565
  0
LINE
  8
0
  6
CONTINUOUS
 62
1
 10
97.875954
 20
118.208565
 11
97.869300
 21
118.189683
  0
LINE
  8
0
  6
CONTINUOUS
 62
1
 10
98.018594
 20
118.459680
 11
98.018594
 21
118.339684
  0
ARC
  8
0
  6
CONTINUOUS
 62
1
 10
98.127123
 20
118.082372
 40
0.279263
 50
112.869049
 51
157.401950
  0
LINE
  8
0
  6
CONTINUOUS
 62
1
 10
97.869300
 20
118.189683
 11
97.881156
 21
118.193855
  0
LINE
  8
0
  6
CONTINUOUS
 62
1
 10
97.881156
 20
118.193855
 11
97.904908
 21
118.202253
  0
LINE
  8
0
  6
CONTINUOUS
 62
1
 10
97.904908
 20
118.202253
 11
97.928667
 21
118.210747
  0
LINE
  8
0
  6
CONTINUOUS
 62
1
 10
97.928667
 20
118.210747
 11
97.952228
 21
118.219354
  0
LINE
  8
0
  6
CONTINUOUS
 62
1
 10
97.952228
 20
118.219354
 11
97.963835
 21
118.223675
  0
LINE
  8
0
  6
CONTINUOUS
 62
1
 10
97.963835
 20
118.223675
 11
98.004353
 21
118.239465
  0
LINE
  8
0
  6
CONTINUOUS
 62
1
 10
98.004353
 20
118.239465
 11
98.034578
 21
118.252291
  0
LINE
  8
0
  6
CONTINUOUS
 62
1
 10
98.034578
 20
118.252291
 11
98.046422
 21
118.257686
  0
LINE
  8
0
  6
CONTINUOUS
 62
1
 10
98.046422
 20
118.257686
 11
98.069769
 21
118.269207
  0
LINE
  8
0
  6
CONTINUOUS
 62
1
 10
98.069769
 20
118.269207
 11
98.086902
 21
118.278762
  0
LINE
  8
0
  6
CONTINUOUS
 62
1
 10
98.086902
 20
118.278762
 11
98.100462
 21
118.287363
  0
LINE
  8
0
  6
CONTINUOUS
 62
1
 10
98.100462
 20
118.287363
 11
98.106573
 21
118.291690
  0
LINE
  8
0
  6
CONTINUOUS
 62
1
 10
98.106573
 20
118.291690
 11
98.120415
 21
118.303218
  0
LINE
  8
0
  6
CONTINUOUS
 62
1
 10
98.120415
 20
118.303218
 11
98.129101
 21
118.312766
  0
LINE
  8
0
  6
CONTINUOUS
 62
1
 10
98.129101
 20
118.312766
 11
98.134683
 21
118.321367
  0
LINE
  8
0
  6
CONTINUOUS
 62
1
 10
98.134683
 20
118.321367
 11
98.136670
 21
118.325701
  0
LINE
  8
0
  6
CONTINUOUS
 62
1
 10
98.136670
 20
118.325701
 11
98.139300
 21
118.338975
  0
LINE
  8
0
  6
CONTINUOUS
 62
1
 10
98.139300
 20
110.040387
 11
98.139300
 21
118.338975
  0
LINE
  8
0
  6
CONTINUOUS
 62
1
 10
98.139300
 20
110.040387
 11
98.139041
 21
110.044565
  0
LINE
  8
0
  6
CONTINUOUS
 62
1
 10
98.139041
 20
110.044565
 11
98.136943
 21
110.052957
  0
LINE
  8
0
  6
CONTINUOUS
 62
1
 10
98.136943
 20
110.052957
 11
98.132693
 21
110.061457
  0
LINE
  8
0
  6
CONTINUOUS
 62
1
 10
98.132693
 20
110.061457
 11
98.126250
 21
110.070058
  0
LINE
  8
0
  6
CONTINUOUS
 62
1
 10
98.126250
 20
110.070058
 11
98.122210
 21
110.074385
  0
LINE
  8
0
  6
CONTINUOUS
 62
1
 10
98.122210
 20
110.074385
 11
98.103098
 21
110.090174
  0
LINE
  8
0
  6
CONTINUOUS
 62
1
 10
98.103098
 20
110.090174
 11
98.082804
 21
110.102995
  0
LINE
  8
0
  6
CONTINUOUS
 62
1
 10
98.082804
 20
110.102995
 11
98.073086
 21
110.108390
  0
LINE
  8
0
  6
CONTINUOUS
 62
1
 10
98.073086
 20
110.108390
 11
98.050168
 21
110.119917
  0
LINE
  8
0
  6
CONTINUOUS
 62
1
 10
98.050168
 20
110.119917
 11
98.029144
 21
110.129466
  0
LINE
  8
0
  6
CONTINUOUS
 62
1
 10
98.029144
 20
110.129466
 11
98.008815
 21
110.138073
  0
LINE
  8
0
  6
CONTINUOUS
 62
1
 10
98.008815
 20
110.138073
 11
97.998149
 21
110.142400
  0
LINE
  8
0
  6
CONTINUOUS
 62
1
 10
97.998149
 20
110.142400
 11
97.968506
 21
110.153922
  0
LINE
  8
0
  6
CONTINUOUS
 62
1
 10
97.968506
 20
110.153922
 11
97.942812
 21
110.163476
  0
LINE
  8
0
  6
CONTINUOUS
 62
1
 10
97.942812
 20
110.163476
 11
97.919024
 21
110.172077
  0
LINE
  8
0
  6
CONTINUOUS
 62
1
 10
97.919024
 20
110.172077
 11
97.906893
 21
110.176405
  0
LINE
  8
0
  6
CONTINUOUS
 62
1
 10
97.906893
 20
110.176405
 11
97.869300
 21
110.189678
  0
LINE
  8
0
  6
CONTINUOUS
 62
1
 10
97.869300
 20
110.189678
 11
97.875563
 21
110.171904
  0
LINE
  8
0
  6
CONTINUOUS
 62
1
 10
97.875563
 20
110.171904
 11
97.886094
 21
110.142221
  0
LINE
  8
0
  6
CONTINUOUS
 62
1
 10
97.886094
 20
110.142221
 11
97.896809
 21
110.112622
  0
LINE
  8
0
  6
CONTINUOUS
 62
1
 10
97.896809
 20
110.112622
 11
97.903299
 21
110.095145
  0
LINE
  8
0
  6
CONTINUOUS
 62
1
 10
97.903299
 20
110.095145
 11
97.909562
 21
110.078695
  0
LINE
  8
0
  6
CONTINUOUS
 62
1
 10
97.909562
 20
110.078695
 11
97.920097
 21
110.052153
  0
LINE
  8
0
  6
CONTINUOUS
 62
1
 10
97.920097
 20
110.052153
 11
97.928658
 21
110.031810
  0
LINE
  8
0
  6
CONTINUOUS
 62
1
 10
97.928658
 20
110.031810
 11
97.937305
 21
110.012563
  0
LINE
  8
0
  6
CONTINUOUS
 62
1
 10
97.937305
 20
110.012563
 11
97.943568
 21
109.999522
  0
LINE
  8
0
  6
CONTINUOUS
 62
1
 10
97.943568
 20
109.999522
 11
97.954103
 21
109.979489
  0
LINE
  8
0
  6
CONTINUOUS
 62
1
 10
97.954103
 20
109.979489
 11
97.962664
 21
109.965094
  0
LINE
  8
0
  6
CONTINUOUS
 62
1
 10
97.962664
 20
109.965094
 11
97.971311
 21
109.952410
  0
LINE
  8
0
  6
CONTINUOUS
 62
1
 10
97.971311
 20
109.952410
 11
97.977575
 21
109.944441
  0
LINE
  8
0
  6
CONTINUOUS
 62
1
 10
97.977575
 20
109.944441
 11
97.988109
 21
109.933450
  0
LINE
  8
0
  6
CONTINUOUS
 62
1
 10
97.988109
 20
109.933450
 11
97.996671
 21
109.926834
  0
LINE
  8
0
  6
CONTINUOUS
 62
1
 10
97.996671
 20
109.926834
 11
98.005318
 21
109.922310
  0
LINE
  8
0
  6
CONTINUOUS
 62
1
 10
98.005318
 20
109.922310
 11
98.018594
 21
109.919681
  0
ARC
  8
0
  6
CONTINUOUS
 62
1
 10
98.113150
 20
110.283093
 40
0.261130
 50
200.960856
 51
248.770422
  0
LINE
  8
0
  6
CONTINUOUS
 62
1
 10
98.018594
 20
109.919681
 11
98.018594
 21
110.039683
  0
LINE
  8
0
  6
CONTINUOUS
 62
1
 10
54.120008
 20
109.919681
 11
98.018594
 21
109.919681
  0
ARC
  8
0
  6
CONTINUOUS
 62
1
 10
53.855387
 20
110.242276
 40
0.417243
 50
309.361673
 51
352.758068
  0
ARC
  8
0
  6
CONTINUOUS
 62
1
 10
97.775909
 20
118.433521
 40
0.261111
 50
290.957154
 51
338.771275
  0
LINE
  8
0
  6
CONTINUOUS
 62
1
 10
98.139300
 20
118.338975
 11
98.019301
 21
118.338975
  0
LINE
  8
0
  6
CONTINUOUS
 62
1
 10
98.139300
 20
110.040387
 11
98.019301
 21
110.040387
  0
ARC
  8
0
  6
CONTINUOUS
 62
1
 10
97.765849
 20
109.935732
 40
0.274210
 50
22.436436
 51
67.835135
  0
LINE
  8
0
  6
CONTINUOUS
 62
1
 10
54.269301
 20
110.189678
 11
54.245615
 21
110.181334
  0
LINE
  8
0
  6
CONTINUOUS
 62
1
 10
54.245615
 20
110.181334
 11
54.221949
 21
110.172924
  0
LINE
  8
0
  6
CONTINUOUS
 62
1
 10
54.221949
 20
110.172924
 11
54.198151
 21
110.164335
  0
LINE
  8
0
  6
CONTINUOUS
 62
1
 10
54.198151
 20
110.164335
 11
54.174767
 21
110.155686
  0
LINE
  8
0
  6
CONTINUOUS
 62
1
 10
54.174767
 20
110.155686
 11
54.152938
 21
110.147335
  0
LINE
  8
0
  6
CONTINUOUS
 62
1
 10
54.152938
 20
110.147335
 11
54.111446
 21
110.130330
  0
LINE
  8
0
  6
CONTINUOUS
 62
1
 10
54.111446
 20
110.130330
 11
54.092180
 21
110.121676
  0
LINE
  8
0
  6
CONTINUOUS
 62
1
 10
54.092180
 20
110.121676
 11
54.074981
 21
110.113325
  0
LINE
  8
0
  6
CONTINUOUS
 62
1
 10
54.074981
 20
110.113325
 11
54.059179
 21
110.104915
  0
LINE
  8
0
  6
CONTINUOUS
 62
1
 10
54.059179
 20
110.104915
 11
54.044729
 21
110.096326
  0
LINE
  8
0
  6
CONTINUOUS
 62
1
 10
54.044729
 20
110.096326
 11
54.032029
 21
110.087671
  0
LINE
  8
0
  6
CONTINUOUS
 62
1
 10
54.032029
 20
110.087671
 11
54.021638
 21
110.079320
  0
LINE
  8
0
  6
CONTINUOUS
 62
1
 10
54.021638
 20
110.079320
 11
54.013104
 21
110.070910
  0
LINE
  8
0
  6
CONTINUOUS
 62
1
 10
54.013104
 20
110.070910
 11
54.006457
 21
110.062321
  0
LINE
  8
0
  6
CONTINUOUS
 62
1
 10
54.006457
 20
110.062321
 11
54.001931
 21
110.053667
  0
LINE
  8
0
  6
CONTINUOUS
 62
1
 10
54.001931
 20
110.053667
 11
53.999961
 21
110.047039
  0
LINE
  8
0
  6
CONTINUOUS
 62
1
 10
53.999961
 20
110.047039
 11
53.999301
 21
110.040387
  0
LINE
  8
0
  6
CONTINUOUS
 62
1
 10
53.999301
 20
118.338975
 11
53.999301
 21
110.040387
  0
LINE
  8
0
  6
CONTINUOUS
 62
1
 10
53.999301
 20
118.338975
 11
54.000341
 21
118.330624
  0
LINE
  8
0
  6
CONTINUOUS
 62
1
 10
54.000341
 20
118.330624
 11
54.003486
 21
118.322220
  0
LINE
  8
0
  6
CONTINUOUS
 62
1
 10
54.003486
 20
118.322220
 11
54.008844
 21
118.313631
  0
LINE
  8
0
  6
CONTINUOUS
 62
1
 10
54.008844
 20
118.313631
 11
54.016391
 21
118.304976
  0
LINE
  8
0
  6
CONTINUOUS
 62
1
 10
54.016391
 20
118.304976
 11
54.025663
 21
118.296625
  0
LINE
  8
0
  6
CONTINUOUS
 62
1
 10
54.025663
 20
118.296625
 11
54.050253
 21
118.279626
  0
LINE
  8
0
  6
CONTINUOUS
 62
1
 10
54.050253
 20
118.279626
 11
54.065516
 21
118.270972
  0
LINE
  8
0
  6
CONTINUOUS
 62
1
 10
54.065516
 20
118.270972
 11
54.081845
 21
118.262621
  0
LINE
  8
0
  6
CONTINUOUS
 62
1
 10
54.081845
 20
118.262621
 11
54.099747
 21
118.254211
  0
LINE
  8
0
  6
CONTINUOUS
 62
1
 10
54.099747
 20
118.254211
 11
54.119409
 21
118.245616
  0
LINE
  8
0
  6
CONTINUOUS
 62
1
 10
54.119409
 20
118.245616
 11
54.140453
 21
118.236961
  0
LINE
  8
0
  6
CONTINUOUS
 62
1
 10
54.140453
 20
118.236961
 11
54.161770
 21
118.228611
  0
LINE
  8
0
  6
CONTINUOUS
 62
1
 10
54.161770
 20
118.228611
 11
54.184074
 21
118.220206
  0
LINE
  8
0
  6
CONTINUOUS
 62
1
 10
54.184074
 20
118.220206
 11
54.207551
 21
118.211611
  0
LINE
  8
0
  6
CONTINUOUS
 62
1
 10
54.207551
 20
118.211611
 11
54.231709
 21
118.202957
  0
LINE
  8
0
  6
CONTINUOUS
 62
1
 10
54.231709
 20
118.202957
 11
54.250419
 21
118.196335
  0
LINE
  8
0
  6
CONTINUOUS
 62
1
 10
54.250419
 20
118.196335
 11
54.269301
 21
118.189683
  0
ARC
  8
0
  6
CONTINUOUS
 62
1
 10
54.032521
 20
118.103315
 40
0.252040
 50
20.039977
 51
69.689024
  0
LINE
  8
0
  6
CONTINUOUS
 62
1
 10
54.120008
 20
118.459680
 11
54.120008
 21
118.339684
  0
LINE
  8
0
  6
CONTINUOUS
 62
1
 10
53.999301
 20
118.338975
 11
54.119300
 21
118.338975
  0
ARC
  8
0
  6
CONTINUOUS
 62
1
 10
54.359864
 20
118.430678
 40
0.257450
 50
200.867054
 51
249.404516
  0
LINE
  8
0
  6
CONTINUOUS
 62
1
 10
54.120008
 20
109.919681
 11
54.120008
 21
110.039683
  0
ARC
  8
0
  6
CONTINUOUS
 62
1
 10
54.015325
 20
110.293172
 40
0.274254
 50
292.439217
 51
337.829505
  0
ARC
  8
0
  6
CONTINUOUS
 62
1
 10
54.371808
 20
109.936682
 40
0.272974
 50
112.056359
 51
157.672071
  0
LINE
  8
0
  6
CONTINUOUS
 62
1
 10
53.999301
 20
110.040387
 11
54.119300
 21
110.040387
  0
CIRCLE
  8
0
  6
CONTINUOUS
 62
1
 10
91.919301
 20
117.269679
 40
0.220000
  0
CIRCLE
  8
0
  6
CONTINUOUS
 62
1
 10
81.419301
 20
117.269679
 40
0.220000
  0
CIRCLE
  8
0
  6
CONTINUOUS
 62
1
 10
70.719301
 20
117.269679
 40
0.220000
  0
CIRCLE
  8
0
  6
CONTINUOUS
 62
1
 10
60.219301
 20
117.269679
 40
0.220000
  0
CIRCLE
  8
0
  6
CONTINUOUS
 62
1
 10
94.919301
 20
111.109683
 40
0.220000
  0
CIRCLE
  8
0
  6
CONTINUOUS
 62
1
 10
82.419301
 20
111.109683
 40
0.220000
  0
CIRCLE
  8
0
  6
CONTINUOUS
 62
1
 10
69.719301
 20
111.109683
 40
0.220000
  0
CIRCLE
  8
0
  6
CONTINUOUS
 62
1
 10
57.219301
 20
111.109683
 40
0.220000
  0
LINE
  8
0
  6
CONTINUOUS
 62
1
 10
98.927879
 20
115.769681
 11
98.927879
 21
114.019676
  0
LINE
  8
0
  6
CONTINUOUS
 62
1
 10
98.927879
 20
117.519679
 11
98.927879
 21
115.769681
  0
LINE
  8
0
  6
CONTINUOUS
 62
1
 10
99.010722
 20
115.769681
 11
99.010722
 21
114.019676
  0
LINE
  8
0
  6
CONTINUOUS
 62
1
 10
99.010722
 20
117.519679
 11
99.010722
 21
115.769681
  0
LINE
  8
0
  6
CONTINUOUS
 62
1
 10
98.969301
 20
115.769681
 11
98.969301
 21
114.119681
  0
LINE
  8
0
  6
CONTINUOUS
 62
1
 10
98.969301
 20
117.419680
 11
98.969301
 21
115.769681
  0
LINE
  8
0
  6
CONTINUOUS
 62
1
 10
99.219301
 20
115.769681
 11
99.219301
 21
114.019676
  0
LINE
  8
0
  6
CONTINUOUS
 62
1
 10
99.219301
 20
117.519679
 11
99.219301
 21
115.769681
  0
LINE
  8
0
  6
CONTINUOUS
 62
1
 10
53.210723
 20
115.769681
 11
53.210723
 21
117.519679
  0
LINE
  8
0
  6
CONTINUOUS
 62
1
 10
53.210723
 20
114.019676
 11
53.210723
 21
115.769681
  0
LINE
  8
0
  6
CONTINUOUS
 62
1
 10
53.127880
 20
115.769681
 11
53.127880
 21
117.519679
  0
LINE
  8
0
  6
CONTINUOUS
 62
1
 10
53.127880
 20
114.019676
 11
53.127880
 21
115.769681
  0
LINE
  8
0
  6
CONTINUOUS
 62
1
 10
53.169301
 20
115.769681
 11
53.169301
 21
117.419680
  0
LINE
  8
0
  6
CONTINUOUS
 62
1
 10
53.169301
 20
114.119681
 11
53.169301
 21
115.769681
  0
LINE
  8
0
  6
CONTINUOUS
 62
1
 10
52.919301
 20
115.769681
 11
52.919301
 21
117.519679
  0
LINE
  8
0
  6
CONTINUOUS
 62
1
 10
52.919301
 20
114.019676
 11
52.919301
 21
115.769681
  0
LINE
  8
0
  6
CONTINUOUS
 62
1
 10
49.389302
 20
118.824681
 11
49.269300
 21
118.824681
  0
LINE
  8
0
  6
CONTINUOUS
 62
1
 10
49.389302
 20
112.714680
 11
49.389302
 21
112.715384
  0
LINE
  8
0
  6
CONTINUOUS
 62
1
 10
49.389302
 20
118.823972
 11
49.389302
 21
118.824681
  0
LINE
  8
0
  6
CONTINUOUS
 62
1
 10
49.389302
 20
112.714680
 11
49.269300
 21
112.714680
  0
LINE
  8
0
  6
CONTINUOUS
 62
1
 10
49.269300
 20
112.714680
 11
49.269300
 21
118.824681
  0
LINE
  8
0
  6
CONTINUOUS
 62
1
 10
102.749300
 20
112.714680
 11
102.869302
 21
112.714680
  0
LINE
  8
0
  6
CONTINUOUS
 62
1
 10
102.869302
 20
118.824681
 11
102.869302
 21
112.714680
  0
LINE
  8
0
  6
CONTINUOUS
 62
1
 10
102.749300
 20
118.824681
 11
102.869302
 21
118.824681
  0
LINE
  8
0
  6
CONTINUOUS
 62
1
 10
102.749300
 20
118.824681
 11
102.749300
 21
118.823972
  0
LINE
  8
0
  6
CONTINUOUS
 62
1
 10
102.749300
 20
112.715384
 11
102.749300
 21
112.714680
  0
LINE
  8
0
  6
CONTINUOUS
 62
1
 10
99.514301
 20
112.715384
 11
102.749300
 21
112.715384
  0
LINE
  8
0
  6
CONTINUOUS
 62
1
 10
99.514301
 20
118.823972
 11
102.749300
 21
118.823972
  0
LINE
  8
0
  6
CONTINUOUS
 62
1
 10
102.749300
 20
112.715384
 11
102.749300
 21
118.823972
  0
ARC
  8
0
  6
CONTINUOUS
 62
1
 10
99.554084
 20
113.097414
 40
0.384096
 50
222.145929
 51
264.054905
  0
LINE
  8
0
  6
CONTINUOUS
 62
1
 10
99.269300
 20
112.839677
 11
99.269300
 21
118.699678
  0
ARC
  8
0
  6
CONTINUOUS
 62
1
 10
99.572427
 20
118.405783
 40
0.422208
 50
97.913202
 51
135.885964
  0
ARC
  8
0
  6
CONTINUOUS
 62
1
 10
99.514304
 20
112.839682
 40
0.245004
 50
180.001184
 51
269.999164
  0
LINE
  8
0
  6
CONTINUOUS
 62
1
 10
99.444979
 20
112.738468
 11
99.471537
 21
112.722220
  0
LINE
  8
0
  6
CONTINUOUS
 62
1
 10
99.471537
 20
112.722220
 11
99.514301
 21
112.714680
  0
LINE
  8
0
  6
CONTINUOUS
 62
1
 10
99.514301
 20
112.594678
 11
99.514301
 21
112.714680
  0
ARC
  8
0
  6
CONTINUOUS
 62
1
 10
99.514300
 20
118.699677
 40
0.245000
 50
89.999818
 51
179.999834
  0
LINE
  8
0
  6
CONTINUOUS
 62
1
 10
99.514301
 20
118.944677
 11
99.514301
 21
118.824681
  0
ARC
  8
0
  6
CONTINUOUS
 62
1
 10
99.512866
 20
118.704585
 40
0.120105
 50
89.315542
 51
128.049874
  0
LINE
  8
0
  6
CONTINUOUS
 62
1
 10
102.749300
 20
118.944677
 11
102.749300
 21
118.824681
  0
LINE
  8
0
  6
CONTINUOUS
 62
1
 10
99.514301
 20
118.944677
 11
102.749300
 21
118.944677
  0
LINE
  8
0
  6
CONTINUOUS
 62
1
 10
99.514301
 20
118.824681
 11
102.749300
 21
118.824681
  0
LINE
  8
0
  6
CONTINUOUS
 62
1
 10
102.749300
 20
112.594678
 11
102.749300
 21
112.714680
  0
LINE
  8
0
  6
CONTINUOUS
 62
1
 10
99.514301
 20
112.594678
 11
102.749300
 21
112.594678
  0
LINE
  8
0
  6
CONTINUOUS
 62
1
 10
99.514301
 20
112.714680
 11
102.749300
 21
112.714680
  0
LINE
  8
0
  6
CONTINUOUS
 62
1
 10
99.444979
 20
112.738468
 11
99.477136
 21
112.727436
  0
LINE
  8
0
  6
CONTINUOUS
 62
1
 10
99.477136
 20
112.727436
 11
99.514301
 21
112.715384
  0
LINE
  8
0
  6
CONTINUOUS
 62
1
 10
52.624301
 20
118.823972
 11
49.389302
 21
118.823972
  0
LINE
  8
0
  6
CONTINUOUS
 62
1
 10
52.624301
 20
112.715384
 11
49.389302
 21
112.715384
  0
LINE
  8
0
  6
CONTINUOUS
 62
1
 10
49.389302
 20
118.823972
 11
49.389302
 21
112.715384
  0
ARC
  8
0
  6
CONTINUOUS
 62
1
 10
52.566118
 20
113.133684
 40
0.422328
 50
277.918757
 51
315.880409
  0
ARC
  8
0
  6
CONTINUOUS
 62
1
 10
52.584567
 20
118.442037
 40
0.383996
 50
42.140199
 51
84.060635
  0
LINE
  8
0
  6
CONTINUOUS
 62
1
 10
52.869302
 20
118.699678
 11
52.869302
 21
112.839677
  0
ARC
  8
0
  6
CONTINUOUS
 62
1
 10
52.624312
 20
118.699687
 40
0.244990
 50
359.997907
 51
90.002442
  0
LINE
  8
0
  6
CONTINUOUS
 62
1
 10
52.692534
 20
118.801554
 11
52.667065
 21
118.817135
  0
LINE
  8
0
  6
CONTINUOUS
 62
1
 10
52.667065
 20
118.817135
 11
52.624301
 21
118.824681
  0
LINE
  8
0
  6
CONTINUOUS
 62
1
 10
52.624301
 20
118.944677
 11
52.624301
 21
118.824681
  0
LINE
  8
0
  6
CONTINUOUS
 62
1
 10
52.624301
 20
112.594678
 11
52.624301
 21
112.714680
  0
ARC
  8
0
  6
CONTINUOUS
 62
1
 10
52.625761
 20
112.834725
 40
0.120053
 50
269.303315
 51
308.053978
  0
ARC
  8
0
  6
CONTINUOUS
 62
1
 10
52.624299
 20
112.839680
 40
0.245002
 50
270.000408
 51
359.999243
  0
LINE
  8
0
  6
CONTINUOUS
 62
1
 10
52.624301
 20
118.944677
 11
49.389302
 21
118.944677
  0
LINE
  8
0
  6
CONTINUOUS
 62
1
 10
52.624301
 20
118.824681
 11
49.389302
 21
118.824681
  0
LINE
  8
0
  6
CONTINUOUS
 62
1
 10
49.389302
 20
118.944677
 11
49.389302
 21
118.824681
  0
LINE
  8
0
  6
CONTINUOUS
 62
1
 10
52.624301
 20
112.594678
 11
49.389302
 21
112.594678
  0
LINE
  8
0
  6
CONTINUOUS
 62
1
 10
52.624301
 20
112.714680
 11
49.389302
 21
112.714680
  0
LINE
  8
0
  6
CONTINUOUS
 62
1
 10
49.389302
 20
112.594678
 11
49.389302
 21
112.714680
  0
LINE
  8
0
  6
CONTINUOUS
 62
1
 10
49.269300
 20
118.869676
 11
49.269300
 21
118.824681
  0
LINE
  8
0
  6
CONTINUOUS
 62
1
 10
49.269300
 20
112.714680
 11
49.269300
 21
112.669679
  0
LINE
  8
0
  6
CONTINUOUS
 62
1
 10
49.269300
 20
112.669679
 11
49.389302
 21
112.669679
  0
LINE
  8
0
  6
CONTINUOUS
 62
1
 10
52.800624
 20
112.669679
 11
52.869302
 21
112.669679
  0
LINE
  8
0
  6
CONTINUOUS
 62
1
 10
52.869302
 20
118.869676
 11
52.797418
 21
118.869676
  0
LINE
  8
0
  6
CONTINUOUS
 62
1
 10
49.389302
 20
118.869676
 11
49.269300
 21
118.869676
  0
LINE
  8
0
  6
CONTINUOUS
 62
1
 10
52.869302
 20
112.669679
 11
52.869302
 21
112.839677
  0
LINE
  8
0
  6
CONTINUOUS
 62
1
 10
52.869302
 20
118.699678
 11
52.869302
 21
118.869676
  0
LINE
  8
0
  6
CONTINUOUS
 62
1
 10
102.869302
 20
112.669679
 11
102.869302
 21
112.714680
  0
LINE
  8
0
  6
CONTINUOUS
 62
1
 10
102.869302
 20
118.824681
 11
102.869302
 21
118.869676
  0
LINE
  8
0
  6
CONTINUOUS
 62
1
 10
99.269300
 20
112.669679
 11
99.341183
 21
112.669679
  0
LINE
  8
0
  6
CONTINUOUS
 62
1
 10
102.749300
 20
112.669679
 11
102.869302
 21
112.669679
  0
LINE
  8
0
  6
CONTINUOUS
 62
1
 10
99.269300
 20
118.869676
 11
99.269300
 21
118.699678
  0
LINE
  8
0
  6
CONTINUOUS
 62
1
 10
99.269300
 20
112.839677
 11
99.269300
 21
112.669679
  0
LINE
  8
0
  6
CONTINUOUS
 62
1
 10
102.869302
 20
118.869676
 11
102.749300
 21
118.869676
  0
LINE
  8
0
  6
CONTINUOUS
 62
1
 10
99.337978
 20
118.869676
 11
99.269300
 21
118.869676
  0
LINE
  8
0
  6
CONTINUOUS
 62
1
 10
63.505792
 20
119.619682
 11
62.032809
 21
119.619682
  0
LINE
  8
0
  6
CONTINUOUS
 62
1
 10
89.705793
 20
119.619682
 11
88.232809
 21
119.619682
  0
LINE
  8
0
  6
CONTINUOUS
 62
1
 10
61.808984
 20
49.059180
 11
61.801275
 21
49.112998
  0
LINE
  8
0
  6
CONTINUOUS
 62
1
 10
61.806571
 20
49.056298
 11
61.806775
 21
49.057200
  0
LINE
  8
0
  6
CONTINUOUS
 62
1
 10
61.806775
 20
49.057200
 11
61.808984
 21
49.059180
  0
LINE
  8
0
  6
CONTINUOUS
 62
1
 10
64.137326
 20
49.112998
 11
64.129618
 21
49.059180
  0
LINE
  8
0
  6
CONTINUOUS
 62
1
 10
64.129618
 20
49.059180
 11
64.131827
 21
49.057200
  0
LINE
  8
0
  6
CONTINUOUS
 62
1
 10
64.131827
 20
49.057200
 11
64.132030
 21
49.056298
  0
LINE
  8
0
  6
CONTINUOUS
 62
1
 10
63.119301
 20
49.073115
 11
63.119301
 21
49.112998
  0
LINE
  8
0
  6
CONTINUOUS
 62
1
 10
62.819302
 20
49.112998
 11
62.819302
 21
49.073115
  0
LINE
  8
0
  6
CONTINUOUS
 62
1
 10
62.819302
 20
49.073115
 11
62.819302
 21
48.176334
  0
LINE
  8
0
  6
CONTINUOUS
 62
1
 10
63.119301
 20
48.174398
 11
63.119301
 21
49.073115
  0
LINE
  8
0
  6
CONTINUOUS
 62
1
 10
88.008984
 20
49.059180
 11
88.001275
 21
49.112998
  0
LINE
  8
0
  6
CONTINUOUS
 62
1
 10
88.006572
 20
49.056298
 11
88.006775
 21
49.057200
  0
LINE
  8
0
  6
CONTINUOUS
 62
1
 10
88.006775
 20
49.057200
 11
88.008984
 21
49.059180
  0
LINE
  8
0
  6
CONTINUOUS
 62
1
 10
90.337327
 20
49.112998
 11
90.329618
 21
49.059180
  0
LINE
  8
0
  6
CONTINUOUS
 62
1
 10
90.329618
 20
49.059180
 11
90.331827
 21
49.057200
  0
LINE
  8
0
  6
CONTINUOUS
 62
1
 10
90.331827
 20
49.057200
 11
90.332031
 21
49.056298
  0
LINE
  8
0
  6
CONTINUOUS
 62
1
 10
89.319300
 20
49.073115
 11
89.319300
 21
49.112998
  0
LINE
  8
0
  6
CONTINUOUS
 62
1
 10
89.019301
 20
49.112998
 11
89.019301
 21
49.073115
  0
LINE
  8
0
  6
CONTINUOUS
 62
1
 10
89.019301
 20
49.073115
 11
89.019301
 21
48.176334
  0
LINE
  8
0
  6
CONTINUOUS
 62
1
 10
89.319300
 20
48.174398
 11
89.319300
 21
49.073115
  0
POLYLINE
  8
0
  6
CONTINUOUS
 62
1
 66
1
 70
2
  0
VERTEX
  8
0
 10
94.885008
 20
73.964679
 70
0
 42
0.001661
  0
VERTEX
  8
0
 10
94.909301
 20
73.940240
 70
0
  0
SEQEND
  0
POLYLINE
  8
0
  6
CONTINUOUS
 62
1
 66
1
 70
2
  0
VERTEX
  8
0
 10
94.909301
 20
73.940240
 70
0
 42
0.001661
  0
VERTEX
  8
0
 10
94.933595
 20
73.964679
 70
0
  0
SEQEND
  0
POLYLINE
  8
0
  6
CONTINUOUS
 62
1
 66
1
 70
2
  0
VERTEX
  8
0
 10
94.065008
 20
73.964679
 70
0
 42
0.001661
  0
VERTEX
  8
0
 10
94.089301
 20
73.940240
 70
0
  0
SEQEND
  0
POLYLINE
  8
0
  6
CONTINUOUS
 62
1
 66
1
 70
2
  0
VERTEX
  8
0
 10
94.089301
 20
73.940240
 70
0
 42
0.001661
  0
VERTEX
  8
0
 10
94.113595
 20
73.964679
 70
0
  0
SEQEND
  0
POLYLINE
  8
0
  6
CONTINUOUS
 62
1
 66
1
 70
2
  0
VERTEX
  8
0
 10
93.245008
 20
73.964679
 70
0
 42
0.001661
  0
VERTEX
  8
0
 10
93.269301
 20
73.940240
 70
0
  0
SEQEND
  0
POLYLINE
  8
0
  6
CONTINUOUS
 62
1
 66
1
 70
2
  0
VERTEX
  8
0
 10
93.269301
 20
73.940240
 70
0
 42
0.001661
  0
VERTEX
  8
0
 10
93.293595
 20
73.964679
 70
0
  0
SEQEND
  0
POLYLINE
  8
0
  6
CONTINUOUS
 62
1
 66
1
 70
2
  0
VERTEX
  8
0
 10
91.605008
 20
73.964679
 70
0
 42
0.001661
  0
VERTEX
  8
0
 10
91.629301
 20
73.940240
 70
0
  0
SEQEND
  0
POLYLINE
  8
0
  6
CONTINUOUS
 62
1
 66
1
 70
2
  0
VERTEX
  8
0
 10
91.629301
 20
73.940240
 70
0
 42
0.001661
  0
VERTEX
  8
0
 10
91.653595
 20
73.964679
 70
0
  0
SEQEND
  0
POLYLINE
  8
0
  6
CONTINUOUS
 62
1
 66
1
 70
2
  0
VERTEX
  8
0
 10
92.425008
 20
73.964679
 70
0
 42
0.001661
  0
VERTEX
  8
0
 10
92.449301
 20
73.940240
 70
0
  0
SEQEND
  0
POLYLINE
  8
0
  6
CONTINUOUS
 62
1
 66
1
 70
2
  0
VERTEX
  8
0
 10
92.449301
 20
73.940240
 70
0
 42
0.001661
  0
VERTEX
  8
0
 10
92.473595
 20
73.964679
 70
0
  0
SEQEND
  0
POLYLINE
  8
0
  6
CONTINUOUS
 62
1
 66
1
 70
2
  0
VERTEX
  8
0
 10
90.785008
 20
73.964679
 70
0
 42
0.001661
  0
VERTEX
  8
0
 10
90.809301
 20
73.940240
 70
0
  0
SEQEND
  0
POLYLINE
  8
0
  6
CONTINUOUS
 62
1
 66
1
 70
2
  0
VERTEX
  8
0
 10
90.809301
 20
73.940240
 70
0
 42
0.001661
  0
VERTEX
  8
0
 10
90.833595
 20
73.964679
 70
0
  0
SEQEND
  0
POLYLINE
  8
0
  6
CONTINUOUS
 62
1
 66
1
 70
2
  0
VERTEX
  8
0
 10
89.965008
 20
73.964679
 70
0
 42
0.001661
  0
VERTEX
  8
0
 10
89.989301
 20
73.940240
 70
0
  0
SEQEND
  0
POLYLINE
  8
0
  6
CONTINUOUS
 62
1
 66
1
 70
2
  0
VERTEX
  8
0
 10
89.989301
 20
73.940240
 70
0
 42
0.001661
  0
VERTEX
  8
0
 10
90.013595
 20
73.964679
 70
0
  0
SEQEND
  0
POLYLINE
  8
0
  6
CONTINUOUS
 62
1
 66
1
 70
2
  0
VERTEX
  8
0
 10
89.145008
 20
73.964679
 70
0
 42
0.001661
  0
VERTEX
  8
0
 10
89.169301
 20
73.940240
 70
0
  0
SEQEND
  0
POLYLINE
  8
0
  6
CONTINUOUS
 62
1
 66
1
 70
2
  0
VERTEX
  8
0
 10
89.169301
 20
73.940240
 70
0
 42
0.001661
  0
VERTEX
  8
0
 10
89.193595
 20
73.964679
 70
0
  0
SEQEND
  0
POLYLINE
  8
0
  6
CONTINUOUS
 62
1
 66
1
 70
2
  0
VERTEX
  8
0
 10
87.505008
 20
73.964679
 70
0
 42
0.001661
  0
VERTEX
  8
0
 10
87.529301
 20
73.940240
 70
0
  0
SEQEND
  0
POLYLINE
  8
0
  6
CONTINUOUS
 62
1
 66
1
 70
2
  0
VERTEX
  8
0
 10
87.529301
 20
73.940240
 70
0
 42
0.001661
  0
VERTEX
  8
0
 10
87.553595
 20
73.964679
 70
0
  0
SEQEND
  0
POLYLINE
  8
0
  6
CONTINUOUS
 62
1
 66
1
 70
2
  0
VERTEX
  8
0
 10
86.685008
 20
73.964679
 70
0
 42
0.001661
  0
VERTEX
  8
0
 10
86.709301
 20
73.940240
 70
0
  0
SEQEND
  0
POLYLINE
  8
0
  6
CONTINUOUS
 62
1
 66
1
 70
2
  0
VERTEX
  8
0
 10
86.709301
 20
73.940240
 70
0
 42
0.001661
  0
VERTEX
  8
0
 10
86.733595
 20
73.964679
 70
0
  0
SEQEND
  0
POLYLINE
  8
0
  6
CONTINUOUS
 62
1
 66
1
 70
2
  0
VERTEX
  8
0
 10
88.325008
 20
73.964679
 70
0
 42
0.001661
  0
VERTEX
  8
0
 10
88.349301
 20
73.940240
 70
0
  0
SEQEND
  0
POLYLINE
  8
0
  6
CONTINUOUS
 62
1
 66
1
 70
2
  0
VERTEX
  8
0
 10
88.349301
 20
73.940240
 70
0
 42
0.001661
  0
VERTEX
  8
0
 10
88.373595
 20
73.964679
 70
0
  0
SEQEND
  0
POLYLINE
  8
0
  6
CONTINUOUS
 62
1
 66
1
 70
2
  0
VERTEX
  8
0
 10
85.865008
 20
73.964679
 70
0
 42
0.001661
  0
VERTEX
  8
0
 10
85.889301
 20
73.940240
 70
0
  0
SEQEND
  0
POLYLINE
  8
0
  6
CONTINUOUS
 62
1
 66
1
 70
2
  0
VERTEX
  8
0
 10
85.889301
 20
73.940240
 70
0
 42
0.001661
  0
VERTEX
  8
0
 10
85.913595
 20
73.964679
 70
0
  0
SEQEND
  0
POLYLINE
  8
0
  6
CONTINUOUS
 62
1
 66
1
 70
2
  0
VERTEX
  8
0
 10
85.045008
 20
73.964679
 70
0
 42
0.001661
  0
VERTEX
  8
0
 10
85.069301
 20
73.940240
 70
0
  0
SEQEND
  0
POLYLINE
  8
0
  6
CONTINUOUS
 62
1
 66
1
 70
2
  0
VERTEX
  8
0
 10
85.069301
 20
73.940240
 70
0
 42
0.001661
  0
VERTEX
  8
0
 10
85.093595
 20
73.964679
 70
0
  0
SEQEND
  0
POLYLINE
  8
0
  6
CONTINUOUS
 62
1
 66
1
 70
2
  0
VERTEX
  8
0
 10
83.405008
 20
73.964679
 70
0
 42
0.001661
  0
VERTEX
  8
0
 10
83.429301
 20
73.940240
 70
0
  0
SEQEND
  0
POLYLINE
  8
0
  6
CONTINUOUS
 62
1
 66
1
 70
2
  0
VERTEX
  8
0
 10
83.429301
 20
73.940240
 70
0
 42
0.001661
  0
VERTEX
  8
0
 10
83.453595
 20
73.964679
 70
0
  0
SEQEND
  0
POLYLINE
  8
0
  6
CONTINUOUS
 62
1
 66
1
 70
2
  0
VERTEX
  8
0
 10
82.585008
 20
73.964679
 70
0
 42
0.001661
  0
VERTEX
  8
0
 10
82.609301
 20
73.940240
 70
0
  0
SEQEND
  0
POLYLINE
  8
0
  6
CONTINUOUS
 62
1
 66
1
 70
2
  0
VERTEX
  8
0
 10
82.609301
 20
73.940240
 70
0
 42
0.001661
  0
VERTEX
  8
0
 10
82.633595
 20
73.964679
 70
0
  0
SEQEND
  0
POLYLINE
  8
0
  6
CONTINUOUS
 62
1
 66
1
 70
2
  0
VERTEX
  8
0
 10
84.225008
 20
73.964679
 70
0
 42
0.001661
  0
VERTEX
  8
0
 10
84.249301
 20
73.940240
 70
0
  0
SEQEND
  0
POLYLINE
  8
0
  6
CONTINUOUS
 62
1
 66
1
 70
2
  0
VERTEX
  8
0
 10
84.249301
 20
73.940240
 70
0
 42
0.001661
  0
VERTEX
  8
0
 10
84.273595
 20
73.964679
 70
0
  0
SEQEND
  0
POLYLINE
  8
0
  6
CONTINUOUS
 62
1
 66
1
 70
2
  0
VERTEX
  8
0
 10
81.765008
 20
73.964679
 70
0
 42
0.001661
  0
VERTEX
  8
0
 10
81.789301
 20
73.940240
 70
0
  0
SEQEND
  0
POLYLINE
  8
0
  6
CONTINUOUS
 62
1
 66
1
 70
2
  0
VERTEX
  8
0
 10
81.789301
 20
73.940240
 70
0
 42
0.001661
  0
VERTEX
  8
0
 10
81.813595
 20
73.964679
 70
0
  0
SEQEND
  0
POLYLINE
  8
0
  6
CONTINUOUS
 62
1
 66
1
 70
2
  0
VERTEX
  8
0
 10
80.945008
 20
73.964679
 70
0
 42
0.001661
  0
VERTEX
  8
0
 10
80.969301
 20
73.940240
 70
0
  0
SEQEND
  0
POLYLINE
  8
0
  6
CONTINUOUS
 62
1
 66
1
 70
2
  0
VERTEX
  8
0
 10
80.969301
 20
73.940240
 70
0
 42
0.001661
  0
VERTEX
  8
0
 10
80.993595
 20
73.964679
 70
0
  0
SEQEND
  0
POLYLINE
  8
0
  6
CONTINUOUS
 62
1
 66
1
 70
2
  0
VERTEX
  8
0
 10
80.125008
 20
73.964679
 70
0
 42
0.001661
  0
VERTEX
  8
0
 10
80.149301
 20
73.940240
 70
0
  0
SEQEND
  0
POLYLINE
  8
0
  6
CONTINUOUS
 62
1
 66
1
 70
2
  0
VERTEX
  8
0
 10
80.149301
 20
73.940240
 70
0
 42
0.001661
  0
VERTEX
  8
0
 10
80.173595
 20
73.964679
 70
0
  0
SEQEND
  0
POLYLINE
  8
0
  6
CONTINUOUS
 62
1
 66
1
 70
2
  0
VERTEX
  8
0
 10
94.909301
 20
73.940240
 70
0
 42
0.014820
  0
VERTEX
  8
0
 10
94.969273
 20
73.882074
 70
0
  0
SEQEND
  0
POLYLINE
  8
0
  6
CONTINUOUS
 62
1
 66
1
 70
2
  0
VERTEX
  8
0
 10
94.089301
 20
73.940240
 70
0
 42
0.014820
  0
VERTEX
  8
0
 10
94.149273
 20
73.882074
 70
0
  0
SEQEND
  0
POLYLINE
  8
0
  6
CONTINUOUS
 62
1
 66
1
 70
2
  0
VERTEX
  8
0
 10
94.849329
 20
73.882074
 70
0
 42
0.014820
  0
VERTEX
  8
0
 10
94.909301
 20
73.940240
 70
0
  0
SEQEND
  0
POLYLINE
  8
0
  6
CONTINUOUS
 62
1
 66
1
 70
2
  0
VERTEX
  8
0
 10
93.269301
 20
73.940240
 70
0
 42
0.014820
  0
VERTEX
  8
0
 10
93.329273
 20
73.882074
 70
0
  0
SEQEND
  0
POLYLINE
  8
0
  6
CONTINUOUS
 62
1
 66
1
 70
2
  0
VERTEX
  8
0
 10
94.029329
 20
73.882074
 70
0
 42
0.014820
  0
VERTEX
  8
0
 10
94.089301
 20
73.940240
 70
0
  0
SEQEND
  0
POLYLINE
  8
0
  6
CONTINUOUS
 62
1
 66
1
 70
2
  0
VERTEX
  8
0
 10
91.629301
 20
73.940240
 70
0
 42
0.014820
  0
VERTEX
  8
0
 10
91.689273
 20
73.882074
 70
0
  0
SEQEND
  0
POLYLINE
  8
0
  6
CONTINUOUS
 62
1
 66
1
 70
2
  0
VERTEX
  8
0
 10
92.389329
 20
73.882074
 70
0
 42
0.014820
  0
VERTEX
  8
0
 10
92.449301
 20
73.940240
 70
0
  0
SEQEND
  0
POLYLINE
  8
0
  6
CONTINUOUS
 62
1
 66
1
 70
2
  0
VERTEX
  8
0
 10
92.449301
 20
73.940240
 70
0
 42
0.014820
  0
VERTEX
  8
0
 10
92.509273
 20
73.882074
 70
0
  0
SEQEND
  0
POLYLINE
  8
0
  6
CONTINUOUS
 62
1
 66
1
 70
2
  0
VERTEX
  8
0
 10
93.209329
 20
73.882074
 70
0
 42
0.014820
  0
VERTEX
  8
0
 10
93.269301
 20
73.940240
 70
0
  0
SEQEND
  0
POLYLINE
  8
0
  6
CONTINUOUS
 62
1
 66
1
 70
2
  0
VERTEX
  8
0
 10
90.809301
 20
73.940240
 70
0
 42
0.014820
  0
VERTEX
  8
0
 10
90.869273
 20
73.882074
 70
0
  0
SEQEND
  0
POLYLINE
  8
0
  6
CONTINUOUS
 62
1
 66
1
 70
2
  0
VERTEX
  8
0
 10
91.569329
 20
73.882074
 70
0
 42
0.014820
  0
VERTEX
  8
0
 10
91.629301
 20
73.940240
 70
0
  0
SEQEND
  0
POLYLINE
  8
0
  6
CONTINUOUS
 62
1
 66
1
 70
2
  0
VERTEX
  8
0
 10
80.089329
 20
73.882074
 70
0
 42
0.014820
  0
VERTEX
  8
0
 10
80.149301
 20
73.940240
 70
0
  0
SEQEND
  0
POLYLINE
  8
0
  6
CONTINUOUS
 62
1
 66
1
 70
2
  0
VERTEX
  8
0
 10
89.989301
 20
73.940240
 70
0
 42
0.014820
  0
VERTEX
  8
0
 10
90.049273
 20
73.882074
 70
0
  0
SEQEND
  0
POLYLINE
  8
0
  6
CONTINUOUS
 62
1
 66
1
 70
2
  0
VERTEX
  8
0
 10
90.749329
 20
73.882074
 70
0
 42
0.014820
  0
VERTEX
  8
0
 10
90.809301
 20
73.940240
 70
0
  0
SEQEND
  0
POLYLINE
  8
0
  6
CONTINUOUS
 62
1
 66
1
 70
2
  0
VERTEX
  8
0
 10
89.169301
 20
73.940240
 70
0
 42
0.014820
  0
VERTEX
  8
0
 10
89.229273
 20
73.882074
 70
0
  0
SEQEND
  0
POLYLINE
  8
0
  6
CONTINUOUS
 62
1
 66
1
 70
2
  0
VERTEX
  8
0
 10
89.929329
 20
73.882074
 70
0
 42
0.014820
  0
VERTEX
  8
0
 10
89.989301
 20
73.940240
 70
0
  0
SEQEND
  0
POLYLINE
  8
0
  6
CONTINUOUS
 62
1
 66
1
 70
2
  0
VERTEX
  8
0
 10
87.529301
 20
73.940240
 70
0
 42
0.014820
  0
VERTEX
  8
0
 10
87.589273
 20
73.882074
 70
0
  0
SEQEND
  0
POLYLINE
  8
0
  6
CONTINUOUS
 62
1
 66
1
 70
2
  0
VERTEX
  8
0
 10
88.289329
 20
73.882074
 70
0
 42
0.014820
  0
VERTEX
  8
0
 10
88.349301
 20
73.940240
 70
0
  0
SEQEND
  0
POLYLINE
  8
0
  6
CONTINUOUS
 62
1
 66
1
 70
2
  0
VERTEX
  8
0
 10
88.349301
 20
73.940240
 70
0
 42
0.014820
  0
VERTEX
  8
0
 10
88.409273
 20
73.882074
 70
0
  0
SEQEND
  0
POLYLINE
  8
0
  6
CONTINUOUS
 62
1
 66
1
 70
2
  0
VERTEX
  8
0
 10
89.109329
 20
73.882074
 70
0
 42
0.014820
  0
VERTEX
  8
0
 10
89.169301
 20
73.940240
 70
0
  0
SEQEND
  0
POLYLINE
  8
0
  6
CONTINUOUS
 62
1
 66
1
 70
2
  0
VERTEX
  8
0
 10
86.709301
 20
73.940240
 70
0
 42
0.014820
  0
VERTEX
  8
0
 10
86.769273
 20
73.882074
 70
0
  0
SEQEND
  0
POLYLINE
  8
0
  6
CONTINUOUS
 62
1
 66
1
 70
2
  0
VERTEX
  8
0
 10
87.469329
 20
73.882074
 70
0
 42
0.014820
  0
VERTEX
  8
0
 10
87.529301
 20
73.940240
 70
0
  0
SEQEND
  0
POLYLINE
  8
0
  6
CONTINUOUS
 62
1
 66
1
 70
2
  0
VERTEX
  8
0
 10
85.889301
 20
73.940240
 70
0
 42
0.014820
  0
VERTEX
  8
0
 10
85.949273
 20
73.882074
 70
0
  0
SEQEND
  0
POLYLINE
  8
0
  6
CONTINUOUS
 62
1
 66
1
 70
2
  0
VERTEX
  8
0
 10
86.649329
 20
73.882074
 70
0
 42
0.014820
  0
VERTEX
  8
0
 10
86.709301
 20
73.940240
 70
0
  0
SEQEND
  0
POLYLINE
  8
0
  6
CONTINUOUS
 62
1
 66
1
 70
2
  0
VERTEX
  8
0
 10
85.069301
 20
73.940240
 70
0
 42
0.014820
  0
VERTEX
  8
0
 10
85.129273
 20
73.882074
 70
0
  0
SEQEND
  0
POLYLINE
  8
0
  6
CONTINUOUS
 62
1
 66
1
 70
2
  0
VERTEX
  8
0
 10
85.829329
 20
73.882074
 70
0
 42
0.014820
  0
VERTEX
  8
0
 10
85.889301
 20
73.940240
 70
0
  0
SEQEND
  0
POLYLINE
  8
0
  6
CONTINUOUS
 62
1
 66
1
 70
2
  0
VERTEX
  8
0
 10
84.249301
 20
73.940240
 70
0
 42
0.014820
  0
VERTEX
  8
0
 10
84.309273
 20
73.882074
 70
0
  0
SEQEND
  0
POLYLINE
  8
0
  6
CONTINUOUS
 62
1
 66
1
 70
2
  0
VERTEX
  8
0
 10
85.009329
 20
73.882074
 70
0
 42
0.014820
  0
VERTEX
  8
0
 10
85.069301
 20
73.940240
 70
0
  0
SEQEND
  0
POLYLINE
  8
0
  6
CONTINUOUS
 62
1
 66
1
 70
2
  0
VERTEX
  8
0
 10
83.429301
 20
73.940240
 70
0
 42
0.014820
  0
VERTEX
  8
0
 10
83.489273
 20
73.882074
 70
0
  0
SEQEND
  0
POLYLINE
  8
0
  6
CONTINUOUS
 62
1
 66
1
 70
2
  0
VERTEX
  8
0
 10
84.189329
 20
73.882074
 70
0
 42
0.014820
  0
VERTEX
  8
0
 10
84.249301
 20
73.940240
 70
0
  0
SEQEND
  0
POLYLINE
  8
0
  6
CONTINUOUS
 62
1
 66
1
 70
2
  0
VERTEX
  8
0
 10
82.609301
 20
73.940240
 70
0
 42
0.014820
  0
VERTEX
  8
0
 10
82.669273
 20
73.882074
 70
0
  0
SEQEND
  0
POLYLINE
  8
0
  6
CONTINUOUS
 62
1
 66
1
 70
2
  0
VERTEX
  8
0
 10
83.369329
 20
73.882074
 70
0
 42
0.014820
  0
VERTEX
  8
0
 10
83.429301
 20
73.940240
 70
0
  0
SEQEND
  0
POLYLINE
  8
0
  6
CONTINUOUS
 62
1
 66
1
 70
2
  0
VERTEX
  8
0
 10
81.789301
 20
73.940240
 70
0
 42
0.014820
  0
VERTEX
  8
0
 10
81.849273
 20
73.882074
 70
0
  0
SEQEND
  0
POLYLINE
  8
0
  6
CONTINUOUS
 62
1
 66
1
 70
2
  0
VERTEX
  8
0
 10
82.549329
 20
73.882074
 70
0
 42
0.014820
  0
VERTEX
  8
0
 10
82.609301
 20
73.940240
 70
0
  0
SEQEND
  0
POLYLINE
  8
0
  6
CONTINUOUS
 62
1
 66
1
 70
2
  0
VERTEX
  8
0
 10
80.969301
 20
73.940240
 70
0
 42
0.014820
  0
VERTEX
  8
0
 10
81.029273
 20
73.882074
 70
0
  0
SEQEND
  0
POLYLINE
  8
0
  6
CONTINUOUS
 62
1
 66
1
 70
2
  0
VERTEX
  8
0
 10
81.729329
 20
73.882074
 70
0
 42
0.014820
  0
VERTEX
  8
0
 10
81.789301
 20
73.940240
 70
0
  0
SEQEND
  0
POLYLINE
  8
0
  6
CONTINUOUS
 62
1
 66
1
 70
2
  0
VERTEX
  8
0
 10
80.149301
 20
73.940240
 70
0
 42
0.014820
  0
VERTEX
  8
0
 10
80.209273
 20
73.882074
 70
0
  0
SEQEND
  0
POLYLINE
  8
0
  6
CONTINUOUS
 62
1
 66
1
 70
2
  0
VERTEX
  8
0
 10
80.909329
 20
73.882074
 70
0
 42
0.014820
  0
VERTEX
  8
0
 10
80.969301
 20
73.940240
 70
0
  0
SEQEND
  0
POLYLINE
  8
0
  6
CONTINUOUS
 62
1
 66
1
 70
2
  0
VERTEX
  8
0
 10
94.849301
 20
73.182429
 70
0
 42
0.014647
  0
VERTEX
  8
0
 10
94.909301
 20
73.120623
 70
0
  0
SEQEND
  0
POLYLINE
  8
0
  6
CONTINUOUS
 62
1
 66
1
 70
2
  0
VERTEX
  8
0
 10
94.909301
 20
73.120623
 70
0
 42
0.014647
  0
VERTEX
  8
0
 10
94.969301
 20
73.182429
 70
0
  0
SEQEND
  0
POLYLINE
  8
0
  6
CONTINUOUS
 62
1
 66
1
 70
2
  0
VERTEX
  8
0
 10
94.029301
 20
73.182429
 70
0
 42
0.014647
  0
VERTEX
  8
0
 10
94.089301
 20
73.120623
 70
0
  0
SEQEND
  0
POLYLINE
  8
0
  6
CONTINUOUS
 62
1
 66
1
 70
2
  0
VERTEX
  8
0
 10
94.089301
 20
73.120623
 70
0
 42
0.014647
  0
VERTEX
  8
0
 10
94.149301
 20
73.182429
 70
0
  0
SEQEND
  0
POLYLINE
  8
0
  6
CONTINUOUS
 62
1
 66
1
 70
2
  0
VERTEX
  8
0
 10
93.209301
 20
73.182429
 70
0
 42
0.014647
  0
VERTEX
  8
0
 10
93.269301
 20
73.120623
 70
0
  0
SEQEND
  0
POLYLINE
  8
0
  6
CONTINUOUS
 62
1
 66
1
 70
2
  0
VERTEX
  8
0
 10
93.269301
 20
73.120623
 70
0
 42
0.014647
  0
VERTEX
  8
0
 10
93.329301
 20
73.182429
 70
0
  0
SEQEND
  0
POLYLINE
  8
0
  6
CONTINUOUS
 62
1
 66
1
 70
2
  0
VERTEX
  8
0
 10
91.569301
 20
73.182429
 70
0
 42
0.014647
  0
VERTEX
  8
0
 10
91.629301
 20
73.120623
 70
0
  0
SEQEND
  0
POLYLINE
  8
0
  6
CONTINUOUS
 62
1
 66
1
 70
2
  0
VERTEX
  8
0
 10
91.629301
 20
73.120623
 70
0
 42
0.014647
  0
VERTEX
  8
0
 10
91.689301
 20
73.182429
 70
0
  0
SEQEND
  0
POLYLINE
  8
0
  6
CONTINUOUS
 62
1
 66
1
 70
2
  0
VERTEX
  8
0
 10
92.389301
 20
73.182429
 70
0
 42
0.014647
  0
VERTEX
  8
0
 10
92.449301
 20
73.120623
 70
0
  0
SEQEND
  0
POLYLINE
  8
0
  6
CONTINUOUS
 62
1
 66
1
 70
2
  0
VERTEX
  8
0
 10
92.449301
 20
73.120623
 70
0
 42
0.014647
  0
VERTEX
  8
0
 10
92.509301
 20
73.182429
 70
0
  0
SEQEND
  0
POLYLINE
  8
0
  6
CONTINUOUS
 62
1
 66
1
 70
2
  0
VERTEX
  8
0
 10
90.749301
 20
73.182429
 70
0
 42
0.014647
  0
VERTEX
  8
0
 10
90.809301
 20
73.120623
 70
0
  0
SEQEND
  0
POLYLINE
  8
0
  6
CONTINUOUS
 62
1
 66
1
 70
2
  0
VERTEX
  8
0
 10
90.809301
 20
73.120623
 70
0
 42
0.014647
  0
VERTEX
  8
0
 10
90.869301
 20
73.182429
 70
0
  0
SEQEND
  0
POLYLINE
  8
0
  6
CONTINUOUS
 62
1
 66
1
 70
2
  0
VERTEX
  8
0
 10
89.929301
 20
73.182429
 70
0
 42
0.014647
  0
VERTEX
  8
0
 10
89.989301
 20
73.120623
 70
0
  0
SEQEND
  0
POLYLINE
  8
0
  6
CONTINUOUS
 62
1
 66
1
 70
2
  0
VERTEX
  8
0
 10
89.989301
 20
73.120623
 70
0
 42
0.014647
  0
VERTEX
  8
0
 10
90.049301
 20
73.182429
 70
0
  0
SEQEND
  0
POLYLINE
  8
0
  6
CONTINUOUS
 62
1
 66
1
 70
2
  0
VERTEX
  8
0
 10
89.109301
 20
73.182429
 70
0
 42
0.014647
  0
VERTEX
  8
0
 10
89.169301
 20
73.120623
 70
0
  0
SEQEND
  0
POLYLINE
  8
0
  6
CONTINUOUS
 62
1
 66
1
 70
2
  0
VERTEX
  8
0
 10
89.169301
 20
73.120623
 70
0
 42
0.014647
  0
VERTEX
  8
0
 10
89.229301
 20
73.182429
 70
0
  0
SEQEND
  0
POLYLINE
  8
0
  6
CONTINUOUS
 62
1
 66
1
 70
2
  0
VERTEX
  8
0
 10
88.289301
 20
73.182429
 70
0
 42
0.014647
  0
VERTEX
  8
0
 10
88.349301
 20
73.120623
 70
0
  0
SEQEND
  0
POLYLINE
  8
0
  6
CONTINUOUS
 62
1
 66
1
 70
2
  0
VERTEX
  8
0
 10
88.349301
 20
73.120623
 70
0
 42
0.014647
  0
VERTEX
  8
0
 10
88.409301
 20
73.182429
 70
0
  0
SEQEND
  0
POLYLINE
  8
0
  6
CONTINUOUS
 62
1
 66
1
 70
2
  0
VERTEX
  8
0
 10
87.469301
 20
73.182429
 70
0
 42
0.014647
  0
VERTEX
  8
0
 10
87.529301
 20
73.120623
 70
0
  0
SEQEND
  0
POLYLINE
  8
0
  6
CONTINUOUS
 62
1
 66
1
 70
2
  0
VERTEX
  8
0
 10
87.529301
 20
73.120623
 70
0
 42
0.014647
  0
VERTEX
  8
0
 10
87.589301
 20
73.182429
 70
0
  0
SEQEND
  0
POLYLINE
  8
0
  6
CONTINUOUS
 62
1
 66
1
 70
2
  0
VERTEX
  8
0
 10
86.649301
 20
73.182429
 70
0
 42
0.014647
  0
VERTEX
  8
0
 10
86.709301
 20
73.120623
 70
0
  0
SEQEND
  0
POLYLINE
  8
0
  6
CONTINUOUS
 62
1
 66
1
 70
2
  0
VERTEX
  8
0
 10
86.709301
 20
73.120623
 70
0
 42
0.014647
  0
VERTEX
  8
0
 10
86.769301
 20
73.182429
 70
0
  0
SEQEND
  0
POLYLINE
  8
0
  6
CONTINUOUS
 62
1
 66
1
 70
2
  0
VERTEX
  8
0
 10
85.829301
 20
73.182429
 70
0
 42
0.014647
  0
VERTEX
  8
0
 10
85.889301
 20
73.120623
 70
0
  0
SEQEND
  0
POLYLINE
  8
0
  6
CONTINUOUS
 62
1
 66
1
 70
2
  0
VERTEX
  8
0
 10
85.889301
 20
73.120623
 70
0
 42
0.014647
  0
VERTEX
  8
0
 10
85.949301
 20
73.182429
 70
0
  0
SEQEND
  0
POLYLINE
  8
0
  6
CONTINUOUS
 62
1
 66
1
 70
2
  0
VERTEX
  8
0
 10
85.009301
 20
73.182429
 70
0
 42
0.014647
  0
VERTEX
  8
0
 10
85.069301
 20
73.120623
 70
0
  0
SEQEND
  0
POLYLINE
  8
0
  6
CONTINUOUS
 62
1
 66
1
 70
2
  0
VERTEX
  8
0
 10
85.069301
 20
73.120623
 70
0
 42
0.014647
  0
VERTEX
  8
0
 10
85.129301
 20
73.182429
 70
0
  0
SEQEND
  0
POLYLINE
  8
0
  6
CONTINUOUS
 62
1
 66
1
 70
2
  0
VERTEX
  8
0
 10
84.189301
 20
73.182429
 70
0
 42
0.014647
  0
VERTEX
  8
0
 10
84.249301
 20
73.120623
 70
0
  0
SEQEND
  0
POLYLINE
  8
0
  6
CONTINUOUS
 62
1
 66
1
 70
2
  0
VERTEX
  8
0
 10
84.249301
 20
73.120623
 70
0
 42
0.014647
  0
VERTEX
  8
0
 10
84.309301
 20
73.182429
 70
0
  0
SEQEND
  0
POLYLINE
  8
0
  6
CONTINUOUS
 62
1
 66
1
 70
2
  0
VERTEX
  8
0
 10
83.369301
 20
73.182429
 70
0
 42
0.014647
  0
VERTEX
  8
0
 10
83.429301
 20
73.120623
 70
0
  0
SEQEND
  0
POLYLINE
  8
0
  6
CONTINUOUS
 62
1
 66
1
 70
2
  0
VERTEX
  8
0
 10
83.429301
 20
73.120623
 70
0
 42
0.014647
  0
VERTEX
  8
0
 10
83.489301
 20
73.182429
 70
0
  0
SEQEND
  0
POLYLINE
  8
0
  6
CONTINUOUS
 62
1
 66
1
 70
2
  0
VERTEX
  8
0
 10
82.549301
 20
73.182429
 70
0
 42
0.014647
  0
VERTEX
  8
0
 10
82.609301
 20
73.120623
 70
0
  0
SEQEND
  0
POLYLINE
  8
0
  6
CONTINUOUS
 62
1
 66
1
 70
2
  0
VERTEX
  8
0
 10
82.609301
 20
73.120623
 70
0
 42
0.014647
  0
VERTEX
  8
0
 10
82.669301
 20
73.182429
 70
0
  0
SEQEND
  0
POLYLINE
  8
0
  6
CONTINUOUS
 62
1
 66
1
 70
2
  0
VERTEX
  8
0
 10
81.729301
 20
73.182429
 70
0
 42
0.014647
  0
VERTEX
  8
0
 10
81.789301
 20
73.120623
 70
0
  0
SEQEND
  0
POLYLINE
  8
0
  6
CONTINUOUS
 62
1
 66
1
 70
2
  0
VERTEX
  8
0
 10
81.789301
 20
73.120623
 70
0
 42
0.014647
  0
VERTEX
  8
0
 10
81.849301
 20
73.182429
 70
0
  0
SEQEND
  0
POLYLINE
  8
0
  6
CONTINUOUS
 62
1
 66
1
 70
2
  0
VERTEX
  8
0
 10
80.909301
 20
73.182429
 70
0
 42
0.014647
  0
VERTEX
  8
0
 10
80.969301
 20
73.120623
 70
0
  0
SEQEND
  0
POLYLINE
  8
0
  6
CONTINUOUS
 62
1
 66
1
 70
2
  0
VERTEX
  8
0
 10
80.969301
 20
73.120623
 70
0
 42
0.014647
  0
VERTEX
  8
0
 10
81.029301
 20
73.182429
 70
0
  0
SEQEND
  0
POLYLINE
  8
0
  6
CONTINUOUS
 62
1
 66
1
 70
2
  0
VERTEX
  8
0
 10
80.089301
 20
73.182429
 70
0
 42
0.014647
  0
VERTEX
  8
0
 10
80.149301
 20
73.120623
 70
0
  0
SEQEND
  0
POLYLINE
  8
0
  6
CONTINUOUS
 62
1
 66
1
 70
2
  0
VERTEX
  8
0
 10
80.149301
 20
73.120623
 70
0
 42
0.014647
  0
VERTEX
  8
0
 10
80.209301
 20
73.182429
 70
0
  0
SEQEND
  0
POLYLINE
  8
0
  6
CONTINUOUS
 62
1
 66
1
 70
2
  0
VERTEX
  8
0
 10
94.909301
 20
73.120623
 70
0
 42
0.014820
  0
VERTEX
  8
0
 10
94.969273
 20
73.062457
 70
0
  0
SEQEND
  0
POLYLINE
  8
0
  6
CONTINUOUS
 62
1
 66
1
 70
2
  0
VERTEX
  8
0
 10
94.089301
 20
73.120623
 70
0
 42
0.014820
  0
VERTEX
  8
0
 10
94.149273
 20
73.062457
 70
0
  0
SEQEND
  0
POLYLINE
  8
0
  6
CONTINUOUS
 62
1
 66
1
 70
2
  0
VERTEX
  8
0
 10
94.849329
 20
73.062457
 70
0
 42
0.014820
  0
VERTEX
  8
0
 10
94.909301
 20
73.120623
 70
0
  0
SEQEND
  0
POLYLINE
  8
0
  6
CONTINUOUS
 62
1
 66
1
 70
2
  0
VERTEX
  8
0
 10
93.269301
 20
73.120623
 70
0
 42
0.014820
  0
VERTEX
  8
0
 10
93.329273
 20
73.062457
 70
0
  0
SEQEND
  0
POLYLINE
  8
0
  6
CONTINUOUS
 62
1
 66
1
 70
2
  0
VERTEX
  8
0
 10
94.029329
 20
73.062457
 70
0
 42
0.014820
  0
VERTEX
  8
0
 10
94.089301
 20
73.120623
 70
0
  0
SEQEND
  0
POLYLINE
  8
0
  6
CONTINUOUS
 62
1
 66
1
 70
2
  0
VERTEX
  8
0
 10
92.449301
 20
73.120623
 70
0
 42
0.014820
  0
VERTEX
  8
0
 10
92.509273
 20
73.062457
 70
0
  0
SEQEND
  0
POLYLINE
  8
0
  6
CONTINUOUS
 62
1
 66
1
 70
2
  0
VERTEX
  8
0
 10
93.209329
 20
73.062457
 70
0
 42
0.014820
  0
VERTEX
  8
0
 10
93.269301
 20
73.120623
 70
0
  0
SEQEND
  0
POLYLINE
  8
0
  6
CONTINUOUS
 62
1
 66
1
 70
2
  0
VERTEX
  8
0
 10
91.629301
 20
73.120623
 70
0
 42
0.014820
  0
VERTEX
  8
0
 10
91.689273
 20
73.062457
 70
0
  0
SEQEND
  0
POLYLINE
  8
0
  6
CONTINUOUS
 62
1
 66
1
 70
2
  0
VERTEX
  8
0
 10
92.389329
 20
73.062457
 70
0
 42
0.014820
  0
VERTEX
  8
0
 10
92.449301
 20
73.120623
 70
0
  0
SEQEND
  0
POLYLINE
  8
0
  6
CONTINUOUS
 62
1
 66
1
 70
2
  0
VERTEX
  8
0
 10
80.117313
 20
73.088932
 70
0
 42
0.002369
  0
VERTEX
  8
0
 10
80.149301
 20
73.120623
 70
0
  0
SEQEND
  0
POLYLINE
  8
0
  6
CONTINUOUS
 62
1
 66
1
 70
2
  0
VERTEX
  8
0
 10
90.809301
 20
73.120623
 70
0
 42
0.014820
  0
VERTEX
  8
0
 10
90.869273
 20
73.062457
 70
0
  0
SEQEND
  0
POLYLINE
  8
0
  6
CONTINUOUS
 62
1
 66
1
 70
2
  0
VERTEX
  8
0
 10
91.569329
 20
73.062457
 70
0
 42
0.014820
  0
VERTEX
  8
0
 10
91.629301
 20
73.120623
 70
0
  0
SEQEND
  0
POLYLINE
  8
0
  6
CONTINUOUS
 62
1
 66
1
 70
2
  0
VERTEX
  8
0
 10
89.989301
 20
73.120623
 70
0
 42
0.014820
  0
VERTEX
  8
0
 10
90.049273
 20
73.062457
 70
0
  0
SEQEND
  0
POLYLINE
  8
0
  6
CONTINUOUS
 62
1
 66
1
 70
2
  0
VERTEX
  8
0
 10
90.749329
 20
73.062457
 70
0
 42
0.014820
  0
VERTEX
  8
0
 10
90.809301
 20
73.120623
 70
0
  0
SEQEND
  0
POLYLINE
  8
0
  6
CONTINUOUS
 62
1
 66
1
 70
2
  0
VERTEX
  8
0
 10
89.169301
 20
73.120623
 70
0
 42
0.014820
  0
VERTEX
  8
0
 10
89.229273
 20
73.062457
 70
0
  0
SEQEND
  0
POLYLINE
  8
0
  6
CONTINUOUS
 62
1
 66
1
 70
2
  0
VERTEX
  8
0
 10
89.929329
 20
73.062457
 70
0
 42
0.014820
  0
VERTEX
  8
0
 10
89.989301
 20
73.120623
 70
0
  0
SEQEND
  0
POLYLINE
  8
0
  6
CONTINUOUS
 62
1
 66
1
 70
2
  0
VERTEX
  8
0
 10
87.529301
 20
73.120623
 70
0
 42
0.014820
  0
VERTEX
  8
0
 10
87.589273
 20
73.062457
 70
0
  0
SEQEND
  0
POLYLINE
  8
0
  6
CONTINUOUS
 62
1
 66
1
 70
2
  0
VERTEX
  8
0
 10
88.289329
 20
73.062457
 70
0
 42
0.014820
  0
VERTEX
  8
0
 10
88.349301
 20
73.120623
 70
0
  0
SEQEND
  0
POLYLINE
  8
0
  6
CONTINUOUS
 62
1
 66
1
 70
2
  0
VERTEX
  8
0
 10
88.349301
 20
73.120623
 70
0
 42
0.014820
  0
VERTEX
  8
0
 10
88.409273
 20
73.062457
 70
0
  0
SEQEND
  0
POLYLINE
  8
0
  6
CONTINUOUS
 62
1
 66
1
 70
2
  0
VERTEX
  8
0
 10
89.109329
 20
73.062457
 70
0
 42
0.014820
  0
VERTEX
  8
0
 10
89.169301
 20
73.120623
 70
0
  0
SEQEND
  0
POLYLINE
  8
0
  6
CONTINUOUS
 62
1
 66
1
 70
2
  0
VERTEX
  8
0
 10
86.709301
 20
73.120623
 70
0
 42
0.014820
  0
VERTEX
  8
0
 10
86.769273
 20
73.062457
 70
0
  0
SEQEND
  0
POLYLINE
  8
0
  6
CONTINUOUS
 62
1
 66
1
 70
2
  0
VERTEX
  8
0
 10
87.469329
 20
73.062457
 70
0
 42
0.014820
  0
VERTEX
  8
0
 10
87.529301
 20
73.120623
 70
0
  0
SEQEND
  0
POLYLINE
  8
0
  6
CONTINUOUS
 62
1
 66
1
 70
2
  0
VERTEX
  8
0
 10
85.889301
 20
73.120623
 70
0
 42
0.014820
  0
VERTEX
  8
0
 10
85.949273
 20
73.062457
 70
0
  0
SEQEND
  0
POLYLINE
  8
0
  6
CONTINUOUS
 62
1
 66
1
 70
2
  0
VERTEX
  8
0
 10
86.649329
 20
73.062457
 70
0
 42
0.014820
  0
VERTEX
  8
0
 10
86.709301
 20
73.120623
 70
0
  0
SEQEND
  0
POLYLINE
  8
0
  6
CONTINUOUS
 62
1
 66
1
 70
2
  0
VERTEX
  8
0
 10
85.069301
 20
73.120623
 70
0
 42
0.014820
  0
VERTEX
  8
0
 10
85.129273
 20
73.062457
 70
0
  0
SEQEND
  0
POLYLINE
  8
0
  6
CONTINUOUS
 62
1
 66
1
 70
2
  0
VERTEX
  8
0
 10
85.829329
 20
73.062457
 70
0
 42
0.014820
  0
VERTEX
  8
0
 10
85.889301
 20
73.120623
 70
0
  0
SEQEND
  0
POLYLINE
  8
0
  6
CONTINUOUS
 62
1
 66
1
 70
2
  0
VERTEX
  8
0
 10
84.249301
 20
73.120623
 70
0
 42
0.014820
  0
VERTEX
  8
0
 10
84.309273
 20
73.062457
 70
0
  0
SEQEND
  0
POLYLINE
  8
0
  6
CONTINUOUS
 62
1
 66
1
 70
2
  0
VERTEX
  8
0
 10
85.009329
 20
73.062457
 70
0
 42
0.014820
  0
VERTEX
  8
0
 10
85.069301
 20
73.120623
 70
0
  0
SEQEND
  0
POLYLINE
  8
0
  6
CONTINUOUS
 62
1
 66
1
 70
2
  0
VERTEX
  8
0
 10
82.609301
 20
73.120623
 70
0
 42
0.014820
  0
VERTEX
  8
0
 10
82.669273
 20
73.062457
 70
0
  0
SEQEND
  0
POLYLINE
  8
0
  6
CONTINUOUS
 62
1
 66
1
 70
2
  0
VERTEX
  8
0
 10
83.369329
 20
73.062457
 70
0
 42
0.014820
  0
VERTEX
  8
0
 10
83.429301
 20
73.120623
 70
0
  0
SEQEND
  0
POLYLINE
  8
0
  6
CONTINUOUS
 62
1
 66
1
 70
2
  0
VERTEX
  8
0
 10
83.429301
 20
73.120623
 70
0
 42
0.014820
  0
VERTEX
  8
0
 10
83.489273
 20
73.062457
 70
0
  0
SEQEND
  0
POLYLINE
  8
0
  6
CONTINUOUS
 62
1
 66
1
 70
2
  0
VERTEX
  8
0
 10
84.189329
 20
73.062457
 70
0
 42
0.014820
  0
VERTEX
  8
0
 10
84.249301
 20
73.120623
 70
0
  0
SEQEND
  0
POLYLINE
  8
0
  6
CONTINUOUS
 62
1
 66
1
 70
2
  0
VERTEX
  8
0
 10
81.789301
 20
73.120623
 70
0
 42
0.014820
  0
VERTEX
  8
0
 10
81.849273
 20
73.062457
 70
0
  0
SEQEND
  0
POLYLINE
  8
0
  6
CONTINUOUS
 62
1
 66
1
 70
2
  0
VERTEX
  8
0
 10
82.549329
 20
73.062457
 70
0
 42
0.014820
  0
VERTEX
  8
0
 10
82.609301
 20
73.120623
 70
0
  0
SEQEND
  0
POLYLINE
  8
0
  6
CONTINUOUS
 62
1
 66
1
 70
2
  0
VERTEX
  8
0
 10
80.969301
 20
73.120623
 70
0
 42
0.014820
  0
VERTEX
  8
0
 10
81.029273
 20
73.062457
 70
0
  0
SEQEND
  0
POLYLINE
  8
0
  6
CONTINUOUS
 62
1
 66
1
 70
2
  0
VERTEX
  8
0
 10
81.729329
 20
73.062457
 70
0
 42
0.014820
  0
VERTEX
  8
0
 10
81.789301
 20
73.120623
 70
0
  0
SEQEND
  0
POLYLINE
  8
0
  6
CONTINUOUS
 62
1
 66
1
 70
2
  0
VERTEX
  8
0
 10
80.149301
 20
73.120623
 70
0
 42
0.014820
  0
VERTEX
  8
0
 10
80.209273
 20
73.062457
 70
0
  0
SEQEND
  0
POLYLINE
  8
0
  6
CONTINUOUS
 62
1
 66
1
 70
2
  0
VERTEX
  8
0
 10
80.909329
 20
73.062457
 70
0
 42
0.014820
  0
VERTEX
  8
0
 10
80.969301
 20
73.120623
 70
0
  0
SEQEND
  0
POLYLINE
  8
0
  6
CONTINUOUS
 62
1
 66
1
 70
2
  0
VERTEX
  8
0
 10
94.932157
 20
72.323990
 70
0
 42
0.017760
  0
VERTEX
  8
0
 10
94.969301
 20
72.362812
 70
0
  0
SEQEND
  0
POLYLINE
  8
0
  6
CONTINUOUS
 62
1
 66
1
 70
2
  0
VERTEX
  8
0
 10
94.849301
 20
72.362812
 70
0
 42
0.017760
  0
VERTEX
  8
0
 10
94.886445
 20
72.323990
 70
0
  0
SEQEND
  0
POLYLINE
  8
0
  6
CONTINUOUS
 62
1
 66
1
 70
2
  0
VERTEX
  8
0
 10
94.112157
 20
72.323990
 70
0
 42
0.017760
  0
VERTEX
  8
0
 10
94.149301
 20
72.362812
 70
0
  0
SEQEND
  0
POLYLINE
  8
0
  6
CONTINUOUS
 62
1
 66
1
 70
2
  0
VERTEX
  8
0
 10
94.029301
 20
72.362812
 70
0
 42
0.017760
  0
VERTEX
  8
0
 10
94.066445
 20
72.323990
 70
0
  0
SEQEND
  0
POLYLINE
  8
0
  6
CONTINUOUS
 62
1
 66
1
 70
2
  0
VERTEX
  8
0
 10
93.292157
 20
72.323990
 70
0
 42
0.017760
  0
VERTEX
  8
0
 10
93.329301
 20
72.362812
 70
0
  0
SEQEND
  0
POLYLINE
  8
0
  6
CONTINUOUS
 62
1
 66
1
 70
2
  0
VERTEX
  8
0
 10
93.209301
 20
72.362812
 70
0
 42
0.017760
  0
VERTEX
  8
0
 10
93.246445
 20
72.323990
 70
0
  0
SEQEND
  0
POLYLINE
  8
0
  6
CONTINUOUS
 62
1
 66
1
 70
2
  0
VERTEX
  8
0
 10
91.652157
 20
72.323990
 70
0
 42
0.017760
  0
VERTEX
  8
0
 10
91.689301
 20
72.362812
 70
0
  0
SEQEND
  0
POLYLINE
  8
0
  6
CONTINUOUS
 62
1
 66
1
 70
2
  0
VERTEX
  8
0
 10
91.569301
 20
72.362812
 70
0
 42
0.017760
  0
VERTEX
  8
0
 10
91.606445
 20
72.323990
 70
0
  0
SEQEND
  0
POLYLINE
  8
0
  6
CONTINUOUS
 62
1
 66
1
 70
2
  0
VERTEX
  8
0
 10
92.472157
 20
72.323990
 70
0
 42
0.017760
  0
VERTEX
  8
0
 10
92.509301
 20
72.362812
 70
0
  0
SEQEND
  0
POLYLINE
  8
0
  6
CONTINUOUS
 62
1
 66
1
 70
2
  0
VERTEX
  8
0
 10
92.389301
 20
72.362812
 70
0
 42
0.017760
  0
VERTEX
  8
0
 10
92.426445
 20
72.323990
 70
0
  0
SEQEND
  0
POLYLINE
  8
0
  6
CONTINUOUS
 62
1
 66
1
 70
2
  0
VERTEX
  8
0
 10
90.832157
 20
72.323990
 70
0
 42
0.017760
  0
VERTEX
  8
0
 10
90.869301
 20
72.362812
 70
0
  0
SEQEND
  0
POLYLINE
  8
0
  6
CONTINUOUS
 62
1
 66
1
 70
2
  0
VERTEX
  8
0
 10
90.749301
 20
72.362812
 70
0
 42
0.017760
  0
VERTEX
  8
0
 10
90.786445
 20
72.323990
 70
0
  0
SEQEND
  0
POLYLINE
  8
0
  6
CONTINUOUS
 62
1
 66
1
 70
2
  0
VERTEX
  8
0
 10
90.012157
 20
72.323990
 70
0
 42
0.017760
  0
VERTEX
  8
0
 10
90.049301
 20
72.362812
 70
0
  0
SEQEND
  0
POLYLINE
  8
0
  6
CONTINUOUS
 62
1
 66
1
 70
2
  0
VERTEX
  8
0
 10
89.929301
 20
72.362812
 70
0
 42
0.017760
  0
VERTEX
  8
0
 10
89.966445
 20
72.323990
 70
0
  0
SEQEND
  0
POLYLINE
  8
0
  6
CONTINUOUS
 62
1
 66
1
 70
2
  0
VERTEX
  8
0
 10
89.192157
 20
72.323990
 70
0
 42
0.017760
  0
VERTEX
  8
0
 10
89.229301
 20
72.362812
 70
0
  0
SEQEND
  0
POLYLINE
  8
0
  6
CONTINUOUS
 62
1
 66
1
 70
2
  0
VERTEX
  8
0
 10
89.109301
 20
72.362812
 70
0
 42
0.017760
  0
VERTEX
  8
0
 10
89.146445
 20
72.323990
 70
0
  0
SEQEND
  0
POLYLINE
  8
0
  6
CONTINUOUS
 62
1
 66
1
 70
2
  0
VERTEX
  8
0
 10
88.372157
 20
72.323990
 70
0
 42
0.017760
  0
VERTEX
  8
0
 10
88.409301
 20
72.362812
 70
0
  0
SEQEND
  0
POLYLINE
  8
0
  6
CONTINUOUS
 62
1
 66
1
 70
2
  0
VERTEX
  8
0
 10
88.289301
 20
72.362812
 70
0
 42
0.017760
  0
VERTEX
  8
0
 10
88.326445
 20
72.323990
 70
0
  0
SEQEND
  0
POLYLINE
  8
0
  6
CONTINUOUS
 62
1
 66
1
 70
2
  0
VERTEX
  8
0
 10
87.552157
 20
72.323990
 70
0
 42
0.017760
  0
VERTEX
  8
0
 10
87.589301
 20
72.362812
 70
0
  0
SEQEND
  0
POLYLINE
  8
0
  6
CONTINUOUS
 62
1
 66
1
 70
2
  0
VERTEX
  8
0
 10
87.469301
 20
72.362812
 70
0
 42
0.017760
  0
VERTEX
  8
0
 10
87.506445
 20
72.323990
 70
0
  0
SEQEND
  0
POLYLINE
  8
0
  6
CONTINUOUS
 62
1
 66
1
 70
2
  0
VERTEX
  8
0
 10
86.732157
 20
72.323990
 70
0
 42
0.017760
  0
VERTEX
  8
0
 10
86.769301
 20
72.362812
 70
0
  0
SEQEND
  0
POLYLINE
  8
0
  6
CONTINUOUS
 62
1
 66
1
 70
2
  0
VERTEX
  8
0
 10
86.649301
 20
72.362812
 70
0
 42
0.017760
  0
VERTEX
  8
0
 10
86.686445
 20
72.323990
 70
0
  0
SEQEND
  0
POLYLINE
  8
0
  6
CONTINUOUS
 62
1
 66
1
 70
2
  0
VERTEX
  8
0
 10
85.912157
 20
72.323990
 70
0
 42
0.017760
  0
VERTEX
  8
0
 10
85.949301
 20
72.362812
 70
0
  0
SEQEND
  0
POLYLINE
  8
0
  6
CONTINUOUS
 62
1
 66
1
 70
2
  0
VERTEX
  8
0
 10
85.829301
 20
72.362812
 70
0
 42
0.017760
  0
VERTEX
  8
0
 10
85.866445
 20
72.323990
 70
0
  0
SEQEND
  0
POLYLINE
  8
0
  6
CONTINUOUS
 62
1
 66
1
 70
2
  0
VERTEX
  8
0
 10
85.092157
 20
72.323990
 70
0
 42
0.017760
  0
VERTEX
  8
0
 10
85.129301
 20
72.362812
 70
0
  0
SEQEND
  0
POLYLINE
  8
0
  6
CONTINUOUS
 62
1
 66
1
 70
2
  0
VERTEX
  8
0
 10
85.009301
 20
72.362812
 70
0
 42
0.017760
  0
VERTEX
  8
0
 10
85.046445
 20
72.323990
 70
0
  0
SEQEND
  0
POLYLINE
  8
0
  6
CONTINUOUS
 62
1
 66
1
 70
2
  0
VERTEX
  8
0
 10
84.272157
 20
72.323990
 70
0
 42
0.017760
  0
VERTEX
  8
0
 10
84.309301
 20
72.362812
 70
0
  0
SEQEND
  0
POLYLINE
  8
0
  6
CONTINUOUS
 62
1
 66
1
 70
2
  0
VERTEX
  8
0
 10
84.189301
 20
72.362812
 70
0
 42
0.017760
  0
VERTEX
  8
0
 10
84.226445
 20
72.323990
 70
0
  0
SEQEND
  0
POLYLINE
  8
0
  6
CONTINUOUS
 62
1
 66
1
 70
2
  0
VERTEX
  8
0
 10
83.452157
 20
72.323990
 70
0
 42
0.017760
  0
VERTEX
  8
0
 10
83.489301
 20
72.362812
 70
0
  0
SEQEND
  0
POLYLINE
  8
0
  6
CONTINUOUS
 62
1
 66
1
 70
2
  0
VERTEX
  8
0
 10
83.369301
 20
72.362812
 70
0
 42
0.017760
  0
VERTEX
  8
0
 10
83.406445
 20
72.323990
 70
0
  0
SEQEND
  0
POLYLINE
  8
0
  6
CONTINUOUS
 62
1
 66
1
 70
2
  0
VERTEX
  8
0
 10
82.632157
 20
72.323990
 70
0
 42
0.017760
  0
VERTEX
  8
0
 10
82.669301
 20
72.362812
 70
0
  0
SEQEND
  0
POLYLINE
  8
0
  6
CONTINUOUS
 62
1
 66
1
 70
2
  0
VERTEX
  8
0
 10
82.549301
 20
72.362812
 70
0
 42
0.017760
  0
VERTEX
  8
0
 10
82.586445
 20
72.323990
 70
0
  0
SEQEND
  0
POLYLINE
  8
0
  6
CONTINUOUS
 62
1
 66
1
 70
2
  0
VERTEX
  8
0
 10
81.822117
 20
72.334105
 70
0
 42
0.020275
  0
VERTEX
  8
0
 10
81.849301
 20
72.362812
 70
0
  0
SEQEND
  0
POLYLINE
  8
0
  6
CONTINUOUS
 62
1
 66
1
 70
2
  0
VERTEX
  8
0
 10
81.729301
 20
72.362812
 70
0
 42
0.014647
  0
VERTEX
  8
0
 10
81.789301
 20
72.301006
 70
0
  0
SEQEND
  0
POLYLINE
  8
0
  6
CONTINUOUS
 62
1
 66
1
 70
2
  0
VERTEX
  8
0
 10
71.965008
 20
73.964679
 70
0
 42
0.001661
  0
VERTEX
  8
0
 10
71.989301
 20
73.940240
 70
0
  0
SEQEND
  0
POLYLINE
  8
0
  6
CONTINUOUS
 62
1
 66
1
 70
2
  0
VERTEX
  8
0
 10
71.989301
 20
73.940240
 70
0
 42
0.001661
  0
VERTEX
  8
0
 10
72.013595
 20
73.964679
 70
0
  0
SEQEND
  0
POLYLINE
  8
0
  6
CONTINUOUS
 62
1
 66
1
 70
2
  0
VERTEX
  8
0
 10
71.145008
 20
73.964679
 70
0
 42
0.001661
  0
VERTEX
  8
0
 10
71.169301
 20
73.940240
 70
0
  0
SEQEND
  0
POLYLINE
  8
0
  6
CONTINUOUS
 62
1
 66
1
 70
2
  0
VERTEX
  8
0
 10
71.169301
 20
73.940240
 70
0
 42
0.001661
  0
VERTEX
  8
0
 10
71.193595
 20
73.964679
 70
0
  0
SEQEND
  0
POLYLINE
  8
0
  6
CONTINUOUS
 62
1
 66
1
 70
2
  0
VERTEX
  8
0
 10
69.505008
 20
73.964679
 70
0
 42
0.001661
  0
VERTEX
  8
0
 10
69.529301
 20
73.940240
 70
0
  0
SEQEND
  0
POLYLINE
  8
0
  6
CONTINUOUS
 62
1
 66
1
 70
2
  0
VERTEX
  8
0
 10
69.529301
 20
73.940240
 70
0
 42
0.001661
  0
VERTEX
  8
0
 10
69.553595
 20
73.964679
 70
0
  0
SEQEND
  0
POLYLINE
  8
0
  6
CONTINUOUS
 62
1
 66
1
 70
2
  0
VERTEX
  8
0
 10
70.325008
 20
73.964679
 70
0
 42
0.001661
  0
VERTEX
  8
0
 10
70.349301
 20
73.940240
 70
0
  0
SEQEND
  0
POLYLINE
  8
0
  6
CONTINUOUS
 62
1
 66
1
 70
2
  0
VERTEX
  8
0
 10
70.349301
 20
73.940240
 70
0
 42
0.001661
  0
VERTEX
  8
0
 10
70.373595
 20
73.964679
 70
0
  0
SEQEND
  0
POLYLINE
  8
0
  6
CONTINUOUS
 62
1
 66
1
 70
2
  0
VERTEX
  8
0
 10
68.685008
 20
73.964679
 70
0
 42
0.001661
  0
VERTEX
  8
0
 10
68.709301
 20
73.940240
 70
0
  0
SEQEND
  0
POLYLINE
  8
0
  6
CONTINUOUS
 62
1
 66
1
 70
2
  0
VERTEX
  8
0
 10
68.709301
 20
73.940240
 70
0
 42
0.001661
  0
VERTEX
  8
0
 10
68.733595
 20
73.964679
 70
0
  0
SEQEND
  0
POLYLINE
  8
0
  6
CONTINUOUS
 62
1
 66
1
 70
2
  0
VERTEX
  8
0
 10
67.865008
 20
73.964679
 70
0
 42
0.001661
  0
VERTEX
  8
0
 10
67.889301
 20
73.940240
 70
0
  0
SEQEND
  0
POLYLINE
  8
0
  6
CONTINUOUS
 62
1
 66
1
 70
2
  0
VERTEX
  8
0
 10
67.889301
 20
73.940240
 70
0
 42
0.001661
  0
VERTEX
  8
0
 10
67.913595
 20
73.964679
 70
0
  0
SEQEND
  0
POLYLINE
  8
0
  6
CONTINUOUS
 62
1
 66
1
 70
2
  0
VERTEX
  8
0
 10
67.045008
 20
73.964679
 70
0
 42
0.001661
  0
VERTEX
  8
0
 10
67.069301
 20
73.940240
 70
0
  0
SEQEND
  0
POLYLINE
  8
0
  6
CONTINUOUS
 62
1
 66
1
 70
2
  0
VERTEX
  8
0
 10
67.069301
 20
73.940240
 70
0
 42
0.001661
  0
VERTEX
  8
0
 10
67.093595
 20
73.964679
 70
0
  0
SEQEND
  0
POLYLINE
  8
0
  6
CONTINUOUS
 62
1
 66
1
 70
2
  0
VERTEX
  8
0
 10
65.405008
 20
73.964679
 70
0
 42
0.001661
  0
VERTEX
  8
0
 10
65.429301
 20
73.940240
 70
0
  0
SEQEND
  0
POLYLINE
  8
0
  6
CONTINUOUS
 62
1
 66
1
 70
2
  0
VERTEX
  8
0
 10
65.429301
 20
73.940240
 70
0
 42
0.001661
  0
VERTEX
  8
0
 10
65.453595
 20
73.964679
 70
0
  0
SEQEND
  0
POLYLINE
  8
0
  6
CONTINUOUS
 62
1
 66
1
 70
2
  0
VERTEX
  8
0
 10
66.225008
 20
73.964679
 70
0
 42
0.001661
  0
VERTEX
  8
0
 10
66.249301
 20
73.940240
 70
0
  0
SEQEND
  0
POLYLINE
  8
0
  6
CONTINUOUS
 62
1
 66
1
 70
2
  0
VERTEX
  8
0
 10
66.249301
 20
73.940240
 70
0
 42
0.001661
  0
VERTEX
  8
0
 10
66.273595
 20
73.964679
 70
0
  0
SEQEND
  0
POLYLINE
  8
0
  6
CONTINUOUS
 62
1
 66
1
 70
2
  0
VERTEX
  8
0
 10
64.585008
 20
73.964679
 70
0
 42
0.001661
  0
VERTEX
  8
0
 10
64.609301
 20
73.940240
 70
0
  0
SEQEND
  0
POLYLINE
  8
0
  6
CONTINUOUS
 62
1
 66
1
 70
2
  0
VERTEX
  8
0
 10
64.609301
 20
73.940240
 70
0
 42
0.001661
  0
VERTEX
  8
0
 10
64.633595
 20
73.964679
 70
0
  0
SEQEND
  0
POLYLINE
  8
0
  6
CONTINUOUS
 62
1
 66
1
 70
2
  0
VERTEX
  8
0
 10
63.765008
 20
73.964679
 70
0
 42
0.001661
  0
VERTEX
  8
0
 10
63.789301
 20
73.940240
 70
0
  0
SEQEND
  0
POLYLINE
  8
0
  6
CONTINUOUS
 62
1
 66
1
 70
2
  0
VERTEX
  8
0
 10
63.789301
 20
73.940240
 70
0
 42
0.001661
  0
VERTEX
  8
0
 10
63.813595
 20
73.964679
 70
0
  0
SEQEND
  0
POLYLINE
  8
0
  6
CONTINUOUS
 62
1
 66
1
 70
2
  0
VERTEX
  8
0
 10
62.945008
 20
73.964679
 70
0
 42
0.001661
  0
VERTEX
  8
0
 10
62.969301
 20
73.940240
 70
0
  0
SEQEND
  0
POLYLINE
  8
0
  6
CONTINUOUS
 62
1
 66
1
 70
2
  0
VERTEX
  8
0
 10
62.969301
 20
73.940240
 70
0
 42
0.001661
  0
VERTEX
  8
0
 10
62.993595
 20
73.964679
 70
0
  0
SEQEND
  0
POLYLINE
  8
0
  6
CONTINUOUS
 62
1
 66
1
 70
2
  0
VERTEX
  8
0
 10
61.305008
 20
73.964679
 70
0
 42
0.001661
  0
VERTEX
  8
0
 10
61.329301
 20
73.940240
 70
0
  0
SEQEND
  0
POLYLINE
  8
0
  6
CONTINUOUS
 62
1
 66
1
 70
2
  0
VERTEX
  8
0
 10
61.329301
 20
73.940240
 70
0
 42
0.001661
  0
VERTEX
  8
0
 10
61.353595
 20
73.964679
 70
0
  0
SEQEND
  0
POLYLINE
  8
0
  6
CONTINUOUS
 62
1
 66
1
 70
2
  0
VERTEX
  8
0
 10
62.125008
 20
73.964679
 70
0
 42
0.001661
  0
VERTEX
  8
0
 10
62.149301
 20
73.940240
 70
0
  0
SEQEND
  0
POLYLINE
  8
0
  6
CONTINUOUS
 62
1
 66
1
 70
2
  0
VERTEX
  8
0
 10
62.149301
 20
73.940240
 70
0
 42
0.001661
  0
VERTEX
  8
0
 10
62.173595
 20
73.964679
 70
0
  0
SEQEND
  0
POLYLINE
  8
0
  6
CONTINUOUS
 62
1
 66
1
 70
2
  0
VERTEX
  8
0
 10
60.485008
 20
73.964679
 70
0
 42
0.001661
  0
VERTEX
  8
0
 10
60.509301
 20
73.940240
 70
0
  0
SEQEND
  0
POLYLINE
  8
0
  6
CONTINUOUS
 62
1
 66
1
 70
2
  0
VERTEX
  8
0
 10
60.509301
 20
73.940240
 70
0
 42
0.001661
  0
VERTEX
  8
0
 10
60.533595
 20
73.964679
 70
0
  0
SEQEND
  0
POLYLINE
  8
0
  6
CONTINUOUS
 62
1
 66
1
 70
2
  0
VERTEX
  8
0
 10
59.665008
 20
73.964679
 70
0
 42
0.001661
  0
VERTEX
  8
0
 10
59.689301
 20
73.940240
 70
0
  0
SEQEND
  0
POLYLINE
  8
0
  6
CONTINUOUS
 62
1
 66
1
 70
2
  0
VERTEX
  8
0
 10
59.689301
 20
73.940240
 70
0
 42
0.001661
  0
VERTEX
  8
0
 10
59.713595
 20
73.964679
 70
0
  0
SEQEND
  0
POLYLINE
  8
0
  6
CONTINUOUS
 62
1
 66
1
 70
2
  0
VERTEX
  8
0
 10
58.845008
 20
73.964679
 70
0
 42
0.001661
  0
VERTEX
  8
0
 10
58.869301
 20
73.940240
 70
0
  0
SEQEND
  0
POLYLINE
  8
0
  6
CONTINUOUS
 62
1
 66
1
 70
2
  0
VERTEX
  8
0
 10
58.869301
 20
73.940240
 70
0
 42
0.001661
  0
VERTEX
  8
0
 10
58.893595
 20
73.964679
 70
0
  0
SEQEND
  0
POLYLINE
  8
0
  6
CONTINUOUS
 62
1
 66
1
 70
2
  0
VERTEX
  8
0
 10
58.025008
 20
73.964679
 70
0
 42
0.001661
  0
VERTEX
  8
0
 10
58.049301
 20
73.940240
 70
0
  0
SEQEND
  0
POLYLINE
  8
0
  6
CONTINUOUS
 62
1
 66
1
 70
2
  0
VERTEX
  8
0
 10
58.049301
 20
73.940240
 70
0
 42
0.001661
  0
VERTEX
  8
0
 10
58.073595
 20
73.964679
 70
0
  0
SEQEND
  0
POLYLINE
  8
0
  6
CONTINUOUS
 62
1
 66
1
 70
2
  0
VERTEX
  8
0
 10
57.205008
 20
73.964679
 70
0
 42
0.001661
  0
VERTEX
  8
0
 10
57.229301
 20
73.940240
 70
0
  0
SEQEND
  0
POLYLINE
  8
0
  6
CONTINUOUS
 62
1
 66
1
 70
2
  0
VERTEX
  8
0
 10
57.229301
 20
73.940240
 70
0
 42
0.001661
  0
VERTEX
  8
0
 10
57.253595
 20
73.964679
 70
0
  0
SEQEND
  0
POLYLINE
  8
0
  6
CONTINUOUS
 62
1
 66
1
 70
2
  0
VERTEX
  8
0
 10
71.989301
 20
73.940240
 70
0
 42
0.014820
  0
VERTEX
  8
0
 10
72.049273
 20
73.882074
 70
0
  0
SEQEND
  0
POLYLINE
  8
0
  6
CONTINUOUS
 62
1
 66
1
 70
2
  0
VERTEX
  8
0
 10
71.169301
 20
73.940240
 70
0
 42
0.014820
  0
VERTEX
  8
0
 10
71.229273
 20
73.882074
 70
0
  0
SEQEND
  0
POLYLINE
  8
0
  6
CONTINUOUS
 62
1
 66
1
 70
2
  0
VERTEX
  8
0
 10
71.929329
 20
73.882074
 70
0
 42
0.014820
  0
VERTEX
  8
0
 10
71.989301
 20
73.940240
 70
0
  0
SEQEND
  0
POLYLINE
  8
0
  6
CONTINUOUS
 62
1
 66
1
 70
2
  0
VERTEX
  8
0
 10
70.349301
 20
73.940240
 70
0
 42
0.014820
  0
VERTEX
  8
0
 10
70.409273
 20
73.882074
 70
0
  0
SEQEND
  0
POLYLINE
  8
0
  6
CONTINUOUS
 62
1
 66
1
 70
2
  0
VERTEX
  8
0
 10
71.109329
 20
73.882074
 70
0
 42
0.014820
  0
VERTEX
  8
0
 10
71.169301
 20
73.940240
 70
0
  0
SEQEND
  0
POLYLINE
  8
0
  6
CONTINUOUS
 62
1
 66
1
 70
2
  0
VERTEX
  8
0
 10
69.529301
 20
73.940240
 70
0
 42
0.014820
  0
VERTEX
  8
0
 10
69.589273
 20
73.882074
 70
0
  0
SEQEND
  0
POLYLINE
  8
0
  6
CONTINUOUS
 62
1
 66
1
 70
2
  0
VERTEX
  8
0
 10
70.289329
 20
73.882074
 70
0
 42
0.014820
  0
VERTEX
  8
0
 10
70.349301
 20
73.940240
 70
0
  0
SEQEND
  0
POLYLINE
  8
0
  6
CONTINUOUS
 62
1
 66
1
 70
2
  0
VERTEX
  8
0
 10
68.709301
 20
73.940240
 70
0
 42
0.014820
  0
VERTEX
  8
0
 10
68.769273
 20
73.882074
 70
0
  0
SEQEND
  0
POLYLINE
  8
0
  6
CONTINUOUS
 62
1
 66
1
 70
2
  0
VERTEX
  8
0
 10
69.469329
 20
73.882074
 70
0
 42
0.014820
  0
VERTEX
  8
0
 10
69.529301
 20
73.940240
 70
0
  0
SEQEND
  0
POLYLINE
  8
0
  6
CONTINUOUS
 62
1
 66
1
 70
2
  0
VERTEX
  8
0
 10
67.889301
 20
73.940240
 70
0
 42
0.014820
  0
VERTEX
  8
0
 10
67.949273
 20
73.882074
 70
0
  0
SEQEND
  0
POLYLINE
  8
0
  6
CONTINUOUS
 62
1
 66
1
 70
2
  0
VERTEX
  8
0
 10
68.649329
 20
73.882074
 70
0
 42
0.014820
  0
VERTEX
  8
0
 10
68.709301
 20
73.940240
 70
0
  0
SEQEND
  0
POLYLINE
  8
0
  6
CONTINUOUS
 62
1
 66
1
 70
2
  0
VERTEX
  8
0
 10
67.069301
 20
73.940240
 70
0
 42
0.014820
  0
VERTEX
  8
0
 10
67.129273
 20
73.882074
 70
0
  0
SEQEND
  0
POLYLINE
  8
0
  6
CONTINUOUS
 62
1
 66
1
 70
2
  0
VERTEX
  8
0
 10
67.829329
 20
73.882074
 70
0
 42
0.014820
  0
VERTEX
  8
0
 10
67.889301
 20
73.940240
 70
0
  0
SEQEND
  0
POLYLINE
  8
0
  6
CONTINUOUS
 62
1
 66
1
 70
2
  0
VERTEX
  8
0
 10
65.429301
 20
73.940240
 70
0
 42
0.014820
  0
VERTEX
  8
0
 10
65.489273
 20
73.882074
 70
0
  0
SEQEND
  0
POLYLINE
  8
0
  6
CONTINUOUS
 62
1
 66
1
 70
2
  0
VERTEX
  8
0
 10
66.189329
 20
73.882074
 70
0
 42
0.014820
  0
VERTEX
  8
0
 10
66.249301
 20
73.940240
 70
0
  0
SEQEND
  0
POLYLINE
  8
0
  6
CONTINUOUS
 62
1
 66
1
 70
2
  0
VERTEX
  8
0
 10
66.249301
 20
73.940240
 70
0
 42
0.014820
  0
VERTEX
  8
0
 10
66.309273
 20
73.882074
 70
0
  0
SEQEND
  0
POLYLINE
  8
0
  6
CONTINUOUS
 62
1
 66
1
 70
2
  0
VERTEX
  8
0
 10
67.009329
 20
73.882074
 70
0
 42
0.014820
  0
VERTEX
  8
0
 10
67.069301
 20
73.940240
 70
0
  0
SEQEND
  0
POLYLINE
  8
0
  6
CONTINUOUS
 62
1
 66
1
 70
2
  0
VERTEX
  8
0
 10
64.609301
 20
73.940240
 70
0
 42
0.014820
  0
VERTEX
  8
0
 10
64.669273
 20
73.882074
 70
0
  0
SEQEND
  0
POLYLINE
  8
0
  6
CONTINUOUS
 62
1
 66
1
 70
2
  0
VERTEX
  8
0
 10
65.369329
 20
73.882074
 70
0
 42
0.014820
  0
VERTEX
  8
0
 10
65.429301
 20
73.940240
 70
0
  0
SEQEND
  0
POLYLINE
  8
0
  6
CONTINUOUS
 62
1
 66
1
 70
2
  0
VERTEX
  8
0
 10
63.789301
 20
73.940240
 70
0
 42
0.014820
  0
VERTEX
  8
0
 10
63.849273
 20
73.882074
 70
0
  0
SEQEND
  0
POLYLINE
  8
0
  6
CONTINUOUS
 62
1
 66
1
 70
2
  0
VERTEX
  8
0
 10
64.549329
 20
73.882074
 70
0
 42
0.014820
  0
VERTEX
  8
0
 10
64.609301
 20
73.940240
 70
0
  0
SEQEND
  0
POLYLINE
  8
0
  6
CONTINUOUS
 62
1
 66
1
 70
2
  0
VERTEX
  8
0
 10
62.969301
 20
73.940240
 70
0
 42
0.014820
  0
VERTEX
  8
0
 10
63.029273
 20
73.882074
 70
0
  0
SEQEND
  0
POLYLINE
  8
0
  6
CONTINUOUS
 62
1
 66
1
 70
2
  0
VERTEX
  8
0
 10
63.729329
 20
73.882074
 70
0
 42
0.014820
  0
VERTEX
  8
0
 10
63.789301
 20
73.940240
 70
0
  0
SEQEND
  0
POLYLINE
  8
0
  6
CONTINUOUS
 62
1
 66
1
 70
2
  0
VERTEX
  8
0
 10
61.329301
 20
73.940240
 70
0
 42
0.014820
  0
VERTEX
  8
0
 10
61.389273
 20
73.882074
 70
0
  0
SEQEND
  0
POLYLINE
  8
0
  6
CONTINUOUS
 62
1
 66
1
 70
2
  0
VERTEX
  8
0
 10
62.089329
 20
73.882074
 70
0
 42
0.014820
  0
VERTEX
  8
0
 10
62.149301
 20
73.940240
 70
0
  0
SEQEND
  0
POLYLINE
  8
0
  6
CONTINUOUS
 62
1
 66
1
 70
2
  0
VERTEX
  8
0
 10
62.149301
 20
73.940240
 70
0
 42
0.014820
  0
VERTEX
  8
0
 10
62.209273
 20
73.882074
 70
0
  0
SEQEND
  0
POLYLINE
  8
0
  6
CONTINUOUS
 62
1
 66
1
 70
2
  0
VERTEX
  8
0
 10
62.909329
 20
73.882074
 70
0
 42
0.014820
  0
VERTEX
  8
0
 10
62.969301
 20
73.940240
 70
0
  0
SEQEND
  0
POLYLINE
  8
0
  6
CONTINUOUS
 62
1
 66
1
 70
2
  0
VERTEX
  8
0
 10
60.509301
 20
73.940240
 70
0
 42
0.014820
  0
VERTEX
  8
0
 10
60.569273
 20
73.882074
 70
0
  0
SEQEND
  0
POLYLINE
  8
0
  6
CONTINUOUS
 62
1
 66
1
 70
2
  0
VERTEX
  8
0
 10
61.269329
 20
73.882074
 70
0
 42
0.014820
  0
VERTEX
  8
0
 10
61.329301
 20
73.940240
 70
0
  0
SEQEND
  0
POLYLINE
  8
0
  6
CONTINUOUS
 62
1
 66
1
 70
2
  0
VERTEX
  8
0
 10
59.689301
 20
73.940240
 70
0
 42
0.014820
  0
VERTEX
  8
0
 10
59.749273
 20
73.882074
 70
0
  0
SEQEND
  0
POLYLINE
  8
0
  6
CONTINUOUS
 62
1
 66
1
 70
2
  0
VERTEX
  8
0
 10
60.449329
 20
73.882074
 70
0
 42
0.014820
  0
VERTEX
  8
0
 10
60.509301
 20
73.940240
 70
0
  0
SEQEND
  0
POLYLINE
  8
0
  6
CONTINUOUS
 62
1
 66
1
 70
2
  0
VERTEX
  8
0
 10
58.869301
 20
73.940240
 70
0
 42
0.014820
  0
VERTEX
  8
0
 10
58.929273
 20
73.882074
 70
0
  0
SEQEND
  0
POLYLINE
  8
0
  6
CONTINUOUS
 62
1
 66
1
 70
2
  0
VERTEX
  8
0
 10
59.629329
 20
73.882074
 70
0
 42
0.014820
  0
VERTEX
  8
0
 10
59.689301
 20
73.940240
 70
0
  0
SEQEND
  0
POLYLINE
  8
0
  6
CONTINUOUS
 62
1
 66
1
 70
2
  0
VERTEX
  8
0
 10
58.049301
 20
73.940240
 70
0
 42
0.014820
  0
VERTEX
  8
0
 10
58.109273
 20
73.882074
 70
0
  0
SEQEND
  0
POLYLINE
  8
0
  6
CONTINUOUS
 62
1
 66
1
 70
2
  0
VERTEX
  8
0
 10
58.809329
 20
73.882074
 70
0
 42
0.014820
  0
VERTEX
  8
0
 10
58.869301
 20
73.940240
 70
0
  0
SEQEND
  0
POLYLINE
  8
0
  6
CONTINUOUS
 62
1
 66
1
 70
2
  0
VERTEX
  8
0
 10
57.229301
 20
73.940240
 70
0
 42
0.014820
  0
VERTEX
  8
0
 10
57.289273
 20
73.882074
 70
0
  0
SEQEND
  0
POLYLINE
  8
0
  6
CONTINUOUS
 62
1
 66
1
 70
2
  0
VERTEX
  8
0
 10
57.989329
 20
73.882074
 70
0
 42
0.014820
  0
VERTEX
  8
0
 10
58.049301
 20
73.940240
 70
0
  0
SEQEND
  0
POLYLINE
  8
0
  6
CONTINUOUS
 62
1
 66
1
 70
2
  0
VERTEX
  8
0
 10
57.169329
 20
73.882074
 70
0
 42
0.014820
  0
VERTEX
  8
0
 10
57.229301
 20
73.940240
 70
0
  0
SEQEND
  0
POLYLINE
  8
0
  6
CONTINUOUS
 62
1
 66
1
 70
2
  0
VERTEX
  8
0
 10
71.929301
 20
73.182429
 70
0
 42
0.014647
  0
VERTEX
  8
0
 10
71.989301
 20
73.120623
 70
0
  0
SEQEND
  0
POLYLINE
  8
0
  6
CONTINUOUS
 62
1
 66
1
 70
2
  0
VERTEX
  8
0
 10
71.989301
 20
73.120623
 70
0
 42
0.014647
  0
VERTEX
  8
0
 10
72.049301
 20
73.182429
 70
0
  0
SEQEND
  0
POLYLINE
  8
0
  6
CONTINUOUS
 62
1
 66
1
 70
2
  0
VERTEX
  8
0
 10
71.109301
 20
73.182429
 70
0
 42
0.014647
  0
VERTEX
  8
0
 10
71.169301
 20
73.120623
 70
0
  0
SEQEND
  0
POLYLINE
  8
0
  6
CONTINUOUS
 62
1
 66
1
 70
2
  0
VERTEX
  8
0
 10
71.169301
 20
73.120623
 70
0
 42
0.014647
  0
VERTEX
  8
0
 10
71.229301
 20
73.182429
 70
0
  0
SEQEND
  0
POLYLINE
  8
0
  6
CONTINUOUS
 62
1
 66
1
 70
2
  0
VERTEX
  8
0
 10
69.469301
 20
73.182429
 70
0
 42
0.014647
  0
VERTEX
  8
0
 10
69.529301
 20
73.120623
 70
0
  0
SEQEND
  0
POLYLINE
  8
0
  6
CONTINUOUS
 62
1
 66
1
 70
2
  0
VERTEX
  8
0
 10
69.529301
 20
73.120623
 70
0
 42
0.014647
  0
VERTEX
  8
0
 10
69.589301
 20
73.182429
 70
0
  0
SEQEND
  0
POLYLINE
  8
0
  6
CONTINUOUS
 62
1
 66
1
 70
2
  0
VERTEX
  8
0
 10
70.289301
 20
73.182429
 70
0
 42
0.014647
  0
VERTEX
  8
0
 10
70.349301
 20
73.120623
 70
0
  0
SEQEND
  0
POLYLINE
  8
0
  6
CONTINUOUS
 62
1
 66
1
 70
2
  0
VERTEX
  8
0
 10
70.349301
 20
73.120623
 70
0
 42
0.014647
  0
VERTEX
  8
0
 10
70.409301
 20
73.182429
 70
0
  0
SEQEND
  0
POLYLINE
  8
0
  6
CONTINUOUS
 62
1
 66
1
 70
2
  0
VERTEX
  8
0
 10
68.649301
 20
73.182429
 70
0
 42
0.014647
  0
VERTEX
  8
0
 10
68.709301
 20
73.120623
 70
0
  0
SEQEND
  0
POLYLINE
  8
0
  6
CONTINUOUS
 62
1
 66
1
 70
2
  0
VERTEX
  8
0
 10
68.709301
 20
73.120623
 70
0
 42
0.014647
  0
VERTEX
  8
0
 10
68.769301
 20
73.182429
 70
0
  0
SEQEND
  0
POLYLINE
  8
0
  6
CONTINUOUS
 62
1
 66
1
 70
2
  0
VERTEX
  8
0
 10
67.829301
 20
73.182429
 70
0
 42
0.014647
  0
VERTEX
  8
0
 10
67.889301
 20
73.120623
 70
0
  0
SEQEND
  0
POLYLINE
  8
0
  6
CONTINUOUS
 62
1
 66
1
 70
2
  0
VERTEX
  8
0
 10
67.889301
 20
73.120623
 70
0
 42
0.014647
  0
VERTEX
  8
0
 10
67.949301
 20
73.182429
 70
0
  0
SEQEND
  0
POLYLINE
  8
0
  6
CONTINUOUS
 62
1
 66
1
 70
2
  0
VERTEX
  8
0
 10
67.009301
 20
73.182429
 70
0
 42
0.014647
  0
VERTEX
  8
0
 10
67.069301
 20
73.120623
 70
0
  0
SEQEND
  0
POLYLINE
  8
0
  6
CONTINUOUS
 62
1
 66
1
 70
2
  0
VERTEX
  8
0
 10
67.069301
 20
73.120623
 70
0
 42
0.014647
  0
VERTEX
  8
0
 10
67.129301
 20
73.182429
 70
0
  0
SEQEND
  0
POLYLINE
  8
0
  6
CONTINUOUS
 62
1
 66
1
 70
2
  0
VERTEX
  8
0
 10
65.369301
 20
73.182429
 70
0
 42
0.014647
  0
VERTEX
  8
0
 10
65.429301
 20
73.120623
 70
0
  0
SEQEND
  0
POLYLINE
  8
0
  6
CONTINUOUS
 62
1
 66
1
 70
2
  0
VERTEX
  8
0
 10
65.429301
 20
73.120623
 70
0
 42
0.014647
  0
VERTEX
  8
0
 10
65.489301
 20
73.182429
 70
0
  0
SEQEND
  0
POLYLINE
  8
0
  6
CONTINUOUS
 62
1
 66
1
 70
2
  0
VERTEX
  8
0
 10
66.189301
 20
73.182429
 70
0
 42
0.014647
  0
VERTEX
  8
0
 10
66.249301
 20
73.120623
 70
0
  0
SEQEND
  0
POLYLINE
  8
0
  6
CONTINUOUS
 62
1
 66
1
 70
2
  0
VERTEX
  8
0
 10
66.249301
 20
73.120623
 70
0
 42
0.014647
  0
VERTEX
  8
0
 10
66.309301
 20
73.182429
 70
0
  0
SEQEND
  0
POLYLINE
  8
0
  6
CONTINUOUS
 62
1
 66
1
 70
2
  0
VERTEX
  8
0
 10
64.549301
 20
73.182429
 70
0
 42
0.014647
  0
VERTEX
  8
0
 10
64.609301
 20
73.120623
 70
0
  0
SEQEND
  0
POLYLINE
  8
0
  6
CONTINUOUS
 62
1
 66
1
 70
2
  0
VERTEX
  8
0
 10
64.609301
 20
73.120623
 70
0
 42
0.014647
  0
VERTEX
  8
0
 10
64.669301
 20
73.182429
 70
0
  0
SEQEND
  0
POLYLINE
  8
0
  6
CONTINUOUS
 62
1
 66
1
 70
2
  0
VERTEX
  8
0
 10
63.729301
 20
73.182429
 70
0
 42
0.014647
  0
VERTEX
  8
0
 10
63.789301
 20
73.120623
 70
0
  0
SEQEND
  0
POLYLINE
  8
0
  6
CONTINUOUS
 62
1
 66
1
 70
2
  0
VERTEX
  8
0
 10
63.789301
 20
73.120623
 70
0
 42
0.014647
  0
VERTEX
  8
0
 10
63.849301
 20
73.182429
 70
0
  0
SEQEND
  0
POLYLINE
  8
0
  6
CONTINUOUS
 62
1
 66
1
 70
2
  0
VERTEX
  8
0
 10
62.909301
 20
73.182429
 70
0
 42
0.014647
  0
VERTEX
  8
0
 10
62.969301
 20
73.120623
 70
0
  0
SEQEND
  0
POLYLINE
  8
0
  6
CONTINUOUS
 62
1
 66
1
 70
2
  0
VERTEX
  8
0
 10
62.969301
 20
73.120623
 70
0
 42
0.014647
  0
VERTEX
  8
0
 10
63.029301
 20
73.182429
 70
0
  0
SEQEND
  0
POLYLINE
  8
0
  6
CONTINUOUS
 62
1
 66
1
 70
2
  0
VERTEX
  8
0
 10
61.269301
 20
73.182429
 70
0
 42
0.014647
  0
VERTEX
  8
0
 10
61.329301
 20
73.120623
 70
0
  0
SEQEND
  0
POLYLINE
  8
0
  6
CONTINUOUS
 62
1
 66
1
 70
2
  0
VERTEX
  8
0
 10
61.329301
 20
73.120623
 70
0
 42
0.014647
  0
VERTEX
  8
0
 10
61.389301
 20
73.182429
 70
0
  0
SEQEND
  0
POLYLINE
  8
0
  6
CONTINUOUS
 62
1
 66
1
 70
2
  0
VERTEX
  8
0
 10
62.089301
 20
73.182429
 70
0
 42
0.014647
  0
VERTEX
  8
0
 10
62.149301
 20
73.120623
 70
0
  0
SEQEND
  0
POLYLINE
  8
0
  6
CONTINUOUS
 62
1
 66
1
 70
2
  0
VERTEX
  8
0
 10
62.149301
 20
73.120623
 70
0
 42
0.014647
  0
VERTEX
  8
0
 10
62.209301
 20
73.182429
 70
0
  0
SEQEND
  0
POLYLINE
  8
0
  6
CONTINUOUS
 62
1
 66
1
 70
2
  0
VERTEX
  8
0
 10
60.449301
 20
73.182429
 70
0
 42
0.014647
  0
VERTEX
  8
0
 10
60.509301
 20
73.120623
 70
0
  0
SEQEND
  0
POLYLINE
  8
0
  6
CONTINUOUS
 62
1
 66
1
 70
2
  0
VERTEX
  8
0
 10
60.509301
 20
73.120623
 70
0
 42
0.014647
  0
VERTEX
  8
0
 10
60.569301
 20
73.182429
 70
0
  0
SEQEND
  0
POLYLINE
  8
0
  6
CONTINUOUS
 62
1
 66
1
 70
2
  0
VERTEX
  8
0
 10
59.629301
 20
73.182429
 70
0
 42
0.014647
  0
VERTEX
  8
0
 10
59.689301
 20
73.120623
 70
0
  0
SEQEND
  0
POLYLINE
  8
0
  6
CONTINUOUS
 62
1
 66
1
 70
2
  0
VERTEX
  8
0
 10
59.689301
 20
73.120623
 70
0
 42
0.014647
  0
VERTEX
  8
0
 10
59.749301
 20
73.182429
 70
0
  0
SEQEND
  0
POLYLINE
  8
0
  6
CONTINUOUS
 62
1
 66
1
 70
2
  0
VERTEX
  8
0
 10
58.809301
 20
73.182429
 70
0
 42
0.014647
  0
VERTEX
  8
0
 10
58.869301
 20
73.120623
 70
0
  0
SEQEND
  0
POLYLINE
  8
0
  6
CONTINUOUS
 62
1
 66
1
 70
2
  0
VERTEX
  8
0
 10
58.869301
 20
73.120623
 70
0
 42
0.014647
  0
VERTEX
  8
0
 10
58.929301
 20
73.182429
 70
0
  0
SEQEND
  0
POLYLINE
  8
0
  6
CONTINUOUS
 62
1
 66
1
 70
2
  0
VERTEX
  8
0
 10
57.989301
 20
73.182429
 70
0
 42
0.014647
  0
VERTEX
  8
0
 10
58.049301
 20
73.120623
 70
0
  0
SEQEND
  0
POLYLINE
  8
0
  6
CONTINUOUS
 62
1
 66
1
 70
2
  0
VERTEX
  8
0
 10
58.049301
 20
73.120623
 70
0
 42
0.014647
  0
VERTEX
  8
0
 10
58.109301
 20
73.182429
 70
0
  0
SEQEND
  0
POLYLINE
  8
0
  6
CONTINUOUS
 62
1
 66
1
 70
2
  0
VERTEX
  8
0
 10
57.169301
 20
73.182429
 70
0
 42
0.014647
  0
VERTEX
  8
0
 10
57.229301
 20
73.120623
 70
0
  0
SEQEND
  0
POLYLINE
  8
0
  6
CONTINUOUS
 62
1
 66
1
 70
2
  0
VERTEX
  8
0
 10
57.229301
 20
73.120623
 70
0
 42
0.014647
  0
VERTEX
  8
0
 10
57.289301
 20
73.182429
 70
0
  0
SEQEND
  0
POLYLINE
  8
0
  6
CONTINUOUS
 62
1
 66
1
 70
2
  0
VERTEX
  8
0
 10
71.989301
 20
73.120623
 70
0
 42
0.002361
  0
VERTEX
  8
0
 10
72.021208
 20
73.089012
 70
0
  0
SEQEND
  0
POLYLINE
  8
0
  6
CONTINUOUS
 62
1
 66
1
 70
2
  0
VERTEX
  8
0
 10
71.169301
 20
73.120623
 70
0
 42
0.014820
  0
VERTEX
  8
0
 10
71.229273
 20
73.062457
 70
0
  0
SEQEND
  0
POLYLINE
  8
0
  6
CONTINUOUS
 62
1
 66
1
 70
2
  0
VERTEX
  8
0
 10
71.929329
 20
73.062457
 70
0
 42
0.014820
  0
VERTEX
  8
0
 10
71.989301
 20
73.120623
 70
0
  0
SEQEND
  0
POLYLINE
  8
0
  6
CONTINUOUS
 62
1
 66
1
 70
2
  0
VERTEX
  8
0
 10
70.349301
 20
73.120623
 70
0
 42
0.014820
  0
VERTEX
  8
0
 10
70.409273
 20
73.062457
 70
0
  0
SEQEND
  0
POLYLINE
  8
0
  6
CONTINUOUS
 62
1
 66
1
 70
2
  0
VERTEX
  8
0
 10
71.109329
 20
73.062457
 70
0
 42
0.014820
  0
VERTEX
  8
0
 10
71.169301
 20
73.120623
 70
0
  0
SEQEND
  0
POLYLINE
  8
0
  6
CONTINUOUS
 62
1
 66
1
 70
2
  0
VERTEX
  8
0
 10
69.529301
 20
73.120623
 70
0
 42
0.014820
  0
VERTEX
  8
0
 10
69.589273
 20
73.062457
 70
0
  0
SEQEND
  0
POLYLINE
  8
0
  6
CONTINUOUS
 62
1
 66
1
 70
2
  0
VERTEX
  8
0
 10
70.289329
 20
73.062457
 70
0
 42
0.014820
  0
VERTEX
  8
0
 10
70.349301
 20
73.120623
 70
0
  0
SEQEND
  0
POLYLINE
  8
0
  6
CONTINUOUS
 62
1
 66
1
 70
2
  0
VERTEX
  8
0
 10
68.709301
 20
73.120623
 70
0
 42
0.014820
  0
VERTEX
  8
0
 10
68.769273
 20
73.062457
 70
0
  0
SEQEND
  0
POLYLINE
  8
0
  6
CONTINUOUS
 62
1
 66
1
 70
2
  0
VERTEX
  8
0
 10
69.469329
 20
73.062457
 70
0
 42
0.014820
  0
VERTEX
  8
0
 10
69.529301
 20
73.120623
 70
0
  0
SEQEND
  0
POLYLINE
  8
0
  6
CONTINUOUS
 62
1
 66
1
 70
2
  0
VERTEX
  8
0
 10
67.889301
 20
73.120623
 70
0
 42
0.014820
  0
VERTEX
  8
0
 10
67.949273
 20
73.062457
 70
0
  0
SEQEND
  0
POLYLINE
  8
0
  6
CONTINUOUS
 62
1
 66
1
 70
2
  0
VERTEX
  8
0
 10
68.649329
 20
73.062457
 70
0
 42
0.014820
  0
VERTEX
  8
0
 10
68.709301
 20
73.120623
 70
0
  0
SEQEND
  0
POLYLINE
  8
0
  6
CONTINUOUS
 62
1
 66
1
 70
2
  0
VERTEX
  8
0
 10
67.069301
 20
73.120623
 70
0
 42
0.014820
  0
VERTEX
  8
0
 10
67.129273
 20
73.062457
 70
0
  0
SEQEND
  0
POLYLINE
  8
0
  6
CONTINUOUS
 62
1
 66
1
 70
2
  0
VERTEX
  8
0
 10
67.829329
 20
73.062457
 70
0
 42
0.014820
  0
VERTEX
  8
0
 10
67.889301
 20
73.120623
 70
0
  0
SEQEND
  0
POLYLINE
  8
0
  6
CONTINUOUS
 62
1
 66
1
 70
2
  0
VERTEX
  8
0
 10
65.429301
 20
73.120623
 70
0
 42
0.014820
  0
VERTEX
  8
0
 10
65.489273
 20
73.062457
 70
0
  0
SEQEND
  0
POLYLINE
  8
0
  6
CONTINUOUS
 62
1
 66
1
 70
2
  0
VERTEX
  8
0
 10
66.189329
 20
73.062457
 70
0
 42
0.014820
  0
VERTEX
  8
0
 10
66.249301
 20
73.120623
 70
0
  0
SEQEND
  0
POLYLINE
  8
0
  6
CONTINUOUS
 62
1
 66
1
 70
2
  0
VERTEX
  8
0
 10
66.249301
 20
73.120623
 70
0
 42
0.014820
  0
VERTEX
  8
0
 10
66.309273
 20
73.062457
 70
0
  0
SEQEND
  0
POLYLINE
  8
0
  6
CONTINUOUS
 62
1
 66
1
 70
2
  0
VERTEX
  8
0
 10
67.009329
 20
73.062457
 70
0
 42
0.014820
  0
VERTEX
  8
0
 10
67.069301
 20
73.120623
 70
0
  0
SEQEND
  0
POLYLINE
  8
0
  6
CONTINUOUS
 62
1
 66
1
 70
2
  0
VERTEX
  8
0
 10
64.609301
 20
73.120623
 70
0
 42
0.014820
  0
VERTEX
  8
0
 10
64.669273
 20
73.062457
 70
0
  0
SEQEND
  0
POLYLINE
  8
0
  6
CONTINUOUS
 62
1
 66
1
 70
2
  0
VERTEX
  8
0
 10
65.369329
 20
73.062457
 70
0
 42
0.014820
  0
VERTEX
  8
0
 10
65.429301
 20
73.120623
 70
0
  0
SEQEND
  0
POLYLINE
  8
0
  6
CONTINUOUS
 62
1
 66
1
 70
2
  0
VERTEX
  8
0
 10
63.789301
 20
73.120623
 70
0
 42
0.014820
  0
VERTEX
  8
0
 10
63.849273
 20
73.062457
 70
0
  0
SEQEND
  0
POLYLINE
  8
0
  6
CONTINUOUS
 62
1
 66
1
 70
2
  0
VERTEX
  8
0
 10
64.549329
 20
73.062457
 70
0
 42
0.014820
  0
VERTEX
  8
0
 10
64.609301
 20
73.120623
 70
0
  0
SEQEND
  0
POLYLINE
  8
0
  6
CONTINUOUS
 62
1
 66
1
 70
2
  0
VERTEX
  8
0
 10
62.969301
 20
73.120623
 70
0
 42
0.014820
  0
VERTEX
  8
0
 10
63.029273
 20
73.062457
 70
0
  0
SEQEND
  0
POLYLINE
  8
0
  6
CONTINUOUS
 62
1
 66
1
 70
2
  0
VERTEX
  8
0
 10
63.729329
 20
73.062457
 70
0
 42
0.014820
  0
VERTEX
  8
0
 10
63.789301
 20
73.120623
 70
0
  0
SEQEND
  0
POLYLINE
  8
0
  6
CONTINUOUS
 62
1
 66
1
 70
2
  0
VERTEX
  8
0
 10
61.329301
 20
73.120623
 70
0
 42
0.014820
  0
VERTEX
  8
0
 10
61.389273
 20
73.062457
 70
0
  0
SEQEND
  0
POLYLINE
  8
0
  6
CONTINUOUS
 62
1
 66
1
 70
2
  0
VERTEX
  8
0
 10
62.089329
 20
73.062457
 70
0
 42
0.014820
  0
VERTEX
  8
0
 10
62.149301
 20
73.120623
 70
0
  0
SEQEND
  0
POLYLINE
  8
0
  6
CONTINUOUS
 62
1
 66
1
 70
2
  0
VERTEX
  8
0
 10
62.149301
 20
73.120623
 70
0
 42
0.014820
  0
VERTEX
  8
0
 10
62.209273
 20
73.062457
 70
0
  0
SEQEND
  0
POLYLINE
  8
0
  6
CONTINUOUS
 62
1
 66
1
 70
2
  0
VERTEX
  8
0
 10
62.909329
 20
73.062457
 70
0
 42
0.014820
  0
VERTEX
  8
0
 10
62.969301
 20
73.120623
 70
0
  0
SEQEND
  0
POLYLINE
  8
0
  6
CONTINUOUS
 62
1
 66
1
 70
2
  0
VERTEX
  8
0
 10
60.509301
 20
73.120623
 70
0
 42
0.014820
  0
VERTEX
  8
0
 10
60.569273
 20
73.062457
 70
0
  0
SEQEND
  0
POLYLINE
  8
0
  6
CONTINUOUS
 62
1
 66
1
 70
2
  0
VERTEX
  8
0
 10
61.269329
 20
73.062457
 70
0
 42
0.014820
  0
VERTEX
  8
0
 10
61.329301
 20
73.120623
 70
0
  0
SEQEND
  0
POLYLINE
  8
0
  6
CONTINUOUS
 62
1
 66
1
 70
2
  0
VERTEX
  8
0
 10
59.689301
 20
73.120623
 70
0
 42
0.014820
  0
VERTEX
  8
0
 10
59.749273
 20
73.062457
 70
0
  0
SEQEND
  0
POLYLINE
  8
0
  6
CONTINUOUS
 62
1
 66
1
 70
2
  0
VERTEX
  8
0
 10
60.449329
 20
73.062457
 70
0
 42
0.014820
  0
VERTEX
  8
0
 10
60.509301
 20
73.120623
 70
0
  0
SEQEND
  0
POLYLINE
  8
0
  6
CONTINUOUS
 62
1
 66
1
 70
2
  0
VERTEX
  8
0
 10
58.869301
 20
73.120623
 70
0
 42
0.014820
  0
VERTEX
  8
0
 10
58.929273
 20
73.062457
 70
0
  0
SEQEND
  0
POLYLINE
  8
0
  6
CONTINUOUS
 62
1
 66
1
 70
2
  0
VERTEX
  8
0
 10
59.629329
 20
73.062457
 70
0
 42
0.014820
  0
VERTEX
  8
0
 10
59.689301
 20
73.120623
 70
0
  0
SEQEND
  0
POLYLINE
  8
0
  6
CONTINUOUS
 62
1
 66
1
 70
2
  0
VERTEX
  8
0
 10
57.229301
 20
73.120623
 70
0
 42
0.014820
  0
VERTEX
  8
0
 10
57.289273
 20
73.062457
 70
0
  0
SEQEND
  0
POLYLINE
  8
0
  6
CONTINUOUS
 62
1
 66
1
 70
2
  0
VERTEX
  8
0
 10
57.989329
 20
73.062457
 70
0
 42
0.014820
  0
VERTEX
  8
0
 10
58.049301
 20
73.120623
 70
0
  0
SEQEND
  0
POLYLINE
  8
0
  6
CONTINUOUS
 62
1
 66
1
 70
2
  0
VERTEX
  8
0
 10
58.049301
 20
73.120623
 70
0
 42
0.014820
  0
VERTEX
  8
0
 10
58.109273
 20
73.062457
 70
0
  0
SEQEND
  0
POLYLINE
  8
0
  6
CONTINUOUS
 62
1
 66
1
 70
2
  0
VERTEX
  8
0
 10
58.809329
 20
73.062457
 70
0
 42
0.014820
  0
VERTEX
  8
0
 10
58.869301
 20
73.120623
 70
0
  0
SEQEND
  0
POLYLINE
  8
0
  6
CONTINUOUS
 62
1
 66
1
 70
2
  0
VERTEX
  8
0
 10
57.169329
 20
73.062457
 70
0
 42
0.014820
  0
VERTEX
  8
0
 10
57.229301
 20
73.120623
 70
0
  0
SEQEND
  0
POLYLINE
  8
0
  6
CONTINUOUS
 62
1
 66
1
 70
2
  0
VERTEX
  8
0
 10
70.349301
 20
72.301006
 70
0
 42
0.014647
  0
VERTEX
  8
0
 10
70.409301
 20
72.362812
 70
0
  0
SEQEND
  0
POLYLINE
  8
0
  6
CONTINUOUS
 62
1
 66
1
 70
2
  0
VERTEX
  8
0
 10
70.289301
 20
72.362812
 70
0
 42
0.020548
  0
VERTEX
  8
0
 10
70.315651
 20
72.334957
 70
0
  0
SEQEND
  0
POLYLINE
  8
0
  6
CONTINUOUS
 62
1
 66
1
 70
2
  0
VERTEX
  8
0
 10
69.552157
 20
72.323990
 70
0
 42
0.017760
  0
VERTEX
  8
0
 10
69.589301
 20
72.362812
 70
0
  0
SEQEND
  0
POLYLINE
  8
0
  6
CONTINUOUS
 62
1
 66
1
 70
2
  0
VERTEX
  8
0
 10
69.469301
 20
72.362812
 70
0
 42
0.017760
  0
VERTEX
  8
0
 10
69.506445
 20
72.323990
 70
0
  0
SEQEND
  0
POLYLINE
  8
0
  6
CONTINUOUS
 62
1
 66
1
 70
2
  0
VERTEX
  8
0
 10
68.732157
 20
72.323990
 70
0
 42
0.017760
  0
VERTEX
  8
0
 10
68.769301
 20
72.362812
 70
0
  0
SEQEND
  0
POLYLINE
  8
0
  6
CONTINUOUS
 62
1
 66
1
 70
2
  0
VERTEX
  8
0
 10
68.649301
 20
72.362812
 70
0
 42
0.017760
  0
VERTEX
  8
0
 10
68.686445
 20
72.323990
 70
0
  0
SEQEND
  0
POLYLINE
  8
0
  6
CONTINUOUS
 62
1
 66
1
 70
2
  0
VERTEX
  8
0
 10
67.912157
 20
72.323990
 70
0
 42
0.017760
  0
VERTEX
  8
0
 10
67.949301
 20
72.362812
 70
0
  0
SEQEND
  0
POLYLINE
  8
0
  6
CONTINUOUS
 62
1
 66
1
 70
2
  0
VERTEX
  8
0
 10
67.829301
 20
72.362812
 70
0
 42
0.017760
  0
VERTEX
  8
0
 10
67.866445
 20
72.323990
 70
0
  0
SEQEND
  0
POLYLINE
  8
0
  6
CONTINUOUS
 62
1
 66
1
 70
2
  0
VERTEX
  8
0
 10
67.092157
 20
72.323990
 70
0
 42
0.017760
  0
VERTEX
  8
0
 10
67.129301
 20
72.362812
 70
0
  0
SEQEND
  0
POLYLINE
  8
0
  6
CONTINUOUS
 62
1
 66
1
 70
2
  0
VERTEX
  8
0
 10
67.009301
 20
72.362812
 70
0
 42
0.017760
  0
VERTEX
  8
0
 10
67.046445
 20
72.323990
 70
0
  0
SEQEND
  0
POLYLINE
  8
0
  6
CONTINUOUS
 62
1
 66
1
 70
2
  0
VERTEX
  8
0
 10
65.452157
 20
72.323990
 70
0
 42
0.017760
  0
VERTEX
  8
0
 10
65.489301
 20
72.362812
 70
0
  0
SEQEND
  0
POLYLINE
  8
0
  6
CONTINUOUS
 62
1
 66
1
 70
2
  0
VERTEX
  8
0
 10
65.369301
 20
72.362812
 70
0
 42
0.017760
  0
VERTEX
  8
0
 10
65.406445
 20
72.323990
 70
0
  0
SEQEND
  0
POLYLINE
  8
0
  6
CONTINUOUS
 62
1
 66
1
 70
2
  0
VERTEX
  8
0
 10
66.272157
 20
72.323990
 70
0
 42
0.017760
  0
VERTEX
  8
0
 10
66.309301
 20
72.362812
 70
0
  0
SEQEND
  0
POLYLINE
  8
0
  6
CONTINUOUS
 62
1
 66
1
 70
2
  0
VERTEX
  8
0
 10
66.189301
 20
72.362812
 70
0
 42
0.017760
  0
VERTEX
  8
0
 10
66.226445
 20
72.323990
 70
0
  0
SEQEND
  0
POLYLINE
  8
0
  6
CONTINUOUS
 62
1
 66
1
 70
2
  0
VERTEX
  8
0
 10
64.632157
 20
72.323990
 70
0
 42
0.017760
  0
VERTEX
  8
0
 10
64.669301
 20
72.362812
 70
0
  0
SEQEND
  0
POLYLINE
  8
0
  6
CONTINUOUS
 62
1
 66
1
 70
2
  0
VERTEX
  8
0
 10
64.549301
 20
72.362812
 70
0
 42
0.017760
  0
VERTEX
  8
0
 10
64.586445
 20
72.323990
 70
0
  0
SEQEND
  0
POLYLINE
  8
0
  6
CONTINUOUS
 62
1
 66
1
 70
2
  0
VERTEX
  8
0
 10
63.812157
 20
72.323990
 70
0
 42
0.017760
  0
VERTEX
  8
0
 10
63.849301
 20
72.362812
 70
0
  0
SEQEND
  0
POLYLINE
  8
0
  6
CONTINUOUS
 62
1
 66
1
 70
2
  0
VERTEX
  8
0
 10
63.729301
 20
72.362812
 70
0
 42
0.017760
  0
VERTEX
  8
0
 10
63.766445
 20
72.323990
 70
0
  0
SEQEND
  0
POLYLINE
  8
0
  6
CONTINUOUS
 62
1
 66
1
 70
2
  0
VERTEX
  8
0
 10
62.992157
 20
72.323990
 70
0
 42
0.017760
  0
VERTEX
  8
0
 10
63.029301
 20
72.362812
 70
0
  0
SEQEND
  0
POLYLINE
  8
0
  6
CONTINUOUS
 62
1
 66
1
 70
2
  0
VERTEX
  8
0
 10
62.909301
 20
72.362812
 70
0
 42
0.017760
  0
VERTEX
  8
0
 10
62.946445
 20
72.323990
 70
0
  0
SEQEND
  0
POLYLINE
  8
0
  6
CONTINUOUS
 62
1
 66
1
 70
2
  0
VERTEX
  8
0
 10
61.352157
 20
72.323990
 70
0
 42
0.017760
  0
VERTEX
  8
0
 10
61.389301
 20
72.362812
 70
0
  0
SEQEND
  0
POLYLINE
  8
0
  6
CONTINUOUS
 62
1
 66
1
 70
2
  0
VERTEX
  8
0
 10
61.269301
 20
72.362812
 70
0
 42
0.017760
  0
VERTEX
  8
0
 10
61.306445
 20
72.323990
 70
0
  0
SEQEND
  0
POLYLINE
  8
0
  6
CONTINUOUS
 62
1
 66
1
 70
2
  0
VERTEX
  8
0
 10
62.172157
 20
72.323990
 70
0
 42
0.017760
  0
VERTEX
  8
0
 10
62.209301
 20
72.362812
 70
0
  0
SEQEND
  0
POLYLINE
  8
0
  6
CONTINUOUS
 62
1
 66
1
 70
2
  0
VERTEX
  8
0
 10
62.089301
 20
72.362812
 70
0
 42
0.017760
  0
VERTEX
  8
0
 10
62.126445
 20
72.323990
 70
0
  0
SEQEND
  0
POLYLINE
  8
0
  6
CONTINUOUS
 62
1
 66
1
 70
2
  0
VERTEX
  8
0
 10
60.532157
 20
72.323990
 70
0
 42
0.017760
  0
VERTEX
  8
0
 10
60.569301
 20
72.362812
 70
0
  0
SEQEND
  0
POLYLINE
  8
0
  6
CONTINUOUS
 62
1
 66
1
 70
2
  0
VERTEX
  8
0
 10
60.449301
 20
72.362812
 70
0
 42
0.017760
  0
VERTEX
  8
0
 10
60.486445
 20
72.323990
 70
0
  0
SEQEND
  0
POLYLINE
  8
0
  6
CONTINUOUS
 62
1
 66
1
 70
2
  0
VERTEX
  8
0
 10
59.712157
 20
72.323990
 70
0
 42
0.017760
  0
VERTEX
  8
0
 10
59.749301
 20
72.362812
 70
0
  0
SEQEND
  0
POLYLINE
  8
0
  6
CONTINUOUS
 62
1
 66
1
 70
2
  0
VERTEX
  8
0
 10
59.629301
 20
72.362812
 70
0
 42
0.017760
  0
VERTEX
  8
0
 10
59.666445
 20
72.323990
 70
0
  0
SEQEND
  0
POLYLINE
  8
0
  6
CONTINUOUS
 62
1
 66
1
 70
2
  0
VERTEX
  8
0
 10
58.892157
 20
72.323990
 70
0
 42
0.017760
  0
VERTEX
  8
0
 10
58.929301
 20
72.362812
 70
0
  0
SEQEND
  0
POLYLINE
  8
0
  6
CONTINUOUS
 62
1
 66
1
 70
2
  0
VERTEX
  8
0
 10
58.809301
 20
72.362812
 70
0
 42
0.017760
  0
VERTEX
  8
0
 10
58.846445
 20
72.323990
 70
0
  0
SEQEND
  0
POLYLINE
  8
0
  6
CONTINUOUS
 62
1
 66
1
 70
2
  0
VERTEX
  8
0
 10
58.072157
 20
72.323990
 70
0
 42
0.017760
  0
VERTEX
  8
0
 10
58.109301
 20
72.362812
 70
0
  0
SEQEND
  0
POLYLINE
  8
0
  6
CONTINUOUS
 62
1
 66
1
 70
2
  0
VERTEX
  8
0
 10
57.989301
 20
72.362812
 70
0
 42
0.017760
  0
VERTEX
  8
0
 10
58.026445
 20
72.323990
 70
0
  0
SEQEND
  0
POLYLINE
  8
0
  6
CONTINUOUS
 62
1
 66
1
 70
2
  0
VERTEX
  8
0
 10
57.252157
 20
72.323990
 70
0
 42
0.017760
  0
VERTEX
  8
0
 10
57.289301
 20
72.362812
 70
0
  0
SEQEND
  0
POLYLINE
  8
0
  6
CONTINUOUS
 62
1
 66
1
 70
2
  0
VERTEX
  8
0
 10
57.169301
 20
72.362812
 70
0
 42
0.017760
  0
VERTEX
  8
0
 10
57.206445
 20
72.323990
 70
0
  0
SEQEND
  0
ARC
  8
0
  6
CONTINUOUS
 62
1
 10
80.052153
 20
72.540218
 40
0.059985
 50
269.985738
 51
359.986507
  0
ARC
  8
0
  6
CONTINUOUS
 62
1
 10
80.052123
 20
72.540218
 40
0.059985
 50
180.013492
 51
270.013906
  0
LINE
  8
0
  6
CONTINUOUS
 62
1
 10
62.969301
 20
72.119679
 11
62.969301
 21
71.619678
  0
LINE
  8
0
  6
CONTINUOUS
 62
1
 10
62.968301
 20
72.119562
 11
62.968301
 21
72.119679
  0
LINE
  8
0
  6
CONTINUOUS
 62
1
 10
62.968301
 20
71.619678
 11
62.968301
 21
72.119562
  0
LINE
  8
0
  6
CONTINUOUS
 62
1
 10
89.169301
 20
72.119679
 11
89.169301
 21
71.619678
  0
LINE
  8
0
  6
CONTINUOUS
 62
1
 10
89.168301
 20
72.119562
 11
89.168301
 21
72.119679
  0
LINE
  8
0
  6
CONTINUOUS
 62
1
 10
89.168301
 20
71.619678
 11
89.168301
 21
72.119562
  0
ARC
  8
0
  6
CONTINUOUS
 62
1
 10
71.719301
 20
71.486947
 40
0.635000
 50
180.020661
 51
359.979339
  0
LINE
  8
0
  6
CONTINUOUS
 62
1
 10
72.354301
 20
71.486718
 11
72.354301
 21
72.622248
  0
LINE
  8
0
  6
CONTINUOUS
 62
1
 10
71.084301
 20
73.882074
 11
71.084301
 21
73.182457
  0
LINE
  8
0
  6
CONTINUOUS
 62
1
 10
71.084301
 20
73.062458
 11
71.084301
 21
72.727936
  0
LINE
  8
0
  6
CONTINUOUS
 62
1
 10
71.084301
 20
71.781527
 11
71.084301
 21
71.486718
  0
ARC
  8
0
  6
CONTINUOUS
 62
1
 10
68.219301
 20
71.486947
 40
0.635000
 50
180.020672
 51
359.979328
  0
LINE
  8
0
  6
CONTINUOUS
 62
1
 10
68.854301
 20
71.486718
 11
68.854301
 21
71.619678
  0
LINE
  8
0
  6
CONTINUOUS
 62
1
 10
68.854301
 20
72.532330
 11
68.854301
 21
73.062458
  0
LINE
  8
0
  6
CONTINUOUS
 62
1
 10
68.854301
 20
73.182457
 11
68.854301
 21
73.882074
  0
LINE
  8
0
  6
CONTINUOUS
 62
1
 10
67.584301
 20
73.882074
 11
67.584301
 21
73.182457
  0
LINE
  8
0
  6
CONTINUOUS
 62
1
 10
67.584301
 20
73.062458
 11
67.584301
 21
72.532330
  0
LINE
  8
0
  6
CONTINUOUS
 62
1
 10
67.584301
 20
71.619678
 11
67.584301
 21
71.486718
  0
ARC
  8
0
  6
CONTINUOUS
 62
1
 10
64.718804
 20
71.486732
 40
0.634503
 50
180.001259
 51
209.998674
  0
ARC
  8
0
  6
CONTINUOUS
 62
1
 10
64.719517
 20
71.486834
 40
0.634784
 50
282.608824
 51
359.989570
  0
LINE
  8
0
  6
CONTINUOUS
 62
1
 10
65.354301
 20
71.486718
 11
65.354301
 21
71.619678
  0
LINE
  8
0
  6
CONTINUOUS
 62
1
 10
65.354301
 20
72.532330
 11
65.354301
 21
73.062458
  0
LINE
  8
0
  6
CONTINUOUS
 62
1
 10
65.354301
 20
73.182457
 11
65.354301
 21
73.882074
  0
LINE
  8
0
  6
CONTINUOUS
 62
1
 10
64.084301
 20
73.882074
 11
64.084301
 21
73.182457
  0
LINE
  8
0
  6
CONTINUOUS
 62
1
 10
64.084301
 20
73.062458
 11
64.084301
 21
72.532330
  0
LINE
  8
0
  6
CONTINUOUS
 62
1
 10
64.084301
 20
71.619678
 11
64.084301
 21
71.486718
  0
ARC
  8
0
  6
CONTINUOUS
 62
1
 10
61.219086
 20
71.486835
 40
0.634785
 50
180.010574
 51
257.391200
  0
ARC
  8
0
  6
CONTINUOUS
 62
1
 10
61.219833
 20
71.486724
 40
0.634468
 50
330.000353
 51
359.999462
  0
LINE
  8
0
  6
CONTINUOUS
 62
1
 10
61.854301
 20
71.486718
 11
61.854301
 21
71.619678
  0
LINE
  8
0
  6
CONTINUOUS
 62
1
 10
61.854301
 20
72.532330
 11
61.854301
 21
73.062458
  0
LINE
  8
0
  6
CONTINUOUS
 62
1
 10
61.854301
 20
73.182457
 11
61.854301
 21
73.882074
  0
LINE
  8
0
  6
CONTINUOUS
 62
1
 10
60.584300
 20
73.882074
 11
60.584300
 21
73.182457
  0
LINE
  8
0
  6
CONTINUOUS
 62
1
 10
60.584300
 20
73.062458
 11
60.584300
 21
72.532330
  0
LINE
  8
0
  6
CONTINUOUS
 62
1
 10
60.584300
 20
71.619678
 11
60.584300
 21
71.486718
  0
ARC
  8
0
  6
CONTINUOUS
 62
1
 10
57.719301
 20
71.486947
 40
0.635000
 50
180.020694
 51
359.979306
  0
LINE
  8
0
  6
CONTINUOUS
 62
1
 10
58.354301
 20
71.486718
 11
58.354301
 21
71.619678
  0
LINE
  8
0
  6
CONTINUOUS
 62
1
 10
58.354301
 20
72.532330
 11
58.354301
 21
73.062458
  0
LINE
  8
0
  6
CONTINUOUS
 62
1
 10
58.354301
 20
73.182457
 11
58.354301
 21
73.882074
  0
LINE
  8
0
  6
CONTINUOUS
 62
1
 10
57.084301
 20
73.882074
 11
57.084301
 21
73.182457
  0
LINE
  8
0
  6
CONTINUOUS
 62
1
 10
57.084301
 20
73.062458
 11
57.084301
 21
72.532330
  0
LINE
  8
0
  6
CONTINUOUS
 62
1
 10
57.084301
 20
71.619678
 11
57.084301
 21
71.486718
  0
CIRCLE
  8
0
  6
CONTINUOUS
 62
1
 10
69.969082
 20
70.202272
 40
0.634782
  0
ARC
  8
0
  6
CONTINUOUS
 62
1
 10
66.469212
 20
70.202374
 40
0.634911
 50
180.004983
 51
39.699419
  0
LINE
  8
0
  6
CONTINUOUS
 62
1
 10
65.856144
 20
70.367359
 11
65.852753
 21
70.354212
  0
LINE
  8
0
  6
CONTINUOUS
 62
1
 10
65.852753
 20
70.354212
 11
65.834301
 21
70.202319
  0
ARC
  8
0
  6
CONTINUOUS
 62
1
 10
62.969272
 20
70.202464
 40
0.634970
 50
180.013083
 51
15.051707
  0
LINE
  8
0
  6
CONTINUOUS
 62
1
 10
62.356144
 20
70.367359
 11
62.352752
 21
70.354212
  0
LINE
  8
0
  6
CONTINUOUS
 62
1
 10
62.352752
 20
70.354212
 11
62.334302
 21
70.202319
  0
ARC
  8
0
  6
CONTINUOUS
 62
1
 10
59.469271
 20
70.202464
 40
0.634971
 50
180.013150
 51
15.051623
  0
ARC
  8
0
  6
CONTINUOUS
 62
1
 10
59.468836
 20
70.202297
 40
0.634536
 50
139.672103
 51
179.998068
  0
ARC
  8
0
  6
CONTINUOUS
 62
1
 10
55.969860
 20
70.202318
 40
0.634441
 50
340.880023
 51
19.119977
  0
LINE
  8
0
  6
CONTINUOUS
 62
1
 10
73.269301
 20
73.964678
 11
73.269301
 21
67.965340
  0
ARC
  8
0
  6
CONTINUOUS
 62
1
 10
74.014789
 20
69.497905
 40
1.704262
 50
236.102245
 51
244.060238
  0
ARC
  8
0
  6
CONTINUOUS
 62
1
 10
75.032695
 20
70.004016
 40
2.748509
 50
224.260998
 51
227.879754
  0
ARC
  8
0
  6
CONTINUOUS
 62
1
 10
71.719301
 20
71.489392
 40
0.635000
 50
180.020661
 51
359.979339
  0
ARC
  8
0
  6
CONTINUOUS
 62
1
 10
68.219301
 20
71.489393
 40
0.635000
 50
180.020672
 51
359.979328
  0
ARC
  8
0
  6
CONTINUOUS
 62
1
 10
64.718839
 20
71.489187
 40
0.634538
 50
180.002104
 51
209.997830
  0
ARC
  8
0
  6
CONTINUOUS
 62
1
 10
64.719512
 20
71.489281
 40
0.634789
 50
281.555633
 51
359.989416
  0
ARC
  8
0
  6
CONTINUOUS
 62
1
 10
61.219091
 20
71.489283
 40
0.634791
 50
180.010764
 51
258.444271
  0
ARC
  8
0
  6
CONTINUOUS
 62
1
 10
61.219798
 20
71.489179
 40
0.634503
 50
330.001197
 51
359.998618
  0
ARC
  8
0
  6
CONTINUOUS
 62
1
 10
57.719301
 20
71.489393
 40
0.635000
 50
180.020694
 51
359.979306
  0
ARC
  8
0
  6
CONTINUOUS
 62
1
 10
69.969301
 20
70.204993
 40
0.635000
 50
180.020660
 51
359.979340
  0
ARC
  8
0
  6
CONTINUOUS
 62
1
 10
66.469301
 20
70.204993
 40
0.635000
 50
180.020650
 51
359.979350
  0
ARC
  8
0
  6
CONTINUOUS
 62
1
 10
62.969301
 20
70.204992
 40
0.635000
 50
180.020606
 51
359.979394
  0
ARC
  8
0
  6
CONTINUOUS
 62
1
 10
59.469301
 20
70.204993
 40
0.635000
 50
180.020694
 51
359.979306
  0
LINE
  8
0
  6
CONTINUOUS
 62
1
 10
56.569302
 20
69.996954
 11
56.585849
 21
70.052869
  0
LINE
  8
0
  6
CONTINUOUS
 62
1
 10
56.585849
 20
70.052869
 11
56.604301
 21
70.204764
  0
LINE
  8
0
  6
CONTINUOUS
 62
1
 10
73.269301
 20
67.965340
 11
73.189301
 21
67.965340
  0
ARC
  8
0
  6
CONTINUOUS
 62
1
 10
73.353332
 20
68.125957
 40
0.292160
 50
188.393695
 51
235.676704
  0
ARC
  8
0
  6
CONTINUOUS
 62
1
 10
73.256013
 20
68.158152
 40
0.204926
 50
200.688447
 51
250.792444
  0
LINE
  8
0
  6
CONTINUOUS
 62
1
 10
73.188594
 20
67.964633
 11
73.188594
 21
67.884671
  0
LINE
  8
0
  6
CONTINUOUS
 62
1
 10
73.135040
 20
67.991380
 11
73.161860
 21
67.991380
  0
ARC
  8
0
  6
CONTINUOUS
 62
1
 10
94.419301
 20
71.486947
 40
0.635000
 50
180.020694
 51
359.979306
  0
LINE
  8
0
  6
CONTINUOUS
 62
1
 10
95.054301
 20
71.486718
 11
95.054301
 21
71.619678
  0
LINE
  8
0
  6
CONTINUOUS
 62
1
 10
95.054301
 20
72.532330
 11
95.054301
 21
73.062458
  0
LINE
  8
0
  6
CONTINUOUS
 62
1
 10
95.054301
 20
73.182457
 11
95.054301
 21
73.882074
  0
LINE
  8
0
  6
CONTINUOUS
 62
1
 10
93.784301
 20
73.882074
 11
93.784301
 21
73.182457
  0
LINE
  8
0
  6
CONTINUOUS
 62
1
 10
93.784301
 20
73.062458
 11
93.784301
 21
72.532330
  0
LINE
  8
0
  6
CONTINUOUS
 62
1
 10
93.784301
 20
71.619678
 11
93.784301
 21
71.486718
  0
ARC
  8
0
  6
CONTINUOUS
 62
1
 10
90.918769
 20
71.486724
 40
0.634468
 50
180.000538
 51
209.999647
  0
ARC
  8
0
  6
CONTINUOUS
 62
1
 10
90.919516
 20
71.486835
 40
0.634785
 50
282.608800
 51
359.989426
  0
LINE
  8
0
  6
CONTINUOUS
 62
1
 10
91.554302
 20
71.486718
 11
91.554302
 21
71.619678
  0
LINE
  8
0
  6
CONTINUOUS
 62
1
 10
91.554302
 20
72.532330
 11
91.554302
 21
73.062458
  0
LINE
  8
0
  6
CONTINUOUS
 62
1
 10
91.554302
 20
73.182457
 11
91.554302
 21
73.882074
  0
LINE
  8
0
  6
CONTINUOUS
 62
1
 10
90.284301
 20
73.882074
 11
90.284301
 21
73.182457
  0
LINE
  8
0
  6
CONTINUOUS
 62
1
 10
90.284301
 20
73.062458
 11
90.284301
 21
72.532330
  0
LINE
  8
0
  6
CONTINUOUS
 62
1
 10
90.284301
 20
71.619678
 11
90.284301
 21
71.486718
  0
ARC
  8
0
  6
CONTINUOUS
 62
1
 10
87.419085
 20
71.486834
 40
0.634784
 50
180.010430
 51
257.391176
  0
ARC
  8
0
  6
CONTINUOUS
 62
1
 10
87.419798
 20
71.486732
 40
0.634503
 50
330.001326
 51
359.998741
  0
LINE
  8
0
  6
CONTINUOUS
 62
1
 10
88.054301
 20
71.486718
 11
88.054301
 21
71.619678
  0
LINE
  8
0
  6
CONTINUOUS
 62
1
 10
88.054301
 20
72.532330
 11
88.054301
 21
73.062458
  0
LINE
  8
0
  6
CONTINUOUS
 62
1
 10
88.054301
 20
73.182457
 11
88.054301
 21
73.882074
  0
LINE
  8
0
  6
CONTINUOUS
 62
1
 10
86.784301
 20
73.882074
 11
86.784301
 21
73.182457
  0
LINE
  8
0
  6
CONTINUOUS
 62
1
 10
86.784301
 20
73.062458
 11
86.784301
 21
72.532330
  0
LINE
  8
0
  6
CONTINUOUS
 62
1
 10
86.784301
 20
71.619678
 11
86.784301
 21
71.486718
  0
ARC
  8
0
  6
CONTINUOUS
 62
1
 10
83.919301
 20
71.486947
 40
0.635000
 50
180.020672
 51
359.979328
  0
LINE
  8
0
  6
CONTINUOUS
 62
1
 10
84.554301
 20
71.486718
 11
84.554301
 21
71.619678
  0
LINE
  8
0
  6
CONTINUOUS
 62
1
 10
84.554301
 20
72.532330
 11
84.554301
 21
73.062458
  0
LINE
  8
0
  6
CONTINUOUS
 62
1
 10
84.554301
 20
73.182457
 11
84.554301
 21
73.882074
  0
LINE
  8
0
  6
CONTINUOUS
 62
1
 10
83.284301
 20
73.882074
 11
83.284301
 21
73.182457
  0
LINE
  8
0
  6
CONTINUOUS
 62
1
 10
83.284301
 20
73.062458
 11
83.284301
 21
72.532330
  0
LINE
  8
0
  6
CONTINUOUS
 62
1
 10
83.284301
 20
71.619678
 11
83.284301
 21
71.486718
  0
ARC
  8
0
  6
CONTINUOUS
 62
1
 10
80.419301
 20
71.486947
 40
0.635000
 50
180.020660
 51
359.979340
  0
LINE
  8
0
  6
CONTINUOUS
 62
1
 10
81.054301
 20
71.486718
 11
81.054301
 21
71.781894
  0
LINE
  8
0
  6
CONTINUOUS
 62
1
 10
81.054301
 20
72.727073
 11
81.054301
 21
73.062458
  0
LINE
  8
0
  6
CONTINUOUS
 62
1
 10
81.054301
 20
73.182457
 11
81.054301
 21
73.882074
  0
LINE
  8
0
  6
CONTINUOUS
 62
1
 10
79.784301
 20
72.619391
 11
79.784301
 21
71.486718
  0
LINE
  8
0
  6
CONTINUOUS
 62
1
 10
95.534300
 20
70.202319
 11
95.552752
 21
70.050424
  0
LINE
  8
0
  6
CONTINUOUS
 62
1
 10
95.552752
 20
70.050424
 11
95.569300
 21
69.994508
  0
LINE
  8
0
  6
CONTINUOUS
 62
1
 10
95.569300
 20
70.410127
 11
95.552752
 21
70.354212
  0
LINE
  8
0
  6
CONTINUOUS
 62
1
 10
95.552752
 20
70.354212
 11
95.534300
 21
70.202319
  0
ARC
  8
0
  6
CONTINUOUS
 62
1
 10
92.669212
 20
70.202374
 40
0.634911
 50
180.005020
 51
39.699357
  0
LINE
  8
0
  6
CONTINUOUS
 62
1
 10
92.056144
 20
70.367359
 11
92.052753
 21
70.354212
  0
LINE
  8
0
  6
CONTINUOUS
 62
1
 10
92.052753
 20
70.354212
 11
92.034301
 21
70.202319
  0
ARC
  8
0
  6
CONTINUOUS
 62
1
 10
89.169272
 20
70.202464
 40
0.634971
 50
180.013121
 51
15.051652
  0
LINE
  8
0
  6
CONTINUOUS
 62
1
 10
88.556145
 20
70.367359
 11
88.552753
 21
70.354212
  0
LINE
  8
0
  6
CONTINUOUS
 62
1
 10
88.552753
 20
70.354212
 11
88.534301
 21
70.202319
  0
ARC
  8
0
  6
CONTINUOUS
 62
1
 10
85.669271
 20
70.202464
 40
0.634971
 50
180.013135
 51
15.051638
  0
ARC
  8
0
  6
CONTINUOUS
 62
1
 10
85.668831
 20
70.202298
 40
0.634530
 50
139.671819
 51
179.998169
  0
CIRCLE
  8
0
  6
CONTINUOUS
 62
1
 10
82.169083
 20
70.202274
 40
0.634781
  0
ARC
  8
0
  6
CONTINUOUS
 62
1
 10
77.613754
 20
70.384253
 40
2.725351
 50
297.431764
 51
302.405752
  0
LINE
  8
0
  6
CONTINUOUS
 62
1
 10
78.869301
 20
67.965340
 11
78.869301
 21
73.964678
  0
ARC
  8
0
  6
CONTINUOUS
 62
1
 10
96.420216
 20
49.954238
 40
25.092482
 50
133.731466
 51
134.127782
  0
ARC
  8
0
  6
CONTINUOUS
 62
1
 10
94.419301
 20
71.489393
 40
0.635000
 50
180.020694
 51
359.979306
  0
ARC
  8
0
  6
CONTINUOUS
 62
1
 10
90.918804
 20
71.489179
 40
0.634503
 50
180.001382
 51
209.998803
  0
ARC
  8
0
  6
CONTINUOUS
 62
1
 10
90.919511
 20
71.489283
 40
0.634791
 50
281.555729
 51
359.989236
  0
ARC
  8
0
  6
CONTINUOUS
 62
1
 10
87.419090
 20
71.489281
 40
0.634789
 50
180.010584
 51
258.444367
  0
ARC
  8
0
  6
CONTINUOUS
 62
1
 10
87.419763
 20
71.489187
 40
0.634538
 50
330.002170
 51
359.997896
  0
ARC
  8
0
  6
CONTINUOUS
 62
1
 10
83.919301
 20
71.489393
 40
0.635000
 50
180.020672
 51
359.979328
  0
ARC
  8
0
  6
CONTINUOUS
 62
1
 10
80.419301
 20
71.489392
 40
0.635000
 50
180.020660
 51
359.979340
  0
LINE
  8
0
  6
CONTINUOUS
 62
1
 10
95.534300
 20
70.204764
 11
95.552752
 21
70.052869
  0
LINE
  8
0
  6
CONTINUOUS
 62
1
 10
95.552752
 20
70.052869
 11
95.569300
 21
69.996954
  0
ARC
  8
0
  6
CONTINUOUS
 62
1
 10
92.669301
 20
70.204993
 40
0.635000
 50
180.020694
 51
359.979306
  0
ARC
  8
0
  6
CONTINUOUS
 62
1
 10
89.169301
 20
70.204992
 40
0.635000
 50
180.020601
 51
359.979399
  0
ARC
  8
0
  6
CONTINUOUS
 62
1
 10
85.669301
 20
70.204993
 40
0.635000
 50
180.020647
 51
359.979353
  0
ARC
  8
0
  6
CONTINUOUS
 62
1
 10
82.169301
 20
70.204993
 40
0.635000
 50
180.020661
 51
359.979339
  0
LINE
  8
0
  6
CONTINUOUS
 62
1
 10
78.869301
 20
67.965340
 11
78.949301
 21
67.965340
  0
ARC
  8
0
  6
CONTINUOUS
 62
1
 10
78.785270
 20
68.125957
 40
0.292160
 50
304.323296
 51
351.606305
  0
LINE
  8
0
  6
CONTINUOUS
 62
1
 10
78.950008
 20
67.884671
 11
78.950008
 21
67.964633
  0
ARC
  8
0
  6
CONTINUOUS
 62
1
 10
78.882589
 20
68.158152
 40
0.204926
 50
289.207556
 51
339.311553
  0
LINE
  8
0
  6
CONTINUOUS
 62
1
 10
78.976737
 20
67.991380
 11
79.003562
 21
67.991380
  0
CIRCLE
  8
0
  6
CONTINUOUS
 62
1
 10
76.069301
 20
89.909679
 40
1.900000
  0
LINE
  8
0
  6
CONTINUOUS
 62
1
 10
98.989301
 20
112.264677
 11
98.989301
 21
112.469681
  0
LINE
  8
0
  6
CONTINUOUS
 62
1
 10
103.838595
 20
112.469681
 11
98.989301
 21
112.469681
  0
ARC
  8
0
  6
CONTINUOUS
 62
1
 10
104.083787
 20
112.180841
 40
0.378877
 50
130.327306
 51
167.216028
  0
ARC
  8
0
  6
CONTINUOUS
 62
1
 10
103.664839
 20
61.061899
 40
0.316667
 50
36.528463
 51
81.013698
  0
LINE
  8
0
  6
CONTINUOUS
 62
1
 10
103.919300
 20
61.250386
 11
103.839302
 21
61.250386
  0
ARC
  8
0
  6
CONTINUOUS
 62
1
 10
103.635231
 20
61.170157
 40
0.219275
 50
21.462039
 51
68.862972
  0
ARC
  8
0
  6
CONTINUOUS
 62
1
 10
104.034311
 20
61.428524
 40
0.324508
 50
189.551186
 51
232.906588
  0
LINE
  8
0
  6
CONTINUOUS
 62
1
 10
95.569300
 20
61.169679
 11
103.838595
 21
61.169679
  0
LINE
  8
0
  6
CONTINUOUS
 62
1
 10
95.569300
 20
61.169679
 11
95.569300
 21
61.374679
  0
LINE
  8
0
  6
CONTINUOUS
 62
1
 10
103.838595
 20
112.469681
 11
103.838595
 21
112.389680
  0
ARC
  8
0
  6
CONTINUOUS
 62
1
 10
103.921909
 20
112.182543
 40
0.223264
 50
111.910793
 51
158.415240
  0
ARC
  8
0
  6
CONTINUOUS
 62
1
 10
103.657937
 20
112.588838
 40
0.329025
 50
279.863820
 51
322.594324
  0
LINE
  8
0
  6
CONTINUOUS
 62
1
 10
103.919300
 20
61.250386
 11
103.919300
 21
112.388971
  0
ARC
  8
0
  6
CONTINUOUS
 62
1
 10
103.924392
 20
61.459287
 40
0.226487
 50
201.935690
 51
247.739642
  0
LINE
  8
0
  6
CONTINUOUS
 62
1
 10
103.838595
 20
61.169679
 11
103.838595
 21
61.249679
  0
ARC
  8
0
  6
CONTINUOUS
 62
1
 10
103.629668
 20
112.474794
 40
0.226522
 50
291.939342
 51
337.735991
  0
LINE
  8
0
  6
CONTINUOUS
 62
1
 10
103.919300
 20
112.388971
 11
103.839302
 21
112.388971
  0
LINE
  8
0
  6
CONTINUOUS
 62
1
 10
53.149300
 20
110.264679
 11
53.149300
 21
112.264677
  0
ARC
  8
0
  6
CONTINUOUS
 62
1
 10
53.649301
 20
110.264679
 40
0.500000
 50
180.000000
 51
270.000000
  0
ARC
  8
0
  6
CONTINUOUS
 62
1
 10
91.749463
 20
139.720271
 40
0.500000
 50
270.000000
 51
0.000000
  0
LINE
  8
0
  6
CONTINUOUS
 62
1
 10
98.989301
 20
112.264677
 11
98.989301
 21
110.264679
  0
LINE
  8
0
  6
CONTINUOUS
 62
1
 10
95.569300
 20
61.374679
 11
95.569300
 21
73.669679
  0
ARC
  8
0
  6
CONTINUOUS
 62
1
 10
95.069301
 20
73.669679
 40
0.500000
 50
0.000000
 51
90.000000
  0
ARC
  8
0
  6
CONTINUOUS
 62
1
 10
57.069301
 20
73.669679
 40
0.500000
 50
90.000000
 51
180.000000
  0
LINE
  8
0
  6
CONTINUOUS
 62
1
 10
56.569302
 20
73.669679
 11
56.569302
 21
61.374679
  0
LINE
  8
0
  6
CONTINUOUS
 62
1
 10
53.649301
 20
109.764679
 11
53.649301
 21
109.969678
  0
LINE
  8
0
  6
CONTINUOUS
 62
1
 10
98.489300
 20
109.969678
 11
98.219300
 21
109.969678
  0
LINE
  8
0
  6
CONTINUOUS
 62
1
 10
53.919301
 20
109.969678
 11
53.649301
 21
109.969678
  0
LINE
  8
0
  6
CONTINUOUS
 62
1
 10
98.489300
 20
109.969678
 11
98.489300
 21
109.764679
  0
LINE
  8
0
  6
CONTINUOUS
 62
1
 10
57.069301
 20
73.964678
 11
95.069301
 21
73.964678
  0
LINE
  8
0
  6
CONTINUOUS
 62
1
 10
57.069301
 20
73.964678
 11
57.069301
 21
74.169680
  0
LINE
  8
0
  6
CONTINUOUS
 62
1
 10
95.069301
 20
74.169680
 11
95.069301
 21
73.964678
  0
LINE
  8
0
  6
CONTINUOUS
 62
1
 10
48.300007
 20
61.169679
 11
56.569302
 21
61.169679
  0
ARC
  8
0
  6
CONTINUOUS
 62
1
 10
48.106064
 20
61.427449
 40
0.322582
 50
306.957360
 51
350.584866
  0
LINE
  8
0
  6
CONTINUOUS
 62
1
 10
56.569302
 20
61.374679
 11
56.569302
 21
61.169679
  0
LINE
  8
0
  6
CONTINUOUS
 62
1
 10
48.424300
 20
112.264677
 11
48.395684
 21
112.337216
  0
LINE
  8
0
  6
CONTINUOUS
 62
1
 10
48.395684
 20
112.337216
 11
48.367056
 21
112.400385
  0
LINE
  8
0
  6
CONTINUOUS
 62
1
 10
48.367056
 20
112.400385
 11
48.338428
 21
112.445988
  0
LINE
  8
0
  6
CONTINUOUS
 62
1
 10
48.338428
 20
112.445988
 11
48.309800
 21
112.468114
  0
LINE
  8
0
  6
CONTINUOUS
 62
1
 10
48.309800
 20
112.468114
 11
48.300007
 21
112.469681
  0
LINE
  8
0
  6
CONTINUOUS
 62
1
 10
48.300007
 20
112.469681
 11
53.149300
 21
112.469681
  0
LINE
  8
0
  6
CONTINUOUS
 62
1
 10
53.149300
 20
112.469681
 11
53.149300
 21
112.264677
  0
ARC
  8
0
  6
CONTINUOUS
 62
1
 10
48.472026
 20
112.574592
 40
0.313568
 50
216.296536
 51
261.245320
  0
LINE
  8
0
  6
CONTINUOUS
 62
1
 10
48.219302
 20
112.388971
 11
48.299300
 21
112.388971
  0
ARC
  8
0
  6
CONTINUOUS
 62
1
 10
48.498943
 20
112.464746
 40
0.213540
 50
200.784541
 51
249.540127
  0
LINE
  8
0
  6
CONTINUOUS
 62
1
 10
48.300007
 20
61.169679
 11
48.300007
 21
61.249679
  0
ARC
  8
0
  6
CONTINUOUS
 62
1
 10
48.219804
 20
61.453724
 40
0.219242
 50
291.458003
 51
338.866664
  0
ARC
  8
0
  6
CONTINUOUS
 62
1
 10
48.481981
 20
61.048344
 40
0.331393
 50
100.023760
 51
142.434079
  0
ARC
  8
0
  6
CONTINUOUS
 62
1
 10
48.513642
 20
61.159827
 40
0.232687
 50
112.578948
 51
157.096041
  0
LINE
  8
0
  6
CONTINUOUS
 62
1
 10
48.219302
 20
61.250386
 11
48.299300
 21
61.250386
  0
LINE
  8
0
  6
CONTINUOUS
 62
1
 10
48.219302
 20
112.388971
 11
48.219302
 21
61.250386
  0
ARC
  8
0
  6
CONTINUOUS
 62
1
 10
48.220521
 20
112.186350
 40
0.218314
 50
21.025431
 51
68.648535
  0
LINE
  8
0
  6
CONTINUOUS
 62
1
 10
48.300007
 20
112.469681
 11
48.300007
 21
112.389680
  0
LINE
  8
0
  6
CONTINUOUS
 62
1
 10
65.619117
 20
48.858192
 11
65.715365
 21
48.794844
  0
LINE
  8
0
  6
CONTINUOUS
 62
1
 10
65.715365
 20
48.794844
 11
65.783877
 21
48.705133
  0
LINE
  8
0
  6
CONTINUOUS
 62
1
 10
65.783877
 20
48.705133
 11
65.816930
 21
48.599169
  0
LINE
  8
0
  6
CONTINUOUS
 62
1
 10
65.816930
 20
48.599169
 11
65.810798
 21
48.488898
  0
LINE
  8
0
  6
CONTINUOUS
 62
1
 10
65.810798
 20
48.488898
 11
65.766172
 21
48.386749
  0
LINE
  8
0
  6
CONTINUOUS
 62
1
 10
65.766172
 20
48.386749
 11
65.688084
 21
48.304236
  0
LINE
  8
0
  6
CONTINUOUS
 62
1
 10
65.688084
 20
48.304236
 11
65.585334
 21
48.250660
  0
LINE
  8
0
  6
CONTINUOUS
 62
1
 10
65.585334
 20
48.250660
 11
65.469504
 21
48.232060
  0
LINE
  8
0
  6
CONTINUOUS
 62
1
 10
65.469504
 20
48.232060
 11
65.353652
 21
48.250534
  0
LINE
  8
0
  6
CONTINUOUS
 62
1
 10
65.353652
 20
48.250534
 11
65.250836
 21
48.303997
  0
LINE
  8
0
  6
CONTINUOUS
 62
1
 10
65.250836
 20
48.303997
 11
65.172645
 21
48.386424
  0
LINE
  8
0
  6
CONTINUOUS
 62
1
 10
65.172645
 20
48.386424
 11
65.127893
 21
48.488524
  0
LINE
  8
0
  6
CONTINUOUS
 62
1
 10
65.127893
 20
48.488524
 11
65.121625
 21
48.598789
  0
LINE
  8
0
  6
CONTINUOUS
 62
1
 10
65.121625
 20
48.598789
 11
65.154546
 21
48.704789
  0
LINE
  8
0
  6
CONTINUOUS
 62
1
 10
65.154546
 20
48.704789
 11
65.222947
 21
48.794575
  0
LINE
  8
0
  6
CONTINUOUS
 62
1
 10
65.222947
 20
48.794575
 11
65.319117
 21
48.858027
  0
LINE
  8
0
  6
CONTINUOUS
 62
1
 10
65.619117
 20
48.858192
 11
65.618959
 21
49.112998
  0
LINE
  8
0
  6
CONTINUOUS
 62
1
 10
65.319117
 20
48.858027
 11
65.318959
 21
49.112998
  0
LINE
  8
0
  6
CONTINUOUS
 62
1
 10
91.818913
 20
48.858192
 11
91.915161
 21
48.794844
  0
LINE
  8
0
  6
CONTINUOUS
 62
1
 10
91.915161
 20
48.794844
 11
91.983674
 21
48.705133
  0
LINE
  8
0
  6
CONTINUOUS
 62
1
 10
91.983674
 20
48.705133
 11
92.016726
 21
48.599169
  0
LINE
  8
0
  6
CONTINUOUS
 62
1
 10
92.016726
 20
48.599169
 11
92.010594
 21
48.488898
  0
LINE
  8
0
  6
CONTINUOUS
 62
1
 10
92.010594
 20
48.488898
 11
91.965968
 21
48.386749
  0
LINE
  8
0
  6
CONTINUOUS
 62
1
 10
91.965968
 20
48.386749
 11
91.887880
 21
48.304236
  0
LINE
  8
0
  6
CONTINUOUS
 62
1
 10
91.887880
 20
48.304236
 11
91.785131
 21
48.250660
  0
LINE
  8
0
  6
CONTINUOUS
 62
1
 10
91.785131
 20
48.250660
 11
91.669301
 21
48.232060
  0
LINE
  8
0
  6
CONTINUOUS
 62
1
 10
91.669301
 20
48.232060
 11
91.553449
 21
48.250534
  0
LINE
  8
0
  6
CONTINUOUS
 62
1
 10
91.553449
 20
48.250534
 11
91.450633
 21
48.303997
  0
LINE
  8
0
  6
CONTINUOUS
 62
1
 10
91.450633
 20
48.303997
 11
91.372442
 21
48.386424
  0
LINE
  8
0
  6
CONTINUOUS
 62
1
 10
91.372442
 20
48.386424
 11
91.327689
 21
48.488524
  0
LINE
  8
0
  6
CONTINUOUS
 62
1
 10
91.327689
 20
48.488524
 11
91.321422
 21
48.598789
  0
LINE
  8
0
  6
CONTINUOUS
 62
1
 10
91.321422
 20
48.598789
 11
91.354343
 21
48.704789
  0
LINE
  8
0
  6
CONTINUOUS
 62
1
 10
91.354343
 20
48.704789
 11
91.422744
 21
48.794575
  0
LINE
  8
0
  6
CONTINUOUS
 62
1
 10
91.422744
 20
48.794575
 11
91.518913
 21
48.858027
  0
LINE
  8
0
  6
CONTINUOUS
 62
1
 10
91.818913
 20
48.858192
 11
91.818755
 21
49.112998
  0
LINE
  8
0
  6
CONTINUOUS
 62
1
 10
91.518913
 20
48.858027
 11
91.518755
 21
49.112998
  0
LINE
  8
0
  6
CONTINUOUS
 62
1
 10
106.069302
 20
47.964309
 11
106.069302
 21
49.233998
  0
LINE
  8
0
  6
CONTINUOUS
 62
1
 10
46.069300
 20
47.964309
 11
46.069300
 21
49.233998
  0
ARC
  8
0
  6
CONTINUOUS
 62
1
 10
51.101450
 20
48.945339
 40
0.714004
 50
267.419281
 51
13.580718
  0
ARC
  8
0
  6
CONTINUOUS
 62
1
 10
51.039527
 20
48.947298
 40
0.715858
 50
166.616295
 51
272.383707
  0
ARC
  8
0
  6
CONTINUOUS
 62
1
 10
51.093598
 20
48.957995
 40
0.726001
 50
268.082090
 51
358.356349
  0
ARC
  8
0
  6
CONTINUOUS
 62
1
 10
51.045006
 20
48.957997
 40
0.726003
 50
181.643834
 51
271.917727
  0
ARC
  8
0
  6
CONTINUOUS
 62
1
 10
65.469301
 20
48.576256
 40
0.350320
 50
182.447725
 51
357.552275
  0
LINE
  8
0
  6
CONTINUOUS
 62
1
 10
65.319117
 20
48.858369
 11
65.318960
 21
49.112998
  0
ARC
  8
0
  6
CONTINUOUS
 62
1
 10
65.481245
 20
48.556431
 40
0.238106
 50
1.170380
 51
80.837886
  0
ARC
  8
0
  6
CONTINUOUS
 62
1
 10
65.457328
 20
48.556448
 40
0.238076
 50
99.225736
 51
178.833541
  0
LINE
  8
0
  6
CONTINUOUS
 62
1
 10
65.519158
 20
48.791499
 11
65.518976
 21
49.086956
  0
LINE
  8
0
  6
CONTINUOUS
 62
1
 10
65.558975
 20
49.087320
 11
65.558959
 21
49.112998
  0
ARC
  8
0
  6
CONTINUOUS
 62
1
 10
91.669097
 20
48.576256
 40
0.350320
 50
182.447793
 51
357.552207
  0
LINE
  8
0
  6
CONTINUOUS
 62
1
 10
91.518913
 20
48.858369
 11
91.518756
 21
49.112998
  0
ARC
  8
0
  6
CONTINUOUS
 62
1
 10
91.681041
 20
48.556431
 40
0.238106
 50
1.170406
 51
80.837649
  0
ARC
  8
0
  6
CONTINUOUS
 62
1
 10
91.657124
 20
48.556448
 40
0.238076
 50
99.225736
 51
178.833541
  0
LINE
  8
0
  6
CONTINUOUS
 62
1
 10
91.718955
 20
48.791499
 11
91.718772
 21
49.086956
  0
LINE
  8
0
  6
CONTINUOUS
 62
1
 10
91.758772
 20
49.087320
 11
91.758756
 21
49.112998
  0
LINE
  8
0
  6
CONTINUOUS
 62
1
 10
50.419300
 20
48.937171
 11
50.761330
 21
49.112998
  0
LINE
  8
0
  6
CONTINUOUS
 62
1
 10
51.708108
 20
48.824304
 11
51.241292
 21
48.584327
  0
ARC
  8
0
  6
CONTINUOUS
 62
1
 10
51.168979
 20
48.715598
 40
0.149871
 50
182.911451
 51
298.848870
  0
LINE
  8
0
  6
CONTINUOUS
 62
1
 10
51.719301
 20
48.937171
 11
51.699683
 21
49.086101
  0
LINE
  8
0
  6
CONTINUOUS
 62
1
 10
51.699683
 20
49.086101
 11
51.691786
 21
49.112998
  0
LINE
  8
0
  6
CONTINUOUS
 62
1
 10
50.446814
 20
49.112998
 11
50.430494
 21
49.050037
  0
LINE
  8
0
  6
CONTINUOUS
 62
1
 10
65.558975
 20
49.086978
 11
65.558959
 21
49.112998
  0
LINE
  8
0
  6
CONTINUOUS
 62
1
 10
65.518976
 20
49.086956
 11
65.558975
 21
49.086978
  0
LINE
  8
0
  6
CONTINUOUS
 62
1
 10
65.519158
 20
48.791157
 11
65.518976
 21
49.086956
  0
LINE
  8
0
  6
CONTINUOUS
 62
1
 10
65.519158
 20
48.791157
 11
65.608974
 21
48.755792
  0
LINE
  8
0
  6
CONTINUOUS
 62
1
 10
65.608974
 20
48.755792
 11
65.677597
 21
48.690864
  0
LINE
  8
0
  6
CONTINUOUS
 62
1
 10
65.677597
 20
48.690864
 11
65.714614
 21
48.606225
  0
LINE
  8
0
  6
CONTINUOUS
 62
1
 10
65.714614
 20
48.606225
 11
65.714411
 21
48.514717
  0
LINE
  8
0
  6
CONTINUOUS
 62
1
 10
65.714411
 20
48.514717
 11
65.677017
 21
48.430224
  0
LINE
  8
0
  6
CONTINUOUS
 62
1
 10
65.677017
 20
48.430224
 11
65.608106
 21
48.365566
  0
LINE
  8
0
  6
CONTINUOUS
 62
1
 10
65.608106
 20
48.365566
 11
65.518134
 21
48.330555
  0
LINE
  8
0
  6
CONTINUOUS
 62
1
 10
65.518134
 20
48.330555
 11
65.420753
 21
48.330501
  0
LINE
  8
0
  6
CONTINUOUS
 62
1
 10
65.420753
 20
48.330501
 11
65.330737
 21
48.365415
  0
LINE
  8
0
  6
CONTINUOUS
 62
1
 10
65.330737
 20
48.365415
 11
65.261746
 21
48.429996
  0
LINE
  8
0
  6
CONTINUOUS
 62
1
 10
65.261746
 20
48.429996
 11
65.224248
 21
48.514449
  0
LINE
  8
0
  6
CONTINUOUS
 62
1
 10
65.224248
 20
48.514449
 11
65.223931
 21
48.605957
  0
LINE
  8
0
  6
CONTINUOUS
 62
1
 10
65.223931
 20
48.605957
 11
65.260844
 21
48.690636
  0
LINE
  8
0
  6
CONTINUOUS
 62
1
 10
65.260844
 20
48.690636
 11
65.329387
 21
48.755639
  0
LINE
  8
0
  6
CONTINUOUS
 62
1
 10
65.329387
 20
48.755639
 11
65.419159
 21
48.791102
  0
LINE
  8
0
  6
CONTINUOUS
 62
1
 10
65.419159
 20
48.791102
 11
65.418975
 21
49.086901
  0
LINE
  8
0
  6
CONTINUOUS
 62
1
 10
65.378975
 20
49.086880
 11
65.418975
 21
49.086901
  0
LINE
  8
0
  6
CONTINUOUS
 62
1
 10
65.378975
 20
49.086880
 11
65.378959
 21
49.112998
  0
LINE
  8
0
  6
CONTINUOUS
 62
1
 10
91.758772
 20
49.086978
 11
91.758756
 21
49.112998
  0
LINE
  8
0
  6
CONTINUOUS
 62
1
 10
91.718772
 20
49.086956
 11
91.758772
 21
49.086978
  0
LINE
  8
0
  6
CONTINUOUS
 62
1
 10
91.718955
 20
48.791157
 11
91.718772
 21
49.086956
  0
LINE
  8
0
  6
CONTINUOUS
 62
1
 10
91.718955
 20
48.791157
 11
91.808770
 21
48.755792
  0
LINE
  8
0
  6
CONTINUOUS
 62
1
 10
91.808770
 20
48.755792
 11
91.877393
 21
48.690864
  0
LINE
  8
0
  6
CONTINUOUS
 62
1
 10
91.877393
 20
48.690864
 11
91.914410
 21
48.606225
  0
LINE
  8
0
  6
CONTINUOUS
 62
1
 10
91.914410
 20
48.606225
 11
91.914208
 21
48.514717
  0
LINE
  8
0
  6
CONTINUOUS
 62
1
 10
91.914208
 20
48.514717
 11
91.876813
 21
48.430224
  0
LINE
  8
0
  6
CONTINUOUS
 62
1
 10
91.876813
 20
48.430224
 11
91.807903
 21
48.365566
  0
LINE
  8
0
  6
CONTINUOUS
 62
1
 10
91.807903
 20
48.365566
 11
91.717931
 21
48.330555
  0
LINE
  8
0
  6
CONTINUOUS
 62
1
 10
91.717931
 20
48.330555
 11
91.620549
 21
48.330501
  0
LINE
  8
0
  6
CONTINUOUS
 62
1
 10
91.620549
 20
48.330501
 11
91.530534
 21
48.365415
  0
LINE
  8
0
  6
CONTINUOUS
 62
1
 10
91.530534
 20
48.365415
 11
91.461543
 21
48.429996
  0
LINE
  8
0
  6
CONTINUOUS
 62
1
 10
91.461543
 20
48.429996
 11
91.424045
 21
48.514449
  0
LINE
  8
0
  6
CONTINUOUS
 62
1
 10
91.424045
 20
48.514449
 11
91.423727
 21
48.605957
  0
LINE
  8
0
  6
CONTINUOUS
 62
1
 10
91.423727
 20
48.605957
 11
91.460640
 21
48.690636
  0
LINE
  8
0
  6
CONTINUOUS
 62
1
 10
91.460640
 20
48.690636
 11
91.529183
 21
48.755639
  0
LINE
  8
0
  6
CONTINUOUS
 62
1
 10
91.529183
 20
48.755639
 11
91.618955
 21
48.791102
  0
LINE
  8
0
  6
CONTINUOUS
 62
1
 10
91.618955
 20
48.791102
 11
91.618771
 21
49.086901
  0
LINE
  8
0
  6
CONTINUOUS
 62
1
 10
91.578772
 20
49.086880
 11
91.618771
 21
49.086901
  0
LINE
  8
0
  6
CONTINUOUS
 62
1
 10
91.578772
 20
49.086880
 11
91.578756
 21
49.112998
  0
ARC
  8
0
  6
CONTINUOUS
 62
1
 10
51.169194
 20
48.710182
 40
0.049958
 50
182.912794
 51
298.848181
  0
LINE
  8
0
  6
CONTINUOUS
 62
1
 10
51.119300
 20
48.707644
 11
51.119300
 21
49.112998
  0
LINE
  8
0
  6
CONTINUOUS
 62
1
 10
50.430494
 20
49.049695
 11
50.553634
 21
49.112998
  0
LINE
  8
0
  6
CONTINUOUS
 62
1
 10
51.719301
 20
48.936829
 11
51.699683
 21
49.085759
  0
LINE
  8
0
  6
CONTINUOUS
 62
1
 10
51.699683
 20
49.085759
 11
51.691678
 21
49.112998
  0
LINE
  8
0
  6
CONTINUOUS
 62
1
 10
50.446924
 20
49.112998
 11
50.430494
 21
49.049695
  0
LINE
  8
0
  6
CONTINUOUS
 62
1
 10
51.719301
 20
48.936829
 11
51.193298
 21
48.666424
  0
LINE
  8
0
  6
CONTINUOUS
 62
1
 10
50.430494
 20
49.050037
 11
50.430494
 21
49.049695
  0
LINE
  8
0
  6
CONTINUOUS
 62
1
 10
51.719301
 20
48.937171
 11
51.719301
 21
48.936829
  0
LINE
  8
0
  6
CONTINUOUS
 62
1
 10
65.319117
 20
48.858369
 11
65.319117
 21
48.858027
  0
LINE
  8
0
  6
CONTINUOUS
 62
1
 10
91.518913
 20
48.858369
 11
91.518913
 21
48.858027
  0
LINE
  8
0
  6
CONTINUOUS
 62
1
 10
65.558975
 20
49.087320
 11
65.558975
 21
49.086978
  0
LINE
  8
0
  6
CONTINUOUS
 62
1
 10
91.758772
 20
49.087320
 11
91.758772
 21
49.086978
  0
ARC
  8
0
  6
CONTINUOUS
 62
1
 10
51.168979
 20
48.715256
 40
0.149871
 50
182.911451
 51
298.848870
  0
LINE
  8
0
  6
CONTINUOUS
 62
1
 10
51.708108
 20
48.823962
 11
51.241292
 21
48.583985
  0
ARC
  8
0
  6
CONTINUOUS
 62
1
 10
51.071838
 20
48.973273
 40
0.653554
 50
183.196652
 51
346.793591
  0
LINE
  8
0
  6
CONTINUOUS
 62
1
 10
50.419300
 20
48.936829
 11
50.761994
 21
49.112998
  0
LINE
  8
0
  6
CONTINUOUS
 62
1
 10
51.019302
 20
48.707644
 11
51.019302
 21
49.112998
  0
LINE
  8
0
  6
CONTINUOUS
 62
1
 10
50.419300
 20
48.937171
 11
50.419300
 21
48.936829
  0
LINE
  8
0
  6
CONTINUOUS
 62
1
 10
65.519158
 20
48.791499
 11
65.519158
 21
48.791157
  0
LINE
  8
0
  6
CONTINUOUS
 62
1
 10
91.718955
 20
48.791499
 11
91.718955
 21
48.791157
  0
LINE
  8
0
  6
CONTINUOUS
 62
1
 10
51.708108
 20
48.824304
 11
51.708108
 21
48.823962
  0
LINE
  8
0
  6
CONTINUOUS
 62
1
 10
106.069302
 20
47.253691
 11
106.069302
 21
47.964309
  0
LINE
  8
0
  6
CONTINUOUS
 62
1
 10
46.069300
 20
47.253691
 11
46.069300
 21
47.964309
  0
LINE
  8
0
  6
CONTINUOUS
 62
1
 10
106.069302
 20
125.694676
 11
105.989301
 21
125.694676
  0
LINE
  8
0
  6
CONTINUOUS
 62
1
 10
106.069302
 20
125.537326
 11
106.069302
 21
125.694676
  0
LINE
  8
0
  6
CONTINUOUS
 62
1
 10
106.069302
 20
122.234692
 11
106.069302
 21
125.537326
  0
LINE
  8
0
  6
CONTINUOUS
 62
1
 10
106.069302
 20
120.344677
 11
105.989301
 21
120.344677
  0
LINE
  8
0
  6
CONTINUOUS
 62
1
 10
106.069302
 20
120.344677
 11
106.069302
 21
122.234692
  0
LINE
  8
0
  6
CONTINUOUS
 62
1
 10
46.149301
 20
125.694676
 11
46.069300
 21
125.694676
  0
LINE
  8
0
  6
CONTINUOUS
 62
1
 10
46.069300
 20
125.537326
 11
46.069300
 21
125.694676
  0
LINE
  8
0
  6
CONTINUOUS
 62
1
 10
46.069300
 20
122.234692
 11
46.069300
 21
125.537326
  0
LINE
  8
0
  6
CONTINUOUS
 62
1
 10
46.149301
 20
120.344677
 11
46.069300
 21
120.344677
  0
LINE
  8
0
  6
CONTINUOUS
 62
1
 10
46.069300
 20
120.344677
 11
46.069300
 21
122.234692
  0
LINE
  8
0
  6
CONTINUOUS
 62
1
 10
105.989301
 20
125.769677
 11
46.149301
 21
125.769677
  0
LINE
  8
0
  6
CONTINUOUS
 62
1
 10
105.989301
 20
125.769677
 11
105.989301
 21
125.511619
  0
LINE
  8
0
  6
CONTINUOUS
 62
1
 10
46.149301
 20
125.769677
 11
46.149301
 21
125.511619
  0
LINE
  8
0
  6
CONTINUOUS
 62
1
 10
105.989301
 20
125.511619
 11
105.989301
 21
122.181924
  0
LINE
  8
0
  6
CONTINUOUS
 62
1
 10
46.149301
 20
125.511619
 11
46.149301
 21
122.181924
  0
LINE
  8
0
  6
CONTINUOUS
 62
1
 10
105.989301
 20
122.181924
 11
105.989301
 21
120.269676
  0
LINE
  8
0
  6
CONTINUOUS
 62
1
 10
105.989301
 20
120.269676
 11
46.149301
 21
120.269676
  0
LINE
  8
0
  6
CONTINUOUS
 62
1
 10
46.149301
 20
122.181924
 11
46.149301
 21
120.269676
  0
LINE
  8
0
  6
CONTINUOUS
 62
1
 10
79.869301
 20
72.484679
 11
79.869301
 21
72.521245
  0
LINE
  8
0
  6
CONTINUOUS
 62
1
 10
79.969301
 20
73.613989
 11
79.969301
 21
73.654679
  0
LINE
  8
0
  6
CONTINUOUS
 62
1
 10
72.269301
 20
72.526442
 11
72.269301
 21
72.484679
  0
LINE
  8
0
  6
CONTINUOUS
 62
1
 10
72.169301
 20
73.654679
 11
72.169301
 21
73.607377
  0
LINE
  8
0
  6
CONTINUOUS
 62
1
 10
79.269301
 20
67.269679
 11
79.944301
 21
67.269679
  0
LINE
  8
0
  6
CONTINUOUS
 62
1
 10
78.594301
 20
67.269679
 11
79.269301
 21
67.269679
  0
LINE
  8
0
  6
CONTINUOUS
 62
1
 10
74.069301
 20
66.619679
 11
74.169301
 21
66.619679
  0
LINE
  8
0
  6
CONTINUOUS
 62
1
 10
74.069301
 20
66.619679
 11
74.069301
 21
73.964678
  0
LINE
  8
0
  6
CONTINUOUS
 62
1
 10
77.969301
 20
66.619679
 11
78.069301
 21
66.619679
  0
LINE
  8
0
  6
CONTINUOUS
 62
1
 10
78.069301
 20
66.619679
 11
78.069301
 21
73.964678
  0
LINE
  8
0
  6
CONTINUOUS
 62
1
 10
74.069301
 20
66.619679
 11
64.769301
 21
66.619679
  0
LINE
  8
0
  6
CONTINUOUS
 62
1
 10
64.169301
 20
66.619679
 11
61.769300
 21
66.619679
  0
LINE
  8
0
  6
CONTINUOUS
 62
1
 10
61.169301
 20
66.619679
 11
56.569302
 21
66.619679
  0
LINE
  8
0
  6
CONTINUOUS
 62
1
 10
74.069301
 20
66.619679
 11
74.069301
 21
66.519679
  0
LINE
  8
0
  6
CONTINUOUS
 62
1
 10
78.069301
 20
66.619679
 11
78.069301
 21
66.519679
  0
LINE
  8
0
  6
CONTINUOUS
 62
1
 10
95.569300
 20
66.619679
 11
90.969301
 21
66.619679
  0
LINE
  8
0
  6
CONTINUOUS
 62
1
 10
90.369302
 20
66.619679
 11
87.969301
 21
66.619679
  0
LINE
  8
0
  6
CONTINUOUS
 62
1
 10
87.369301
 20
66.619679
 11
78.069301
 21
66.619679
  0
LINE
  8
0
  6
CONTINUOUS
 62
1
 10
98.989301
 20
112.319680
 11
98.219300
 21
112.319680
  0
LINE
  8
0
  6
CONTINUOUS
 62
1
 10
53.919301
 20
112.319680
 11
53.149300
 21
112.319680
  0
LINE
  8
0
  6
CONTINUOUS
 62
1
 10
47.624301
 20
60.620679
 11
47.624301
 21
60.820679
  0
LINE
  8
0
  6
CONTINUOUS
 62
1
 10
46.314302
 20
60.620679
 11
47.624301
 21
60.620679
  0
LINE
  8
0
  6
CONTINUOUS
 62
1
 10
46.069300
 20
60.620679
 11
46.314302
 21
60.620679
  0
LINE
  8
0
  6
CONTINUOUS
 62
1
 10
46.069300
 20
120.344677
 11
46.069300
 21
60.620679
  0
LINE
  8
0
  6
CONTINUOUS
 62
1
 10
104.514300
 20
60.620679
 11
105.824300
 21
60.620679
  0
LINE
  8
0
  6
CONTINUOUS
 62
1
 10
104.514300
 20
60.820679
 11
104.514300
 21
60.620679
  0
LINE
  8
0
  6
CONTINUOUS
 62
1
 10
106.069302
 20
60.620679
 11
106.069302
 21
120.344677
  0
LINE
  8
0
  6
CONTINUOUS
 62
1
 10
105.824300
 20
60.620679
 11
106.069302
 21
60.620679
  0
LINE
  8
0
  6
CONTINUOUS
 62
1
 10
47.869300
 20
60.820679
 11
47.624301
 21
60.820679
  0
LINE
  8
0
  6
CONTINUOUS
 62
1
 10
47.869300
 20
120.269676
 11
47.869300
 21
60.820679
  0
LINE
  8
0
  6
CONTINUOUS
 62
1
 10
46.189302
 20
51.442998
 11
46.069300
 21
51.442998
  0
LINE
  8
0
  6
CONTINUOUS
 62
1
 10
46.069300
 20
51.442998
 11
46.069300
 21
60.574679
  0
LINE
  8
0
  6
CONTINUOUS
 62
1
 10
46.069300
 20
60.574679
 11
46.314302
 21
60.574679
  0
LINE
  8
0
  6
CONTINUOUS
 62
1
 10
46.314302
 20
60.574679
 11
47.869300
 21
60.574679
  0
LINE
  8
0
  6
CONTINUOUS
 62
1
 10
105.824300
 20
60.574679
 11
104.269301
 21
60.574679
  0
LINE
  8
0
  6
CONTINUOUS
 62
1
 10
47.869300
 20
60.574679
 11
47.869300
 21
60.819679
  0
LINE
  8
0
  6
CONTINUOUS
 62
1
 10
104.269301
 20
60.819679
 11
90.969301
 21
60.819679
  0
LINE
  8
0
  6
CONTINUOUS
 62
1
 10
90.369302
 20
60.819679
 11
87.969301
 21
60.819679
  0
LINE
  8
0
  6
CONTINUOUS
 62
1
 10
87.369301
 20
60.819679
 11
64.769301
 21
60.819679
  0
LINE
  8
0
  6
CONTINUOUS
 62
1
 10
64.169301
 20
60.819679
 11
61.769300
 21
60.819679
  0
LINE
  8
0
  6
CONTINUOUS
 62
1
 10
61.169301
 20
60.819679
 11
47.869300
 21
60.819679
  0
LINE
  8
0
  6
CONTINUOUS
 62
1
 10
104.269301
 20
60.819679
 11
104.269301
 21
60.574679
  0
LINE
  8
0
  6
CONTINUOUS
 62
1
 10
105.949300
 20
51.442998
 11
105.824300
 21
51.442998
  0
LINE
  8
0
  6
CONTINUOUS
 62
1
 10
105.949300
 20
49.112998
 11
105.949300
 21
51.442998
  0
LINE
  8
0
  6
CONTINUOUS
 62
1
 10
46.189302
 20
49.112998
 11
46.189302
 21
51.442998
  0
LINE
  8
0
  6
CONTINUOUS
 62
1
 10
46.314302
 20
51.442998
 11
46.189302
 21
51.442998
  0
LINE
  8
0
  6
CONTINUOUS
 62
1
 10
104.514300
 20
60.820679
 11
104.269301
 21
60.820679
  0
LINE
  8
0
  6
CONTINUOUS
 62
1
 10
104.269301
 20
60.820679
 11
104.269301
 21
120.269676
  0
LINE
  8
0
  6
CONTINUOUS
 62
1
 10
106.069302
 20
60.574679
 11
106.069302
 21
51.442998
  0
LINE
  8
0
  6
CONTINUOUS
 62
1
 10
106.069302
 20
51.442998
 11
105.949300
 21
51.442998
  0
LINE
  8
0
  6
CONTINUOUS
 62
1
 10
105.824300
 20
60.574679
 11
106.069302
 21
60.574679
  0
LINE
  8
0
  6
CONTINUOUS
 62
1
 10
46.069300
 20
51.417998
 11
46.189302
 21
51.417998
  0
LINE
  8
0
  6
CONTINUOUS
 62
1
 10
46.069300
 20
49.233998
 11
46.069300
 21
51.417998
  0
LINE
  8
0
  6
CONTINUOUS
 62
1
 10
106.069302
 20
51.417998
 11
105.949300
 21
51.417998
  0
LINE
  8
0
  6
CONTINUOUS
 62
1
 10
106.069302
 20
51.417998
 11
106.069302
 21
49.233998
  0
LINE
  8
0
  6
CONTINUOUS
 62
1
 10
46.069300
 20
51.417998
 11
46.069300
 21
51.442998
  0
LINE
  8
0
  6
CONTINUOUS
 62
1
 10
106.069302
 20
51.442998
 11
106.069302
 21
51.417998
  0
LINE
  8
0
  6
CONTINUOUS
 62
1
 10
47.869300
 20
60.944679
 11
47.994300
 21
60.944679
  0
LINE
  8
0
  6
CONTINUOUS
 62
1
 10
104.144302
 20
60.944679
 11
104.144302
 21
60.819679
  0
LINE
  8
0
  6
CONTINUOUS
 62
1
 10
47.994300
 20
60.819679
 11
47.994300
 21
60.944679
  0
LINE
  8
0
  6
CONTINUOUS
 62
1
 10
104.144302
 20
60.944679
 11
104.269301
 21
60.944679
  0
LINE
  8
0
  6
CONTINUOUS
 62
1
 10
77.969301
 20
66.519679
 11
87.369301
 21
66.519679
  0
LINE
  8
0
  6
CONTINUOUS
 62
1
 10
87.969301
 20
66.519679
 11
90.369302
 21
66.519679
  0
LINE
  8
0
  6
CONTINUOUS
 62
1
 10
90.969301
 20
66.519679
 11
95.569300
 21
66.519679
  0
LINE
  8
0
  6
CONTINUOUS
 62
1
 10
98.989301
 20
112.419679
 11
98.219300
 21
112.419679
  0
LINE
  8
0
  6
CONTINUOUS
 62
1
 10
77.969301
 20
73.964678
 11
77.969301
 21
66.519679
  0
LINE
  8
0
  6
CONTINUOUS
 62
1
 10
56.569302
 20
66.519679
 11
61.169301
 21
66.519679
  0
LINE
  8
0
  6
CONTINUOUS
 62
1
 10
61.769300
 20
66.519679
 11
64.169301
 21
66.519679
  0
LINE
  8
0
  6
CONTINUOUS
 62
1
 10
64.769301
 20
66.519679
 11
74.169301
 21
66.519679
  0
LINE
  8
0
  6
CONTINUOUS
 62
1
 10
74.169301
 20
66.519679
 11
74.169301
 21
73.964678
  0
LINE
  8
0
  6
CONTINUOUS
 62
1
 10
53.919301
 20
112.419679
 11
53.149300
 21
112.419679
  0
LINE
  8
0
  6
CONTINUOUS
 62
1
 10
104.709300
 20
60.574679
 11
104.709300
 21
60.620679
  0
LINE
  8
0
  6
CONTINUOUS
 62
1
 10
104.789301
 20
60.574679
 11
104.789301
 21
60.620679
  0
LINE
  8
0
  6
CONTINUOUS
 62
1
 10
106.069302
 20
60.620679
 11
106.069302
 21
60.574679
  0
ARC
  8
0
  6
CONTINUOUS
 62
1
 10
105.894966
 20
125.597001
 40
0.160605
 50
37.457281
 51
54.029483
  0
LINE
  8
0
  6
CONTINUOUS
 62
1
 10
47.349301
 20
60.620679
 11
47.349301
 21
60.574679
  0
LINE
  8
0
  6
CONTINUOUS
 62
1
 10
47.429302
 20
60.620679
 11
47.429302
 21
60.574679
  0
LINE
  8
0
  6
CONTINUOUS
 62
1
 10
46.069300
 20
60.574679
 11
46.069300
 21
60.620679
  0
ARC
  8
0
  6
CONTINUOUS
 62
1
 10
46.246034
 20
125.592830
 40
0.165274
 50
125.823294
 51
141.959082
  0
LINE
  8
0
  6
CONTINUOUS
 62
1
 10
87.499640
 20
128.139677
 11
87.499640
 21
127.599677
  0
LINE
  8
0
  6
CONTINUOUS
 62
1
 10
87.499640
 20
128.139677
 11
88.482292
 21
128.139677
  0
LINE
  8
0
  6
CONTINUOUS
 62
1
 10
88.482292
 20
128.139677
 11
88.482292
 21
127.599677
  0
LINE
  8
0
  6
CONTINUOUS
 62
1
 10
87.499640
 20
127.599677
 11
88.482292
 21
127.599677
  0
LINE
  8
0
  6
CONTINUOUS
 62
1
 10
85.536650
 20
128.139677
 11
85.536650
 21
127.599677
  0
LINE
  8
0
  6
CONTINUOUS
 62
1
 10
85.536650
 20
127.599677
 11
87.499640
 21
127.599677
  0
LINE
  8
0
  6
CONTINUOUS
 62
1
 10
85.536650
 20
128.139677
 11
87.499640
 21
128.139677
  0
LINE
  8
0
  6
CONTINUOUS
 62
1
 10
84.556310
 20
128.139677
 11
84.556310
 21
127.599677
  0
LINE
  8
0
  6
CONTINUOUS
 62
1
 10
84.556310
 20
127.599677
 11
85.536650
 21
127.599677
  0
LINE
  8
0
  6
CONTINUOUS
 62
1
 10
84.556310
 20
128.139677
 11
85.536650
 21
128.139677
  0
LINE
  8
0
  6
CONTINUOUS
 62
1
 10
84.831801
 20
126.939680
 11
88.206801
 21
126.939680
  0
LINE
  8
0
  6
CONTINUOUS
 62
1
 10
85.456801
 20
129.034676
 11
87.581801
 21
129.034676
  0
LINE
  8
0
  6
CONTINUOUS
 62
1
 10
85.613834
 20
126.109680
 11
85.613834
 21
125.769677
  0
LINE
  8
0
  6
CONTINUOUS
 62
1
 10
87.424767
 20
126.109680
 11
87.424767
 21
125.769677
  0
LINE
  8
0
  6
CONTINUOUS
 62
1
 10
85.613834
 20
126.109680
 11
87.424767
 21
126.109680
  0
LINE
  8
0
  6
CONTINUOUS
 62
1
 10
87.506335
 20
126.109680
 11
87.506335
 21
125.769677
  0
LINE
  8
0
  6
CONTINUOUS
 62
1
 10
87.424767
 20
126.109680
 11
87.506335
 21
126.109680
  0
LINE
  8
0
  6
CONTINUOUS
 62
1
 10
85.532267
 20
126.109680
 11
85.532267
 21
125.769677
  0
LINE
  8
0
  6
CONTINUOUS
 62
1
 10
85.532267
 20
126.109680
 11
85.613834
 21
126.109680
  0
LINE
  8
0
  6
CONTINUOUS
 62
1
 10
88.411801
 20
126.109680
 11
88.411801
 21
125.769677
  0
LINE
  8
0
  6
CONTINUOUS
 62
1
 10
87.506335
 20
126.109680
 11
88.411801
 21
126.109680
  0
LINE
  8
0
  6
CONTINUOUS
 62
1
 10
84.626801
 20
126.109680
 11
84.626801
 21
125.769677
  0
LINE
  8
0
  6
CONTINUOUS
 62
1
 10
84.626801
 20
126.109680
 11
85.532267
 21
126.109680
  0
LINE
  8
0
  6
CONTINUOUS
 62
1
 10
84.934301
 20
126.404681
 11
88.104301
 21
126.404681
  0
LINE
  8
0
  6
CONTINUOUS
 62
1
 10
101.213133
 20
126.769676
 11
101.022206
 21
126.769676
  0
LINE
  8
0
  6
CONTINUOUS
 62
1
 10
100.387159
 20
126.769676
 11
99.708709
 21
126.769676
  0
LINE
  8
0
  6
CONTINUOUS
 62
1
 10
99.708709
 20
126.769676
 11
99.708615
 21
126.769682
  0
LINE
  8
0
  6
CONTINUOUS
 62
1
 10
99.708615
 20
126.769682
 11
99.705362
 21
126.771595
  0
LINE
  8
0
  6
CONTINUOUS
 62
1
 10
99.705362
 20
126.771595
 11
99.703063
 21
126.775702
  0
LINE
  8
0
  6
CONTINUOUS
 62
1
 10
99.703063
 20
126.775702
 11
99.701464
 21
126.781055
  0
LINE
  8
0
  6
CONTINUOUS
 62
1
 10
99.701464
 20
126.781055
 11
99.700456
 21
126.787444
  0
LINE
  8
0
  6
CONTINUOUS
 62
1
 10
99.700456
 20
126.787444
 11
99.700096
 21
126.794680
  0
ARC
  8
0
  6
CONTINUOUS
 62
1
 10
101.212528
 20
126.794163
 40
0.024494
 50
271.415341
 51
1.210780
  0
LINE
  8
0
  6
CONTINUOUS
 62
1
 10
99.700096
 20
126.864680
 11
99.700456
 21
126.871910
  0
LINE
  8
0
  6
CONTINUOUS
 62
1
 10
99.700456
 20
126.871910
 11
99.701464
 21
126.878305
  0
LINE
  8
0
  6
CONTINUOUS
 62
1
 10
99.701464
 20
126.878305
 11
99.703063
 21
126.883658
  0
LINE
  8
0
  6
CONTINUOUS
 62
1
 10
99.703063
 20
126.883658
 11
99.705362
 21
126.887765
  0
LINE
  8
0
  6
CONTINUOUS
 62
1
 10
99.705362
 20
126.887765
 11
99.708615
 21
126.889678
  0
LINE
  8
0
  6
CONTINUOUS
 62
1
 10
99.708615
 20
126.889678
 11
99.708709
 21
126.889678
  0
LINE
  8
0
  6
CONTINUOUS
 62
1
 10
99.708709
 20
126.889678
 11
100.384610
 21
126.889678
  0
LINE
  8
0
  6
CONTINUOUS
 62
1
 10
101.024368
 20
126.889678
 11
101.213133
 21
126.889678
  0
ARC
  8
0
  6
CONTINUOUS
 62
1
 10
101.212718
 20
126.865373
 40
0.024308
 50
358.365485
 51
89.022039
  0
LINE
  8
0
  6
CONTINUOUS
 62
1
 10
99.700096
 20
126.864680
 11
99.700096
 21
126.794680
  0
LINE
  8
0
  6
CONTINUOUS
 62
1
 10
101.237016
 20
126.864680
 11
101.237016
 21
126.794680
  0
LINE
  8
0
  6
CONTINUOUS
 62
1
 10
99.349309
 20
126.914676
 11
99.356885
 21
126.868405
  0
LINE
  8
0
  6
CONTINUOUS
 62
1
 10
99.356885
 20
126.868405
 11
99.361838
 21
126.859017
  0
ARC
  8
0
  6
CONTINUOUS
 62
1
 10
99.680568
 20
126.913080
 40
0.143423
 50
179.362474
 51
269.064819
  0
LINE
  8
0
  6
CONTINUOUS
 62
1
 10
99.678227
 20
126.769676
 11
99.494300
 21
126.769676
  0
LINE
  8
0
  6
CONTINUOUS
 62
1
 10
99.349309
 20
127.424677
 11
99.349309
 21
126.914676
  0
LINE
  8
0
  6
CONTINUOUS
 62
1
 10
99.374309
 20
127.449682
 11
99.557548
 21
127.449682
  0
ARC
  8
0
  6
CONTINUOUS
 62
1
 10
99.374317
 20
127.424673
 40
0.025008
 50
90.019243
 51
179.991001
  0
LINE
  8
0
  6
CONTINUOUS
 62
1
 10
99.557548
 20
127.449682
 11
99.627724
 21
127.449682
  0
LINE
  8
0
  6
CONTINUOUS
 62
1
 10
99.708709
 20
126.769676
 11
99.678227
 21
126.769676
  0
LINE
  8
0
  6
CONTINUOUS
 62
1
 10
99.678227
 20
126.889678
 11
99.708709
 21
126.889678
  0
LINE
  8
0
  6
CONTINUOUS
 62
1
 10
101.213133
 20
126.889678
 11
101.243615
 21
126.889678
  0
LINE
  8
0
  6
CONTINUOUS
 62
1
 10
101.243615
 20
126.769676
 11
101.213133
 21
126.769676
  0
ARC
  8
0
  6
CONTINUOUS
 62
1
 10
101.244203
 20
126.914763
 40
0.145088
 50
269.767639
 51
359.965664
  0
ARC
  8
0
  6
CONTINUOUS
 62
1
 10
101.243882
 20
126.914918
 40
0.025241
 50
269.392651
 51
359.451127
  0
LINE
  8
0
  6
CONTINUOUS
 62
1
 10
101.269123
 20
126.914676
 11
101.269123
 21
127.424677
  0
ARC
  8
0
  6
CONTINUOUS
 62
1
 10
101.294126
 20
127.424679
 40
0.025003
 50
90.017908
 51
180.002582
  0
LINE
  8
0
  6
CONTINUOUS
 62
1
 10
101.294118
 20
127.449682
 11
101.364293
 21
127.449682
  0
LINE
  8
0
  6
CONTINUOUS
 62
1
 10
101.243615
 20
126.889678
 11
101.244300
 21
126.889678
  0
LINE
  8
0
  6
CONTINUOUS
 62
1
 10
101.110878
 20
127.449682
 11
101.294118
 21
127.449682
  0
LINE
  8
0
  6
CONTINUOUS
 62
1
 10
101.269123
 20
127.424677
 11
101.269301
 21
127.424677
  0
LINE
  8
0
  6
CONTINUOUS
 62
1
 10
101.389291
 20
127.424677
 11
101.389291
 21
126.914676
  0
ARC
  8
0
  6
CONTINUOUS
 62
1
 10
101.364285
 20
127.424676
 40
0.025006
 50
0.004147
 51
89.982193
  0
LINE
  8
0
  6
CONTINUOUS
 62
1
 10
100.363905
 20
126.914676
 11
100.364634
 21
126.907446
  0
LINE
  8
0
  6
CONTINUOUS
 62
1
 10
100.364634
 20
126.907446
 11
100.366658
 21
126.901051
  0
LINE
  8
0
  6
CONTINUOUS
 62
1
 10
100.366658
 20
126.901051
 11
100.369845
 21
126.895698
  0
LINE
  8
0
  6
CONTINUOUS
 62
1
 10
100.369845
 20
126.895698
 11
100.374381
 21
126.891591
  0
LINE
  8
0
  6
CONTINUOUS
 62
1
 10
100.374381
 20
126.891591
 11
100.380696
 21
126.889678
  0
LINE
  8
0
  6
CONTINUOUS
 62
1
 10
100.380696
 20
126.889678
 11
100.380878
 21
126.889678
  0
LINE
  8
0
  6
CONTINUOUS
 62
1
 10
100.380878
 20
126.889678
 11
99.708731
 21
126.889678
  0
LINE
  8
0
  6
CONTINUOUS
 62
1
 10
99.678227
 20
126.889678
 11
99.661196
 21
126.889678
  0
LINE
  8
0
  6
CONTINUOUS
 62
1
 10
100.380878
 20
127.009680
 11
100.380696
 21
127.009680
  0
LINE
  8
0
  6
CONTINUOUS
 62
1
 10
100.380696
 20
127.009680
 11
100.374381
 21
127.007767
  0
LINE
  8
0
  6
CONTINUOUS
 62
1
 10
100.374381
 20
127.007767
 11
100.369845
 21
127.003660
  0
LINE
  8
0
  6
CONTINUOUS
 62
1
 10
100.369845
 20
127.003660
 11
100.366658
 21
126.998307
  0
LINE
  8
0
  6
CONTINUOUS
 62
1
 10
100.366658
 20
126.998307
 11
100.364634
 21
126.991912
  0
LINE
  8
0
  6
CONTINUOUS
 62
1
 10
100.364634
 20
126.991912
 11
100.363905
 21
126.984682
  0
LINE
  8
0
  6
CONTINUOUS
 62
1
 10
99.652725
 20
127.009680
 11
100.380878
 21
127.009680
  0
LINE
  8
0
  6
CONTINUOUS
 62
1
 10
100.363905
 20
126.914676
 11
100.363905
 21
126.984682
  0
LINE
  8
0
  6
CONTINUOUS
 62
1
 10
101.012982
 20
126.864680
 11
101.009774
 21
126.910951
  0
LINE
  8
0
  6
CONTINUOUS
 62
1
 10
101.009774
 20
126.910951
 11
101.000578
 21
126.951995
  0
LINE
  8
0
  6
CONTINUOUS
 62
1
 10
101.000578
 20
126.951995
 11
100.986230
 21
126.984139
  0
LINE
  8
0
  6
CONTINUOUS
 62
1
 10
100.986230
 20
126.984139
 11
100.967602
 21
127.004334
  0
LINE
  8
0
  6
CONTINUOUS
 62
1
 10
100.967602
 20
127.004334
 11
100.950594
 21
127.009680
  0
LINE
  8
0
  6
CONTINUOUS
 62
1
 10
100.392651
 20
127.009680
 11
100.950594
 21
127.009680
  0
LINE
  8
0
  6
CONTINUOUS
 62
1
 10
100.997206
 20
126.329680
 11
100.439263
 21
126.329680
  0
ARC
  8
0
  6
CONTINUOUS
 62
1
 10
100.440170
 20
126.353832
 40
0.024169
 50
177.993455
 51
267.849705
  0
LINE
  8
0
  6
CONTINUOUS
 62
1
 10
100.439263
 20
126.329680
 11
100.412158
 21
126.329680
  0
LINE
  8
0
  6
CONTINUOUS
 62
1
 10
100.387159
 20
126.864680
 11
100.387169
 21
126.864680
  0
LINE
  8
0
  6
CONTINUOUS
 62
1
 10
100.380878
 20
127.009680
 11
100.392651
 21
127.009680
  0
LINE
  8
0
  6
CONTINUOUS
 62
1
 10
101.022206
 20
126.864680
 11
101.012982
 21
126.864680
  0
LINE
  8
0
  6
CONTINUOUS
 62
1
 10
100.938819
 20
127.009680
 11
101.214301
 21
127.009680
  0
LINE
  8
0
  6
CONTINUOUS
 62
1
 10
101.213133
 20
126.889678
 11
101.023295
 21
126.889678
  0
ARC
  8
0
  6
CONTINUOUS
 62
1
 10
99.769408
 20
126.353832
 40
0.024169
 50
177.993455
 51
267.849705
  0
LINE
  8
0
  6
CONTINUOUS
 62
1
 10
99.826386
 20
126.329680
 11
99.768501
 21
126.329680
  0
LINE
  8
0
  6
CONTINUOUS
 62
1
 10
99.768501
 20
126.329680
 11
99.741396
 21
126.329680
  0
ARC
  8
0
  6
CONTINUOUS
 62
1
 10
100.361431
 20
128.043883
 40
1.034274
 50
270.676047
 51
286.911656
  0
ARC
  8
0
  6
CONTINUOUS
 62
1
 10
100.385050
 20
128.038793
 40
1.029177
 50
253.047860
 51
269.364436
  0
LINE
  8
0
  6
CONTINUOUS
 62
1
 10
100.084970
 20
127.054336
 11
100.084970
 21
127.485021
  0
ARC
  8
0
  6
CONTINUOUS
 62
1
 10
100.384904
 20
126.501509
 40
1.028229
 50
90.627996
 51
106.959708
  0
ARC
  8
0
  6
CONTINUOUS
 62
1
 10
100.361431
 20
126.495474
 40
1.034274
 50
73.088344
 51
89.323953
  0
LINE
  8
0
  6
CONTINUOUS
 62
1
 10
100.662298
 20
127.054336
 11
100.662298
 21
127.485021
  0
LINE
  8
0
  6
CONTINUOUS
 62
1
 10
99.938471
 20
127.009680
 11
99.978339
 21
127.013221
  0
LINE
  8
0
  6
CONTINUOUS
 62
1
 10
99.978339
 20
127.013221
 11
100.084970
 21
127.054336
  0
ARC
  8
0
  6
CONTINUOUS
 62
1
 10
99.929285
 20
127.236906
 40
0.292915
 50
57.892784
 51
88.202754
  0
LINE
  8
0
  6
CONTINUOUS
 62
1
 10
99.938471
 20
127.529677
 11
100.373634
 21
127.529677
  0
LINE
  8
0
  6
CONTINUOUS
 62
1
 10
100.804464
 20
127.009680
 11
100.794358
 21
127.009924
  0
LINE
  8
0
  6
CONTINUOUS
 62
1
 10
100.794358
 20
127.009924
 11
100.662298
 21
127.054336
  0
ARC
  8
0
  6
CONTINUOUS
 62
1
 10
100.810374
 20
127.262236
 40
0.267506
 50
91.265843
 51
123.610231
  0
LINE
  8
0
  6
CONTINUOUS
 62
1
 10
100.373634
 20
127.529677
 11
100.804464
 21
127.529677
  0
LINE
  8
0
  6
CONTINUOUS
 62
1
 10
99.791972
 20
127.054336
 11
99.828992
 21
127.035399
  0
LINE
  8
0
  6
CONTINUOUS
 62
1
 10
99.828992
 20
127.035399
 11
99.938471
 21
127.009680
  0
LINE
  8
0
  6
CONTINUOUS
 62
1
 10
99.791972
 20
127.054336
 11
99.791972
 21
127.485021
  0
LINE
  8
0
  6
CONTINUOUS
 62
1
 10
99.791972
 20
127.485021
 11
99.828992
 21
127.503958
  0
LINE
  8
0
  6
CONTINUOUS
 62
1
 10
99.828992
 20
127.503958
 11
99.938471
 21
127.529677
  0
LINE
  8
0
  6
CONTINUOUS
 62
1
 10
100.946630
 20
127.054336
 11
100.804464
 21
127.009680
  0
LINE
  8
0
  6
CONTINUOUS
 62
1
 10
100.946630
 20
127.485021
 11
100.804464
 21
127.529677
  0
LINE
  8
0
  6
CONTINUOUS
 62
1
 10
100.946630
 20
127.054336
 11
100.946630
 21
127.485021
  0
LINE
  8
0
  6
CONTINUOUS
 62
1
 10
99.869301
 20
127.529677
 11
99.938471
 21
127.529677
  0
LINE
  8
0
  6
CONTINUOUS
 62
1
 10
100.804464
 20
127.529677
 11
100.869301
 21
127.529677
  0
ARC
  8
0
  6
CONTINUOUS
 62
1
 10
100.527543
 20
127.169140
 40
0.919537
 50
270.738584
 51
287.944837
  0
ARC
  8
0
  6
CONTINUOUS
 62
1
 10
100.550483
 20
127.164481
 40
0.914869
 50
252.010930
 51
269.305649
  0
LINE
  8
0
  6
CONTINUOUS
 62
1
 10
100.267939
 20
126.294335
 11
100.267939
 21
126.725020
  0
LINE
  8
0
  6
CONTINUOUS
 62
1
 10
100.387159
 20
126.754721
 11
100.330574
 21
126.742490
  0
LINE
  8
0
  6
CONTINUOUS
 62
1
 10
100.330574
 20
126.742490
 11
100.267939
 21
126.725020
  0
LINE
  8
0
  6
CONTINUOUS
 62
1
 10
100.810854
 20
126.294335
 11
100.810854
 21
126.329680
  0
LINE
  8
0
  6
CONTINUOUS
 62
1
 10
100.047162
 20
126.249679
 11
100.107245
 21
126.253220
  0
LINE
  8
0
  6
CONTINUOUS
 62
1
 10
100.107245
 20
126.253220
 11
100.267939
 21
126.294335
  0
LINE
  8
0
  6
CONTINUOUS
 62
1
 10
100.047162
 20
126.249679
 11
100.539396
 21
126.249679
  0
ARC
  8
0
  6
CONTINUOUS
 62
1
 10
100.037728
 20
126.154948
 40
0.614800
 50
68.009748
 51
89.120769
  0
LINE
  8
0
  6
CONTINUOUS
 62
1
 10
99.826386
 20
126.294335
 11
99.882176
 21
126.275404
  0
LINE
  8
0
  6
CONTINUOUS
 62
1
 10
99.882176
 20
126.275404
 11
100.047162
 21
126.249679
  0
LINE
  8
0
  6
CONTINUOUS
 62
1
 10
99.826386
 20
126.294335
 11
99.826386
 21
126.725020
  0
LINE
  8
0
  6
CONTINUOUS
 62
1
 10
99.826386
 20
126.725020
 11
99.882176
 21
126.743957
  0
LINE
  8
0
  6
CONTINUOUS
 62
1
 10
99.882176
 20
126.743957
 11
100.047162
 21
126.769676
  0
LINE
  8
0
  6
CONTINUOUS
 62
1
 10
100.861536
 20
126.249679
 11
100.857932
 21
126.249923
  0
LINE
  8
0
  6
CONTINUOUS
 62
1
 10
100.857932
 20
126.249923
 11
100.810854
 21
126.294335
  0
LINE
  8
0
  6
CONTINUOUS
 62
1
 10
100.861536
 20
126.249679
 11
100.539396
 21
126.249679
  0
LINE
  8
0
  6
CONTINUOUS
 62
1
 10
99.826386
 20
126.294335
 11
99.877066
 21
126.249679
  0
LINE
  8
0
  6
CONTINUOUS
 62
1
 10
100.047162
 20
126.249679
 11
99.869820
 21
126.249679
  0
LINE
  8
0
  6
CONTINUOUS
 62
1
 10
99.826386
 20
126.725020
 11
99.851216
 21
126.757421
  0
LINE
  8
0
  6
CONTINUOUS
 62
1
 10
99.851216
 20
126.757421
 11
99.877066
 21
126.769676
  0
LINE
  8
0
  6
CONTINUOUS
 62
1
 10
100.912216
 20
126.294335
 11
100.861536
 21
126.249679
  0
LINE
  8
0
  6
CONTINUOUS
 62
1
 10
100.912216
 20
126.294335
 11
100.912216
 21
126.329680
  0
LINE
  8
0
  6
CONTINUOUS
 62
1
 10
100.550565
 20
125.769677
 11
100.550565
 21
126.180019
  0
ARC
  8
0
  6
CONTINUOUS
 62
1
 10
100.752584
 20
125.746564
 40
0.478221
 50
91.195362
 51
114.988738
  0
ARC
  8
0
  6
CONTINUOUS
 62
1
 10
100.731935
 20
125.743569
 40
0.481230
 50
65.086742
 51
88.729158
  0
LINE
  8
0
  6
CONTINUOUS
 62
1
 10
100.934651
 20
125.769677
 11
100.934651
 21
126.180019
  0
ARC
  8
0
  6
CONTINUOUS
 62
1
 10
100.257449
 20
125.241708
 40
0.983029
 50
72.651892
 51
89.391440
  0
LINE
  8
0
  6
CONTINUOUS
 62
1
 10
100.267890
 20
126.224681
 11
100.742608
 21
126.224681
  0
LINE
  8
0
  6
CONTINUOUS
 62
1
 10
99.985215
 20
125.769677
 11
99.985215
 21
126.180019
  0
LINE
  8
0
  6
CONTINUOUS
 62
1
 10
99.985215
 20
126.180019
 11
100.056645
 21
126.198956
  0
LINE
  8
0
  6
CONTINUOUS
 62
1
 10
100.056645
 20
126.198956
 11
100.267890
 21
126.224681
  0
LINE
  8
0
  6
CONTINUOUS
 62
1
 10
99.985215
 20
126.180019
 11
99.940811
 21
126.212420
  0
LINE
  8
0
  6
CONTINUOUS
 62
1
 10
99.940811
 20
126.212420
 11
99.894583
 21
126.224681
  0
LINE
  8
0
  6
CONTINUOUS
 62
1
 10
99.894583
 20
126.224681
 11
100.267890
 21
126.224681
  0
LINE
  8
0
  6
CONTINUOUS
 62
1
 10
99.803951
 20
125.769677
 11
99.803951
 21
126.180019
  0
ARC
  8
0
  6
CONTINUOUS
 62
1
 10
99.901635
 20
126.096080
 40
0.128795
 50
93.138848
 51
139.327668
  0
LINE
  8
0
  6
CONTINUOUS
 62
1
 10
100.895921
 20
126.208713
 11
100.934651
 21
126.180019
  0
LINE
  8
0
  6
CONTINUOUS
 62
1
 10
100.742608
 20
126.224681
 11
100.869301
 21
126.224681
  0
LINE
  8
0
  6
CONTINUOUS
 62
1
 10
99.869301
 20
126.224681
 11
99.894583
 21
126.224681
  0
ENDSEC
  0
EOF
