  0
SECTION
  2
HEADER
  9
$ACADVER
  1
AC1015
  9
$ACADMAINTVER
 70
     6
  9
$DWGCODEPAGE
  3
ANSI_1252
  9
$INSBASE
 10
0.0
 20
0.0
 30
0.0
  9
$EXTMIN
 10
0.0
 20
0.0
 30
0.0
  9
$EXTMAX
 10
1397.0
 20
1079.5
 30
0.0
  9
$LIMMIN
 10
0.0
 20
0.0
  9
$LIMMAX
 10
1397.0
 20
1079.5
  9
$ORTHOMODE
 70
     0
  9
$REGENMODE
 70
     1
  9
$FILLMODE
 70
     1
  9
$QTEXTMODE
 70
     0
  9
$MIRRTEXT
 70
     1
  9
$LTSCALE
 40
5.0
  9
$ATTMODE
 70
     1
  9
$TEXTSIZE
 40
17.5
  9
$TRACEWID
 40
1.0
  9
$TEXTSTYLE
  7
Standard
  9
$CLAYER
  8
0
  9
$CELTYPE
  6
ByLayer
  9
$CECOLOR
 62
   256
  9
$CELTSCALE
 40
1.0
  9
$DISPSILH
 70
     0
  9
$DIMSCALE
 40
1.0
  9
$DIMASZ
 40
16.51
  9
$DIMEXO
 40
5.0
  9
$DIMDLI
 40
3.75
  9
$DIMRND
 40
0.0
  9
$DIMDLE
 40
0.0
  9
$DIMEXE
 40
5.0
  9
$DIMTP
 40
0.0
  9
$DIMTM
 40
0.0
  9
$DIMTXT
 40
17.5
  9
$DIMCEN
 40
2.5
  9
$DIMTSZ
 40
0.0
  9
$DIMTOL
 70
     0
  9
$DIMLIM
 70
     0
  9
$DIMTIH
 70
     1
  9
$DIMTOH
 70
     1
  9
$DIMSE1
 70
     0
  9
$DIMSE2
 70
     0
  9
$DIMTAD
 70
     1
  9
$DIMZIN
 70
     0
  9
$DIMBLK
  1

  9
$DIMASO
 70
     1
  9
$DIMSHO
 70
     1
  9
$DIMPOST
  1

  9
$DIMAPOST
  1

  9
$DIMALT
 70
     0
  9
$DIMALTD
 70
     3
  9
$DIMALTF
 40
0.0393700787
  9
$DIMLFAC
 40
1.0
  9
$DIMTOFL
 70
     1
  9
$DIMTVP
 40
0.0
  9
$DIMTIX
 70
     0
  9
$DIMSOXD
 70
     0
  9
$DIMSAH
 70
     0
  9
$DIMBLK1
  1

  9
$DIMBLK2
  1

  9
$DIMSTYLE
  2
ISO-25
  9
$DIMCLRD
 70
     0
  9
$DIMCLRE
 70
     0
  9
$DIMCLRT
 70
     0
  9
$DIMTFAC
 40
1.0
  9
$DIMGAP
 40
7.62
  9
$DIMJUST
 70
     0
  9
$DIMSD1
 70
     0
  9
$DIMSD2
 70
     0
  9
$DIMTOLJ
 70
     0
  9
$DIMTZIN
 70
     0
  9
$DIMALTZ
 70
     0
  9
$DIMALTTZ
 70
     0
  9
$DIMUPT
 70
     0
  9
$DIMDEC
 70
     3
  9
$DIMTDEC
 70
     3
  9
$DIMALTU
 70
     2
  9
$DIMALTTD
 70
     3
  9
$DIMTXSTY
  7
Standard
  9
$DIMAUNIT
 70
     0
  9
$DIMADEC
 70
     2
  9
$DIMALTRND
 40
0.0
  9
$DIMAZIN
 70
     0
  9
$DIMDSEP
 70
    44
  9
$DIMATFIT
 70
     3
  9
$DIMFRAC
 70
     0
  9
$DIMLDRBLK
  1

  9
$DIMLUNIT
 70
     2
  9
$DIMLWD
 70
    -2
  9
$DIMLWE
 70
    -2
  9
$DIMTMOVE
 70
     0
  9
$LUNITS
 70
     2
  9
$LUPREC
 70
     8
  9
$SKETCHINC
 40
1.0
  9
$FILLETRAD
 40
10.0
  9
$AUNITS
 70
     0
  9
$AUPREC
 70
     8
  9
$MENU
  1
.
  9
$ELEVATION
 40
0.0
  9
$PELEVATION
 40
0.0
  9
$THICKNESS
 40
0.0
  9
$LIMCHECK
 70
     0
  9
$CHAMFERA
 40
10.0
  9
$CHAMFERB
 40
10.0
  9
$CHAMFERC
 40
20.0
  9
$CHAMFERD
 40
0.0
  9
$SKPOLY
 70
     0
  9
$TDCREATE
 40
2456141.37782971
  9
$TDUCREATE
 40
2456141.336163044
  9
$TDUPDATE
 40
2456141.377832419
  9
$TDUUPDATE
 40
2456141.336165752
  9
$TDINDWG
 40
0.0000000116
  9
$TDUSRTIMER
 40
0.0000000116
  9
$USRTIMER
 70
     1
  9
$ANGBASE
 50
0.0
  9
$ANGDIR
 70
     0
  9
$PDMODE
 70
     0
  9
$PDSIZE
 40
-1.0
  9
$PLINEWID
 40
0.0
  9
$SPLFRAME
 70
     0
  9
$SPLINETYPE
 70
     6
  9
$SPLINESEGS
 70
     8
  9
$HANDSEED
  5
394
  9
$SURFTAB1
 70
     6
  9
$SURFTAB2
 70
     6
  9
$SURFTYPE
 70
     6
  9
$SURFU
 70
     6
  9
$SURFV
 70
     6
  9
$UCSBASE
  2

  9
$UCSNAME
  2

  9
$UCSORG
 10
0.0
 20
0.0
 30
0.0
  9
$UCSXDIR
 10
1.0
 20
0.0
 30
0.0
  9
$UCSYDIR
 10
0.0
 20
1.0
 30
0.0
  9
$UCSORTHOREF
  2

  9
$UCSORTHOVIEW
 70
     0
  9
$UCSORGTOP
 10
0.0
 20
0.0
 30
0.0
  9
$UCSORGBOTTOM
 10
0.0
 20
0.0
 30
0.0
  9
$UCSORGLEFT
 10
0.0
 20
0.0
 30
0.0
  9
$UCSORGRIGHT
 10
0.0
 20
0.0
 30
0.0
  9
$UCSORGFRONT
 10
0.0
 20
0.0
 30
0.0
  9
$UCSORGBACK
 10
0.0
 20
0.0
 30
0.0
  9
$PUCSBASE
  2

  9
$PUCSNAME
  2

  9
$PUCSORG
 10
0.0
 20
0.0
 30
0.0
  9
$PUCSXDIR
 10
1.0
 20
0.0
 30
0.0
  9
$PUCSYDIR
 10
0.0
 20
1.0
 30
0.0
  9
$PUCSORTHOREF
  2

  9
$PUCSORTHOVIEW
 70
     0
  9
$PUCSORGTOP
 10
0.0
 20
0.0
 30
0.0
  9
$PUCSORGBOTTOM
 10
0.0
 20
0.0
 30
0.0
  9
$PUCSORGLEFT
 10
0.0
 20
0.0
 30
0.0
  9
$PUCSORGRIGHT
 10
0.0
 20
0.0
 30
0.0
  9
$PUCSORGFRONT
 10
0.0
 20
0.0
 30
0.0
  9
$PUCSORGBACK
 10
0.0
 20
0.0
 30
0.0
  9
$USERI1
 70
     0
  9
$USERI2
 70
     0
  9
$USERI3
 70
     0
  9
$USERI4
 70
     0
  9
$USERI5
 70
     0
  9
$USERR1
 40
0.0
  9
$USERR2
 40
0.0
  9
$USERR3
 40
0.0
  9
$USERR4
 40
0.0
  9
$USERR5
 40
0.0
  9
$WORLDVIEW
 70
     1
  9
$SHADEDGE
 70
     3
  9
$SHADEDIF
 70
    70
  9
$TILEMODE
 70
     1
  9
$MAXACTVP
 70
    64
  9
$PINSBASE
 10
0.0
 20
0.0
 30
0.0
  9
$PLIMCHECK
 70
     0
  9
$PEXTMIN
 10
1.0000000000E+20
 20
1.0000000000E+20
 30
1.0000000000E+20
  9
$PEXTMAX
 10
-1.0000000000E+20
 20
-1.0000000000E+20
 30
-1.0000000000E+20
  9
$PLIMMIN
 10
0.0
 20
0.0
  9
$PLIMMAX
 10
420.0
 20
297.0
  9
$UNITMODE
 70
     0
  9
$VISRETAIN
 70
     1
  9
$PLINEGEN
 70
     0
  9
$PSLTSCALE
 70
     1
  9
$TREEDEPTH
 70
  3020
  9
$CMLSTYLE
  2
Standard
  9
$CMLJUST
 70
     0
  9
$CMLSCALE
 40
20.0
  9
$PROXYGRAPHICS
 70
     1
  9
$MEASUREMENT
 70
     1
  9
$CELWEIGHT
370
    -1
  9
$ENDCAPS
280
     0
  9
$JOINSTYLE
280
     0
  9
$LWDISPLAY
290
     1
  9
$INSUNITS
 70
     4
  9
$HYPERLINKBASE
  1

  9
$STYLESHEET
  1

  9
$XEDIT
290
     1
  9
$CEPSNTYPE
380
     0
  9
$PSTYLEMODE
290
     1
  9
$FINGERPRINTGUID
  2
{F82D1C81-3770-40E0-8D11-2D1333BAFEDC}
  9
$VERSIONGUID
  2
{FAEB1C32-E019-11D5-929B-00C0DF256EC4}
  9
$EXTNAMES
290
     1
  9
$PSVPSCALE
 40
0.0
  9
$OLESTARTUP
290
     0
  0
ENDSEC
  0
SECTION
  2
CLASSES
  0
CLASS
  1
ACDBDICTIONARYWDFLT
  2
AcDbDictionaryWithDefault
  3
ObjectDBX Classes
 90
        0
280
     0
281
     0
  0
CLASS
  1
VISUALSTYLE
  2
AcDbVisualStyle
  3
ObjectDBX Classes
 90
     4095
280
     0
281
     0
  0
CLASS
  1
MATERIAL
  2
AcDbMaterial
  3
ObjectDBX Classes
 90
     1153
280
     0
281
     0
  0
CLASS
  1
ACDBPLACEHOLDER
  2
AcDbPlaceHolder
  3
ObjectDBX Classes
 90
        0
280
     0
281
     0
  0
CLASS
  1
LAYOUT
  2
AcDbLayout
  3
ObjectDBX Classes
 90
        0
280
     0
281
     0
  0
ENDSEC
  0
SECTION
  2
TABLES
  0
TABLE
  2
VPORT
  5
8
330
0
100
AcDbSymbolTable
 70
     1
  0
VPORT
  5
29
330
8
100
AcDbSymbolTableRecord
100
AcDbViewportTableRecord
  2
*Active
 70
     0
 10
0.0
 20
0.0
 11
1.0
 21
1.0
 12
698.5
 22
539.75
 13
0.0
 23
0.0
 14
10.0
 24
10.0
 15
10.0
 25
10.0
 16
0.0
 26
0.0
 36
1.0
 17
0.0
 27
0.0
 37
0.0
 40
1079.5
 41
1.2941176471
 42
50.0
 43
0.0
 44
0.0
 50
0.0
 51
0.0
 71
     0
 72
  2000
 73
     1
 74
     3
 75
     0
 76
     0
 77
     0
 78
     0
281
     0
 65
     1
110
0.0
120
0.0
130
0.0
111
1.0
121
0.0
131
0.0
112
0.0
122
1.0
132
0.0
 79
     0
146
0.0
  0
ENDTAB
  0
TABLE
  2
LTYPE
  5
5
330
0
100
AcDbSymbolTable
 70
     6
  0
LTYPE
  5
14
330
5
100
AcDbSymbolTableRecord
100
AcDbLinetypeTableRecord
  2
ByBlock
 70
     0
  3

 72
    65
 73
     0
 40
0.0
  0
LTYPE
  5
15
330
5
100
AcDbSymbolTableRecord
100
AcDbLinetypeTableRecord
  2
ByLayer
 70
     0
  3

 72
    65
 73
     0
 40
0.0
  0
LTYPE
  5
16
330
5
100
AcDbSymbolTableRecord
100
AcDbLinetypeTableRecord
  2
Continuous
 70
     0
  3
Solid line
 72
    65
 73
     0
 40
0.0
  0
LTYPE
  5
3F
330
5
100
AcDbSymbolTableRecord
100
AcDbLinetypeTableRecord
  2
HIDDEN
 70
     0
  3
Hidden __ __ __ __ __ __ __ __ __ __ __ __ __ __
 72
    65
 73
     2
 40
1.905
 49
1.27
 74
     0
 49
-0.635
 74
     0
  0
LTYPE
  5
40
330
5
100
AcDbSymbolTableRecord
100
AcDbLinetypeTableRecord
  2
PHANTOM
 70
     0
  3
Phantom ______  __  __  ______  __  __  ______
 72
    65
 73
     6
 40
12.7
 49
6.35
 74
     0
 49
-1.27
 74
     0
 49
1.27
 74
     0
 49
-1.27
 74
     0
 49
1.27
 74
     0
 49
-1.27
 74
     0
  0
LTYPE
  5
41
330
5
100
AcDbSymbolTableRecord
100
AcDbLinetypeTableRecord
  2
CENTER
 70
     0
  3
Center ____ _ ____ _ ____ _ ____ _ ____ _ ____
 72
    65
 73
     4
 40
10.16
 49
6.35
 74
     0
 49
-1.27
 74
     0
 49
1.27
 74
     0
 49
-1.27
 74
     0
  0
LTYPE
  5
42
330
5
100
AcDbSymbolTableRecord
100
AcDbLinetypeTableRecord
  2
CENTERX2
 70
     0
  3
Center (2x) ________  __  ________  __  _____
 72
    65
 73
     4
 40
20.32
 49
12.7
 74
     0
 49
-2.54
 74
     0
 49
2.54
 74
     0
 49
-2.54
 74
     0
  0
LTYPE
  5
43
330
5
100
AcDbSymbolTableRecord
100
AcDbLinetypeTableRecord
  2
DOT2
 70
     0
  3
Dot (.5x) ........................................
 72
    65
 73
     2
 40
0.635
 49
0.0
 74
     0
 49
-0.635
 74
     0
  0
ENDTAB
  0
TABLE
  2
LAYER
  5
2
330
0
100
AcDbSymbolTable
 70
     1
  0
LAYER
  5
10
330
2
100
AcDbSymbolTableRecord
100
AcDbLayerTableRecord
  2
0
 70
     0
 62
     7
  6
Continuous
370
    -3
390
F
  0
ENDTAB
  0
TABLE
  2
STYLE
  5
3
330
0
100
AcDbSymbolTable
 70
     1
  0
STYLE
  5
11
330
3
100
AcDbSymbolTableRecord
100
AcDbTextStyleTableRecord
  2
Standard
 70
     0
 40
0.0
 41
1.0
 50
0.0
 71
     0
 42
17.5
  3
txt
  4

  0
ENDTAB
  0
TABLE
  2
VIEW
  5
6
330
0
100
AcDbSymbolTable
 70
     0
  0
ENDTAB
  0
TABLE
  2
UCS
  5
7
330
0
100
AcDbSymbolTable
 70
     0
  0
ENDTAB
  0
TABLE
  2
APPID
  5
9
330
0
100
AcDbSymbolTable
 70
     1
  0
APPID
  5
12
330
9
100
AcDbSymbolTableRecord
100
AcDbRegAppTableRecord
  2
ACAD
 70
     0
  0
ENDTAB
  0
TABLE
  2
DIMSTYLE
  5
A
330
0
100
AcDbSymbolTable
 70
     1
100
AcDbDimStyleTable
  0
DIMSTYLE
105
27
330
A
100
AcDbSymbolTableRecord
100
AcDbDimStyleTableRecord
  2
ISO-25
 70
     0
 41
2.5
 42
0.625
 43
3.75
 44
1.25
 73
     0
 74
     0
 77
     1
 78
     8
140
2.5
141
2.5
143
0.0393700787
147
0.625
171
     3
172
     1
178
     0
271
     2
272
     2
274
     3
278
    44
283
     0
284
     8
340
11
  0
ENDTAB
  0
TABLE
  2
BLOCK_RECORD
  5
1
330
0
100
AcDbSymbolTable
 70
     1
  0
BLOCK_RECORD
  5
1F
330
1
100
AcDbSymbolTableRecord
100
AcDbBlockTableRecord
  2
*Model_Space
340
22
  0
BLOCK_RECORD
  5
1B
330
1
100
AcDbSymbolTableRecord
100
AcDbBlockTableRecord
  2
*Paper_Space
340
1E
  0
BLOCK_RECORD
  5
23
330
1
100
AcDbSymbolTableRecord
100
AcDbBlockTableRecord
  2
*Paper_Space0
340
26
  0
ENDTAB
  0
ENDSEC
  0
SECTION
  2
BLOCKS
  0
BLOCK
  5
20
330
1F
100
AcDbEntity
  8
0
100
AcDbBlockBegin
  2
*Model_Space
 70
     0
 10
0.0
 20
0.0
 30
0.0
  3
*Model_Space
  1

  0
ENDBLK
  5
21
330
1F
100
AcDbEntity
  8
0
100
AcDbBlockEnd
  0
BLOCK
  5
1C
330
1B
100
AcDbEntity
 67
     1
  8
0
100
AcDbBlockBegin
  2
*Paper_Space
 70
     0
 10
0.0
 20
0.0
 30
0.0
  3
*Paper_Space
  1

  0
ENDBLK
  5
1D
330
1B
100
AcDbEntity
 67
     1
  8
0
100
AcDbBlockEnd
  0
BLOCK
  5
24
330
23
100
AcDbEntity
  8
0
100
AcDbBlockBegin
  2
*Paper_Space0
 70
     0
 10
0.0
 20
0.0
 30
0.0
  3
*Paper_Space0
  1

  0
ENDBLK
  5
25
330
23
100
AcDbEntity
  8
0
100
AcDbBlockEnd
  0
ENDSEC
  0
SECTION
  2
ENTITIES
  0
LINE
  5
44
330
1F
100
AcDbEntity
  8
0
  6
Continuous
 62
     7
370
    15
100
AcDbLine
 10
345.0087487253
 20
354.1309425073
 30
0.0
 11
345.0087487253
 21
358.1309357123
 31
0.0
  0
LINE
  5
45
330
1F
100
AcDbEntity
  8
0
  6
Continuous
 62
     7
370
    15
100
AcDbLine
 10
288.0087375196
 20
358.1309357123
 30
0.0
 11
288.0087375196
 21
354.1309425073
 31
0.0
  0
ARC
  5
46
330
1F
100
AcDbEntity
  8
0
  6
Continuous
 62
     7
370
    15
100
AcDbCircle
 10
343.008740698
 20
354.1309374745
 30
0.0
 40
2.000000000000057
100
AcDbArc
 50
270.0
 51
0.0
  0
ARC
  5
47
330
1F
100
AcDbEntity
  8
0
  6
Continuous
 62
     7
370
    15
100
AcDbCircle
 10
290.008740698
 20
354.1309374745
 30
0.0
 40
2.0
100
AcDbArc
 50
180.0
 51
270.0
  0
ARC
  5
48
330
1F
100
AcDbEntity
  8
0
  6
Continuous
 62
     7
370
    15
100
AcDbCircle
 10
932.008740698
 20
354.1309374745
 30
0.0
 40
2.0
100
AcDbArc
 50
270.0
 51
0.0
  0
ARC
  5
49
330
1F
100
AcDbEntity
  8
0
  6
Continuous
 62
     7
370
    15
100
AcDbCircle
 10
879.008740698
 20
354.1309374745
 30
0.0
 40
2.000000000000114
100
AcDbArc
 50
180.0
 51
270.0
  0
LINE
  5
4A
330
1F
100
AcDbEntity
  8
0
  6
Continuous
 62
     7
370
    15
100
AcDbLine
 10
934.0087353739
 20
354.1309425073
 30
0.0
 11
934.0087353739
 21
358.1309357123
 31
0.0
  0
LINE
  5
4B
330
1F
100
AcDbEntity
  8
0
  6
Continuous
 62
     7
370
    15
100
AcDbLine
 10
877.0087390694
 20
358.1309357123
 30
0.0
 11
877.0087390694
 21
354.1309425073
 31
0.0
  0
LINE
  5
4C
330
1F
100
AcDbEntity
  8
0
  6
Continuous
 62
     7
370
    15
100
AcDbLine
 10
933.8087319883
 20
358.1309357123
 30
0.0
 11
933.8087319883
 21
387.1309348779
 31
0.0
  0
LINE
  5
4D
330
1F
100
AcDbEntity
  8
0
  6
Continuous
 62
     7
370
    15
100
AcDbLine
 10
877.2087424549
 20
387.1309348779
 30
0.0
 11
877.2087424549
 21
358.1309357123
 31
0.0
  0
LINE
  5
4E
330
1F
100
AcDbEntity
  8
0
  6
Continuous
 62
     7
370
    15
100
AcDbLine
 10
344.8087453398
 20
358.1309357123
 30
0.0
 11
344.8087453398
 21
387.1309348779
 31
0.0
  0
LINE
  5
4F
330
1F
100
AcDbEntity
  8
0
  6
Continuous
 62
     7
370
    15
100
AcDbLine
 10
288.2087409052
 20
387.1309348779
 30
0.0
 11
288.2087409052
 21
358.1309357123
 31
0.0
  0
ARC
  5
50
330
1F
100
AcDbEntity
  8
0
  6
Continuous
 62
     7
370
    15
100
AcDbCircle
 10
938.908740698
 20
448.6309374745
 30
0.0
 40
1.500000000000114
100
AcDbArc
 50
90.0
 51
180.0
  0
ARC
  5
51
330
1F
100
AcDbEntity
  8
0
  6
Continuous
 62
     7
370
    15
100
AcDbCircle
 10
872.108740698
 20
448.6309374745
 30
0.0
 40
1.500000000000057
100
AcDbArc
 50
0.0
 51
90.0
  0
ARC
  5
52
330
1F
100
AcDbEntity
  8
0
  6
Continuous
 62
     7
370
    15
100
AcDbCircle
 10
932.708740698
 20
393.1635034201
 30
0.0
 40
4.700000000000122
100
AcDbArc
 50
350.5402980318
 51
0.0
  0
ARC
  5
53
330
1F
100
AcDbEntity
  8
0
  6
Continuous
 62
     7
370
    15
100
AcDbCircle
 10
878.308740698
 20
393.1635034201
 30
0.0
 40
4.70000000000001
100
AcDbArc
 50
180.0
 51
189.4597019682
  0
LINE
  5
54
330
1F
100
AcDbEntity
  8
0
  6
Continuous
 62
     7
370
    15
100
AcDbLine
 10
937.4087333235
 20
393.1635060744
 30
0.0
 11
937.4087333235
 21
448.6309403019
 31
0.0
  0
LINE
  5
55
330
1F
100
AcDbEntity
  8
0
  6
Continuous
 62
     7
370
    15
100
AcDbLine
 10
873.6087411198
 20
448.6309403019
 30
0.0
 11
873.6087411198
 21
393.1635060744
 31
0.0
  0
LINE
  5
56
330
1F
100
AcDbEntity
  8
0
  6
Continuous
 62
     7
370
    15
100
AcDbLine
 10
873.6726522001
 20
392.3910373287
 30
0.0
 11
874.5490937981
 21
387.1309348779
 31
0.0
  0
LINE
  5
57
330
1F
100
AcDbEntity
  8
0
  6
Continuous
 62
     7
370
    15
100
AcDbLine
 10
936.4683806452
 20
387.1309348779
 30
0.0
 11
937.3448371443
 21
392.3910373287
 31
0.0
  0
ARC
  5
58
330
1F
100
AcDbEntity
  8
0
  6
Continuous
 62
     7
370
    15
100
AcDbCircle
 10
349.908740698
 20
448.6309374745
 30
0.0
 40
1.500000000000057
100
AcDbArc
 50
90.0
 51
180.0
  0
ARC
  5
59
330
1F
100
AcDbEntity
  8
0
  6
Continuous
 62
     7
370
    15
100
AcDbCircle
 10
283.108740698
 20
448.6309374745
 30
0.0
 40
1.500000000000057
100
AcDbArc
 50
0.0
 51
90.0
  0
LINE
  5
5A
330
1F
100
AcDbEntity
  8
0
  6
Continuous
 62
     7
370
    15
100
AcDbLine
 10
348.4087466749
 20
393.1635060744
 30
0.0
 11
348.4087466749
 21
448.6309403019
 31
0.0
  0
LINE
  5
5B
330
1F
100
AcDbEntity
  8
0
  6
Continuous
 62
     7
370
    15
100
AcDbLine
 10
284.60873957
 20
448.6309403019
 30
0.0
 11
284.60873957
 21
393.1635060744
 31
0.0
  0
ARC
  5
5C
330
1F
100
AcDbEntity
  8
0
  6
Continuous
 62
     7
370
    15
100
AcDbCircle
 10
343.708740698
 20
393.1635034201
 30
0.0
 40
4.699999999999954
100
AcDbArc
 50
350.5402980318
 51
0.0
  0
ARC
  5
5D
330
1F
100
AcDbEntity
  8
0
  6
Continuous
 62
     7
370
    15
100
AcDbCircle
 10
289.308740698
 20
393.1635034201
 30
0.0
 40
4.699999999999989
100
AcDbArc
 50
180.0
 51
189.4597019682
  0
LINE
  5
5E
330
1F
100
AcDbEntity
  8
0
  6
Continuous
 62
     7
370
    15
100
AcDbLine
 10
284.6726655516
 20
392.3910373287
 30
0.0
 11
285.5490922483
 21
387.1309348779
 31
0.0
  0
LINE
  5
5F
330
1F
100
AcDbEntity
  8
0
  6
Continuous
 62
     7
370
    15
100
AcDbLine
 10
347.4683939966
 20
387.1309348779
 30
0.0
 11
348.3448206934
 21
392.3910373287
 31
0.0
  0
LINE
  5
60
330
1F
100
AcDbEntity
  8
0
  6
Continuous
 62
     7
370
    15
100
AcDbLine
 10
997.5911855253
 20
626.4778786736
 30
0.0
 11
1005.865681127
 21
633.3722734289
 31
0.0
  0
LINE
  5
61
330
1F
100
AcDbEntity
  8
0
  6
Continuous
 62
     7
370
    15
100
AcDbLine
 10
980.6002854856
 20
688.0908945041
 30
0.0
 11
977.5050758871
 21
688.2965454297
 31
0.0
  0
LINE
  5
62
330
1F
100
AcDbEntity
  8
0
  6
Continuous
 62
     7
370
    15
100
AcDbLine
 10
988.2517039331
 20
687.5824966865
 30
0.0
 11
985.5272650274
 21
687.7635159926
 31
0.0
  0
LINE
  5
63
330
1F
100
AcDbEntity
  8
0
  6
Continuous
 62
     7
370
    15
100
AcDbLine
 10
1005.865681127
 20
633.3722734289
 30
0.0
 11
1021.6268777403
 21
647.6775595384
 31
0.0
  0
LINE
  5
64
330
1F
100
AcDbEntity
  8
0
  6
Continuous
 62
     7
370
    15
100
AcDbLine
 10
988.7866854223
 20
687.5241139369
 30
0.0
 11
988.2517039331
 21
687.5824966865
 31
0.0
  0
ARC
  5
65
330
1F
100
AcDbEntity
  8
0
  6
Continuous
 62
     7
370
    15
100
AcDbCircle
 10
1020.9547934657
 20
648.4180443439
 30
0.0
 40
0.9999999999999948
100
AcDbArc
 50
312.227745318
 51
18.0
  0
LINE
  5
66
330
1F
100
AcDbEntity
  8
0
  6
Continuous
 62
     7
370
    15
100
AcDbLine
 10
988.7938379797
 20
650.3172555404
 30
0.0
 11
989.7502839121
 21
650.6096759276
 31
0.0
  0
LINE
  5
67
330
1F
100
AcDbEntity
  8
0
  6
Continuous
 62
     7
370
    15
100
AcDbLine
 10
985.5610012564
 20
687.7712943988
 30
0.0
 11
980.5665492567
 21
688.1031581597
 31
0.0
  0
LINE
  5
68
330
1F
100
AcDbEntity
  8
0
  6
Continuous
 62
     7
370
    15
100
AcDbLine
 10
988.8063847574
 20
650.2786317306
 30
0.0
 11
989.7628306898
 21
650.5710521178
 31
0.0
  0
LINE
  5
69
330
1F
100
AcDbEntity
  8
0
  6
Continuous
 62
     7
370
    15
100
AcDbLine
 10
996.3371037992
 20
627.9104614096
 30
0.0
 11
997.2881555113
 21
628.2194816904
 31
0.0
  0
LINE
  5
6A
330
1F
100
AcDbEntity
  8
0
  6
Continuous
 62
     7
370
    15
100
AcDbLine
 10
993.7344669851
 20
639.1566285329
 30
0.0
 11
992.7834152731
 21
638.8476157026
 31
0.0
  0
LINE
  5
6B
330
1F
100
AcDbEntity
  8
0
  6
Continuous
 62
     7
370
    15
100
AcDbLine
 10
997.2881555113
 20
628.2194816904
 30
0.0
 11
997.4486708197
 21
628.5344996886
 31
0.0
  0
LINE
  5
6C
330
1F
100
AcDbEntity
  8
0
  6
Continuous
 62
     7
370
    15
100
AcDbLine
 10
994.0494775328
 20
638.9961206751
 30
0.0
 11
993.7344669851
 21
639.1566285329
 31
0.0
  0
LINE
  5
6D
330
1F
100
AcDbEntity
  8
0
  6
Continuous
 62
     7
370
    15
100
AcDbLine
 10
992.7834152731
 20
638.8476157026
 30
0.0
 11
992.6228999647
 21
638.5325977044
 31
0.0
  0
LINE
  5
6E
330
1F
100
AcDbEntity
  8
0
  6
Continuous
 62
     7
370
    15
100
AcDbLine
 10
996.0220932516
 20
628.070976718
 30
0.0
 11
996.3371037992
 21
627.9104614096
 31
0.0
  0
LINE
  5
6F
330
1F
100
AcDbEntity
  8
0
  6
Continuous
 62
     7
370
    15
100
AcDbLine
 10
986.3120495829
 20
661.1914375262
 30
0.0
 11
985.3609978708
 21
660.8824172454
 31
0.0
  0
LINE
  5
70
330
1F
100
AcDbEntity
  8
0
  6
Continuous
 62
     7
370
    15
100
AcDbLine
 10
235.9455108198
 20
490.897618367
 30
0.0
 11
235.9455108198
 21
490.7976185368
 31
0.0
  0
LINE
  5
71
330
1F
100
AcDbEntity
  8
0
  6
Continuous
 62
     7
370
    15
100
AcDbLine
 10
396.4437722715
 20
439.5677187877
 30
0.0
 11
396.5437590631
 21
439.5677187877
 31
0.0
  0
LINE
  5
72
330
1F
100
AcDbEntity
  8
0
  6
Continuous
 62
     7
370
    15
100
AcDbLine
 10
975.2026080641
 20
692.7939990001
 30
0.0
 11
975.107479051
 21
692.7630939918
 31
0.0
  0
LINE
  5
73
330
1F
100
AcDbEntity
  8
0
  6
Continuous
 62
     7
370
    15
100
AcDbLine
 10
233.3914517912
 20
762.9273870425
 30
0.0
 11
233.3914517912
 21
762.8273853498
 31
0.0
  0
LINE
  5
74
330
1F
100
AcDbEntity
  8
0
  6
Continuous
 62
     7
370
    15
100
AcDbLine
 10
232.2087466272
 20
504.1309372919
 30
0.0
 11
232.9087435755
 21
504.1309372919
 31
0.0
  0
LINE
  5
75
330
1F
100
AcDbEntity
  8
0
  6
Continuous
 62
     7
370
    15
100
AcDbLine
 10
246.2087451967
 20
515.1309374651
 30
0.0
 11
245.5087482485
 21
515.1309374651
 31
0.0
  0
LINE
  5
76
330
1F
100
AcDbEntity
  8
0
  6
Continuous
 62
     7
370
    15
100
AcDbLine
 10
245.5087482485
 20
504.1309372919
 30
0.0
 11
246.1587368997
 21
504.1309372919
 31
0.0
  0
LINE
  5
77
330
1F
100
AcDbEntity
  8
0
  6
Continuous
 62
     7
370
    15
100
AcDbLine
 10
240.5087530168
 20
514.4044401986
 30
0.0
 11
240.2245282682
 21
514.688644691
 31
0.0
  0
LINE
  5
78
330
1F
100
AcDbEntity
  8
0
  6
Continuous
 62
     7
370
    15
100
AcDbLine
 10
235.8204602751
 20
514.7161743535
 30
0.0
 11
235.5087279829
 21
514.4044401986
 31
0.0
  0
LINE
  5
79
330
1F
100
AcDbEntity
  8
0
  6
Continuous
 62
     7
370
    15
100
AcDbLine
 10
235.5087279829
 20
504.857435024
 30
0.0
 11
235.8204602751
 21
504.5457008691
 31
0.0
  0
LINE
  5
7A
330
1F
100
AcDbEntity
  8
0
  6
Continuous
 62
     7
370
    15
100
AcDbLine
 10
240.2245282682
 20
504.5732298331
 30
0.0
 11
240.5087530168
 21
504.857435024
 31
0.0
  0
LINE
  5
7B
330
1F
100
AcDbEntity
  8
0
  6
Continuous
 62
     7
370
    15
100
AcDbLine
 10
227.5204836878
 20
514.7161743535
 30
0.0
 11
227.2087513956
 21
514.4044401986
 31
0.0
  0
LINE
  5
7C
330
1F
100
AcDbEntity
  8
0
  6
Continuous
 62
     7
370
    15
100
AcDbLine
 10
227.2087513956
 20
504.857435024
 30
0.0
 11
227.5204836878
 21
504.5457008691
 31
0.0
  0
LINE
  5
7D
330
1F
100
AcDbEntity
  8
0
  6
Continuous
 62
     7
370
    15
100
AcDbLine
 10
231.9245218786
 20
504.5732298331
 30
0.0
 11
232.2087466272
 21
504.857435024
 31
0.0
  0
LINE
  5
7E
330
1F
100
AcDbEntity
  8
0
  6
Continuous
 62
     7
370
    15
100
AcDbLine
 10
245.5087482485
 20
514.4044401986
 30
0.0
 11
245.2245234999
 21
514.688644691
 31
0.0
  0
LINE
  5
7F
330
1F
100
AcDbEntity
  8
0
  6
Continuous
 62
     7
370
    15
100
AcDbLine
 10
240.820485309
 20
514.7161743535
 30
0.0
 11
240.5087530168
 21
514.4044401986
 31
0.0
  0
LINE
  5
80
330
1F
100
AcDbEntity
  8
0
  6
Continuous
 62
     7
370
    15
100
AcDbLine
 10
240.5087530168
 20
504.857435024
 30
0.0
 11
240.820485309
 21
504.5457008691
 31
0.0
  0
LINE
  5
81
330
1F
100
AcDbEntity
  8
0
  6
Continuous
 62
     7
370
    15
100
AcDbLine
 10
245.2245234999
 20
504.5732298331
 30
0.0
 11
245.5087482485
 21
504.857435024
 31
0.0
  0
LINE
  5
82
330
1F
100
AcDbEntity
  8
0
  6
Continuous
 62
     7
370
    15
100
AcDbLine
 10
377.0087539705
 20
448.4309369164
 30
0.0
 11
377.2587358507
 21
447.8309342103
 31
0.0
  0
LINE
  5
83
330
1F
100
AcDbEntity
  8
0
  6
Continuous
 62
     7
370
    15
100
AcDbLine
 10
383.7587415728
 20
447.8309342103
 30
0.0
 11
384.0087532553
 21
448.4309369164
 31
0.0
  0
LINE
  5
84
330
1F
100
AcDbEntity
  8
0
  6
Continuous
 62
     7
370
    15
100
AcDbLine
 10
377.0087539705
 20
449.8309382634
 30
0.0
 11
377.0087539705
 21
448.4309369164
 31
0.0
  0
LINE
  5
85
330
1F
100
AcDbEntity
  8
0
  6
Continuous
 62
     7
370
    15
100
AcDbLine
 10
384.0087532553
 20
448.4309369164
 30
0.0
 11
384.0087532553
 21
449.6809357243
 31
0.0
  0
LINE
  5
86
330
1F
100
AcDbEntity
  8
0
  6
Continuous
 62
     7
370
    15
100
AcDbLine
 10
384.0087532553
 20
449.7309365706
 30
0.0
 11
384.0087532553
 21
449.8309382634
 31
0.0
  0
LINE
  5
87
330
1F
100
AcDbEntity
  8
0
  6
Continuous
 62
     7
370
    15
100
AcDbLine
 10
345.0087487253
 20
358.1309357123
 30
0.0
 11
288.0087375196
 21
358.1309357123
 31
0.0
  0
LINE
  5
88
330
1F
100
AcDbEntity
  8
0
  6
Continuous
 62
     7
370
    15
100
AcDbLine
 10
343.0087446722
 20
352.1309384542
 30
0.0
 11
290.0087415728
 21
352.1309384542
 31
0.0
  0
LINE
  5
89
330
1F
100
AcDbEntity
  8
0
  6
Continuous
 62
     7
370
    15
100
AcDbLine
 10
932.0087313208
 20
352.1309384542
 30
0.0
 11
879.0087431225
 21
352.1309384542
 31
0.0
  0
LINE
  5
8A
330
1F
100
AcDbEntity
  8
0
  6
Continuous
 62
     7
370
    15
100
AcDbLine
 10
934.0087353739
 20
358.1309357123
 30
0.0
 11
877.0087390694
 21
358.1309357123
 31
0.0
  0
LINE
  5
8B
330
1F
100
AcDbEntity
  8
0
  6
Continuous
 62
     7
370
    15
100
AcDbLine
 10
940.5087410959
 20
450.1309358912
 30
0.0
 11
940.5087410959
 21
451.830934866
 31
0.0
  0
LINE
  5
8C
330
1F
100
AcDbEntity
  8
0
  6
Continuous
 62
     7
370
    15
100
AcDbLine
 10
870.5087333473
 20
450.1309358912
 30
0.0
 11
940.5087410959
 21
450.1309358912
 31
0.0
  0
LINE
  5
8D
330
1F
100
AcDbEntity
  8
0
  6
Continuous
 62
     7
370
    15
100
AcDbLine
 10
870.5087333473
 20
450.1309358912
 30
0.0
 11
870.5087333473
 21
451.830934866
 31
0.0
  0
LINE
  5
8E
330
1F
100
AcDbEntity
  8
0
  6
Continuous
 62
     7
370
    15
100
AcDbLine
 10
936.4683806452
 20
387.1309348779
 30
0.0
 11
874.5490937981
 21
387.1309348779
 31
0.0
  0
LINE
  5
8F
330
1F
100
AcDbEntity
  8
0
  6
Continuous
 62
     7
370
    15
100
AcDbLine
 10
351.5087544474
 20
450.1309358912
 30
0.0
 11
351.5087544474
 21
451.830934866
 31
0.0
  0
LINE
  5
90
330
1F
100
AcDbEntity
  8
0
  6
Continuous
 62
     7
370
    15
100
AcDbLine
 10
281.5087317976
 20
450.1309358912
 30
0.0
 11
351.5087544474
 21
450.1309358912
 31
0.0
  0
LINE
  5
91
330
1F
100
AcDbEntity
  8
0
  6
Continuous
 62
     7
370
    15
100
AcDbLine
 10
281.5087317976
 20
450.1309358912
 30
0.0
 11
281.5087317976
 21
451.830934866
 31
0.0
  0
LINE
  5
92
330
1F
100
AcDbEntity
  8
0
  6
Continuous
 62
     7
370
    15
100
AcDbLine
 10
347.4683939966
 20
387.1309348779
 30
0.0
 11
285.5490922483
 21
387.1309348779
 31
0.0
  0
LWPOLYLINE
  5
93
330
1F
100
AcDbEntity
  8
0
  6
Continuous
 62
     7
370
    15
100
AcDbPolyline
 90
        6
 70
   128
 43
0.0
 10
997.5911855253
 20
626.4778786736
 10
997.5910365137
 20
626.4782810049
 10
997.5306570085
 20
626.6641655402
 10
997.3608731779
 20
627.1866598563
 10
997.0835923704
 20
628.0400344567
 10
997.0503925833
 20
628.1422266202
  0
LWPOLYLINE
  5
94
330
1F
100
AcDbEntity
  8
0
  6
Continuous
 62
     7
370
    15
100
AcDbPolyline
 90
       23
 70
   128
 43
0.0
 10
993.4967040571
 20
639.0793734627
 10
993.4095620665
 20
639.347579463
 10
992.5249993357
 20
642.0699545579
 10
991.5859281572
 20
644.9601539807
 10
990.60260053
 20
647.9865053134
 10
989.5858048948
 20
651.1158534722
 10
988.5467171225
 20
654.3139108853
 10
987.4966620954
 20
657.5456449227
 10
986.4471733126
 20
660.7756504254
 10
985.4097246679
 20
663.9685073333
 10
984.395730451
 20
667.0892724233
 10
983.4162771257
 20
670.1037475305
 10
982.4820935282
 20
672.9788818793
 10
981.6034018549
 20
675.6832042174
 10
980.7898580583
 20
678.187061234
 10
980.0503432306
 20
680.4630347924
 10
979.3929636034
 20
682.48619525
 10
978.824961141
 20
684.2343547778
 10
978.3525347265
 20
685.6883653836
 10
977.9808401617
 20
686.8323126273
 10
977.7139603647
 20
687.6536497312
 10
977.5548457655
 20
688.1433763938
 10
977.5051950964
 20
688.2961430984
  0
LWPOLYLINE
  5
95
330
1F
100
AcDbEntity
  8
0
  6
Continuous
 62
     7
370
    15
100
AcDbPolyline
 90
        6
 70
   128
 43
0.0
 10
989.7100805792
 20
683.0940881209
 10
989.1906559023
 20
684.6927591996
 10
988.7802183184
 20
685.955930634
 10
988.484460071
 20
686.8661233621
 10
988.307523683
 20
687.4107011991
 10
988.2517039331
 20
687.5824966865
  0
SPLINE
  5
96
330
1F
100
AcDbEntity
  8
0
  6
Continuous
 62
     7
370
    15
100
AcDbSpline
210
0.0
220
0.0
230
1.0
 70
     8
 71
     3
 72
     9
 73
     5
 74
     0
 42
0.00000001
 43
0.00000001
 12
1.0
 22
0.0
 32
0.0
 13
1.0
 23
0.0
 33
0.0
 40
0.0
 40
0.0
 40
0.0
 40
0.0
 40
0.5209730277409046
 40
1.0
 40
1.0
 40
1.0
 40
1.0
 10
989.450532153503
 20
681.8587073521649
 30
0.0
 10
989.402450883911
 20
682.0975770373244
 30
0.0
 10
989.3101596000405
 20
682.5560838552213
 30
0.0
 10
989.580554249116
 20
682.9198394024902
 30
0.0
 10
989.7100805791775
 20
683.0940881209408
 30
0.0
  0
LWPOLYLINE
  5
97
330
1F
100
AcDbEntity
  8
0
  6
Continuous
 62
     7
370
    15
100
AcDbPolyline
 90
       17
 70
   128
 43
0.0
 10
1003.4148573431
 20
638.8809048967
 10
1002.7468680891
 20
640.9367436008
 10
1001.9986807856
 20
643.2394274907
 10
1001.179861978
 20
645.7595416741
 10
1000.3008126768
 20
648.4649815993
 10
999.3727683577
 20
651.3211914735
 10
998.4075605425
 20
654.2917379575
 10
997.4175571951
 20
657.3387273984
 10
996.4153050932
 20
660.4232975678
 10
995.4136490377
 20
663.5060646968
 10
994.425374225
 20
666.547719522
 10
993.4630274328
 20
669.5094445186
 10
992.5389766249
 20
672.3534503417
 10
991.6649341139
 20
675.0434675651
 10
990.8520757708
 20
677.5451490121
 10
990.110802606
 20
679.8266061978
 10
989.4505321535
 20
681.8587073522
  0
SPLINE
  5
98
330
1F
100
AcDbEntity
  8
0
  6
Continuous
 62
     7
370
    15
100
AcDbSpline
210
0.0
220
0.0
230
1.0
 70
     8
 71
     3
 72
     9
 73
     5
 74
     0
 42
0.00000001
 43
0.00000001
 12
1.0
 22
0.0
 32
0.0
 13
1.0
 23
0.0
 33
0.0
 40
0.0
 40
0.0
 40
0.0
 40
0.0
 40
0.4790214655741457
 40
1.0
 40
1.0
 40
1.0
 40
1.0
 10
1004.357147172348
 20
638.0150207715069
 30
0.0
 10
1004.14895477974
 20
638.0829150610615
 30
0.0
 10
1003.71433460597
 20
638.2246504412773
 30
0.0
 10
1003.517436848311
 20
638.6561190258816
 30
0.0
 10
1003.414857343093
 20
638.8809048967395
 30
0.0
  0
LWPOLYLINE
  5
99
330
1F
100
AcDbEntity
  8
0
  6
Continuous
 62
     7
370
    15
100
AcDbPolyline
 90
        7
 70
   128
 43
0.0
 10
1005.865681127
 20
633.3722734289
 10
1005.8655619177
 20
633.3726310568
 10
1005.7992517504
 20
633.5767173605
 10
1005.6118547472
 20
634.1534966068
 10
1005.3059339079
 20
635.0949817734
 10
1004.8857807669
 20
636.3881268935
 10
1004.3571471723
 20
638.0150207715
  0
LINE
  5
9A
330
1F
100
AcDbEntity
  8
0
  6
Continuous
 62
     7
370
    15
100
AcDbLine
 10
981.9886564764
 20
685.0687303977
 30
0.0
 11
981.8227469477
 21
685.5788418489
 31
0.0
  0
LINE
  5
9B
330
1F
100
AcDbEntity
  8
0
  6
Continuous
 62
     7
370
    15
100
AcDbLine
 10
982.8439235243
 20
684.8321446614
 30
0.0
 11
981.9886564764
 21
685.0687303977
 31
0.0
  0
LINE
  5
9C
330
1F
100
AcDbEntity
  8
0
  6
Continuous
 62
     7
370
    15
100
AcDbLine
 10
986.3676011118
 20
685.0928702788
 30
0.0
 11
982.7268898043
 21
685.2179208236
 31
0.0
  0
SPLINE
  5
9D
330
1F
100
AcDbEntity
  8
0
  6
Continuous
 62
     7
370
    15
100
AcDbSpline
210
0.0
220
0.0
230
1.0
 70
     8
 71
     3
 72
    13
 73
     9
 74
     0
 42
0.00000001
 43
0.00000001
 12
1.0
 22
0.0
 32
0.0
 13
1.0
 23
0.0
 33
0.0
 40
0.0
 40
0.0
 40
0.0
 40
0.0
 40
0.1668769185420761
 40
0.3335085746155242
 40
0.500145243599768
 40
0.6667210999336619
 40
0.8323721723546251
 40
1.0
 40
1.0
 40
1.0
 40
1.0
 10
986.5899860414424
 20
674.8369374709163
 30
0.0
 10
986.5528048247756
 20
674.8314718234535
 30
0.0
 10
986.4784970374474
 20
674.8205485615036
 30
0.0
 10
986.3780905454039
 20
674.7824233255686
 30
0.0
 10
986.2922270330251
 20
674.7276352740466
 30
0.0
 10
986.2267784800451
 20
674.6565942034937
 30
0.0
 10
986.1810507057158
 20
674.5737710995039
 30
0.0
 10
986.1707712057072
 20
674.5119025635756
 30
0.0
 10
986.1656009706418
 20
674.4807848172221
 30
0.0
  0
SPLINE
  5
9E
330
1F
100
AcDbEntity
  8
0
  6
Continuous
 62
     7
370
    15
100
AcDbSpline
210
0.0
220
0.0
230
1.0
 70
     8
 71
     3
 72
    10
 73
     6
 74
     0
 42
0.00000001
 43
0.00000001
 12
1.0
 22
0.0
 32
0.0
 13
1.0
 23
0.0
 33
0.0
 40
0.0
 40
0.0
 40
0.0
 40
0.0
 40
0.5008451152354098
 40
0.7508769812937873
 40
1.0
 40
1.0
 40
1.0
 40
1.0
 10
988.1009637864986
 20
674.307126684669
 30
0.0
 10
987.8657968877367
 20
674.4398587421001
 30
0.0
 10
987.5132299849731
 20
674.6388532886634
 30
0.0
 10
986.9910271226548
 20
674.8260566382505
 30
0.0
 10
986.7235040356439
 20
674.8333149319275
 30
0.0
 10
986.5899860414424
 20
674.8369374709163
 30
0.0
  0
LINE
  5
9F
330
1F
100
AcDbEntity
  8
0
  6
Continuous
 62
     7
370
    15
100
AcDbLine
 10
989.7797882112
 20
673.3162590699
 30
0.0
 11
988.1009637865
 21
674.3071266847
 31
0.0
  0
LINE
  5
A0
330
1F
100
AcDbEntity
  8
0
  6
Continuous
 62
     7
370
    15
100
AcDbLine
 10
990.1631056818
 20
673.3564475017
 30
0.0
 11
989.7797882112
 21
673.3162590699
 31
0.0
  0
LINE
  5
A1
330
1F
100
AcDbEntity
  8
0
  6
Continuous
 62
     7
370
    15
100
AcDbLine
 10
989.0387236627
 20
674.5069661574
 30
0.0
 11
988.6156498941
 21
675.7633426623
 31
0.0
  0
SPLINE
  5
A2
330
1F
100
AcDbEntity
  8
0
  6
Continuous
 62
     7
370
    15
100
AcDbSpline
210
0.0
220
0.0
230
1.0
 70
     8
 71
     3
 72
     9
 73
     5
 74
     0
 42
0.00000001
 43
0.00000001
 12
1.0
 22
0.0
 32
0.0
 13
1.0
 23
0.0
 33
0.0
 40
0.0
 40
0.0
 40
0.0
 40
0.0
 40
0.6997225064164196
 40
1.0
 40
1.0
 40
1.0
 40
1.0
 10
985.4272782358089
 20
674.2544808821712
 30
0.0
 10
985.3908965834679
 20
674.4002812580339
 30
0.0
 10
985.3389021828198
 20
674.6086501107231
 30
0.0
 10
985.3919254329588
 20
674.7990475174303
 30
0.0
 10
985.4078471216121
 20
674.8562195735011
 30
0.0
  0
SPLINE
  5
A3
330
1F
100
AcDbEntity
  8
0
  6
Continuous
 62
     7
370
    15
100
AcDbSpline
210
0.0
220
0.0
230
1.0
 70
     8
 71
     3
 72
    13
 73
     9
 74
     0
 42
0.00000001
 43
0.00000001
 12
1.0
 22
0.0
 32
0.0
 13
1.0
 23
0.0
 33
0.0
 40
0.0
 40
0.0
 40
0.0
 40
0.0
 40
0.2498945091971445
 40
0.3750967234318764
 40
0.5002462623238555
 40
0.6260942893019917
 40
0.7505777379635225
 40
1.0
 40
1.0
 40
1.0
 40
1.0
 10
987.2824430021205
 20
673.1584706740413
 30
0.0
 10
987.0851174568616
 20
673.1571018781702
 30
0.0
 10
986.7889278138242
 20
673.1550472878237
 30
0.0
 10
986.3960146901621
 20
673.2661505192602
 30
0.0
 10
986.118973231826
 20
673.3963430428113
 30
0.0
 10
985.8740780339356
 20
673.5699423162465
 30
0.0
 10
985.6000972563436
 20
673.847287512998
 30
0.0
 10
985.4964310941918
 20
674.0915440404635
 30
0.0
 10
985.4272782358089
 20
674.2544808821712
 30
0.0
  0
SPLINE
  5
A4
330
1F
100
AcDbEntity
  8
0
  6
Continuous
 62
     7
370
    15
100
AcDbSpline
210
0.0
220
0.0
230
1.0
 70
     8
 71
     3
 72
    13
 73
     9
 74
     0
 42
0.00000001
 43
0.00000001
 12
1.0
 22
0.0
 32
0.0
 13
1.0
 23
0.0
 33
0.0
 40
0.0
 40
0.0
 40
0.0
 40
0.0
 40
0.2505527797480739
 40
0.500093785045121
 40
0.6251644359706443
 40
0.7501801023264479
 40
0.875101967353133
 40
1.0
 40
1.0
 40
1.0
 40
1.0
 10
992.4466192277828
 20
657.9500773386989
 30
0.0
 10
992.4117421357427
 20
658.0314481255223
 30
0.0
 10
992.3421287912519
 20
658.1938611101856
 30
0.0
 10
992.216047338322
 20
658.3797423074549
 30
0.0
 10
992.0766782490479
 20
658.4838692893453
 30
0.0
 10
991.9593268392139
 20
658.5347814793199
 30
0.0
 10
991.8334194647857
 20
658.5550605441288
 30
0.0
 10
991.752703660743
 20
658.5364659296879
 30
0.0
 10
991.7123496087949
 20
658.5271695094142
 30
0.0
  0
SPLINE
  5
A5
330
1F
100
AcDbEntity
  8
0
  6
Continuous
 62
     7
370
    15
100
AcDbSpline
210
0.0
220
0.0
230
1.0
 70
     8
 71
     3
 72
    13
 73
     9
 74
     0
 42
0.00000001
 43
0.00000001
 12
1.0
 22
0.0
 32
0.0
 13
1.0
 23
0.0
 33
0.0
 40
0.0
 40
0.0
 40
0.0
 40
0.0
 40
0.2497066033205431
 40
0.3749243312447135
 40
0.5002275124545087
 40
0.6262102827495786
 40
0.750749628632472
 40
1.0
 40
1.0
 40
1.0
 40
1.0
 10
994.217801049606
 20
658.9012482600245
 30
0.0
 10
994.1834642379421
 20
658.9842113345079
 30
0.0
 10
994.1319089086919
 20
659.1087770240213
 30
0.0
 10
994.0109041955865
 20
659.2385497635815
 30
0.0
 10
993.9041614291347
 20
659.3141349014377
 30
0.0
 10
993.7874890369117
 20
659.3685032364705
 30
0.0
 10
993.6215027121292
 20
659.4084807367918
 30
0.0
 10
993.4988735818408
 20
659.3816897598861
 30
0.0
 10
993.4171020540157
 20
659.3638250069652
 30
0.0
  0
SPLINE
  5
A6
330
1F
100
AcDbEntity
  8
0
  6
Continuous
 62
     7
370
    15
100
AcDbSpline
210
0.0
220
0.0
230
1.0
 70
     8
 71
     3
 72
    12
 73
     8
 74
     0
 42
0.00000001
 43
0.00000001
 12
1.0
 22
0.0
 32
0.0
 13
1.0
 23
0.0
 33
0.0
 40
0.0
 40
0.0
 40
0.0
 40
0.0
 40
0.250464202200028
 40
0.4998359587438759
 40
0.6240427420496639
 40
0.7503567150380464
 40
1.0
 40
1.0
 40
1.0
 40
1.0
 10
993.8314735444942
 20
658.0147483782802
 30
0.0
 10
993.9052602570137
 20
658.0586949953616
 30
0.0
 10
994.0525118477431
 20
658.1463965482765
 30
0.0
 10
994.1912159347728
 20
658.3241580879383
 30
0.0
 10
994.2489454942092
 20
658.4943519620153
 30
0.0
 10
994.2728503454866
 20
658.6761956368173
 30
0.0
 10
994.2397682413134
 20
658.8114419502582
 30
0.0
 10
994.217801049606
 20
658.9012482600245
 30
0.0
  0
LINE
  5
A7
330
1F
100
AcDbEntity
  8
0
  6
Continuous
 62
     7
370
    15
100
AcDbLine
 10
994.0820514711
 20
657.2075673776
 30
0.0
 11
993.8314735445
 21
658.0147483783
 31
0.0
  0
SPLINE
  5
A8
330
1F
100
AcDbEntity
  8
0
  6
Continuous
 62
     7
370
    15
100
AcDbSpline
210
0.0
220
0.0
230
1.0
 70
     8
 71
     3
 72
    11
 73
     7
 74
     0
 42
0.00000001
 43
0.00000001
 12
1.0
 22
0.0
 32
0.0
 13
1.0
 23
0.0
 33
0.0
 40
0.0
 40
0.0
 40
0.0
 40
0.0
 40
0.2502443053347398
 40
0.5000969572115328
 40
0.749935744522476
 40
0.9999999999999999
 40
0.9999999999999999
 40
0.9999999999999999
 40
0.9999999999999999
 10
992.4220919164578
 20
659.0025761561427
 30
0.0
 10
992.4232890970427
 20
659.1312657631232
 30
0.0
 10
992.4256815845239
 20
659.3884435669881
 30
0.0
 10
992.5714298729741
 20
659.7401333099857
 30
0.0
 10
992.8162221898478
 20
660.0210851576919
 30
0.0
 10
993.0376237861839
 20
660.1159815316894
 30
0.0
 10
993.148374513046
 20
660.1634511189494
 30
0.0
  0
SPLINE
  5
A9
330
1F
100
AcDbEntity
  8
0
  6
Continuous
 62
     7
370
    15
100
AcDbSpline
210
0.0
220
0.0
230
1.0
 70
     8
 71
     3
 72
    12
 73
     8
 74
     0
 42
0.00000001
 43
0.00000001
 12
1.0
 22
0.0
 32
0.0
 13
1.0
 23
0.0
 33
0.0
 40
0.0
 40
0.0
 40
0.0
 40
0.0
 40
0.2500026578995215
 40
0.499641108477934
 40
0.749238735443684
 40
0.8745940260633164
 40
1.0
 40
1.0
 40
1.0
 40
1.0
 10
990.751254514114
 20
657.7433982329402
 30
0.0
 10
990.712021064768
 20
657.9031907759057
 30
0.0
 10
990.6336113219062
 20
658.2225430738556
 30
0.0
 10
990.7310119436877
 20
658.7068297334087
 30
0.0
 10
990.933895928153
 20
659.0473544631287
 30
0.0
 10
991.1715819675636
 20
659.2436942002813
 30
0.0
 10
991.312520589845
 20
659.3006012980478
 30
0.0
 10
991.3830041440884
 20
659.3290605978999
 30
0.0
  0
SPLINE
  5
AA
330
1F
100
AcDbEntity
  8
0
  6
Continuous
 62
     7
370
    15
100
AcDbSpline
210
0.0
220
0.0
230
1.0
 70
     8
 71
     3
 72
     9
 73
     5
 74
     0
 42
0.00000001
 43
0.00000001
 12
1.0
 22
0.0
 32
0.0
 13
1.0
 23
0.0
 33
0.0
 40
0.0
 40
0.0
 40
0.0
 40
0.0
 40
0.49973011307841
 40
1.0
 40
1.0
 40
1.0
 40
1.0
 10
991.4346217664638
 20
656.8882056908641
 30
0.0
 10
991.2803139999319
 20
656.9935180827115
 30
0.0
 10
990.9715317943097
 20
657.2042566175551
 30
0.0
 10
990.8247066916292
 20
657.5636197028806
 30
0.0
 10
990.751254514114
 20
657.7433982329402
 30
0.0
  0
SPLINE
  5
AB
330
1F
100
AcDbEntity
  8
0
  6
Continuous
 62
     7
370
    15
100
AcDbSpline
210
0.0
220
0.0
230
1.0
 70
     8
 71
     3
 72
     9
 73
     5
 74
     0
 42
0.00000001
 43
0.00000001
 12
1.0
 22
0.0
 32
0.0
 13
1.0
 23
0.0
 33
0.0
 40
0.0
 40
0.0
 40
0.0
 40
0.0
 40
0.5006257355728286
 40
1.0
 40
1.0
 40
1.0
 40
1.0
 10
992.2457515748897
 20
656.783107800964
 30
0.0
 10
992.1072403179479
 20
656.7645408360788
 30
0.0
 10
991.8305640564223
 20
656.7274533202644
 30
0.0
 10
991.5664923704181
 20
656.8346662919778
 30
0.0
 10
991.4346217664638
 20
656.8882056908641
 30
0.0
  0
LINE
  5
AC
330
1F
100
AcDbEntity
  8
0
  6
Continuous
 62
     7
370
    15
100
AcDbLine
 10
996.0934400114
 20
641.5181347566
 30
0.0
 11
995.870429233
 21
642.18265204
 31
0.0
  0
LINE
  5
AD
330
1F
100
AcDbEntity
  8
0
  6
Continuous
 62
     7
370
    15
100
AcDbLine
 10
998.8488733324
 20
643.9708360868
 30
0.0
 11
999.5943486246
 21
644.4185414748
 31
0.0
  0
LINE
  5
AE
330
1F
100
AcDbEntity
  8
0
  6
Continuous
 62
     7
370
    15
100
AcDbLine
 10
998.1013118776
 20
643.9010539489
 30
0.0
 11
998.7405716928
 21
644.2848780589
 31
0.0
  0
LINE
  5
AF
330
1F
100
AcDbEntity
  8
0
  6
Continuous
 62
     7
370
    15
100
AcDbLine
 10
998.2095241102
 20
643.5870715814
 30
0.0
 11
998.1013118776
 21
643.9010539489
 31
0.0
  0
LINE
  5
B0
330
1F
100
AcDbEntity
  8
0
  6
Continuous
 62
     7
370
    15
100
AcDbLine
 10
995.870429233
 20
642.18265204
 30
0.0
 11
998.2095241102
 21
643.5870715814
 31
0.0
  0
LINE
  5
B1
330
1F
100
AcDbEntity
  8
0
  6
Continuous
 62
     7
370
    15
100
AcDbLine
 10
999.7243761572
 20
630.5618026691
 30
0.0
 11
999.4682549986
 21
631.3028374152
 31
0.0
  0
SPLINE
  5
B2
330
1F
100
AcDbEntity
  8
0
  6
Continuous
 62
     7
370
    15
100
AcDbSpline
210
0.0
220
0.0
230
1.0
 70
     8
 71
     3
 72
    10
 73
     6
 74
     0
 42
0.00000001
 43
0.00000001
 12
1.0
 22
0.0
 32
0.0
 13
1.0
 23
0.0
 33
0.0
 40
0.0
 40
0.0
 40
0.0
 40
0.0
 40
0.2499983463821029
 40
0.5002451723885656
 40
1.0
 40
1.0
 40
1.0
 40
1.0
 10
1001.483339026825
 20
632.2559603886638
 30
0.0
 10
1001.492647675522
 20
632.2404964658256
 30
0.0
 10
1001.511274225016
 20
632.2095532501686
 30
0.0
 10
1001.600739663863
 20
632.1972892002358
 30
0.0
 10
1001.697205332155
 20
632.2257696502149
 30
0.0
 10
1001.761484101669
 20
632.2447472648654
 30
0.0
  0
SPLINE
  5
B3
330
1F
100
AcDbEntity
  8
0
  6
Continuous
 62
     7
370
    15
100
AcDbSpline
210
0.0
220
0.0
230
1.0
 70
     8
 71
     3
 72
    11
 73
     7
 74
     0
 42
0.00000001
 43
0.00000001
 12
1.0
 22
0.0
 32
0.0
 13
1.0
 23
0.0
 33
0.0
 40
0.0
 40
0.0
 40
0.0
 40
0.0
 40
0.250315190190149
 40
0.5003270666056872
 40
0.7501304270140295
 40
1.0
 40
1.0
 40
1.0
 40
1.0
 10
1002.344983771698
 20
632.6455959515605
 30
0.0
 10
1002.38797354724
 20
632.6935477573471
 30
0.0
 10
1002.473901006436
 20
632.7893932644034
 30
0.0
 10
1002.564797958914
 20
632.926222183908
 30
0.0
 10
1002.616767560967
 20
633.0465281182393
 30
0.0
 10
1002.609624246389
 20
633.1000695767722
 30
0.0
 10
1002.606052115814
 20
633.1268438534771
 30
0.0
  0
LINE
  5
B4
330
1F
100
AcDbEntity
  8
0
  6
Continuous
 62
     7
370
    15
100
AcDbLine
 10
1002.4284302744
 20
632.3581451016
 30
0.0
 11
1002.3449837717
 21
632.6455959516
 31
0.0
  0
SPLINE
  5
B5
330
1F
100
AcDbEntity
  8
0
  6
Continuous
 62
     7
370
    15
100
AcDbSpline
210
0.0
220
0.0
230
1.0
 70
     8
 71
     3
 72
    11
 73
     7
 74
     0
 42
0.00000001
 43
0.00000001
 12
1.0
 22
0.0
 32
0.0
 13
1.0
 23
0.0
 33
0.0
 40
0.0
 40
0.0
 40
0.0
 40
0.0
 40
0.2766097917578508
 40
0.5529747694925784
 40
0.8292940716398447
 40
1.0
 40
1.0
 40
1.0
 40
1.0
 10
1001.818406537429
 20
633.2031303482089
 30
0.0
 10
1001.97960106864
 20
633.321948052899
 30
0.0
 10
1002.301847465535
 20
633.5594783024434
 30
0.0
 10
1002.746113467208
 20
633.7388089032231
 30
0.0
 10
1003.065861624611
 20
633.7869765463741
 30
0.0
 10
1003.135529510691
 20
633.6971810593743
 30
0.0
 10
1003.162133649246
 20
633.6628907756839
 30
0.0
  0
SPLINE
  5
B6
330
1F
100
AcDbEntity
  8
0
  6
Continuous
 62
     7
370
    15
100
AcDbSpline
210
0.0
220
0.0
230
1.0
 70
     8
 71
     3
 72
    13
 73
     9
 74
     0
 42
0.00000001
 43
0.00000001
 12
1.0
 22
0.0
 32
0.0
 13
1.0
 23
0.0
 33
0.0
 40
0.0
 40
0.0
 40
0.0
 40
0.0
 40
0.2493183727451965
 40
0.3731108044949525
 40
0.4997947435675706
 40
0.6255074363548943
 40
0.7502734211034008
 40
0.9999999999999999
 40
0.9999999999999999
 40
0.9999999999999999
 40
0.9999999999999999
 10
1000.853973582641
 20
631.7766794400249
 30
0.0
 10
1000.844713888273
 20
631.8549857107788
 30
0.0
 10
1000.830856538021
 20
631.9721728853795
 30
0.0
 10
1000.934612740222
 20
632.2114421685461
 30
0.0
 10
1001.051985783847
 20
632.4078884675488
 30
0.0
 10
1001.205661774606
 20
632.61489653861
 30
0.0
 10
1001.451140455757
 20
632.8924890757131
 30
0.0
 10
1001.671477204652
 20
633.0788544698233
 30
0.0
 10
1001.818406537429
 20
633.2031303482089
 30
0.0
  0
LINE
  5
B7
330
1F
100
AcDbEntity
  8
0
  6
Continuous
 62
     7
370
    15
100
AcDbLine
 10
1000.9198367151
 20
631.7034998374
 30
0.0
 11
1000.8539735826
 21
631.77667944
 31
0.0
  0
LINE
  5
B8
330
1F
100
AcDbEntity
  8
0
  6
Continuous
 62
     7
370
    15
100
AcDbLine
 10
1000.2656161341
 20
631.2620305853
 30
0.0
 11
1000.9198367151
 21
631.7034998374
 31
0.0
  0
LINE
  5
B9
330
1F
100
AcDbEntity
  8
0
  6
Continuous
 62
     7
370
    15
100
AcDbLine
 10
999.4682549986
 20
631.3028374152
 30
0.0
 11
1000.0783085379
 21
631.7884588079
 31
0.0
  0
SPLINE
  5
BA
330
1F
100
AcDbEntity
  8
0
  6
Continuous
 62
     7
370
    15
100
AcDbSpline
210
0.0
220
0.0
230
1.0
 70
     8
 71
     3
 72
    15
 73
    11
 74
     0
 42
0.00000001
 43
0.00000001
 12
1.0
 22
0.0
 32
0.0
 13
1.0
 23
0.0
 33
0.0
 40
0.0
 40
0.0
 40
0.0
 40
0.0
 40
0.1063506778021767
 40
0.233998185396315
 40
0.3616466800455625
 40
0.4892908399802931
 40
0.6169356391659363
 40
0.744577787744325
 40
0.8722194259370437
 40
1.0
 40
1.0
 40
1.0
 40
1.0
 10
980.6001662763515
 20
688.089002056602
 30
0.0
 10
980.6327039398254
 20
688.0856081573424
 30
0.0
 10
980.704294966486
 20
688.0781407270958
 30
0.0
 10
981.2545791741832
 20
688.0085448174224
 30
0.0
 10
982.0730467304511
 20
687.9200437105318
 30
0.0
 10
983.0526176882623
 20
687.8391130210389
 30
0.0
 10
984.0338605456939
 20
687.7874876897938
 30
0.0
 10
984.8618772047546
 20
687.7666456797607
 30
0.0
 10
985.4422041569336
 20
687.7642182177556
 30
0.0
 10
985.5191431647131
 20
687.7621709158024
 30
0.0
 10
985.5576335939327
 20
687.761146708015
 30
0.0
  0
LINE
  5
BB
330
1F
100
AcDbEntity
  8
0
  6
Continuous
 62
     7
370
    15
100
AcDbLine
 10
992.0039951357
 20
657.5670578914
 30
0.0
 11
992.2494768652
 21
656.7836740451
 31
0.0
  0
SPLINE
  5
BC
330
1F
100
AcDbEntity
  8
0
  6
Continuous
 62
     7
370
    15
100
AcDbSpline
210
0.0
220
0.0
230
1.0
 70
     8
 71
     3
 72
     9
 73
     5
 74
     0
 42
0.00000001
 43
0.00000001
 12
1.0
 22
0.0
 32
0.0
 13
1.0
 23
0.0
 33
0.0
 40
0.0
 40
0.0
 40
0.0
 40
0.0
 40
0.5006227542658689
 40
1.0
 40
1.0
 40
1.0
 40
1.0
 10
992.2494768651882
 20
656.7836740450892
 30
0.0
 10
992.1109527960331
 20
656.7651134649882
 30
0.0
 10
991.8342492942951
 20
656.7280384819937
 30
0.0
 10
991.5701849696018
 20
656.8353081911891
 30
0.0
 10
991.43831725444
 20
656.8888762431178
 30
0.0
  0
SPLINE
  5
BD
330
1F
100
AcDbEntity
  8
0
  6
Continuous
 62
     7
370
    15
100
AcDbSpline
210
0.0
220
0.0
230
1.0
 70
     8
 71
     3
 72
     9
 73
     5
 74
     0
 42
0.00000001
 43
0.00000001
 12
1.0
 22
0.0
 32
0.0
 13
1.0
 23
0.0
 33
0.0
 40
0.0
 40
0.0
 40
0.0
 40
0.0
 40
0.4997008842170975
 40
1.0
 40
1.0
 40
1.0
 40
1.0
 10
991.43831725444
 20
656.8888762431178
 30
0.0
 10
991.2840002810245
 20
656.9942364801955
 30
0.0
 10
990.9751815891042
 20
657.2050830894478
 30
0.0
 10
990.8283302101602
 20
657.5645338904892
 30
0.0
 10
990.7548605951229
 20
657.7443668084178
 30
0.0
  0
SPLINE
  5
BE
330
1F
100
AcDbEntity
  8
0
  6
Continuous
 62
     7
370
    15
100
AcDbSpline
210
0.0
220
0.0
230
1.0
 70
     8
 71
     3
 72
    12
 73
     8
 74
     0
 42
0.00000001
 43
0.00000001
 12
1.0
 22
0.0
 32
0.0
 13
1.0
 23
0.0
 33
0.0
 40
0.0
 40
0.0
 40
0.0
 40
0.0
 40
0.2500371386195917
 40
0.4996936532403518
 40
0.7492825770412092
 40
0.8746231294634135
 40
0.9999999999999999
 40
0.9999999999999999
 40
0.9999999999999999
 40
0.9999999999999999
 10
990.7548605951229
 20
657.7443668084178
 30
0.0
 10
990.7156040754958
 20
657.9042032020096
 30
0.0
 10
990.6371507952581
 20
658.2236326750697
 30
0.0
 10
990.7345250387231
 20
658.7080274368363
 30
0.0
 10
990.9373657209826
 20
659.0486581193198
 30
0.0
 10
991.1750644722656
 20
659.2450117979076
 30
0.0
 10
991.3159888284634
 20
659.3019356523057
 30
0.0
 10
991.3864612134854
 20
659.3304017024074
 30
0.0
  0
SPLINE
  5
BF
330
1F
100
AcDbEntity
  8
0
  6
Continuous
 62
     7
370
    15
100
AcDbSpline
210
0.0
220
0.0
230
1.0
 70
     8
 71
     3
 72
    11
 73
     7
 74
     0
 42
0.00000001
 43
0.00000001
 12
1.0
 22
0.0
 32
0.0
 13
1.0
 23
0.0
 33
0.0
 40
0.0
 40
0.0
 40
0.0
 40
0.0
 40
0.2497882060984176
 40
0.499627984261519
 40
0.7496395009576111
 40
1.0
 40
1.0
 40
1.0
 40
1.0
 10
991.3864612134854
 20
659.3304017024074
 30
0.0
 10
991.4779746248468
 20
659.3521820344458
 30
0.0
 10
991.6610203417187
 20
659.3957471953593
 30
0.0
 10
991.9474611054699
 20
659.3423274685381
 30
0.0
 10
992.2114126734025
 20
659.2111502559601
 30
0.0
 10
992.3541966249943
 20
659.0729078553231
 30
0.0
 10
992.425638392822
 20
659.0037384467158
 30
0.0
  0
SPLINE
  5
C0
330
1F
100
AcDbEntity
  8
0
  6
Continuous
 62
     7
370
    15
100
AcDbSpline
210
0.0
220
0.0
230
1.0
 70
     8
 71
     3
 72
    11
 73
     7
 74
     0
 42
0.00000001
 43
0.00000001
 12
1.0
 22
0.0
 32
0.0
 13
1.0
 23
0.0
 33
0.0
 40
0.0
 40
0.0
 40
0.0
 40
0.0
 40
0.2502713015427637
 40
0.5001485517982852
 40
0.7499748639171067
 40
1.0
 40
1.0
 40
1.0
 40
1.0
 10
992.425638392822
 20
659.0037384467158
 30
0.0
 10
992.4268102114314
 20
659.1324580030366
 30
0.0
 10
992.4291520036263
 20
659.3896944471877
 30
0.0
 10
992.5749142014948
 20
659.7414518639506
 30
0.0
 10
992.8196589315206
 20
660.0224860711525
 30
0.0
 10
993.0410581422199
 20
660.1173939261834
 30
0.0
 10
993.1518017801205
 20
660.1648667292628
 30
0.0
  0
SPLINE
  5
C1
330
1F
100
AcDbEntity
  8
0
  6
Continuous
 62
     7
370
    15
100
AcDbSpline
210
0.0
220
0.0
230
1.0
 70
     8
 71
     3
 72
    12
 73
     8
 74
     0
 42
0.00000001
 43
0.00000001
 12
1.0
 22
0.0
 32
0.0
 13
1.0
 23
0.0
 33
0.0
 40
0.0
 40
0.0
 40
0.0
 40
0.0
 40
0.2493266565064902
 40
0.374682207934632
 40
0.5001517613040838
 40
0.7497745513823396
 40
1.0
 40
1.0
 40
1.0
 40
1.0
 10
993.1518017801205
 20
660.1648667292628
 30
0.0
 10
993.3354109600665
 20
660.2034421054412
 30
0.0
 10
993.6113344970968
 20
660.2614122692453
 30
0.0
 10
993.9822882340906
 20
660.1590105988563
 30
0.0
 10
994.3259262037528
 20
659.9881564455493
 30
0.0
 10
994.7009032312437
 20
659.6457550621187
 30
0.0
 10
994.851975669865
 20
659.2745374561911
 30
0.0
 10
994.9276029619136
 20
659.0887048678431
 30
0.0
  0
SPLINE
  5
C2
330
1F
100
AcDbEntity
  8
0
  6
Continuous
 62
     7
370
    15
100
AcDbSpline
210
0.0
220
0.0
230
1.0
 70
     8
 71
     3
 72
    13
 73
     9
 74
     0
 42
0.00000001
 43
0.00000001
 12
1.0
 22
0.0
 32
0.0
 13
1.0
 23
0.0
 33
0.0
 40
0.0
 40
0.0
 40
0.0
 40
0.0
 40
0.2496125986826092
 40
0.3750352879789948
 40
0.4999515390257581
 40
0.624894773620326
 40
0.7502802361856923
 40
1.0
 40
1.0
 40
1.0
 40
1.0
 10
994.9276029619137
 20
659.0887048678431
 30
0.0
 10
994.9749872828614
 20
658.895797950887
 30
0.0
 10
995.0461807744803
 20
658.6059612137366
 30
0.0
 10
994.9971561400965
 20
658.2142180789517
 30
0.0
 10
994.9040861776551
 20
657.9382663072737
 30
0.0
 10
994.7579970428285
 20
657.6908403109298
 30
0.0
 10
994.501247581924
 20
657.4120872567871
 30
0.0
 10
994.2518431893102
 20
657.2896106694601
 30
0.0
 10
994.0858065637509
 20
657.2080740170512
 30
0.0
  0
LINE
  5
C3
330
1F
100
AcDbEntity
  8
0
  6
Continuous
 62
     7
370
    15
100
AcDbLine
 10
994.0858065638
 20
657.2080740171
 30
0.0
 11
993.8351094278
 21
658.0155083375
 31
0.0
  0
SPLINE
  5
C4
330
1F
100
AcDbEntity
  8
0
  6
Continuous
 62
     7
370
    15
100
AcDbSpline
210
0.0
220
0.0
230
1.0
 70
     8
 71
     3
 72
    12
 73
     8
 74
     0
 42
0.00000001
 43
0.00000001
 12
1.0
 22
0.0
 32
0.0
 13
1.0
 23
0.0
 33
0.0
 40
0.0
 40
0.0
 40
0.0
 40
0.0
 40
0.2504565087457016
 40
0.499799310093803
 40
0.6239985115556105
 40
0.7503306805178347
 40
1.0
 40
1.0
 40
1.0
 40
1.0
 10
993.8351094278255
 20
658.0155083375012
 30
0.0
 10
993.908911681936
 20
658.0594545230922
 30
0.0
 10
994.0561880129547
 20
658.1471514783428
 30
0.0
 10
994.1948435354562
 20
658.3249824169203
 30
0.0
 10
994.2525952455255
 20
658.4951940551423
 30
0.0
 10
994.2764329268249
 20
658.6770871399676
 30
0.0
 10
994.2433647685928
 20
658.812371536623
 30
0.0
 10
994.2214071306149
 20
658.9022019343411
 30
0.0
  0
SPLINE
  5
C5
330
1F
100
AcDbEntity
  8
0
  6
Continuous
 62
     7
370
    15
100
AcDbSpline
210
0.0
220
0.0
230
1.0
 70
     8
 71
     3
 72
    14
 73
    10
 74
     0
 42
0.00000001
 43
0.00000001
 12
1.0
 22
0.0
 32
0.0
 13
1.0
 23
0.0
 33
0.0
 40
0.0
 40
0.0
 40
0.0
 40
0.0
 40
0.2494135463255497
 40
0.3744609276582305
 40
0.4996112351700938
 40
0.6254135127325442
 40
0.7497948511494761
 40
0.8747978658834278
 40
1.0
 40
1.0
 40
1.0
 40
1.0
 10
994.2214071306149
 20
658.9022019343411
 30
0.0
 10
994.1870621542676
 20
658.9851858336344
 30
0.0
 10
994.1354977870035
 20
659.1097750083921
 30
0.0
 10
994.0144710895278
 20
659.2396651500997
 30
0.0
 10
993.9077507975442
 20
659.3150981462246
 30
0.0
 10
993.7908874534069
 20
659.3701256906197
 30
0.0
 10
993.6667678150196
 20
659.3979275032318
 30
0.0
 10
993.5406344142657
 20
659.3984678903771
 30
0.0
 10
993.4606451759249
 20
659.3761534146199
 30
0.0
 10
993.4206187280575
 20
659.3649872975383
 30
0.0
  0
SPLINE
  5
C6
330
1F
100
AcDbEntity
  8
0
  6
Continuous
 62
     7
370
    15
100
AcDbSpline
210
0.0
220
0.0
230
1.0
 70
     8
 71
     3
 72
    13
 73
     9
 74
     0
 42
0.00000001
 43
0.00000001
 12
1.0
 22
0.0
 32
0.0
 13
1.0
 23
0.0
 33
0.0
 40
0.0
 40
0.0
 40
0.0
 40
0.0
 40
0.1246075368667273
 40
0.2499191507999294
 40
0.3736264200012674
 40
0.5000660897745378
 40
0.7496054456717524
 40
1.0
 40
1.0
 40
1.0
 40
1.0
 10
993.4206187280575
 20
659.3649872975383
 30
0.0
 10
993.3701134128302
 20
659.343600669918
 30
0.0
 10
993.2688174093149
 20
659.3007065725967
 30
0.0
 10
993.1509017034773
 20
659.1792011949973
 30
0.0
 10
993.067930525101
 20
659.030031579761
 30
0.0
 10
993.0018066631748
 20
658.8083384723448
 30
0.0
 10
993.0047034575072
 20
658.5082512081731
 30
0.0
 10
993.0656204451031
 20
658.2807665358429
 30
0.0
 10
993.0961310419002
 20
658.1668296294247
 30
0.0
  0
LINE
  5
C7
330
1F
100
AcDbEntity
  8
0
  6
Continuous
 62
     7
370
    15
100
AcDbLine
 10
993.0961310419
 20
658.1668296294
 30
0.0
 11
992.4502551111
 21
657.950941606
 31
0.0
  0
SPLINE
  5
C8
330
1F
100
AcDbEntity
  8
0
  6
Continuous
 62
     7
370
    15
100
AcDbSpline
210
0.0
220
0.0
230
1.0
 70
     8
 71
     3
 72
    14
 73
    10
 74
     0
 42
0.00000001
 43
0.00000001
 12
1.0
 22
0.0
 32
0.0
 13
1.0
 23
0.0
 33
0.0
 40
0.0
 40
0.0
 40
0.0
 40
0.0
 40
0.2505024646417769
 40
0.4999625482750198
 40
0.625010956147383
 40
0.7499634601157698
 40
0.874816908874254
 40
0.9373913218556261
 40
1.0
 40
1.0
 40
1.0
 40
1.0
 10
992.4502551111142
 20
657.9509416060481
 30
0.0
 10
992.4153560092625
 20
658.0323251109353
 30
0.0
 10
992.3457030263297
 20
658.1947534708684
 30
0.0
 10
992.2196066936208
 20
658.3808401680162
 30
0.0
 10
992.0802756874797
 20
658.48476454053
 30
0.0
 10
991.9627289913732
 20
658.5364537569241
 30
0.0
 10
991.8583238804443
 20
658.5510061016445
 30
0.0
 10
991.7755043732558
 20
658.5452121654489
 30
0.0
 10
991.7357691399723
 20
658.5339099491529
 30
0.0
 10
991.715896085159
 20
658.5282572941815
 30
0.0
  0
SPLINE
  5
C9
330
1F
100
AcDbEntity
  8
0
  6
Continuous
 62
     7
370
    15
100
AcDbSpline
210
0.0
220
0.0
230
1.0
 70
     8
 71
     3
 72
    14
 73
    10
 74
     0
 42
0.00000001
 43
0.00000001
 12
1.0
 22
0.0
 32
0.0
 13
1.0
 23
0.0
 33
0.0
 40
0.0
 40
0.0
 40
0.0
 40
0.0
 40
0.2489189487764463
 40
0.3739848376291423
 40
0.4991426049500483
 40
0.6242774232691727
 40
0.7494647012366042
 40
0.8746642475138053
 40
1.0
 40
1.0
 40
1.0
 40
1.0
 10
991.715896085159
 20
658.5282572941815
 30
0.0
 10
991.6658702700823
 20
658.5049465176111
 30
0.0
 10
991.5907096749544
 20
658.469923563218
 30
0.0
 10
991.5188370314613
 20
658.3825997176185
 30
0.0
 10
991.4813884476592
 20
658.3057321590519
 30
0.0
 10
991.4574893189234
 20
658.2221100795199
 30
0.0
 10
991.4530133203828
 20
658.1341319427014
 30
0.0
 10
991.4619303554134
 20
658.0460272745623
 30
0.0
 10
991.4779943890646
 20
657.989293028173
 30
0.0
 10
991.4860307725826
 20
657.9609104828868
 30
0.0
  0
SPLINE
  5
CA
330
1F
100
AcDbEntity
  8
0
  6
Continuous
 62
     7
370
    15
100
AcDbSpline
210
0.0
220
0.0
230
1.0
 70
     8
 71
     3
 72
    12
 73
     8
 74
     0
 42
0.00000001
 43
0.00000001
 12
1.0
 22
0.0
 32
0.0
 13
1.0
 23
0.0
 33
0.0
 40
0.0
 40
0.0
 40
0.0
 40
0.0
 40
0.2498173597711652
 40
0.4995295512416618
 40
0.7493974333980989
 40
0.8746514430273213
 40
1.0
 40
1.0
 40
1.0
 40
1.0
 10
991.4860307725826
 20
657.9608955817257
 30
0.0
 10
991.509307253039
 20
657.9054893088905
 30
0.0
 10
991.5558504150013
 20
657.794700088195
 30
0.0
 10
991.6841147552533
 20
657.6689614664219
 30
0.0
 10
991.8109461054603
 20
657.6002726925051
 30
0.0
 10
991.9202318693438
 20
657.5702719722434
 30
0.0
 10
991.9760670250721
 20
657.5681295210974
 30
0.0
 10
992.0039951356807
 20
657.5670578913723
 30
0.0
  0
SPLINE
  5
CB
330
1F
100
AcDbEntity
  8
0
  6
Continuous
 62
     7
370
    15
100
AcDbSpline
210
0.0
220
0.0
230
1.0
 70
    24
 71
     3
 72
     9
 73
     5
 74
     0
 42
0.00000001
 43
0.00000001
 12
1.0
 22
0.0
 32
0.0
 13
1.0
 23
0.0
 33
0.0
 40
0.0
 40
0.0
 40
0.0
 40
0.0
 40
0.5006921404918229
 40
0.9999999999999999
 40
0.9999999999999999
 40
0.9999999999999999
 40
0.9999999999999999
 10
991.3864612134854
 20
659.3304017024074
 30
0.0
 10
991.3858854351544
 20
659.3301783401238
 30
0.0
 10
991.384735470367
 20
659.3297322330942
 30
0.0
 10
991.383580720015
 20
659.3292842695955
 30
0.0
 10
991.3830041440884
 20
659.3290605978999
 30
0.0
  0
SPLINE
  5
CC
330
1F
100
AcDbEntity
  8
0
  6
Continuous
 62
     7
370
    15
100
AcDbSpline
210
0.0
220
0.0
230
1.0
 70
     8
 71
     3
 72
     9
 73
     5
 74
     0
 42
0.00000001
 43
0.00000001
 12
1.0
 22
0.0
 32
0.0
 13
1.0
 23
0.0
 33
0.0
 40
0.0
 40
0.0
 40
0.0
 40
0.0
 40
0.5011554115152209
 40
1.0
 40
1.0
 40
1.0
 40
1.0
 10
990.7548605951229
 20
657.7443668084178
 30
0.0
 10
990.7542528171709
 20
657.7442092975954
 30
0.0
 10
990.7530400637257
 20
657.7438950022314
 30
0.0
 10
990.7518487797023
 20
657.7435635674083
 30
0.0
 10
990.7512545141141
 20
657.7433982329403
 30
0.0
  0
SPLINE
  5
CD
330
1F
100
AcDbEntity
  8
0
  6
Continuous
 62
     7
370
    15
100
AcDbSpline
210
0.0
220
0.0
230
1.0
 70
     8
 71
     3
 72
     9
 73
     5
 74
     0
 42
0.00000001
 43
0.00000001
 12
1.0
 22
0.0
 32
0.0
 13
1.0
 23
0.0
 33
0.0
 40
0.0
 40
0.0
 40
0.0
 40
0.0
 40
0.5006398628908798
 40
1.0
 40
1.0
 40
1.0
 40
1.0
 10
991.43831725444
 20
656.8888762431178
 30
0.0
 10
991.4377017348882
 20
656.888768284575
 30
0.0
 10
991.4364722691636
 20
656.8885526434509
 30
0.0
 10
991.43523807422
 20
656.8883212430165
 30
0.0
 10
991.4346217664638
 20
656.8882056908641
 30
0.0
  0
LINE
  5
CE
330
1F
100
AcDbEntity
  8
0
  6
Continuous
 62
     7
370
    15
100
AcDbLine
 10
992.4502551111
 20
657.950941606
 30
0.0
 11
992.4466192278
 21
657.9500773387
 31
0.0
  0
SPLINE
  5
CF
330
1F
100
AcDbEntity
  8
0
  6
Continuous
 62
     7
370
    15
100
AcDbSpline
210
0.0
220
0.0
230
1.0
 70
     8
 71
     3
 72
     9
 73
     5
 74
     0
 42
0.00000001
 43
0.00000001
 12
1.0
 22
0.0
 32
0.0
 13
1.0
 23
0.0
 33
0.0
 40
0.0
 40
0.0
 40
0.0
 40
0.0
 40
0.4997556141497623
 40
1.0
 40
1.0
 40
1.0
 40
1.0
 10
991.715896085159
 20
658.5282572941815
 30
0.0
 10
991.7152974133006
 20
658.5280796765338
 30
0.0
 10
991.7140994840701
 20
658.5277242675253
 30
0.0
 10
991.7129330905866
 20
658.5273544890304
 30
0.0
 10
991.7123496087949
 20
658.5271695094142
 30
0.0
  0
SPLINE
  5
D0
330
1F
100
AcDbEntity
  8
0
  6
Continuous
 62
     7
370
    15
100
AcDbSpline
210
0.0
220
0.0
230
1.0
 70
     8
 71
     3
 72
     9
 73
     5
 74
     0
 42
0.00000001
 43
0.00000001
 12
1.0
 22
0.0
 32
0.0
 13
1.0
 23
0.0
 33
0.0
 40
0.0
 40
0.0
 40
0.0
 40
0.0
 40
0.50015417243044
 40
1.0
 40
1.0
 40
1.0
 40
1.0
 10
994.2214071306149
 20
658.9022019343411
 30
0.0
 10
994.2208136619428
 20
658.9020430131418
 30
0.0
 10
994.2196270904722
 20
658.9017252687181
 30
0.0
 10
994.2184096047596
 20
658.9014072302339
 30
0.0
 10
994.217801049606
 20
658.9012482600245
 30
0.0
  0
LINE
  5
D1
330
1F
100
AcDbEntity
  8
0
  6
Continuous
 62
     7
370
    15
100
AcDbLine
 10
993.8351094278
 20
658.0155083375
 30
0.0
 11
993.8314735445
 21
658.0147483783
 31
0.0
  0
SPLINE
  5
D2
330
1F
100
AcDbEntity
  8
0
  6
Continuous
 62
     7
370
    15
100
AcDbSpline
210
0.0
220
0.0
230
1.0
 70
    24
 71
     3
 72
     9
 73
     5
 74
     0
 42
0.00000001
 43
0.00000001
 12
1.0
 22
0.0
 32
0.0
 13
1.0
 23
0.0
 33
0.0
 40
0.0
 40
0.0
 40
0.0
 40
0.0
 40
0.5006923620219355
 40
1.0
 40
1.0
 40
1.0
 40
1.0
 10
993.4206187280575
 20
659.3649872975383
 30
0.0
 10
993.4200330226445
 20
659.3647937169358
 30
0.0
 10
993.4188632316564
 20
659.3644070911006
 30
0.0
 10
993.4176885710357
 20
659.3640188558107
 30
0.0
 10
993.4171020540157
 20
659.3638250069652
 30
0.0
  0
LINE
  5
D3
330
1F
100
AcDbEntity
  8
0
  6
Continuous
 62
     7
370
    15
100
AcDbLine
 10
994.0858065638
 20
657.2080740171
 30
0.0
 11
994.0820514711
 21
657.2075673776
 31
0.0
  0
LWPOLYLINE
  5
D4
330
1F
100
AcDbEntity
  8
0
  6
Continuous
 62
     7
370
    15
100
AcDbPolyline
 90
       17
 70
   128
 43
0.0
 10
990.2747451815
 20
681.3562103944
 10
990.9137069734
 20
679.389733954
 10
991.6310488733
 20
677.1819630103
 10
992.4176513704
 20
674.7610607581
 10
993.2634710821
 20
672.1579173045
 10
994.1576897653
 20
669.4057473378
 10
995.0889527353
 20
666.5396579938
 10
996.0453092607
 20
663.5962316232
 10
997.0146297964
 20
660.6130191522
 10
997.9844867739
 20
657.6280632453
 10
998.9425420317
 20
654.6794661717
 10
999.8765766176
 20
651.8048533635
 10
1000.7746398004
 20
649.0408816772
 10
1001.6252874884
 20
646.42280726
 10
1002.4177014383
 20
643.9840683179
 10
1003.1417190584
 20
641.7557561235
 10
1003.788131431
 20
639.7663020926
  0
ARC
  5
D5
330
1F
100
AcDbEntity
  8
0
  6
Continuous
 62
     7
370
    15
100
AcDbCircle
 10
1002.9983525491
 20
639.5778817107
 30
0.0
 40
0.8119439158935717
100
AcDbArc
 50
300.8620213562
 51
13.4184320528
  0
ARC
  5
D6
330
1F
100
AcDbEntity
  8
0
  6
Continuous
 62
     7
370
    15
100
AcDbCircle
 10
989.5197223394
 20
681.0449955574
 30
0.0
 40
0.8166481290611237
100
AcDbArc
 50
22.4010948094
 51
94.8601884755
  0
LINE
  5
D7
330
1F
100
AcDbEntity
  8
0
  6
Continuous
 62
     7
370
    15
100
AcDbLine
 10
987.0731114897
 20
673.8444009261
 30
0.0
 11
987.284558967
 21
673.1639692025
 31
0.0
  0
SPLINE
  5
D8
330
1F
100
AcDbEntity
  8
0
  6
Continuous
 62
     7
370
    15
100
AcDbSpline
210
0.0
220
0.0
230
1.0
 70
     8
 71
     3
 72
    13
 73
     9
 74
     0
 42
0.00000001
 43
0.00000001
 12
1.0
 22
0.0
 32
0.0
 13
1.0
 23
0.0
 33
0.0
 40
0.0
 40
0.0
 40
0.0
 40
0.0
 40
0.2498564545716246
 40
0.3750446399871604
 40
0.5001952844304737
 40
0.6260374167892645
 40
0.7505413791402703
 40
1.0
 40
1.0
 40
1.0
 40
1.0
 10
987.2845589670101
 20
673.1639692025218
 30
0.0
 10
987.0872306688602
 20
673.1625964080251
 30
0.0
 10
986.7910329153709
 20
673.1605357879837
 30
0.0
 10
986.3981193290788
 20
673.2717189665523
 30
0.0
 10
986.12106109509
 20
673.4019398429514
 30
0.0
 10
985.8761443487865
 20
673.5756017155245
 30
0.0
 10
985.6021495456773
 20
673.8530571002959
 30
0.0
 10
985.4984498087041
 20
674.0973751139769
 30
0.0
 10
985.429274991409
 20
674.2603519396815
 30
0.0
  0
SPLINE
  5
D9
330
1F
100
AcDbEntity
  8
0
  6
Continuous
 62
     7
370
    15
100
AcDbSpline
210
0.0
220
0.0
230
1.0
 70
     8
 71
     3
 72
    12
 73
     8
 74
     0
 42
0.00000001
 43
0.00000001
 12
1.0
 22
0.0
 32
0.0
 13
1.0
 23
0.0
 33
0.0
 40
0.0
 40
0.0
 40
0.0
 40
0.0
 40
0.25006340916728
 40
0.3767809169930575
 40
0.5008627831894199
 40
0.7506165207332303
 40
1.0
 40
1.0
 40
1.0
 40
1.0
 10
985.429274991409
 20
674.2603519396815
 30
0.0
 10
985.3956686357282
 20
674.4052410040374
 30
0.0
 10
985.3450325448571
 20
674.6235513706443
 30
0.0
 10
985.4075890510858
 20
674.8958567061516
 30
0.0
 10
985.5387515074414
 20
675.1390826246584
 30
0.0
 10
985.8200052702703
 20
675.386767211516
 30
0.0
 10
986.1419950187602
 20
675.4603131970946
 30
0.0
 10
986.3028704675594
 20
675.4970589118037
 30
0.0
  0
SPLINE
  5
DA
330
1F
100
AcDbEntity
  8
0
  6
Continuous
 62
     7
370
    15
100
AcDbSpline
210
0.0
220
0.0
230
1.0
 70
     8
 71
     3
 72
    10
 73
     6
 74
     0
 42
0.00000001
 43
0.00000001
 12
1.0
 22
0.0
 32
0.0
 13
1.0
 23
0.0
 33
0.0
 40
0.0
 40
0.0
 40
0.0
 40
0.0
 40
0.2495328099622292
 40
0.4995987416715704
 40
1.0
 40
1.0
 40
1.0
 40
1.0
 10
986.3028704675594
 20
675.4970589118037
 30
0.0
 10
986.4856695704791
 20
675.4984260357467
 30
0.0
 10
986.8516583228645
 20
675.501163204465
 30
0.0
 10
987.5870548566629
 20
675.2964268447557
 30
0.0
 10
988.0818139831887
 20
675.0352359010544
 30
0.0
 10
988.4117126020352
 20
674.8610773520503
 30
0.0
  0
LINE
  5
DB
330
1F
100
AcDbEntity
  8
0
  6
Continuous
 62
     7
370
    15
100
AcDbLine
 10
988.411712602
 20
674.8610773521
 30
0.0
 11
989.0407204183
 21
674.5127925115
 31
0.0
  0
LINE
  5
DC
330
1F
100
AcDbEntity
  8
0
  6
Continuous
 62
     7
370
    15
100
AcDbLine
 10
989.0407204183
 20
674.5127925115
 30
0.0
 11
988.6175274404
 21
675.7695713477
 31
0.0
  0
LINE
  5
DD
330
1F
100
AcDbEntity
  8
0
  6
Continuous
 62
     7
370
    15
100
AcDbLine
 10
988.6175274404
 20
675.7695713477
 30
0.0
 11
989.35757871
 21
675.846789165
 31
0.0
  0
LINE
  5
DE
330
1F
100
AcDbEntity
  8
0
  6
Continuous
 62
     7
370
    15
100
AcDbLine
 10
989.35757871
 20
675.846789165
 30
0.0
 11
990.165251449
 21
673.3618864255
 31
0.0
  0
LINE
  5
DF
330
1F
100
AcDbEntity
  8
0
  6
Continuous
 62
     7
370
    15
100
AcDbLine
 10
990.165251449
 20
673.3618864255
 30
0.0
 11
989.7819339785
 21
673.3217128949
 31
0.0
  0
LINE
  5
E0
330
1F
100
AcDbEntity
  8
0
  6
Continuous
 62
     7
370
    15
100
AcDbLine
 10
989.7819339785
 20
673.3217128949
 30
0.0
 11
988.1029903444
 21
674.3129232364
 31
0.0
  0
SPLINE
  5
E1
330
1F
100
AcDbEntity
  8
0
  6
Continuous
 62
     7
370
    15
100
AcDbSpline
210
0.0
220
0.0
230
1.0
 70
     8
 71
     3
 72
    10
 73
     6
 74
     0
 42
0.00000001
 43
0.00000001
 12
1.0
 22
0.0
 32
0.0
 13
1.0
 23
0.0
 33
0.0
 40
0.0
 40
0.0
 40
0.0
 40
0.0
 40
0.5008778933184269
 40
0.7508993496428032
 40
1.0
 40
1.0
 40
1.0
 40
1.0
 10
988.1029903444211
 20
674.3129232363734
 30
0.0
 10
987.8678053326265
 20
674.4456956602676
 30
0.0
 10
987.5152238456856
 20
674.6447436280112
 30
0.0
 10
986.9930051117087
 20
674.8320570354416
 30
0.0
 10
986.7254725144476
 20
674.839318569882
 30
0.0
 10
986.59195299472
 20
674.8429426388775
 30
0.0
  0
SPLINE
  5
E2
330
1F
100
AcDbEntity
  8
0
  6
Continuous
 62
     7
370
    15
100
AcDbSpline
210
0.0
220
0.0
230
1.0
 70
     8
 71
     3
 72
    14
 73
    10
 74
     0
 42
0.00000001
 43
0.00000001
 12
1.0
 22
0.0
 32
0.0
 13
1.0
 23
0.0
 33
0.0
 40
0.0
 40
0.0
 40
0.0
 40
0.0
 40
0.2492090640359977
 40
0.3742615631179577
 40
0.4993550532085714
 40
0.6236807221284227
 40
0.7495491694008467
 40
0.8747030744325398
 40
1.0
 40
1.0
 40
1.0
 40
1.0
 10
986.59195299472
 20
674.8429426388775
 30
0.0
 10
986.5183554249742
 20
674.8290673369362
 30
0.0
 10
986.4078267746567
 20
674.8082294424024
 30
0.0
 10
986.2943960324934
 20
674.733274694241
 30
0.0
 10
986.2284419300175
 20
674.662719608838
 30
0.0
 10
986.1840830707328
 20
674.5794670339016
 30
0.0
 10
986.1637491716457
 20
674.4876529546697
 30
0.0
 10
986.1663631262979
 20
674.3909648324109
 30
0.0
 10
986.1843886358823
 20
674.3265118678485
 30
0.0
 10
986.1934065374295
 20
674.2942669825587
 30
0.0
  0
SPLINE
  5
E3
330
1F
100
AcDbEntity
  8
0
  6
Continuous
 62
     7
370
    15
100
AcDbSpline
210
0.0
220
0.0
230
1.0
 70
     8
 71
     3
 72
    13
 73
     9
 74
     0
 42
0.00000001
 43
0.00000001
 12
1.0
 22
0.0
 32
0.0
 13
1.0
 23
0.0
 33
0.0
 40
0.0
 40
0.0
 40
0.0
 40
0.0
 40
0.1251957793327456
 40
0.250264325302429
 40
0.3725995051021137
 40
0.5006285590045559
 40
0.7498831444402208
 40
1.0
 40
1.0
 40
1.0
 40
1.0
 10
986.1934065374295
 20
674.2942520813975
 30
0.0
 10
986.2078929206302
 20
674.2572664357831
 30
0.0
 10
986.2368509648804
 20
674.1833327321478
 30
0.0
 10
986.3148489439072
 20
674.0816974774918
 30
0.0
 10
986.4176614267789
 20
673.9950689710195
 30
0.0
 10
986.5762964952438
 20
673.9029097301413
 30
0.0
 10
986.8055760279312
 20
673.8377293480329
 30
0.0
 10
986.9838304044968
 20
673.842174508253
 30
0.0
 10
987.0731114896694
 20
673.8444009261165
 30
0.0
  0
SPLINE
  5
E4
330
1F
100
AcDbEntity
  8
0
  6
Continuous
 62
     7
370
    15
100
AcDbSpline
210
0.0
220
0.0
230
1.0
 70
     8
 71
     3
 72
     9
 73
     5
 74
     0
 42
0.00000001
 43
0.00000001
 12
1.0
 22
0.0
 32
0.0
 13
1.0
 23
0.0
 33
0.0
 40
0.0
 40
0.0
 40
0.0
 40
0.0
 40
0.5002978626088199
 40
1.0
 40
1.0
 40
1.0
 40
1.0
 10
985.429274991409
 20
674.2603519396815
 30
0.0
 10
985.4289348445122
 20
674.2593737219054
 30
0.0
 10
985.4282549557455
 20
674.2574184511572
 30
0.0
 10
985.4276036797941
 20
674.2554596828707
 30
0.0
 10
985.4272782358089
 20
674.2544808821713
 30
0.0
  0
LINE
  5
E5
330
1F
100
AcDbEntity
  8
0
  6
Continuous
 62
     7
370
    15
100
AcDbLine
 10
987.284558967
 20
673.1639692025
 30
0.0
 11
987.2824430021
 21
673.158470674
 31
0.0
  0
LINE
  5
E6
330
1F
100
AcDbEntity
  8
0
  6
Continuous
 62
     7
370
    15
100
AcDbLine
 10
988.1029903444
 20
674.3129232364
 30
0.0
 11
988.1009637865
 21
674.3071266847
 31
0.0
  0
LINE
  5
E7
330
1F
100
AcDbEntity
  8
0
  6
Continuous
 62
     7
370
    15
100
AcDbLine
 10
989.7819339785
 20
673.3217128949
 30
0.0
 11
989.7797882112
 21
673.3162590699
 31
0.0
  0
LINE
  5
E8
330
1F
100
AcDbEntity
  8
0
  6
Continuous
 62
     7
370
    15
100
AcDbLine
 10
996.0985958132
 20
641.5142679052
 30
0.0
 11
995.8755254301
 21
642.1789863544
 31
0.0
  0
LINE
  5
E9
330
1F
100
AcDbEntity
  8
0
  6
Continuous
 62
     7
370
    15
100
AcDbLine
 10
995.8755254301
 20
642.1789863544
 30
0.0
 11
998.2146203073
 21
643.5834207969
 31
0.0
  0
LINE
  5
EA
330
1F
100
AcDbEntity
  8
0
  6
Continuous
 62
     7
370
    15
100
AcDbLine
 10
998.2146203073
 20
643.5834207969
 30
0.0
 11
998.1063782724
 21
643.8974925714
 31
0.0
  0
LINE
  5
EB
330
1F
100
AcDbEntity
  8
0
  6
Continuous
 62
     7
370
    15
100
AcDbLine
 10
998.1063782724
 20
643.8974925714
 30
0.0
 11
998.7456380876
 21
644.2813166814
 31
0.0
  0
LINE
  5
EC
330
1F
100
AcDbEntity
  8
0
  6
Continuous
 62
     7
370
    15
100
AcDbLine
 10
998.7456380876
 20
644.2813166814
 30
0.0
 11
998.8539695295
 21
643.9671853023
 31
0.0
  0
LINE
  5
ED
330
1F
100
AcDbEntity
  8
0
  6
Continuous
 62
     7
370
    15
100
AcDbLine
 10
998.8539695295
 20
643.9671853023
 30
0.0
 11
999.5994448217
 21
644.4148906903
 31
0.0
  0
LINE
  5
EE
330
1F
100
AcDbEntity
  8
0
  6
Continuous
 62
     7
370
    15
100
AcDbLine
 10
999.5994448217
 20
644.4148906903
 30
0.0
 11
999.8188793215
 21
643.7639632659
 31
0.0
  0
LINE
  5
EF
330
1F
100
AcDbEntity
  8
0
  6
Continuous
 62
     7
370
    15
100
AcDbLine
 10
999.8188793215
 20
643.7639632659
 30
0.0
 11
999.07328482
 21
643.3163323836
 31
0.0
  0
LINE
  5
F0
330
1F
100
AcDbEntity
  8
0
  6
Continuous
 62
     7
370
    15
100
AcDbLine
 10
999.07328482
 20
643.3163323836
 30
0.0
 11
999.5427011999
 21
641.8223866658
 31
0.0
  0
LINE
  5
F1
330
1F
100
AcDbEntity
  8
0
  6
Continuous
 62
     7
370
    15
100
AcDbLine
 10
999.5427011999
 20
641.8223866658
 30
0.0
 11
998.903471187
 21
641.4385253029
 31
0.0
  0
LINE
  5
F2
330
1F
100
AcDbEntity
  8
0
  6
Continuous
 62
     7
370
    15
100
AcDbLine
 10
998.903471187
 20
641.4385253029
 30
0.0
 11
996.0985958132
 21
641.5142679052
 31
0.0
  0
LINE
  5
F3
330
1F
100
AcDbEntity
  8
0
  6
Continuous
 62
     7
370
    15
100
AcDbLine
 10
998.6872255358
 20
642.1448328929
 30
0.0
 11
998.4338461908
 21
642.9326274829
 31
0.0
  0
LINE
  5
F4
330
1F
100
AcDbEntity
  8
0
  6
Continuous
 62
     7
370
    15
100
AcDbLine
 10
998.4338461908
 20
642.9326274829
 30
0.0
 11
997.2159444841
 21
642.2016659217
 31
0.0
  0
LINE
  5
F5
330
1F
100
AcDbEntity
  8
0
  6
Continuous
 62
     7
370
    15
100
AcDbLine
 10
997.2159444841
 20
642.2016659217
 30
0.0
 11
998.6872255358
 21
642.1448328929
 31
0.0
  0
LINE
  5
F6
330
1F
100
AcDbEntity
  8
0
  6
Continuous
 62
     7
370
    15
100
AcDbLine
 10
998.2146203073
 20
643.5834207969
 30
0.0
 11
998.2095241102
 21
643.5870715814
 31
0.0
  0
LINE
  5
F7
330
1F
100
AcDbEntity
  8
0
  6
Continuous
 62
     7
370
    15
100
AcDbLine
 10
995.8755254301
 20
642.1789863544
 30
0.0
 11
995.870429233
 21
642.18265204
 31
0.0
  0
SPLINE
  5
F8
330
1F
100
AcDbEntity
  8
0
  6
Continuous
 62
     7
370
    15
100
AcDbSpline
210
0.0
220
0.0
230
1.0
 70
     8
 71
     3
 72
     9
 73
     5
 74
     0
 42
0.00000001
 43
0.00000001
 12
1.0
 22
0.0
 32
0.0
 13
1.0
 23
0.0
 33
0.0
 40
0.0
 40
0.0
 40
0.0
 40
0.0
 40
0.500447545412917
 40
1.0
 40
1.0
 40
1.0
 40
1.0
 10
986.59195299472
 20
674.8429426388775
 30
0.0
 10
986.5916253161536
 20
674.8419384987687
 30
0.0
 10
986.5909705450999
 20
674.8399320145371
 30
0.0
 10
986.5903140134432
 20
674.8379350563035
 30
0.0
 10
986.5899860414426
 20
674.8369374709164
 30
0.0
  0
LINE
  5
F9
330
1F
100
AcDbEntity
  8
0
  6
Continuous
 62
     7
370
    15
100
AcDbLine
 10
996.0985958132
 20
641.5142679052
 30
0.0
 11
996.0934400114
 21
641.5181347566
 31
0.0
  0
LINE
  5
FA
330
1F
100
AcDbEntity
  8
0
  6
Continuous
 62
     7
370
    15
100
AcDbLine
 10
990.165251449
 20
673.3618864255
 30
0.0
 11
990.1631056818
 21
673.3564475017
 31
0.0
  0
LINE
  5
FB
330
1F
100
AcDbEntity
  8
0
  6
Continuous
 62
     7
370
    15
100
AcDbLine
 10
998.7456380876
 20
644.2813166814
 30
0.0
 11
998.7405716928
 21
644.2848780589
 31
0.0
  0
LINE
  5
FC
330
1F
100
AcDbEntity
  8
0
  6
Continuous
 62
     7
370
    15
100
AcDbLine
 10
998.1063782724
 20
643.8974925714
 30
0.0
 11
998.1013118776
 21
643.9010539489
 31
0.0
  0
LINE
  5
FD
330
1F
100
AcDbEntity
  8
0
  6
Continuous
 62
     7
370
    15
100
AcDbLine
 10
997.2107886824
 20
642.2055253224
 30
0.0
 11
998.681980327
 21
642.1489307122
 31
0.0
  0
LINE
  5
FE
330
1F
100
AcDbEntity
  8
0
  6
Continuous
 62
     7
370
    15
100
AcDbLine
 10
998.681980327
 20
642.1489307122
 30
0.0
 11
998.6872255358
 21
642.1448328929
 31
0.0
  0
LINE
  5
FF
330
1F
100
AcDbEntity
  8
0
  6
Continuous
 62
     7
370
    15
100
AcDbLine
 10
988.6175274404
 20
675.7695713477
 30
0.0
 11
988.6156498941
 21
675.7633426623
 31
0.0
  0
LINE
  5
100
330
1F
100
AcDbEntity
  8
0
  6
Continuous
 62
     7
370
    15
100
AcDbLine
 10
998.681980327
 20
642.1489307122
 30
0.0
 11
998.4286903891
 21
642.9365017848
 31
0.0
  0
LINE
  5
101
330
1F
100
AcDbEntity
  8
0
  6
Continuous
 62
     7
370
    15
100
AcDbLine
 10
999.5994448217
 20
644.4148906903
 30
0.0
 11
999.5943486246
 21
644.4185414748
 31
0.0
  0
SPLINE
  5
102
330
1F
100
AcDbEntity
  8
0
  6
Continuous
 62
     7
370
    15
100
AcDbSpline
210
0.0
220
0.0
230
1.0
 70
     8
 71
     3
 72
     9
 73
     5
 74
     0
 42
0.00000001
 43
0.00000001
 12
1.0
 22
0.0
 32
0.0
 13
1.0
 23
0.0
 33
0.0
 40
0.0
 40
0.0
 40
0.0
 40
0.0
 40
0.5315580106455786
 40
1.0
 40
1.0
 40
1.0
 40
1.0
 10
1003.788131430999
 20
639.7663020925555
 30
0.0
 10
1003.86948918088
 20
639.5828407557668
 30
0.0
 10
1004.022544441551
 20
639.2377018751284
 30
0.0
 10
1004.339218642463
 20
639.1382478918574
 30
0.0
 10
1004.487562135116
 20
639.0916594700847
 30
0.0
  0
SPLINE
  5
103
330
1F
100
AcDbEntity
  8
0
  6
Continuous
 62
     7
370
    15
100
AcDbSpline
210
0.0
220
0.0
230
1.0
 70
     8
 71
     3
 72
    12
 73
     8
 74
     0
 42
0.00000001
 43
0.00000001
 12
1.0
 22
0.0
 32
0.0
 13
1.0
 23
0.0
 33
0.0
 40
0.0
 40
0.0
 40
0.0
 40
0.0
 40
0.0304700078996495
 40
0.0888099773424825
 40
0.3925572205914656
 40
0.696273166892239
 40
1.0
 40
1.0
 40
1.0
 40
1.0
 10
1004.487562135116
 20
639.0916594700847
 30
0.0
 10
1004.491064629676
 20
639.0816702145991
 30
0.0
 10
1004.501273240829
 20
639.0525548446171
 30
0.0
 10
1004.540160909738
 20
638.9202797161306
 30
0.0
 10
1004.567713992371
 20
638.6771925932204
 30
0.0
 10
1004.51718801342
 20
638.3356338432167
 30
0.0
 10
1004.413037873088
 20
638.1422827060798
 30
0.0
 10
1004.360961869613
 20
638.0456054048573
 30
0.0
  0
SPLINE
  5
104
330
1F
100
AcDbEntity
  8
0
  6
Continuous
 62
     7
370
    15
100
AcDbSpline
210
0.0
220
0.0
230
1.0
 70
     8
 71
     3
 72
    10
 73
     6
 74
     0
 42
0.00000001
 43
0.00000001
 12
1.0
 22
0.0
 32
0.0
 13
1.0
 23
0.0
 33
0.0
 40
0.0
 40
0.0
 40
0.0
 40
0.0
 40
0.211962083241279
 40
0.4882207564231809
 40
1.0
 40
1.0
 40
1.0
 40
1.0
 10
1004.360961869613
 20
638.0456054048573
 30
0.0
 10
1004.359512865138
 20
638.0430148799544
 30
0.0
 10
1004.35617531509
 20
638.0370480201832
 30
0.0
 10
1004.354476005948
 20
638.0259665962137
 30
0.0
 10
1004.356095449412
 20
638.0193304898731
 30
0.0
 10
1004.357147172348
 20
638.0150207715069
 30
0.0
  0
SPLINE
  5
105
330
1F
100
AcDbEntity
  8
0
  6
Continuous
 62
     7
370
    15
100
AcDbSpline
210
0.0
220
0.0
230
1.0
 70
     8
 71
     3
 72
    12
 73
     8
 74
     0
 42
0.00000001
 43
0.00000001
 12
1.0
 22
0.0
 32
0.0
 13
1.0
 23
0.0
 33
0.0
 40
0.0
 40
0.0
 40
0.0
 40
0.0
 40
0.0304705343457691
 40
0.0888172090812992
 40
0.3925581305101443
 40
0.6962805278526465
 40
1.0
 40
1.0
 40
1.0
 40
1.0
 10
990.4484033140103
 20
682.2997519211802
 30
0.0
 10
990.4453461223638
 20
682.3099263538619
 30
0.0
 10
990.4364348500326
 20
682.3395833564115
 30
0.0
 10
990.3900503209137
 20
682.469888278186
 30
0.0
 10
990.2693110319262
 20
682.6832332862376
 30
0.0
 10
990.0276295963275
 20
682.929841456465
 30
0.0
 10
989.8298972892536
 20
683.0245276305457
 30
0.0
 10
989.731031611816
 20
683.0718704896008
 30
0.0
  0
SPLINE
  5
106
330
1F
100
AcDbEntity
  8
0
  6
Continuous
 62
     7
370
    15
100
AcDbSpline
210
0.0
220
0.0
230
1.0
 70
     8
 71
     3
 72
     9
 73
     5
 74
     0
 42
0.00000001
 43
0.00000001
 12
1.0
 22
0.0
 32
0.0
 13
1.0
 23
0.0
 33
0.0
 40
0.0
 40
0.0
 40
0.0
 40
0.0
 40
0.4684408972471262
 40
0.9999999999999999
 40
0.9999999999999999
 40
0.9999999999999999
 40
0.9999999999999999
 10
990.4484033140103
 20
682.2997519211802
 30
0.0
 10
990.3550627860877
 20
682.1770268599929
 30
0.0
 10
990.1558049320638
 20
681.9150406373795
 30
0.0
 10
990.2334645203745
 20
681.5501639297231
 30
0.0
 10
990.2747451814571
 20
681.3562103943858
 30
0.0
  0
SPLINE
  5
107
330
1F
100
AcDbEntity
  8
0
  6
Continuous
 62
     7
370
    15
100
AcDbSpline
210
0.0
220
0.0
230
1.0
 70
     8
 71
     3
 72
    11
 73
     7
 74
     0
 42
0.00000001
 43
0.00000001
 12
1.0
 22
0.0
 32
0.0
 13
1.0
 23
0.0
 33
0.0
 40
0.0
 40
0.0
 40
0.0
 40
0.0
 40
0.3705208732100972
 40
0.7441123663791235
 40
0.9444914942917464
 40
1.0
 40
1.0
 40
1.0
 40
1.0
 10
989.7100805791775
 20
683.0940881209408
 30
0.0
 10
989.7112143228643
 20
683.0911570769294
 30
0.0
 10
989.7134912059191
 20
683.0852706984477
 30
0.0
 10
989.7198709878711
 20
683.0778066072511
 30
0.0
 10
989.7269180074222
 20
683.0735068883833
 30
0.0
 10
989.7302983335119
 20
683.0721621889498
 30
0.0
 10
989.731031611816
 20
683.0718704896007
 30
0.0
  0
SPLINE
  5
108
330
1F
100
AcDbEntity
  8
0
  6
Continuous
 62
     7
370
    15
100
AcDbSpline
210
0.0
220
0.0
230
1.0
 70
     8
 71
     3
 72
    11
 73
     7
 74
     0
 42
0.00000001
 43
0.00000001
 12
1.0
 22
0.0
 32
0.0
 13
1.0
 23
0.0
 33
0.0
 40
0.0
 40
0.0
 40
0.0
 40
0.0
 40
0.3658247096075509
 40
0.7252604987478957
 40
0.9820711561971215
 40
1.0
 40
1.0
 40
1.0
 40
1.0
 10
992.9924785646359
 20
682.5306901173625
 30
0.0
 10
992.6159036047724
 20
682.5859500084902
 30
0.0
 10
991.8693303525184
 20
682.6955047081796
 30
0.0
 10
990.9940584107427
 20
682.6063052730209
 30
0.0
 10
990.5856129350746
 20
682.4181696629885
 30
0.0
 10
990.4568087664818
 20
682.3070061843496
 30
0.0
 10
990.4484033140103
 20
682.2997519211802
 30
0.0
  0
LWPOLYLINE
  5
109
330
1F
100
AcDbEntity
  8
0
  6
Continuous
 62
     7
370
    15
100
AcDbPolyline
 90
       10
 70
   128
 43
0.0
 10
992.9924785646
 20
682.5306901174
 10
994.4680511507
 20
677.9893526273
 10
995.979326919
 20
673.3380892711
 10
997.5161134752
 20
668.6083862023
 10
999.0679800066
 20
663.8321766095
 10
1000.6244658979
 20
659.0418109136
 10
1002.1750509294
 20
654.2696544366
 10
1003.7092148813
 20
649.5479681926
 10
1005.2165865454
 20
644.9087151723
 10
1006.6870033297
 20
640.3832474189
  0
SPLINE
  5
10A
330
1F
100
AcDbEntity
  8
0
  6
Continuous
 62
     7
370
    15
100
AcDbSpline
210
0.0
220
0.0
230
1.0
 70
     8
 71
     3
 72
    11
 73
     7
 74
     0
 42
0.00000001
 43
0.00000001
 12
1.0
 22
0.0
 32
0.0
 13
1.0
 23
0.0
 33
0.0
 40
0.0
 40
0.0
 40
0.0
 40
0.0
 40
0.2357916298042254
 40
0.2749043722282435
 40
0.6342503715961658
 40
1.0
 40
1.0
 40
1.0
 40
1.0
 10
1004.487562135116
 20
639.0916594700847
 30
0.0
 10
1004.641839659152
 20
639.0951226296081
 30
0.0
 10
1004.821708494739
 20
639.0991602525531
 30
0.0
 10
1005.279213402308
 20
639.2547334058725
 30
0.0
 10
1005.874817912334
 20
639.5923366044609
 30
0.0
 10
1006.414685589901
 20
640.1180628431265
 30
0.0
 10
1006.687003329651
 20
640.3832474188838
 30
0.0
  0
LINE
  5
10B
330
1F
100
AcDbEntity
  8
0
  6
Continuous
 62
     7
370
    15
100
AcDbLine
 10
1020.5446958097
 20
651.0082074838
 30
0.0
 11
1007.4165045771
 21
639.4096055465
 31
0.0
  0
SPLINE
  5
10C
330
1F
100
AcDbEntity
  8
0
  6
Continuous
 62
     7
370
    15
100
AcDbSpline
210
0.0
220
0.0
230
1.0
 70
     8
 71
     3
 72
    10
 73
     6
 74
     0
 42
0.00000001
 43
0.00000001
 12
1.0
 22
0.0
 32
0.0
 13
1.0
 23
0.0
 33
0.0
 40
0.0
 40
0.0
 40
0.0
 40
0.0
 40
0.3554485033807282
 40
0.7142357327420746
 40
1.0
 40
1.0
 40
1.0
 40
1.0
 10
1007.416504577057
 20
639.4096055464778
 30
0.0
 10
1007.034171043924
 20
639.1123184312139
 30
0.0
 10
1006.265912720731
 20
638.5149517843275
 30
0.0
 10
1005.171904091976
 20
638.0295410917686
 30
0.0
 10
1004.610058272104
 20
638.0406709440676
 30
0.0
 10
1004.360961869613
 20
638.0456054048573
 30
0.0
  0
ARC
  5
10D
330
1F
100
AcDbEntity
  8
0
  6
Continuous
 62
     7
370
    15
100
AcDbCircle
 10
1003.7511307604
 20
637.4234343028
 30
0.0
 40
4.16891369840391
100
AcDbArc
 50
28.4521180841
 51
45.232659071
  0
ELLIPSE
  5
10E
330
1F
100
AcDbEntity
  8
0
  6
Continuous
 62
     7
370
    15
100
AcDbEllipse
 10
984.5281565455
 20
648.8517529449
 30
0.0
 11
4.220450961853658
 21
38.67651799856367
 31
0.0
210
0.0
220
0.0
230
1.0
 40
0.0018784364
 41
6.278560718364218
 42
6.279461273123343
  0
SPLINE
  5
10F
330
1F
100
AcDbEntity
  8
0
  6
Continuous
 62
     7
370
    15
100
AcDbSpline
210
0.0
220
0.0
230
1.0
 70
     8
 71
     3
 72
    10
 73
     6
 74
     0
 42
0.00000001
 43
0.00000001
 12
1.0
 22
0.0
 32
0.0
 13
1.0
 23
0.0
 33
0.0
 40
0.0
 40
0.0
 40
0.0
 40
0.0
 40
0.352432559370739
 40
0.7047439625986343
 40
1.0
 40
1.0
 40
1.0
 40
1.0
 10
988.9808177503506
 20
687.5027009682689
 30
0.0
 10
988.9532401665374
 20
687.5057281744706
 30
0.0
 10
988.8980944792886
 20
687.5117815462081
 30
0.0
 10
988.8288157718589
 20
687.5194868889654
 30
0.0
 10
988.7998585574117
 20
687.5226649235194
 30
0.0
 10
988.7866556199948
 20
687.5241139369044
 30
0.0
  0
LINE
  5
110
330
1F
100
AcDbEntity
  8
0
  6
Continuous
 62
     7
370
    15
100
AcDbLine
 10
988.9808177504
 20
687.5027009683
 30
0.0
 11
1007.9567014727
 21
685.3882708983
 31
0.0
  0
LINE
  5
111
330
1F
100
AcDbEntity
  8
0
  6
Continuous
 62
     7
370
    15
100
AcDbLine
 10
1007.9567014727
 20
685.3882708983
 30
0.0
 11
1009.4265520128
 21
685.2263250785
 31
0.0
  0
LWPOLYLINE
  5
112
330
1F
100
AcDbEntity
  8
0
  6
Continuous
 62
     7
370
    15
100
AcDbPolyline
 90
        9
 70
   128
 43
0.0
 10
1010.4580997976
 20
682.051528378
 10
1010.2453708204
 20
682.7061810927
 10
1010.0552320036
 20
683.2913943963
 10
1009.8884582075
 20
683.8046648936
 10
1009.7457944902
 20
684.243802114
 10
1009.6278070959
 20
684.6069285111
 10
1009.535002664
 20
684.8924794631
 10
1009.4678282293
 20
685.0992330747
 10
1009.4265520128
 20
685.2263250785
  0
LINE
  5
113
330
1F
100
AcDbEntity
  8
0
  6
Continuous
 62
     7
370
    15
100
AcDbLine
 10
993.0118500742
 20
683.7425568538
 30
0.0
 11
1010.4580997976
 21
682.051528378
 31
0.0
  0
SPLINE
  5
114
330
1F
100
AcDbEntity
  8
0
  6
Continuous
 62
     7
370
    15
100
AcDbSpline
210
0.0
220
0.0
230
1.0
 70
     8
 71
     3
 72
    10
 73
     6
 74
     0
 42
0.00000001
 43
0.00000001
 12
1.0
 22
0.0
 32
0.0
 13
1.0
 23
0.0
 33
0.0
 40
0.0
 40
0.0
 40
0.0
 40
0.0
 40
0.285765357526918
 40
0.6445523473620696
 40
1.0
 40
1.0
 40
1.0
 40
1.0
 10
989.731031611816
 20
683.0718704896007
 30
0.0
 10
989.9306564882046
 20
683.2192005445154
 30
0.0
 10
990.3809163929795
 20
683.5515079086903
 30
0.0
 10
991.5539575954443
 20
683.7936820766438
 30
0.0
 10
992.5274029988867
 20
683.7595453937762
 30
0.0
 10
993.0118500741879
 20
683.7425568537745
 30
0.0
  0
ARC
  5
115
330
1F
100
AcDbEntity
  8
0
  6
Continuous
 62
     7
370
    15
100
AcDbCircle
 10
988.8306665652
 20
683.2033042568
 30
0.0
 40
4.215814144327073
100
AcDbArc
 50
350.819484088
 51
7.3489428708
  0
LINE
  5
116
330
1F
100
AcDbEntity
  8
0
  6
Continuous
 62
     7
370
    15
100
AcDbLine
 10
1006.6870033297
 20
640.3832474189
 30
0.0
 11
1019.8606729063
 21
651.8418678479
 31
0.0
  0
ARC
  5
117
330
1F
100
AcDbEntity
  8
0
  6
Continuous
 62
     7
370
    15
100
AcDbCircle
 10
1015.8988606608
 20
647.8937267053
 30
0.0
 40
5.593190033500388
100
AcDbArc
 50
33.8371588695
 51
44.9009734091
  0
LINE
  5
118
330
1F
100
AcDbEntity
  8
0
  6
Continuous
 62
     7
370
    15
100
AcDbLine
 10
1010.3933095488
 20
680.9794643359
 30
0.0
 11
992.9924785646
 21
682.5306901174
 31
0.0
  0
LWPOLYLINE
  5
119
330
1F
100
AcDbEntity
  8
0
  6
Continuous
 62
     7
370
    15
100
AcDbPolyline
 90
        9
 70
   128
 43
0.0
 10
1019.8606729063
 20
651.8418678479
 10
1018.6950742754
 20
655.4292180972
 10
1017.5149917158
 20
659.061167522
 10
1016.3250743898
 20
662.7233216004
 10
1015.1300608667
 20
666.4012262063
 10
1013.9346599134
 20
670.0802931027
 10
1012.7435802969
 20
673.7460085588
 10
1011.5615903887
 20
677.3838737445
 10
1010.3933095488
 20
680.9794643359
  0
LINE
  5
11A
330
1F
100
AcDbEntity
  8
0
  6
Continuous
 62
     7
370
    15
100
AcDbLine
 10
981.9896101507
 20
685.077820106
 30
0.0
 11
981.8236410173
 21
685.5880805688
 31
0.0
  0
LINE
  5
11B
330
1F
100
AcDbEntity
  8
0
  6
Continuous
 62
     7
370
    15
100
AcDbLine
 10
981.8236410173
 20
685.5880805688
 30
0.0
 11
986.2575709375
 21
685.4355373817
 31
0.0
  0
LINE
  5
11C
330
1F
100
AcDbEntity
  8
0
  6
Continuous
 62
     7
370
    15
100
AcDbLine
 10
986.2575709375
 20
685.4355373817
 30
0.0
 11
986.3685547861
 21
685.1020046907
 31
0.0
  0
LINE
  5
11D
330
1F
100
AcDbEntity
  8
0
  6
Continuous
 62
     7
370
    15
100
AcDbLine
 10
986.3685547861
 20
685.1020046907
 30
0.0
 11
982.7278136763
 21
685.2270552354
 31
0.0
  0
LINE
  5
11E
330
1F
100
AcDbEntity
  8
0
  6
Continuous
 62
     7
370
    15
100
AcDbLine
 10
982.7278136763
 20
685.2270552354
 30
0.0
 11
982.8449070009
 21
684.841159864
 31
0.0
  0
LINE
  5
11F
330
1F
100
AcDbEntity
  8
0
  6
Continuous
 62
     7
370
    15
100
AcDbLine
 10
982.8449070009
 20
684.841159864
 30
0.0
 11
981.9896101507
 21
685.077820106
 31
0.0
  0
LINE
  5
120
330
1F
100
AcDbEntity
  8
0
  6
Continuous
 62
     7
370
    15
100
AcDbLine
 10
981.9896101507
 20
685.077820106
 30
0.0
 11
981.9886564764
 21
685.0687303977
 31
0.0
  0
LINE
  5
121
330
1F
100
AcDbEntity
  8
0
  6
Continuous
 62
     7
370
    15
100
AcDbLine
 10
982.8449070009
 20
684.841159864
 30
0.0
 11
982.8439235243
 21
684.8321446614
 31
0.0
  0
ARC
  5
122
330
1F
100
AcDbEntity
  8
0
  6
Continuous
 62
     7
370
    15
100
AcDbCircle
 10
1004.7487209115
 20
681.8585851803
 30
0.0
 40
5.712638124570513
100
AcDbArc
 50
351.1475443445
 51
1.9355214751
  0
LINE
  5
123
330
1F
100
AcDbEntity
  8
0
  6
Continuous
 62
     7
370
    15
100
AcDbLine
 10
981.8236410173
 20
685.5880805688
 30
0.0
 11
981.8227469477
 21
685.5788418489
 31
0.0
  0
LINE
  5
124
330
1F
100
AcDbEntity
  8
0
  6
Continuous
 62
     7
370
    15
100
AcDbLine
 10
986.3685547861
 20
685.1020046907
 30
0.0
 11
986.3676011118
 21
685.0928702788
 31
0.0
  0
LINE
  5
125
330
1F
100
AcDbEntity
  8
0
  6
Continuous
 62
     7
370
    15
100
AcDbLine
 10
999.7305750402
 20
630.5546575623
 30
0.0
 11
999.474394277
 21
631.2959232764
 31
0.0
  0
LINE
  5
126
330
1F
100
AcDbEntity
  8
0
  6
Continuous
 62
     7
370
    15
100
AcDbLine
 10
999.474394277
 20
631.2959232764
 30
0.0
 11
1000.0844776186
 21
631.7815446692
 31
0.0
  0
LINE
  5
127
330
1F
100
AcDbEntity
  8
0
  6
Continuous
 62
     7
370
    15
100
AcDbLine
 10
1000.0844776186
 20
631.7815446692
 30
0.0
 11
1000.2718150171
 21
631.2549525337
 31
0.0
  0
LINE
  5
128
330
1F
100
AcDbEntity
  8
0
  6
Continuous
 62
     7
370
    15
100
AcDbLine
 10
1000.2718150171
 20
631.2549525337
 30
0.0
 11
1000.9260355982
 21
631.6963994341
 31
0.0
  0
LINE
  5
129
330
1F
100
AcDbEntity
  8
0
  6
Continuous
 62
     7
370
    15
100
AcDbLine
 10
1000.9260355982
 20
631.6963994341
 30
0.0
 11
1000.8601724657
 21
631.7696162896
 31
0.0
  0
SPLINE
  5
12A
330
1F
100
AcDbEntity
  8
0
  6
Continuous
 62
     7
370
    15
100
AcDbSpline
210
0.0
220
0.0
230
1.0
 70
     8
 71
     3
 72
    13
 73
     9
 74
     0
 42
0.00000001
 43
0.00000001
 12
1.0
 22
0.0
 32
0.0
 13
1.0
 23
0.0
 33
0.0
 40
0.0
 40
0.0
 40
0.0
 40
0.0
 40
0.2493511398100045
 40
0.3731479871224877
 40
0.4998447902738518
 40
0.6255415157446161
 40
0.7503044490521613
 40
1.0
 40
1.0
 40
1.0
 40
1.0
 10
1000.860172465698
 20
631.769616289619
 30
0.0
 10
1000.850919223337
 20
631.8479366511613
 30
0.0
 10
1000.837071968562
 20
631.9651411896386
 30
0.0
 10
1000.940775908119
 20
632.2044582618073
 30
0.0
 10
1001.05814702147
 20
632.4009197297826
 30
0.0
 10
1001.211803609106
 20
632.6079501322026
 30
0.0
 10
1001.457264536331
 20
632.8855657072495
 30
0.0
 10
1001.677613334006
 20
633.0719435876222
 30
0.0
 10
1001.824545815841
 20
633.1962236599956
 30
0.0
  0
SPLINE
  5
12B
330
1F
100
AcDbEntity
  8
0
  6
Continuous
 62
     7
370
    15
100
AcDbSpline
210
0.0
220
0.0
230
1.0
 70
     8
 71
     3
 72
    11
 73
     7
 74
     0
 42
0.00000001
 43
0.00000001
 12
1.0
 22
0.0
 32
0.0
 13
1.0
 23
0.0
 33
0.0
 40
0.0
 40
0.0
 40
0.0
 40
0.0
 40
0.2501161691521275
 40
0.500063243714635
 40
0.7500037366778944
 40
1.0
 40
1.0
 40
1.0
 40
1.0
 10
1001.824545815841
 20
633.1962236599956
 30
0.0
 10
1001.98550609411
 20
633.3148246680624
 30
0.0
 10
1002.307317831164
 20
633.5519465022995
 30
0.0
 10
1002.754994345173
 20
633.7343608783535
 30
0.0
 10
1003.108752971625
 20
633.7776330749601
 30
0.0
 10
1003.189120058035
 20
633.6611627242363
 30
0.0
 10
1003.229308083908
 20
633.6029210524592
 30
0.0
  0
SPLINE
  5
12C
330
1F
100
AcDbEntity
  8
0
  6
Continuous
 62
     7
370
    15
100
AcDbSpline
210
0.0
220
0.0
230
1.0
 70
     8
 71
     3
 72
    11
 73
     7
 74
     0
 42
0.00000001
 43
0.00000001
 12
1.0
 22
0.0
 32
0.0
 13
1.0
 23
0.0
 33
0.0
 40
0.0
 40
0.0
 40
0.0
 40
0.0
 40
0.2502482914137513
 40
0.5000754817899009
 40
0.7498760643999512
 40
1.0
 40
1.0
 40
1.0
 40
1.0
 10
1003.229308083908
 20
633.6029210524592
 30
0.0
 10
1003.238528461113
 20
633.5340147511154
 30
0.0
 10
1003.256953700092
 20
633.3963180993289
 30
0.0
 10
1003.098068138546
 20
633.0786305111393
 30
0.0
 10
1002.817197288615
 20
632.7145164547217
 30
0.0
 10
1002.562246571944
 20
632.4721647947451
 30
0.0
 10
1002.434688762085
 20
632.350910587791
 30
0.0
  0
LINE
  5
12D
330
1F
100
AcDbEntity
  8
0
  6
Continuous
 62
     7
370
    15
100
AcDbLine
 10
1002.4346887621
 20
632.3509105878
 30
0.0
 11
1002.3512124571
 21
632.6384582953
 31
0.0
  0
SPLINE
  5
12E
330
1F
100
AcDbEntity
  8
0
  6
Continuous
 62
     7
370
    15
100
AcDbSpline
210
0.0
220
0.0
230
1.0
 70
     8
 71
     3
 72
    11
 73
     7
 74
     0
 42
0.00000001
 43
0.00000001
 12
1.0
 22
0.0
 32
0.0
 13
1.0
 23
0.0
 33
0.0
 40
0.0
 40
0.0
 40
0.0
 40
0.0
 40
0.2502866074181433
 40
0.5002892462951727
 40
0.750105631091176
 40
1.0
 40
1.0
 40
1.0
 40
1.0
 10
1002.351212457077
 20
632.6384582953488
 30
0.0
 10
1002.394207174234
 20
632.6864126271566
 30
0.0
 10
1002.480147827883
 20
632.7822668830607
 30
0.0
 10
1002.570976692145
 20
632.9191134465215
 30
0.0
 10
1002.623017135111
 20
633.0394297236764
 30
0.0
 10
1002.615840084297
 20
633.0929793564866
 30
0.0
 10
1002.612250998871
 20
633.1197583513294
 30
0.0
  0
SPLINE
  5
12F
330
1F
100
AcDbEntity
  8
0
  6
Continuous
 62
     7
370
    15
100
AcDbSpline
210
0.0
220
0.0
230
1.0
 70
     8
 71
     3
 72
    13
 73
     9
 74
     0
 42
0.00000001
 43
0.00000001
 12
1.0
 22
0.0
 32
0.0
 13
1.0
 23
0.0
 33
0.0
 40
0.0
 40
0.0
 40
0.0
 40
0.0
 40
0.249178670605228
 40
0.3735564331722548
 40
0.4997103653311261
 40
0.6255103194427152
 40
0.7502371965994519
 40
1.0
 40
1.0
 40
1.0
 40
1.0
 10
1002.612250998871
 20
633.11976580191
 30
0.0
 10
1002.593727680538
 20
633.1459615921626
 30
0.0
 10
1002.565958430826
 20
633.1852330352086
 30
0.0
 10
1002.471344079825
 20
633.1821523730541
 30
0.0
 10
1002.386243590011
 20
633.1616755421454
 30
0.0
 10
1002.288665525255
 20
633.1224546236265
 30
0.0
 10
1002.147278282295
 20
633.0468848079059
 30
0.0
 10
1002.037467017877
 20
632.964589985524
 30
0.0
 10
1001.964229300872
 20
632.9097041325603
 30
0.0
  0
SPLINE
  5
130
330
1F
100
AcDbEntity
  8
0
  6
Continuous
 62
     7
370
    15
100
AcDbSpline
210
0.0
220
0.0
230
1.0
 70
     8
 71
     3
 72
    14
 73
    10
 74
     0
 42
0.00000001
 43
0.00000001
 12
1.0
 22
0.0
 32
0.0
 13
1.0
 23
0.0
 33
0.0
 40
0.0
 40
0.0
 40
0.0
 40
0.0
 40
0.2498993645815631
 40
0.4990827617471027
 40
0.6265610489255996
 40
0.7494941206370784
 40
0.8745925072363725
 40
0.9372885554131691
 40
1.0
 40
1.0
 40
1.0
 40
1.0
 10
1001.964229300872
 20
632.9097041325603
 30
0.0
 10
1001.896231473324
 20
632.8526927056229
 30
0.0
 10
1001.760430633564
 20
632.7388331907947
 30
0.0
 10
1001.620965562441
 20
632.575514969243
 30
0.0
 10
1001.540923086412
 20
632.4545934546949
 30
0.0
 10
1001.499080534922
 20
632.3706711922896
 30
0.0
 10
1001.48432196366
 20
632.3123532672438
 30
0.0
 10
1001.483305968307
 20
632.2729977067088
 30
0.0
 10
1001.487460426007
 20
632.2569313852346
 30
0.0
 10
1001.489537909881
 20
632.2488972382579
 30
0.0
  0
SPLINE
  5
131
330
1F
100
AcDbEntity
  8
0
  6
Continuous
 62
     7
370
    15
100
AcDbSpline
210
0.0
220
0.0
230
1.0
 70
     8
 71
     3
 72
    10
 73
     6
 74
     0
 42
0.00000001
 43
0.00000001
 12
1.0
 22
0.0
 32
0.0
 13
1.0
 23
0.0
 33
0.0
 40
0.0
 40
0.0
 40
0.0
 40
0.0
 40
0.2500159117792277
 40
0.5002899397889868
 40
1.0
 40
1.0
 40
1.0
 40
1.0
 10
1001.489537909881
 20
632.2488897876773
 30
0.0
 10
1001.498844073981
 20
632.2334179080692
 30
0.0
 10
1001.517466009856
 20
632.2024581756966
 30
0.0
 10
1001.606975886889
 20
632.1901762698525
 30
0.0
 10
1001.703439583755
 20
632.2186471058675
 30
0.0
 10
1001.767712787048
 20
632.2376170592343
 30
0.0
  0
LINE
  5
132
330
1F
100
AcDbEntity
  8
0
  6
Continuous
 62
     7
370
    15
100
AcDbLine
 10
1001.767712787
 20
632.2376170592
 30
0.0
 11
1001.7147838625
 21
631.9144853787
 31
0.0
  0
LINE
  5
133
330
1F
100
AcDbEntity
  8
0
  6
Continuous
 62
     7
370
    15
100
AcDbLine
 10
1001.7147838625
 20
631.9144853787
 30
0.0
 11
999.7305750402
 21
630.5546575623
 31
0.0
  0
LINE
  5
134
330
1F
100
AcDbEntity
  8
0
  6
Continuous
 62
     7
370
    15
100
AcDbLine
 10
1000.0844776186
 20
631.7815446692
 30
0.0
 11
1000.0783085379
 21
631.7884588079
 31
0.0
  0
LINE
  5
135
330
1F
100
AcDbEntity
  8
0
  6
Continuous
 62
     7
370
    15
100
AcDbLine
 10
999.474394277
 20
631.2959232764
 30
0.0
 11
999.4682549986
 21
631.3028374152
 31
0.0
  0
LINE
  5
136
330
1F
100
AcDbEntity
  8
0
  6
Continuous
 62
     7
370
    15
100
AcDbLine
 10
999.7305750402
 20
630.5546575623
 30
0.0
 11
999.7243761572
 21
630.5618026691
 31
0.0
  0
SPLINE
  5
137
330
1F
100
AcDbEntity
  8
0
  6
Continuous
 62
     7
370
    15
100
AcDbSpline
210
0.0
220
0.0
230
1.0
 70
     8
 71
     3
 72
     9
 73
     5
 74
     0
 42
0.00000001
 43
0.00000001
 12
1.0
 22
0.0
 32
0.0
 13
1.0
 23
0.0
 33
0.0
 40
0.0
 40
0.0
 40
0.0
 40
0.0
 40
0.4997425642906659
 40
1.0
 40
1.0
 40
1.0
 40
1.0
 10
1001.824545815841
 20
633.1962236599956
 30
0.0
 10
1001.823522339632
 20
633.1973732087247
 30
0.0
 10
1001.821474332754
 20
633.1996734905324
 30
0.0
 10
1001.819429486815
 20
633.2019776668651
 30
0.0
 10
1001.818406537429
 20
633.2031303482089
 30
0.0
  0
SPLINE
  5
138
330
1F
100
AcDbEntity
  8
0
  6
Continuous
 62
     7
370
    15
100
AcDbSpline
210
0.0
220
0.0
230
1.0
 70
    24
 71
     3
 72
     9
 73
     5
 74
     0
 42
0.00000001
 43
0.00000001
 12
1.0
 22
0.0
 32
0.0
 13
1.0
 23
0.0
 33
0.0
 40
0.0
 40
0.0
 40
0.0
 40
0.0
 40
0.4997456538368966
 40
1.0
 40
1.0
 40
1.0
 40
1.0
 10
1000.860172465698
 20
631.769616289619
 30
0.0
 10
1000.859139056012
 20
631.7707937804631
 30
0.0
 10
1000.85707118473
 20
631.773149960722
 30
0.0
 10
1000.855006466773
 20
631.7755025480096
 30
0.0
 10
1000.853973582641
 20
631.7766794400249
 30
0.0
  0
ARC
  5
139
330
1F
100
AcDbEntity
  8
0
  6
Continuous
 62
     7
370
    15
100
AcDbCircle
 10
1020.4320873825
 20
650.8146342793
 30
0.0
 40
1.175467272180452
100
AcDbArc
 50
67.9385276629
 51
119.0856729143
  0
ARC
  5
13A
330
1F
100
AcDbEntity
  8
0
  6
Continuous
 62
     7
370
    15
100
AcDbCircle
 10
1020.0677540368
 20
651.6916047358
 30
0.0
 40
0.8333698211454196
100
AcDbArc
 50
304.9111221421
 51
14.7680002819
  0
LWPOLYLINE
  5
13B
330
1F
100
AcDbEntity
  8
0
  6
Continuous
 62
     7
370
    15
100
AcDbPolyline
 90
        9
 70
   128
 43
0.0
 10
1011.2523614916
 20
681.5151014762
 10
1012.4396264109
 20
677.8610834317
 10
1013.640838817
 20
674.1641053395
 10
1014.8512601408
 20
670.4388299422
 10
1016.0660922083
 20
666.6999646859
 10
1017.2805368456
 20
662.9623064237
 10
1018.4897660765
 20
659.2406520085
 10
1019.6890413317
 20
655.5496790843
 10
1020.8735942396
 20
651.9040354924
  0
ARC
  5
13C
330
1F
100
AcDbEntity
  8
0
  6
Continuous
 62
     7
370
    15
100
AcDbCircle
 10
1010.2433097203
 20
682.1767232432
 30
0.0
 40
1.206618763178809
100
AcDbArc
 50
277.1411525785
 51
326.7476794396
  0
SPLINE
  5
13D
330
1F
100
AcDbEntity
  8
0
  6
Continuous
 62
     7
370
    15
100
AcDbSpline
210
0.0
220
0.0
230
1.0
 70
    24
 71
     3
 72
     9
 73
     5
 74
     0
 42
0.00000001
 43
0.00000001
 12
1.0
 22
0.0
 32
0.0
 13
1.0
 23
0.0
 33
0.0
 40
0.0
 40
0.0
 40
0.0
 40
0.0
 40
0.4997478959224572
 40
1.0
 40
1.0
 40
1.0
 40
1.0
 10
1002.612250998871
 20
633.11976580191
 30
0.0
 10
1002.611217591496
 20
633.1209457742723
 30
0.0
 10
1002.609149734117
 20
633.1233069095008
 30
0.0
 10
1002.607085002267
 20
633.1256644759169
 30
0.0
 10
1002.606052115814
 20
633.1268438534771
 30
0.0
  0
ARC
  5
13E
330
1F
100
AcDbEntity
  8
0
  6
Continuous
 62
     7
370
    15
100
AcDbCircle
 10
1010.4703701617
 20
681.2134703908
 30
0.0
 40
0.8381478101712149
100
AcDbArc
 50
21.0927131357
 51
90.8388319821
  0
LWPOLYLINE
  5
13F
330
1F
100
AcDbEntity
  8
0
  6
Continuous
 62
     7
370
    15
100
AcDbPolyline
 90
        6
 70
   128
 43
0.0
 10
1020.8735942396
 20
651.9040354924
 10
1021.3141023668
 20
650.5482682424
 10
1021.6373383554
 20
649.5534518199
 10
1021.8360602411
 20
648.9418932633
 10
1021.9057678732
 20
648.727301641
 10
1021.9058572802
 20
648.7270632224
  0
SPLINE
  5
140
330
1F
100
AcDbEntity
  8
0
  6
Continuous
 62
     7
370
    15
100
AcDbSpline
210
0.0
220
0.0
230
1.0
 70
     8
 71
     3
 72
     9
 73
     5
 74
     0
 42
0.00000001
 43
0.00000001
 12
1.0
 22
0.0
 32
0.0
 13
1.0
 23
0.0
 33
0.0
 40
0.0
 40
0.0
 40
0.0
 40
0.0
 40
0.4988084867550289
 40
1.0
 40
1.0
 40
1.0
 40
1.0
 10
1001.767712787048
 20
632.2376170592343
 30
0.0
 10
1001.766680880545
 20
632.2388049763696
 30
0.0
 10
1001.764612137669
 20
632.2411864858407
 30
0.0
 10
1001.762528435508
 20
632.2435584543692
 30
0.0
 10
1001.761484101669
 20
632.2447472648654
 30
0.0
  0
LWPOLYLINE
  5
141
330
1F
100
AcDbEntity
  8
0
  6
Continuous
 62
     7
370
    15
100
AcDbPolyline
 90
        9
 70
   128
 43
0.0
 10
1010.2699577364
 20
684.5386215882
 10
1010.3103696855
 20
684.4142564969
 10
1010.3751301321
 20
684.2149832683
 10
1010.4639410528
 20
683.9416661696
 10
1010.5764448198
 20
683.5954227881
 10
1010.7121347937
 20
683.1777432399
 10
1010.8705043348
 20
682.6903709607
 10
1011.0508381876
 20
682.1353772121
 10
1011.2523614916
 20
681.5151014762
  0
SPLINE
  5
142
330
1F
100
AcDbEntity
  8
0
  6
Continuous
 62
     7
370
    15
100
AcDbSpline
210
0.0
220
0.0
230
1.0
 70
     8
 71
     3
 72
    11
 73
     7
 74
     0
 42
0.00000001
 43
0.00000001
 12
1.0
 22
0.0
 32
0.0
 13
1.0
 23
0.0
 33
0.0
 40
0.0
 40
0.0
 40
0.0
 40
0.0
 40
0.293299194769844
 40
0.5866073719325
 40
0.8805023853753955
 40
1.0
 40
1.0
 40
1.0
 40
1.0
 10
1009.426552012817
 20
685.2263250784907
 30
0.0
 10
1009.537224067639
 20
685.2029858799082
 30
0.0
 10
1009.758571566654
 20
685.1563067679717
 30
0.0
 10
1010.036487414625
 20
684.9517501721923
 30
0.0
 10
1010.199050211
 20
684.7296559357624
 30
0.0
 10
1010.254057125974
 20
684.5814599572111
 30
0.0
 10
1010.269957736389
 20
684.5386215882335
 30
0.0
  0
LINE
  5
143
330
1F
100
AcDbEntity
  8
0
  6
Continuous
 62
     7
370
    15
100
AcDbLine
 10
1002.3512124571
 20
632.6384582953
 30
0.0
 11
1002.3449837717
 21
632.6455959516
 31
0.0
  0
SPLINE
  5
144
330
1F
100
AcDbEntity
  8
0
  6
Continuous
 62
     7
370
    15
100
AcDbSpline
210
0.0
220
0.0
230
1.0
 70
     8
 71
     3
 72
     9
 73
     5
 74
     0
 42
0.00000001
 43
0.00000001
 12
1.0
 22
0.0
 32
0.0
 13
1.0
 23
0.0
 33
0.0
 40
0.0
 40
0.0
 40
0.0
 40
0.0
 40
0.4995123858659863
 40
1.0
 40
1.0
 40
1.0
 40
1.0
 10
1002.434688762085
 20
632.350910587791
 30
0.0
 10
1002.433645173171
 20
632.3521150654451
 30
0.0
 10
1002.431555957882
 20
632.3545263723281
 30
0.0
 10
1002.429472846053
 20
632.3569380744898
 30
0.0
 10
1002.428430274383
 20
632.3581451015506
 30
0.0
  0
LINE
  5
145
330
1F
100
AcDbEntity
  8
0
  6
Continuous
 62
     7
370
    15
100
AcDbLine
 10
986.1996948275
 20
658.3012381034
 30
0.0
 11
987.1506571325
 21
658.6105415063
 31
0.0
  0
LINE
  5
146
330
1F
100
AcDbEntity
  8
0
  6
Continuous
 62
     7
370
    15
100
AcDbLine
 10
987.9339813742
 20
656.1996975379
 30
0.0
 11
986.9775354418
 21
655.9072771506
 31
0.0
  0
LINE
  5
147
330
1F
100
AcDbEntity
  8
0
  6
Continuous
 62
     7
370
    15
100
AcDbLine
 10
987.9350244554
 20
656.1964341836
 30
0.0
 11
986.9786083254
 21
655.9039541917
 31
0.0
  0
LINE
  5
148
330
1F
100
AcDbEntity
  8
0
  6
Continuous
 62
     7
370
    15
100
AcDbLine
 10
988.8569891008
 20
653.3589252667
 30
0.0
 11
987.905400947
 21
653.0515590148
 31
0.0
  0
SPLINE
  5
149
330
1F
100
AcDbEntity
  8
0
  6
Continuous
 62
     7
370
    15
100
AcDbSpline
210
0.0
220
0.0
230
1.0
 70
     8
 71
     3
 72
    15
 73
    11
 74
     0
 42
0.00000001
 43
0.00000001
 12
1.0
 22
0.0
 32
0.0
 13
1.0
 23
0.0
 33
0.0
 40
0.0
 40
0.0
 40
0.0
 40
0.0
 40
0.1250612148682025
 40
0.2501125062402708
 40
0.3751492209989421
 40
0.5001742964095827
 40
0.6251990179369691
 40
0.7502205629293474
 40
0.8753372885438168
 40
1.0
 40
1.0
 40
1.0
 40
1.0
 10
980.5693804773249
 20
688.1025919156109
 30
0.0
 10
980.6063558230665
 20
688.0987882403649
 30
0.0
 10
980.6803035805884
 20
688.0911811916916
 30
0.0
 10
981.2539183255242
 20
688.0186946998055
 30
0.0
 10
982.075625356196
 20
687.9298060185264
 30
0.0
 10
983.0551412085181
 20
687.8489381223865
 30
0.0
 10
984.0368847026164
 20
687.7973470525629
 30
0.0
 10
984.8648007903504
 20
687.7765657638349
 30
0.0
 10
985.4435646250631
 20
687.7742066675005
 30
0.0
 10
985.520094073217
 20
687.772144696415
 30
0.0
 10
985.5582892450251
 20
687.7711155848538
 30
0.0
  0
LINE
  5
14A
330
1F
100
AcDbEntity
  8
0
  6
Continuous
 62
     7
370
    15
100
AcDbLine
 10
987.0537101778
 20
658.9089074569
 30
0.0
 11
986.1026584658
 21
658.599887176
 31
0.0
  0
LWPOLYLINE
  5
14B
330
1F
100
AcDbEntity
  8
0
  6
Continuous
 62
     7
370
    15
100
AcDbPolyline
 90
       14
 70
   128
 43
0.0
 10
997.2881555113
 20
628.2194816904
 10
997.2741484198
 20
628.2625982003
 10
997.1634029898
 20
628.6034995155
 10
996.9488262686
 20
629.2638817267
 10
996.6439187082
 20
630.2022525506
 10
996.2678730043
 20
631.3596480923
 10
995.8442627939
 20
632.6633432345
 10
995.3997611555
 20
634.0314337449
 10
994.9622332605
 20
635.3779399233
 10
994.5592462572
 20
636.6182678776
 10
994.2160427126
 20
637.6744770842
 10
993.9542591127
 20
638.4802052217
 10
993.790286735
 20
638.9848255949
 10
993.7344669851
 20
639.1566285329
  0
LWPOLYLINE
  5
14C
330
1F
100
AcDbEntity
  8
0
  6
Continuous
 62
     7
370
    15
100
AcDbPolyline
 90
       14
 70
   128
 43
0.0
 10
992.7834152731
 20
638.8476157026
 10
992.8392350229
 20
638.6758053141
 10
993.0032074007
 20
638.1711849408
 10
993.2649910005
 20
637.3654568033
 10
993.6081647428
 20
636.3092475967
 10
994.0111815485
 20
635.0689196425
 10
994.4486796411
 20
633.7224134641
 10
994.8932110819
 20
632.3543304043
 10
995.3168212923
 20
631.050635262
 10
995.6928669962
 20
629.8932397203
 10
995.9977745565
 20
628.9548688965
 10
996.2123214754
 20
628.2944866853
 10
996.3230967077
 20
627.9535853701
 10
996.3371037992
 20
627.9104614096
  0
LWPOLYLINE
  5
14D
330
1F
100
AcDbEntity
  8
0
  6
Continuous
 62
     7
370
    15
100
AcDbPolyline
 90
       13
 70
   128
 43
0.0
 10
994.0494775328
 20
638.9961206751
 10
994.1074132475
 20
638.8178878861
 10
994.2771970781
 20
638.2953265147
 10
994.5472955259
 20
637.4640503364
 10
994.8992907556
 20
636.3807135658
 10
995.3091918978
 20
635.1191440063
 10
995.7490741762
 20
633.7653064566
 10
996.1889564547
 20
632.4114763575
 10
996.5988873991
 20
631.1499067979
 10
996.9508826288
 20
630.0665700274
 10
997.2209810766
 20
629.235293849
 10
997.3907649073
 20
628.7127324777
 10
997.4486708197
 20
628.5344996886
  0
LINE
  5
14E
330
1F
100
AcDbEntity
  8
0
  6
Continuous
 62
     7
370
    15
100
AcDbLine
 10
1012.0087444338
 20
541.8309365796
 30
0.0
 11
1013.6087417158
 21
541.8309365796
 31
0.0
  0
SPLINE
  5
14F
330
1F
100
AcDbEntity
  8
0
  6
Continuous
 62
     7
370
    15
100
AcDbSpline
210
0.0
220
0.0
230
1.0
 70
    24
 71
     3
 72
    11
 73
     7
 74
     0
 42
0.00000001
 43
0.00000001
 12
1.0
 22
0.0
 32
0.0
 13
1.0
 23
0.0
 33
0.0
 40
0.0
 40
0.0
 40
0.0
 40
0.0
 40
0.2833531140674096
 40
0.5581150060978382
 40
0.7754842778164149
 40
1.0
 40
1.0
 40
1.0
 40
1.0
 10
1013.608741715805
 20
539.8365595774684
 30
0.0
 10
1013.608741715805
 20
540.1336096904879
 30
0.0
 10
1013.608741715805
 20
540.7187034036269
 30
0.0
 10
1013.608741715805
 20
541.3667959201224
 30
0.0
 10
1013.608741715805
 20
541.7607123916704
 30
0.0
 10
1013.608741715805
 20
541.8072774899678
 30
0.0
 10
1013.608741715805
 20
541.8309365795884
 30
0.0
  0
LINE
  5
150
330
1F
100
AcDbEntity
  8
0
  6
Continuous
 62
     7
370
    15
100
AcDbLine
 10
1012.0087444338
 20
539.8365595775
 30
0.0
 11
1013.6087417158
 21
539.8365595775
 31
0.0
  0
LINE
  5
151
330
1F
100
AcDbEntity
  8
0
  6
Continuous
 62
     7
370
    15
100
AcDbLine
 10
1012.0087444338
 20
483.824920042
 30
0.0
 11
1013.6087417158
 21
483.824920042
 31
0.0
  0
LINE
  5
152
330
1F
100
AcDbEntity
  8
0
  6
Continuous
 62
     7
370
    15
100
AcDbLine
 10
1012.0087444338
 20
481.830936058
 30
0.0
 11
1013.6087417158
 21
481.830936058
 31
0.0
  0
SPLINE
  5
153
330
1F
100
AcDbEntity
  8
0
  6
Continuous
 62
     7
370
    15
100
AcDbSpline
210
0.0
220
0.0
230
1.0
 70
    24
 71
     3
 72
    11
 73
     7
 74
     0
 42
0.00000001
 43
0.00000001
 12
1.0
 22
0.0
 32
0.0
 13
1.0
 23
0.0
 33
0.0
 40
0.0
 40
0.0
 40
0.0
 40
0.0
 40
0.2832806277213223
 40
0.558000819823976
 40
0.7754016171863519
 40
0.9999999999999999
 40
0.9999999999999999
 40
0.9999999999999999
 40
0.9999999999999999
 10
1013.608741715805
 20
481.8309360580478
 30
0.0
 10
1013.608741715805
 20
481.8692186954755
 30
0.0
 10
1013.608741715805
 20
481.9446271102391
 30
0.0
 10
1013.608741715805
 20
482.4775778753178
 30
0.0
 10
1013.608741715805
 20
483.1279977225639
 30
0.0
 10
1013.608741715805
 20
483.5901042632387
 30
0.0
 10
1013.608741715805
 20
483.8249200420413
 30
0.0
  0
LINE
  5
154
330
1F
100
AcDbEntity
  8
0
  6
Continuous
 62
     7
370
    15
100
AcDbLine
 10
1013.6087417158
 20
483.824920042
 30
0.0
 11
1013.6087417158
 21
539.8365595775
 31
0.0
  0
SPLINE
  5
155
330
1F
100
AcDbEntity
  8
0
  6
Continuous
 62
     7
370
    15
100
AcDbSpline
210
0.0
220
0.0
230
1.0
 70
     8
 71
     3
 72
    11
 73
     7
 74
     0
 42
0.00000001
 43
0.00000001
 12
1.0
 22
0.0
 32
0.0
 13
1.0
 23
0.0
 33
0.0
 40
0.0
 40
0.0
 40
0.0
 40
0.0
 40
0.2371527633016602
 40
0.4978014818347057
 40
0.7485375316910702
 40
1.0
 40
1.0
 40
1.0
 40
1.0
 10
1013.608741715805
 20
539.8365595774684
 30
0.0
 10
1013.803733946679
 20
539.8058467500988
 30
0.0
 10
1014.213037300872
 20
539.7413782161333
 30
0.0
 10
1014.656606646241
 20
539.6083590265459
 30
0.0
 10
1014.953849833551
 20
539.4549562158691
 30
0.0
 10
1014.990422718768
 20
539.3471855426437
 30
0.0
 10
1015.008735612289
 20
539.2932222621474
 30
0.0
  0
LINE
  5
156
330
1F
100
AcDbEntity
  8
0
  6
Continuous
 62
     7
370
    15
100
AcDbLine
 10
1015.0087356123
 20
539.2932222621
 30
0.0
 11
1015.0087356123
 21
484.3686522381
 31
0.0
  0
SPLINE
  5
157
330
1F
100
AcDbEntity
  8
0
  6
Continuous
 62
     7
370
    15
100
AcDbSpline
210
0.0
220
0.0
230
1.0
 70
     8
 71
     3
 72
    11
 73
     7
 74
     0
 42
0.00000001
 43
0.00000001
 12
1.0
 22
0.0
 32
0.0
 13
1.0
 23
0.0
 33
0.0
 40
0.0
 40
0.0
 40
0.0
 40
0.0
 40
0.2371432747752868
 40
0.497797619206461
 40
0.7485352571261322
 40
1.0
 40
1.0
 40
1.0
 40
1.0
 10
1013.608741715805
 20
483.8249200420413
 30
0.0
 10
1013.803720763682
 20
483.8556556943638
 30
0.0
 10
1014.213009645776
 20
483.9201742204126
 30
0.0
 10
1014.656612815574
 20
484.0532868150199
 30
0.0
 10
1014.953848204683
 20
484.2068048845317
 30
0.0
 10
1014.990422158767
 20
484.314651072526
 30
0.0
 10
1015.008735612289
 20
484.368652238134
 30
0.0
  0
SPLINE
  5
158
330
1F
100
AcDbEntity
  8
0
  6
Continuous
 62
     7
370
    15
100
AcDbSpline
210
0.0
220
0.0
230
1.0
 70
     8
 71
     3
 72
    11
 73
     7
 74
     0
 42
0.00000001
 43
0.00000001
 12
1.0
 22
0.0
 32
0.0
 13
1.0
 23
0.0
 33
0.0
 40
0.0
 40
0.0
 40
0.0
 40
0.0
 40
0.2514216963618553
 40
0.5021386918101685
 40
0.7627971640579054
 40
1.0
 40
1.0
 40
1.0
 40
1.0
 10
1015.008735612289
 20
484.368652238134
 30
0.0
 10
1014.990420843233
 20
484.1165084481891
 30
0.0
 10
1014.953842638935
 20
483.6129275931432
 30
0.0
 10
1014.656588768562
 20
482.8972162794499
 30
0.0
 10
1014.212983420771
 20
482.2738333749178
 30
0.0
 10
1013.803728571247
 20
481.9738575982037
 30
0.0
 10
1013.608741715805
 20
481.8309360580478
 30
0.0
  0
SPLINE
  5
159
330
1F
100
AcDbEntity
  8
0
  6
Continuous
 62
     7
370
    15
100
AcDbSpline
210
0.0
220
0.0
230
1.0
 70
    24
 71
     3
 72
    13
 73
     9
 74
     0
 42
0.00000001
 43
0.00000001
 12
1.0
 22
0.0
 32
0.0
 13
1.0
 23
0.0
 33
0.0
 40
0.0
 40
0.0
 40
0.0
 40
0.0
 40
0.1275862792975056
 40
0.2546745420901683
 40
0.5000496634034781
 40
0.745395488647893
 40
0.8725372470107464
 40
1.0
 40
1.0
 40
1.0
 40
1.0
 10
1013.608741715805
 20
483.8249200420413
 30
0.0
 10
1013.608741715805
 20
483.6917491606098
 30
0.0
 10
1013.608741715805
 20
483.4259272130223
 30
0.0
 10
1013.608741715805
 20
482.926178913955
 30
0.0
 10
1013.608741715805
 20
482.3787864638409
 30
0.0
 10
1013.608741715805
 20
482.0130247203361
 30
0.0
 10
1013.608741715805
 20
481.8527663163306
 30
0.0
 10
1013.608741715805
 20
481.8382189243881
 30
0.0
 10
1013.608741715805
 20
481.8309360580478
 30
0.0
  0
SPLINE
  5
15A
330
1F
100
AcDbEntity
  8
0
  6
Continuous
 62
     7
370
    15
100
AcDbSpline
210
0.0
220
0.0
230
1.0
 70
     8
 71
     3
 72
    11
 73
     7
 74
     0
 42
0.00000001
 43
0.00000001
 12
1.0
 22
0.0
 32
0.0
 13
1.0
 23
0.0
 33
0.0
 40
0.0
 40
0.0
 40
0.0
 40
0.0
 40
0.2371912962512749
 40
0.4978607500864922
 40
0.7485780241948542
 40
1.0
 40
1.0
 40
1.0
 40
1.0
 10
1013.608741715805
 20
541.8309365795884
 30
0.0
 10
1013.803716566083
 20
541.6880172287405
 30
0.0
 10
1014.212965668988
 20
541.3880317893943
 30
0.0
 10
1014.656587539878
 20
540.7646727095002
 30
0.0
 10
1014.953841914056
 20
540.0489458074693
 30
0.0
 10
1014.990420601381
 20
539.5453656851932
 30
0.0
 10
1015.008735612289
 20
539.2932222621474
 30
0.0
  0
SPLINE
  5
15B
330
1F
100
AcDbEntity
  8
0
  6
Continuous
 62
     7
370
    15
100
AcDbSpline
210
0.0
220
0.0
230
1.0
 70
    24
 71
     3
 72
    13
 73
     9
 74
     0
 42
0.00000001
 43
0.00000001
 12
1.0
 22
0.0
 32
0.0
 13
1.0
 23
0.0
 33
0.0
 40
0.0
 40
0.0
 40
0.0
 40
0.0
 40
0.127537865002285
 40
0.2545913555669056
 40
0.4999408546724244
 40
0.7453308682571926
 40
0.8725062585534173
 40
1.0
 40
1.0
 40
1.0
 40
1.0
 10
1013.608741715805
 20
541.8309365795884
 30
0.0
 10
1013.608741715805
 20
541.8236695540904
 30
0.0
 10
1013.608741715805
 20
541.8091631024384
 30
0.0
 10
1013.608741715805
 20
541.6486746322331
 30
0.0
 10
1013.608741715805
 20
541.2828851985
 30
0.0
 10
1013.608741715805
 20
540.7353224161442
 30
0.0
 10
1013.608741715805
 20
540.2354700761554
 30
0.0
 10
1013.608741715805
 20
539.9696405111433
 30
0.0
 10
1013.608741715805
 20
539.8365595774684
 30
0.0
  0
LINE
  5
15C
330
1F
100
AcDbEntity
  8
0
  6
Continuous
 62
     7
370
    15
100
AcDbLine
 10
954.2087494883
 20
578.1309382455
 30
0.0
 11
1013.8528227362
 21
578.1309382455
 31
0.0
  0
LINE
  5
15D
330
1F
100
AcDbEntity
  8
0
  6
Continuous
 62
     7
370
    15
100
AcDbLine
 10
1013.8528227362
 20
578.1309382455
 30
0.0
 11
1013.8528227362
 21
577.6309372323
 31
0.0
  0
LINE
  5
15E
330
1F
100
AcDbEntity
  8
0
  6
Continuous
 62
     7
370
    15
100
AcDbLine
 10
954.2087494883
 20
578.1309382455
 30
0.0
 11
954.2087494883
 21
577.6309372323
 31
0.0
  0
ARC
  5
15F
330
1F
100
AcDbEntity
  8
0
  6
Continuous
 62
     7
370
    15
100
AcDbCircle
 10
954.208740698
 20
697.3186120018
 30
0.0
 40
1.000000000000227
100
AcDbArc
 50
90.0
 51
180.0
  0
LINE
  5
160
330
1F
100
AcDbEntity
  8
0
  6
Continuous
 62
     7
370
    15
100
AcDbLine
 10
954.2087494883
 20
698.3186194139
 30
0.0
 11
954.2087494883
 21
697.81861095
 31
0.0
  0
ARC
  5
161
330
1F
100
AcDbEntity
  8
0
  6
Continuous
 62
     7
370
    15
100
AcDbCircle
 10
954.208740698
 20
697.3186120018
 30
0.0
 40
0.5000000000001137
100
AcDbArc
 50
90.0
 51
180.0
  0
LINE
  5
162
330
1F
100
AcDbEntity
  8
0
  6
Continuous
 62
     7
370
    15
100
AcDbLine
 10
953.2087325605
 20
697.3186173873
 30
0.0
 11
953.7087261232
 21
697.3186173873
 31
0.0
  0
LWPOLYLINE
  5
163
330
1F
100
AcDbEntity
  8
0
  6
Continuous
 62
     7
370
    15
100
AcDbPolyline
 90
        9
 70
   128
 43
0.0
 10
996.9608366045
 20
622.5929522352
 10
996.9516872915
 20
622.5899794536
 10
996.9246267828
 20
622.5811877685
 10
996.8806981596
 20
622.566912456
 10
996.821570352
 20
622.5476974087
 10
996.7495083364
 20
622.5242802339
 10
996.667283729
 20
622.4975699024
 10
996.5780853781
 20
622.4685871439
 10
996.4853107485
 20
622.4384420948
  0
LINE
  5
164
330
1F
100
AcDbEntity
  8
0
  6
Continuous
 62
     7
370
    15
100
AcDbLine
 10
996.4853107485
 20
622.4384420948
 30
0.0
 11
972.1050738844
 21
697.4731275277
 31
0.0
  0
LINE
  5
165
330
1F
100
AcDbEntity
  8
0
  6
Continuous
 62
     7
370
    15
100
AcDbLine
 10
1014.4273519071
 20
578.3988462226
 30
0.0
 11
1026.8460392507
 21
593.1988769608
 31
0.0
  0
ARC
  5
166
330
1F
100
AcDbEntity
  8
0
  6
Continuous
 62
     7
370
    15
100
AcDbCircle
 10
1013.8528099988
 20
578.8809374747
 30
0.0
 40
0.75
100
AcDbArc
 50
270.0
 51
320.0
  0
ARC
  5
167
330
1F
100
AcDbEntity
  8
0
  6
Continuous
 62
     7
370
    15
100
AcDbCircle
 10
954.208740698
 20
578.6309374747
 30
0.0
 40
0.5000000000001137
100
AcDbArc
 50
180.0
 51
270.0
  0
LINE
  5
168
330
1F
100
AcDbEntity
  8
0
  6
Continuous
 62
     7
370
    15
100
AcDbLine
 10
953.7087261232
 20
697.3186173873
 30
0.0
 11
953.7087261232
 21
578.6309392588
 31
0.0
  0
LINE
  5
169
330
1F
100
AcDbEntity
  8
0
  6
Continuous
 62
     7
370
    15
100
AcDbLine
 10
971.6295480284
 20
697.81861095
 30
0.0
 11
954.2087494883
 21
697.81861095
 31
0.0
  0
ARC
  5
16A
330
1F
100
AcDbEntity
  8
0
  6
Continuous
 62
     7
370
    15
100
AcDbCircle
 10
971.6295371459
 20
697.3186120018
 30
0.0
 40
0.5000000000001633
100
AcDbArc
 50
18.0
 51
90.0
  0
ARC
  5
16B
330
1F
100
AcDbEntity
  8
0
  6
Continuous
 62
     7
370
    15
100
AcDbCircle
 10
1007.2322494888
 20
625.9303324798
 30
0.0
 40
11.30000000000011
100
AcDbArc
 50
198.0
 51
250.0
  0
LINE
  5
16C
330
1F
100
AcDbEntity
  8
0
  6
Continuous
 62
     7
370
    15
100
AcDbLine
 10
1022.8178083452
 20
608.2324424224
 30
0.0
 11
1003.3674120459
 21
615.3118052917
 31
0.0
  0
ARC
  5
16D
330
1F
100
AcDbEntity
  8
0
  6
Continuous
 62
     7
370
    15
100
AcDbCircle
 10
1019.568623268
 20
599.3053619579
 30
0.0
 40
9.50000000000009
100
AcDbArc
 50
320.0
 51
70.0
  0
LWPOLYLINE
  5
16E
330
1F
100
AcDbEntity
  8
0
  6
Continuous
 62
     7
370
    15
100
AcDbPolyline
 90
        9
 70
   128
 43
0.0
 10
1014.4273519071
 20
578.3988462226
 10
1014.5020663294
 20
578.3361458616
 10
1014.5739197287
 20
578.2758557634
 10
1014.640140489
 20
578.2202893333
 10
1014.698195413
 20
578.1715886133
 10
1014.7458195242
 20
578.1316162484
 10
1014.7811948809
 20
578.1019182341
 10
1014.8030101808
 20
578.0836270587
 10
1014.8103713545
 20
578.0774542527
  0
LWPOLYLINE
  5
16F
330
1F
100
AcDbEntity
  8
0
  6
Continuous
 62
     7
370
    15
100
AcDbPolyline
 90
        9
 70
   128
 43
0.0
 10
1022.8178083452
 20
608.2324424224
 10
1022.8511869463
 20
608.3241069155
 10
1022.8832542452
 20
608.4122472839
 10
1022.912818149
 20
608.4934735136
 10
1022.9387461695
 20
608.5646712618
 10
1022.9599952253
 20
608.6231061654
 10
1022.9758202585
 20
608.6665206986
 10
1022.9855358156
 20
608.6932608323
 10
1022.9888140711
 20
608.702290936
  0
LWPOLYLINE
  5
170
330
1F
100
AcDbEntity
  8
0
  6
Continuous
 62
     7
370
    15
100
AcDbPolyline
 90
        9
 70
   128
 43
0.0
 10
1003.5384177717
 20
615.7816538053
 10
1003.5351395163
 20
615.7726237016
 10
1003.5254239592
 20
615.7458835678
 10
1003.509598926
 20
615.7024690347
 10
1003.4883498701
 20
615.6440341311
 10
1003.4624218496
 20
615.5728363829
 10
1003.4328579458
 20
615.4916101532
 10
1003.4007906469
 20
615.4034697847
 10
1003.3674120459
 20
615.3118052917
  0
LWPOLYLINE
  5
171
330
1F
100
AcDbEntity
  8
0
  6
Continuous
 62
     7
370
    15
100
AcDbPolyline
 90
        9
 70
   128
 43
0.0
 10
1026.8460392507
 20
593.1988769608
 10
1026.9207834753
 20
593.136180325
 10
1026.9926070722
 20
593.0758902268
 10
1027.0588278326
 20
593.0203237968
 10
1027.1168827566
 20
592.9716193514
 10
1027.1645068678
 20
592.9316469865
 10
1027.1999120268
 20
592.9019489722
 10
1027.2216975244
 20
592.8836577969
 10
1027.2290586981
 20
592.8774887161
  0
ARC
  5
172
330
1F
100
AcDbEntity
  8
0
  6
Continuous
 62
     7
370
    15
100
AcDbCircle
 10
954.208740698
 20
578.6309374747
 30
0.0
 40
1.000000000000227
100
AcDbArc
 50
180.0
 51
270.0
  0
LINE
  5
173
330
1F
100
AcDbEntity
  8
0
  6
Continuous
 62
     7
370
    15
100
AcDbLine
 10
953.7087261232
 20
578.6309392588
 30
0.0
 11
953.2087325605
 21
578.6309392588
 31
0.0
  0
LINE
  5
174
330
1F
100
AcDbEntity
  8
0
  6
Continuous
 62
     7
370
    15
100
AcDbLine
 10
953.2087325605
 20
578.6309392588
 30
0.0
 11
953.2087325605
 21
697.3186173873
 31
0.0
  0
SPLINE
  5
175
330
1F
100
AcDbEntity
  8
0
  6
Continuous
 62
     7
370
    15
100
AcDbSpline
210
0.0
220
0.0
230
1.0
 70
     8
 71
     3
 72
    12
 73
     8
 74
     0
 42
0.00000001
 43
0.00000001
 12
1.0
 22
0.0
 32
0.0
 13
1.0
 23
0.0
 33
0.0
 40
0.0
 40
0.0
 40
0.0
 40
0.0
 40
0.2301697960882896
 40
0.460423326353099
 40
0.690675660668101
 40
0.9209288505733273
 40
1.0
 40
1.0
 40
1.0
 40
1.0
 10
954.0158092531125
 20
576.8309385912452
 30
0.0
 10
954.1112048990824
 20
576.8048605504835
 30
0.0
 10
954.3020308952973
 20
576.7526949819496
 30
0.0
 10
954.5883153420428
 20
576.3479868006957
 30
0.0
 10
954.8744317129966
 20
575.7599591453741
 30
0.0
 10
955.0985452641354
 20
575.1959345733276
 30
0.0
 10
955.2261308083611
 20
574.8654242432372
 30
0.0
 10
955.2587449106137
 20
574.7809374170337
 30
0.0
  0
SPLINE
  5
176
330
1F
100
AcDbEntity
  8
0
  6
Continuous
 62
     7
370
    15
100
AcDbSpline
210
0.0
220
0.0
230
1.0
 70
     8
 71
     3
 72
    11
 73
     7
 74
     0
 42
0.00000001
 43
0.00000001
 12
1.0
 22
0.0
 32
0.0
 13
1.0
 23
0.0
 33
0.0
 40
0.0
 40
0.0
 40
0.0
 40
0.0
 40
0.2499988513728207
 40
0.4999976036662314
 40
0.7499963559596421
 40
1.0
 40
1.0
 40
1.0
 40
1.0
 10
1009.958732083694
 20
574.7809374170337
 30
0.0
 10
1009.952841156536
 20
575.0495633570541
 30
0.0
 10
1009.941059304554
 20
575.5868151306332
 30
0.0
 10
1009.923386553542
 20
576.264434476942
 30
0.0
 10
1009.905713544399
 20
576.7384948249139
 30
0.0
 10
1009.893931869882
 20
576.8001238014868
 30
0.0
 10
1009.888040974991
 20
576.8309385912452
 30
0.0
  0
LINE
  5
177
330
1F
100
AcDbEntity
  8
0
  6
Continuous
 62
     7
370
    15
100
AcDbLine
 10
955.2587449106
 20
574.780937417
 30
0.0
 11
1009.9587320837
 21
574.780937417
 31
0.0
  0
LINE
  5
178
330
1F
100
AcDbEntity
  8
0
  6
Continuous
 62
     7
370
    15
100
AcDbLine
 10
1009.9587320837
 20
574.780937417
 30
0.0
 11
1009.9587320837
 21
453.8809397655
 31
0.0
  0
LINE
  5
179
330
1F
100
AcDbEntity
  8
0
  6
Continuous
 62
     7
370
    15
100
AcDbLine
 10
955.2587449106
 20
453.8809397655
 30
0.0
 11
1009.9587320837
 21
453.8809397655
 31
0.0
  0
LINE
  5
17A
330
1F
100
AcDbEntity
  8
0
  6
Continuous
 62
     7
370
    15
100
AcDbLine
 10
955.2587449106
 20
574.780937417
 30
0.0
 11
955.2587449106
 21
453.8809397655
 31
0.0
  0
SPLINE
  5
17B
330
1F
100
AcDbEntity
  8
0
  6
Continuous
 62
     7
370
    15
100
AcDbSpline
210
0.0
220
0.0
230
1.0
 70
     8
 71
     3
 72
    12
 73
     8
 74
     0
 42
0.00000001
 43
0.00000001
 12
1.0
 22
0.0
 32
0.0
 13
1.0
 23
0.0
 33
0.0
 40
0.0
 40
0.0
 40
0.0
 40
0.0
 40
0.1888362078564613
 40
0.3778472721980748
 40
0.5698155063390878
 40
0.7755793836873189
 40
1.0
 40
1.0
 40
1.0
 40
1.0
 10
953.2087325605312
 20
452.638011558536
 30
0.0
 10
953.2293394594699
 20
452.6596823793501
 30
0.0
 10
953.270572338698
 20
452.7030440874877
 30
0.0
 10
953.5860463402765
 20
452.8667366893352
 30
0.0
 10
954.035903774598
 20
453.1360387584545
 30
0.0
 10
954.6056930138654
 20
453.4885700749582
 30
0.0
 10
955.0348567879586
 20
453.7464222579969
 30
0.0
 10
955.2587449106137
 20
453.8809397654567
 30
0.0
  0
LWPOLYLINE
  5
17C
330
1F
100
AcDbEntity
  8
0
  6
Continuous
 62
     7
370
    15
100
AcDbPolyline
 90
        2
 70
   128
 43
0.0
 10
955.2587449106
 20
453.8809397655
 10
955.2587449106
 20
453.8809397655
  0
SPLINE
  5
17D
330
1F
100
AcDbEntity
  8
0
  6
Continuous
 62
     7
370
    15
100
AcDbSpline
210
0.0
220
0.0
230
1.0
 70
     8
 71
     3
 72
    12
 73
     8
 74
     0
 42
0.00000001
 43
0.00000001
 12
1.0
 22
0.0
 32
0.0
 13
1.0
 23
0.0
 33
0.0
 40
0.0
 40
0.0
 40
0.0
 40
0.0
 40
0.1759484246549848
 40
0.3356022528545292
 40
0.5051453792673285
 40
0.7914157481862589
 40
1.0
 40
1.0
 40
1.0
 40
1.0
 10
954.0087461027066
 20
452.638011558536
 30
0.0
 10
954.0222980730925
 20
452.6606686650441
 30
0.0
 10
954.0481469648973
 20
452.7038846017718
 30
0.0
 10
954.2291714636093
 20
452.8594699104445
 30
0.0
 10
954.5095861427633
 20
453.1299440489021
 30
0.0
 10
954.8631913857014
 20
453.4909911512063
 30
0.0
 10
955.1414550660143
 20
453.7653118934075
 30
0.0
 10
955.2587449106137
 20
453.8809397654567
 30
0.0
  0
LINE
  5
17E
330
1F
100
AcDbEntity
  8
0
  6
Continuous
 62
     7
370
    15
100
AcDbLine
 10
953.2087325605
 20
452.6380115585
 30
0.0
 11
954.0087461027
 21
452.6380115585
 31
0.0
  0
SPLINE
  5
17F
330
1F
100
AcDbEntity
  8
0
  6
Continuous
 62
     7
370
    15
100
AcDbSpline
210
0.0
220
0.0
230
1.0
 70
     8
 71
     3
 72
    11
 73
     7
 74
     0
 42
0.00000001
 43
0.00000001
 12
1.0
 22
0.0
 32
0.0
 13
1.0
 23
0.0
 33
0.0
 40
0.0
 40
0.0
 40
0.0
 40
0.0
 40
0.2543087107233066
 40
0.5087778121740395
 40
0.7632551060594022
 40
1.0
 40
1.0
 40
1.0
 40
1.0
 10
954.0158092531123
 20
576.0309362249408
 30
0.0
 10
954.1211938210772
 20
576.0114802536535
 30
0.0
 10
954.3320294223174
 20
575.972556040334
 30
0.0
 10
954.6482553959207
 20
575.6735685026372
 30
0.0
 10
954.9573342068227
 20
575.2576070588062
 30
0.0
 10
955.1607220097313
 20
574.9359569318067
 30
0.0
 10
955.2587449106137
 20
574.7809374170337
 30
0.0
  0
LINE
  5
180
330
1F
100
AcDbEntity
  8
0
  6
Continuous
 62
     7
370
    15
100
AcDbLine
 10
954.0158092531
 20
576.0309362249
 30
0.0
 11
954.0158092531
 21
576.8309385912
 31
0.0
  0
SPLINE
  5
181
330
1F
100
AcDbEntity
  8
0
  6
Continuous
 62
     7
370
    15
100
AcDbSpline
210
0.0
220
0.0
230
1.0
 70
     8
 71
     3
 72
    11
 73
     7
 74
     0
 42
0.00000001
 43
0.00000001
 12
1.0
 22
0.0
 32
0.0
 13
1.0
 23
0.0
 33
0.0
 40
0.0
 40
0.0
 40
0.0
 40
0.0
 40
0.2500005242069181
 40
0.4999978182024423
 40
0.7499951121979666
 40
0.9999999999999999
 40
0.9999999999999999
 40
0.9999999999999999
 40
0.9999999999999999
 10
955.2587449106137
 20
453.8809397654567
 30
0.0
 10
955.1551597908413
 20
453.612314592368
 30
0.0
 10
954.9479908897013
 20
453.0750677170477
 30
0.0
 10
954.6372774692835
 20
452.3974417216697
 30
0.0
 10
954.3265599165373
 20
451.9233817489788
 30
0.0
 10
954.1193938563689
 20
451.8617508056371
 30
0.0
 10
954.0158092531123
 20
451.8309348659549
 30
0.0
  0
LINE
  5
182
330
1F
100
AcDbEntity
  8
0
  6
Continuous
 62
     7
370
    15
100
AcDbLine
 10
954.0158092531
 20
452.6309409575
 30
0.0
 11
954.0158092531
 21
451.830934866
 31
0.0
  0
SPLINE
  5
183
330
1F
100
AcDbEntity
  8
0
  6
Continuous
 62
     7
370
    15
100
AcDbSpline
210
0.0
220
0.0
230
1.0
 70
     8
 71
     3
 72
    11
 73
     7
 74
     0
 42
0.00000001
 43
0.00000001
 12
1.0
 22
0.0
 32
0.0
 13
1.0
 23
0.0
 33
0.0
 40
0.0
 40
0.0
 40
0.0
 40
0.0
 40
0.2500052636856089
 40
0.5000009046657584
 40
0.749995796202027
 40
1.0
 40
1.0
 40
1.0
 40
1.0
 10
955.2587449106137
 20
453.8809397654567
 30
0.0
 10
955.1551604653336
 20
453.7171433194434
 30
0.0
 10
954.9479955617396
 20
453.3895567319438
 30
0.0
 10
954.6372776309275
 20
452.976370472966
 30
0.0
 10
954.3265587077549
 20
452.6872957693539
 30
0.0
 10
954.1193936907788
 20
452.649726128057
 30
0.0
 10
954.0158092531123
 20
452.6309409575496
 30
0.0
  0
SPLINE
  5
184
330
1F
100
AcDbEntity
  8
0
  6
Continuous
 62
     7
370
    15
100
AcDbSpline
210
0.0
220
0.0
230
1.0
 70
     8
 71
     3
 72
    12
 73
     8
 74
     0
 42
0.00000001
 43
0.00000001
 12
1.0
 22
0.0
 32
0.0
 13
1.0
 23
0.0
 33
0.0
 40
0.0
 40
0.0
 40
0.0
 40
0.0
 40
0.2905044087226145
 40
0.5021689954592589
 40
0.7241747265686093
 40
0.855215372407358
 40
1.0
 40
1.0
 40
1.0
 40
1.0
 10
955.2587449106137
 20
574.7809374170337
 30
0.0
 10
954.9695888995599
 20
574.9569499252946
 30
0.0
 10
954.4697507585815
 20
575.2612070098953
 30
0.0
 10
953.835416046806
 20
575.6553799403748
 30
0.0
 10
953.44747406677
 20
575.8484882854183
 30
0.0
 10
953.2432110843639
 20
575.9605327909841
 30
0.0
 10
953.2206009455143
 20
576.0020648517574
 30
0.0
 10
953.2087325605312
 20
576.0238656239543
 30
0.0
  0
LINE
  5
185
330
1F
100
AcDbEntity
  8
0
  6
Continuous
 62
     7
370
    15
100
AcDbLine
 10
953.2087325605
 20
576.023865624
 30
0.0
 11
954.0087461027
 21
576.023865624
 31
0.0
  0
SPLINE
  5
186
330
1F
100
AcDbEntity
  8
0
  6
Continuous
 62
     7
370
    15
100
AcDbSpline
210
0.0
220
0.0
230
1.0
 70
     8
 71
     3
 72
    13
 73
     9
 74
     0
 42
0.00000001
 43
0.00000001
 12
1.0
 22
0.0
 32
0.0
 13
1.0
 23
0.0
 33
0.0
 40
0.0
 40
0.0
 40
0.0
 40
0.0
 40
0.3126740885389321
 40
0.5321588963427611
 40
0.6354824505291319
 40
0.7470118404592854
 40
0.868159464993981
 40
1.0
 40
1.0
 40
1.0
 40
1.0
 10
955.2587449106137
 20
574.7809374170337
 30
0.0
 10
955.0835167051605
 20
574.9558360312916
 30
0.0
 10
954.7852852499806
 20
575.2535065353308
 30
0.0
 10
954.460184140328
 20
575.584734186939
 30
0.0
 10
954.2598654514026
 20
575.7632929088148
 30
0.0
 10
954.1300597082011
 20
575.8701253660446
 30
0.0
 10
954.0300232746401
 20
575.9601729113041
 30
0.0
 10
954.0160355636299
 20
576.0020447945027
 30
0.0
 10
954.0087461027065
 20
576.0238656239543
 30
0.0
  0
LINE
  5
187
330
1F
100
AcDbEntity
  8
0
  6
Continuous
 62
     7
370
    15
100
AcDbLine
 10
953.2087325605
 20
576.023865624
 30
0.0
 11
953.2087325605
 21
452.6380115585
 31
0.0
  0
LINE
  5
188
330
1F
100
AcDbEntity
  8
0
  6
Continuous
 62
     7
370
    15
100
AcDbLine
 10
954.0158092531
 20
451.830934866
 30
0.0
 11
1009.817320064
 21
451.830934866
 31
0.0
  0
SPLINE
  5
189
330
1F
100
AcDbEntity
  8
0
  6
Continuous
 62
     7
370
    15
100
AcDbSpline
210
0.0
220
0.0
230
1.0
 70
     8
 71
     3
 72
    11
 73
     7
 74
     0
 42
0.00000001
 43
0.00000001
 12
1.0
 22
0.0
 32
0.0
 13
1.0
 23
0.0
 33
0.0
 40
0.0
 40
0.0
 40
0.0
 40
0.0
 40
0.2500037059987129
 40
0.5000027116733224
 40
0.7500013063693973
 40
1.0
 40
1.0
 40
1.0
 40
1.0
 10
1009.817320063964
 20
451.8309348659549
 30
0.0
 10
1009.829098486953
 20
451.861751291719
 30
0.0
 10
1009.852655111483
 20
451.923383563867
 30
0.0
 10
1009.888051629128
 20
452.3974418519104
 30
0.0
 10
1009.923383869126
 20
453.0750621721865
 30
0.0
 10
1009.94694934395
 20
453.6123138655979
 30
0.0
 10
1009.958732083694
 20
453.8809397654567
 30
0.0
  0
LINE
  5
18A
330
1F
100
AcDbEntity
  8
0
  6
Continuous
 62
     7
370
    15
100
AcDbLine
 10
1012.0087444338
 20
574.780937417
 30
0.0
 11
1012.0087444338
 21
453.8809397655
 31
0.0
  0
LINE
  5
18B
330
1F
100
AcDbEntity
  8
0
  6
Continuous
 62
     7
370
    15
100
AcDbLine
 10
1012.0087444338
 20
453.8809397655
 30
0.0
 11
1009.9587320837
 21
453.8809397655
 31
0.0
  0
LINE
  5
18C
330
1F
100
AcDbEntity
  8
0
  6
Continuous
 62
     7
370
    15
100
AcDbLine
 10
1009.9587320837
 20
574.780937417
 30
0.0
 11
1012.0087444338
 21
574.780937417
 31
0.0
  0
LINE
  5
18D
330
1F
100
AcDbEntity
  8
0
  6
Continuous
 62
     7
370
    15
100
AcDbLine
 10
1009.9587320837
 20
451.830934866
 30
0.0
 11
1009.817320064
 21
451.830934866
 31
0.0
  0
LINE
  5
18E
330
1F
100
AcDbEntity
  8
0
  6
Continuous
 62
     7
370
    15
100
AcDbLine
 10
1009.9587320837
 20
452.6309409575
 30
0.0
 11
1009.9587320837
 21
451.830934866
 31
0.0
  0
ARC
  5
18F
330
1F
100
AcDbEntity
  8
0
  6
Continuous
 62
     7
370
    15
100
AcDbCircle
 10
1009.9587406981
 20
574.7809374747
 30
0.0
 40
2.050000000000182
100
AcDbArc
 50
0.0
 51
90.0
  0
LINE
  5
190
330
1F
100
AcDbEntity
  8
0
  6
Continuous
 62
     7
370
    15
100
AcDbLine
 10
1009.9587320837
 20
576.0309362249
 30
0.0
 11
1009.9587320837
 21
576.8309385912
 31
0.0
  0
ARC
  5
191
330
1F
100
AcDbEntity
  8
0
  6
Continuous
 62
     7
370
    15
100
AcDbCircle
 10
1009.9587406981
 20
574.7809374747
 30
0.0
 40
1.25
100
AcDbArc
 50
0.0
 51
90.0
  0
ARC
  5
192
330
1F
100
AcDbEntity
  8
0
  6
Continuous
 62
     7
370
    15
100
AcDbCircle
 10
1009.9587406981
 20
453.8809374747
 30
0.0
 40
1.250000000000057
100
AcDbArc
 50
270.0
 51
360.0
  0
ARC
  5
193
330
1F
100
AcDbEntity
  8
0
  6
Continuous
 62
     7
370
    15
100
AcDbCircle
 10
1009.9587406981
 20
453.8809374747
 30
0.0
 40
2.050000000000068
100
AcDbArc
 50
270.0
 51
360.0
  0
LINE
  5
194
330
1F
100
AcDbEntity
  8
0
  6
Continuous
 62
     7
370
    15
100
AcDbLine
 10
972.6367175135
 20
697.4548885064
 30
0.0
 11
973.397570804
 21
697.7020987706
 31
0.0
  0
LINE
  5
195
330
1F
100
AcDbEntity
  8
0
  6
Continuous
 62
     7
370
    15
100
AcDbLine
 10
997.721689895
 20
622.8401624994
 30
0.0
 11
973.397570804
 21
697.7020987706
 31
0.0
  0
LINE
  5
196
330
1F
100
AcDbEntity
  8
0
  6
Continuous
 62
     7
370
    15
100
AcDbLine
 10
996.9608366045
 20
622.5929522352
 30
0.0
 11
997.721689895
 21
622.8401624994
 31
0.0
  0
LINE
  5
197
330
1F
100
AcDbEntity
  8
0
  6
Continuous
 62
     7
370
    15
100
AcDbLine
 10
996.9608366045
 20
622.5929522352
 30
0.0
 11
972.6367175135
 21
697.4548885064
 31
0.0
  0
LINE
  5
198
330
1F
100
AcDbEntity
  8
0
  6
Continuous
 62
     7
370
    15
100
AcDbLine
 10
1013.8528227362
 20
576.8309385912
 30
0.0
 11
1013.8528227362
 21
577.6309372323
 31
0.0
  0
LINE
  5
199
330
1F
100
AcDbEntity
  8
0
  6
Continuous
 62
     7
370
    15
100
AcDbLine
 10
955.2087366136
 20
576.8309385912
 30
0.0
 11
1013.8528227362
 21
576.8309385912
 31
0.0
  0
LINE
  5
19A
330
1F
100
AcDbEntity
  8
0
  6
Continuous
 62
     7
370
    15
100
AcDbLine
 10
955.2087366136
 20
577.6309372323
 30
0.0
 11
955.2087366136
 21
576.8309385912
 31
0.0
  0
LINE
  5
19B
330
1F
100
AcDbEntity
  8
0
  6
Continuous
 62
     7
370
    15
100
AcDbLine
 10
955.2087366136
 20
577.6309372323
 30
0.0
 11
1013.8528227362
 21
577.6309372323
 31
0.0
  0
ARC
  5
19C
330
1F
100
AcDbEntity
  8
0
  6
Continuous
 62
     7
370
    15
100
AcDbCircle
 10
1019.568623268
 20
599.3053619579
 30
0.0
 40
10.00000000000002
100
AcDbArc
 50
320.0
 51
70.0
  0
LINE
  5
19D
330
1F
100
AcDbEntity
  8
0
  6
Continuous
 62
     7
370
    15
100
AcDbLine
 10
1022.9888140711
 20
608.702290936
 30
0.0
 11
1023.2624291929
 21
609.4540396171
 31
0.0
  0
ARC
  5
19E
330
1F
100
AcDbEntity
  8
0
  6
Continuous
 62
     7
370
    15
100
AcDbCircle
 10
1019.568623268
 20
599.3053619579
 30
0.0
 40
10.8
100
AcDbArc
 50
320.0
 51
70.0
  0
LINE
  5
19F
330
1F
100
AcDbEntity
  8
0
  6
Continuous
 62
     7
370
    15
100
AcDbLine
 10
1027.8419136557
 20
592.3632570939
 30
0.0
 11
1027.2290586981
 21
592.8774887161
 31
0.0
  0
LINE
  5
1A0
330
1F
100
AcDbEntity
  8
0
  6
Continuous
 62
     7
370
    15
100
AcDbLine
 10
1003.8120626959
 20
616.5334099369
 30
0.0
 11
1003.5384177717
 21
615.7816538053
 31
0.0
  0
LINE
  5
1A1
330
1F
100
AcDbEntity
  8
0
  6
Continuous
 62
     7
370
    15
100
AcDbLine
 10
1023.2624291929
 20
609.4540396171
 30
0.0
 11
1003.8120626959
 21
616.5334099369
 31
0.0
  0
LINE
  5
1A2
330
1F
100
AcDbEntity
  8
0
  6
Continuous
 62
     7
370
    15
100
AcDbLine
 10
1022.9888140711
 20
608.702290936
 30
0.0
 11
1003.5384177717
 21
615.7816538053
 31
0.0
  0
LINE
  5
1A3
330
1F
100
AcDbEntity
  8
0
  6
Continuous
 62
     7
370
    15
100
AcDbLine
 10
1014.8103713545
 20
578.0774542527
 30
0.0
 11
1015.4231965097
 21
577.5632226305
 31
0.0
  0
LINE
  5
1A4
330
1F
100
AcDbEntity
  8
0
  6
Continuous
 62
     7
370
    15
100
AcDbLine
 10
1014.8103713545
 20
578.0774542527
 30
0.0
 11
1027.2290586981
 21
592.8774887161
 31
0.0
  0
LINE
  5
1A5
330
1F
100
AcDbEntity
  8
0
  6
Continuous
 62
     7
370
    15
100
AcDbLine
 10
1015.4231965097
 20
577.5632226305
 30
0.0
 11
1027.8419136557
 21
592.3632570939
 31
0.0
  0
ARC
  5
1A6
330
1F
100
AcDbEntity
  8
0
  6
Continuous
 62
     7
370
    15
100
AcDbCircle
 10
1013.8528099988
 20
578.8809374747
 30
0.0
 40
1.25
100
AcDbArc
 50
270.0
 51
320.0
  0
ARC
  5
1A7
330
1F
100
AcDbEntity
  8
0
  6
Continuous
 62
     7
370
    15
100
AcDbCircle
 10
1013.8528099988
 20
578.8809374747
 30
0.0
 40
2.050000000000068
100
AcDbArc
 50
270.0
 51
320.0
  0
LINE
  5
1A8
330
1F
100
AcDbEntity
  8
0
  6
Continuous
 62
     7
370
    15
100
AcDbLine
 10
971.4479028734
 20
698.3186194139
 30
0.0
 11
971.4479028734
 21
699.1186180549
 31
0.0
  0
LINE
  5
1A9
330
1F
100
AcDbEntity
  8
0
  6
Continuous
 62
     7
370
    15
100
AcDbLine
 10
955.2551388296
 20
699.1186180549
 30
0.0
 11
955.2551388296
 21
698.3186194139
 31
0.0
  0
LINE
  5
1AA
330
1F
100
AcDbEntity
  8
0
  6
Continuous
 62
     7
370
    15
100
AcDbLine
 10
955.2551388296
 20
699.1186180549
 30
0.0
 11
971.4479028734
 21
699.1186180549
 31
0.0
  0
LINE
  5
1AB
330
1F
100
AcDbEntity
  8
0
  6
Continuous
 62
     7
370
    15
100
AcDbLine
 10
955.2551388296
 20
698.3186194139
 30
0.0
 11
971.4479028734
 21
698.3186194139
 31
0.0
  0
ARC
  5
1AC
330
1F
100
AcDbEntity
  8
0
  6
Continuous
 62
     7
370
    15
100
AcDbCircle
 10
1007.2322494888
 20
625.9303324798
 30
0.0
 40
10.79999999999996
100
AcDbArc
 50
198.0
 51
250.0
  0
ARC
  5
1AD
330
1F
100
AcDbEntity
  8
0
  6
Continuous
 62
     7
370
    15
100
AcDbCircle
 10
1007.2322494888
 20
625.9303324798
 30
0.0
 40
10.0000000000001
100
AcDbArc
 50
198.0
 51
250.0
  0
LINE
  5
1AE
330
1F
100
AcDbEntity
  8
0
  6
Continuous
 62
     7
370
    15
100
AcDbLine
 10
953.2087325605
 20
576.8309385912
 30
0.0
 11
953.2087325605
 21
577.6309372323
 31
0.0
  0
LINE
  5
1AF
330
1F
100
AcDbEntity
  8
0
  6
Continuous
 62
     7
370
    15
100
AcDbLine
 10
953.2087325605
 20
577.6309372323
 30
0.0
 11
955.2087366136
 21
577.6309372323
 31
0.0
  0
LINE
  5
1B0
330
1F
100
AcDbEntity
  8
0
  6
Continuous
 62
     7
370
    15
100
AcDbLine
 10
955.2087366136
 20
576.8309385912
 30
0.0
 11
953.2087325605
 21
576.8309385912
 31
0.0
  0
ARC
  5
1B1
330
1F
100
AcDbEntity
  8
0
  6
Continuous
 62
     7
370
    15
100
AcDbCircle
 10
971.4479015139
 20
697.0686120018
 30
0.0
 40
2.050000000000019
100
AcDbArc
 50
18.0
 51
90.0
  0
ARC
  5
1B2
330
1F
100
AcDbEntity
  8
0
  6
Continuous
 62
     7
370
    15
100
AcDbCircle
 10
971.4479015139
 20
697.0686120018
 30
0.0
 40
1.250000000000067
100
AcDbArc
 50
18.0
 51
90.0
  0
LINE
  5
1B3
330
1F
100
AcDbEntity
  8
0
  6
Continuous
 62
     7
370
    15
100
AcDbLine
 10
955.2551388296
 20
698.3186194139
 30
0.0
 11
953.2551645788
 21
698.3186194139
 31
0.0
  0
LINE
  5
1B4
330
1F
100
AcDbEntity
  8
0
  6
Continuous
 62
     7
370
    15
100
AcDbLine
 10
953.2514392885
 20
698.4220036702
 30
0.0
 11
953.2514392885
 21
698.3186194139
 31
0.0
  0
LINE
  5
1B5
330
1F
100
AcDbEntity
  8
0
  6
Continuous
 62
     7
370
    15
100
AcDbLine
 10
953.2514392885
 20
698.3186194139
 30
0.0
 11
953.2551645788
 21
698.3186194139
 31
0.0
  0
LINE
  5
1B6
330
1F
100
AcDbEntity
  8
0
  6
Continuous
 62
     7
370
    15
100
AcDbLine
 10
982.2977959665
 20
702.222753449
 30
0.0
 11
982.6232075247
 21
701.4919259982
 31
0.0
  0
LWPOLYLINE
  5
1B7
330
1F
100
AcDbEntity
  8
0
  6
Continuous
 62
     7
370
    15
100
AcDbPolyline
 90
        8
 70
   128
 43
0.0
 10
982.2977959665
 20
702.222753449
 10
983.1889152082
 20
702.6195117669
 10
984.0457915815
 20
703.0010112958
 10
984.8354935202
 20
703.3526190953
 10
985.5276822599
 20
703.66079001
 10
986.095744327
 20
703.9137074189
 10
986.5178346189
 20
704.1016408639
 10
986.6222321543
 20
704.1481175857
  0
LINE
  5
1B8
330
1F
100
AcDbEntity
  8
0
  6
Continuous
 62
     7
370
    15
100
AcDbLine
 10
987.0787441286
 20
703.7776002126
 30
0.0
 11
987.1909200701
 21
703.5256066756
 31
0.0
  0
LWPOLYLINE
  5
1B9
330
1F
100
AcDbEntity
  8
0
  6
Continuous
 62
     7
370
    15
100
AcDbPolyline
 90
        9
 70
   128
 43
0.0
 10
982.6232075247
 20
701.4919259982
 10
983.5143267664
 20
701.888669415
 10
984.3712031397
 20
702.270183845
 10
985.1609050783
 20
702.6217767434
 10
985.8530640158
 20
702.9299625592
 10
986.4211260828
 20
703.182865067
 10
986.8432163748
 20
703.370798512
 10
987.1031522306
 20
703.486535831
 10
987.1909200701
 20
703.5256066756
  0
LINE
  5
1BA
330
1F
100
AcDbEntity
  8
0
  6
Continuous
 62
     7
370
    15
100
AcDbLine
 10
974.5159327539
 20
697.8823432164
 30
0.0
 11
974.1905509981
 21
698.6131855683
 31
0.0
  0
LINE
  5
1BB
330
1F
100
AcDbEntity
  8
0
  6
Continuous
 62
     7
370
    15
100
AcDbLine
 10
974.1905509981
 20
698.6131855683
 30
0.0
 11
982.2977959665
 21
702.222753449
 31
0.0
  0
LINE
  5
1BC
330
1F
100
AcDbEntity
  8
0
  6
Continuous
 62
     7
370
    15
100
AcDbLine
 10
974.5159327539
 20
697.8823432164
 30
0.0
 11
982.6232075247
 21
701.4919259982
 31
0.0
  0
ARC
  5
1BD
330
1F
100
AcDbEntity
  8
0
  6
Continuous
 62
     7
370
    15
100
AcDbCircle
 10
975.0243661149
 20
696.7404101037
 30
0.0
 40
2.050000000000104
100
AcDbArc
 50
114.0
 51
145.9172376573
  0
ARC
  5
1BE
330
1F
100
AcDbEntity
  8
0
  6
Continuous
 62
     7
370
    15
100
AcDbCircle
 10
975.0243661149
 20
696.7404101037
 30
0.0
 40
1.250000000000005
100
AcDbArc
 50
114.0
 51
198.0
  0
LINE
  5
1BF
330
1F
100
AcDbEntity
  8
0
  6
Continuous
 62
     7
370
    15
100
AcDbLine
 10
974.0612089189
 20
698.5500642495
 30
0.0
 11
974.1827427896
 21
698.7885871367
 31
0.0
  0
LINE
  5
1C0
330
1F
100
AcDbEntity
  8
0
  6
Continuous
 62
     7
370
    15
100
AcDbLine
 10
248.2587277445
 20
712.7809414105
 30
0.0
 11
248.2587277445
 21
714.8264685111
 31
0.0
  0
LINE
  5
1C1
330
1F
100
AcDbEntity
  8
0
  6
Continuous
 62
     7
370
    15
100
AcDbLine
 10
951.1587500128
 20
712.7809414105
 30
0.0
 11
951.1587500128
 21
714.8264685111
 31
0.0
  0
LINE
  5
1C2
330
1F
100
AcDbEntity
  8
0
  6
Continuous
 62
     7
370
    15
100
AcDbLine
 10
951.1587500128
 20
712.7809414105
 30
0.0
 11
248.2587277445
 21
712.7809414105
 31
0.0
  0
LINE
  5
1C3
330
1F
100
AcDbEntity
  8
0
  6
Continuous
 62
     7
370
    15
100
AcDbLine
 10
951.1587500128
 20
712.7809414105
 30
0.0
 11
951.6666709932
 21
712.7809414105
 31
0.0
  0
LINE
  5
1C4
330
1F
100
AcDbEntity
  8
0
  6
Continuous
 62
     7
370
    15
100
AcDbLine
 10
953.2087325605
 20
706.8219968514
 30
0.0
 11
953.2087325605
 21
706.4220049815
 31
0.0
  0
LINE
  5
1C5
330
1F
100
AcDbEntity
  8
0
  6
Continuous
 62
     7
370
    15
100
AcDbLine
 10
953.2087325605
 20
698.4220036702
 30
0.0
 11
953.2087325605
 21
697.3186173873
 31
0.0
  0
LINE
  5
1C6
330
1F
100
AcDbEntity
  8
0
  6
Continuous
 62
     7
370
    15
100
AcDbLine
 10
953.2087325605
 20
578.6309392588
 30
0.0
 11
953.2087325605
 21
577.6309372323
 31
0.0
  0
LINE
  5
1C7
330
1F
100
AcDbEntity
  8
0
  6
Continuous
 62
     7
370
    15
100
AcDbLine
 10
953.2087325605
 20
576.8309385912
 30
0.0
 11
953.2087325605
 21
453.8809397655
 31
0.0
  0
LINE
  5
1C8
330
1F
100
AcDbEntity
  8
0
  6
Continuous
 62
     7
370
    15
100
AcDbLine
 10
953.2087325605
 20
453.8809397655
 30
0.0
 11
951.1587500128
 21
453.8809397655
 31
0.0
  0
LINE
  5
1C9
330
1F
100
AcDbEntity
  8
0
  6
Continuous
 62
     7
370
    15
100
AcDbLine
 10
951.1587500128
 20
453.8809397655
 30
0.0
 11
951.1587500128
 21
712.7809414105
 31
0.0
  0
LINE
  5
1CA
330
1F
100
AcDbEntity
  8
0
  6
Continuous
 62
     7
370
    15
100
AcDbLine
 10
248.2587277445
 20
453.8809397655
 30
0.0
 11
951.1587500128
 21
453.8809397655
 31
0.0
  0
LINE
  5
1CB
330
1F
100
AcDbEntity
  8
0
  6
Continuous
 62
     7
370
    15
100
AcDbLine
 10
248.2587277445
 20
712.7809414105
 30
0.0
 11
248.2587277445
 21
453.8809397655
 31
0.0
  0
LINE
  5
1CC
330
1F
100
AcDbEntity
  8
0
  6
Continuous
 62
     7
370
    15
100
AcDbLine
 10
248.2587277445
 20
451.830934866
 30
0.0
 11
248.2587277445
 21
453.8809397655
 31
0.0
  0
LINE
  5
1CD
330
1F
100
AcDbEntity
  8
0
  6
Continuous
 62
     7
370
    15
100
AcDbLine
 10
951.1587500128
 20
451.830934866
 30
0.0
 11
951.1587500128
 21
453.8809397655
 31
0.0
  0
LINE
  5
1CE
330
1F
100
AcDbEntity
  8
0
  6
Continuous
 62
     7
370
    15
100
AcDbLine
 10
248.2587277445
 20
451.830934866
 30
0.0
 11
951.1587500128
 21
451.830934866
 31
0.0
  0
LINE
  5
1CF
330
1F
100
AcDbEntity
  8
0
  6
Continuous
 62
     7
370
    15
100
AcDbLine
 10
246.2087451967
 20
453.8809397655
 30
0.0
 11
246.2087451967
 21
712.7809414105
 31
0.0
  0
LINE
  5
1D0
330
1F
100
AcDbEntity
  8
0
  6
Continuous
 62
     7
370
    15
100
AcDbLine
 10
248.2587277445
 20
712.7809414105
 30
0.0
 11
246.2087451967
 21
712.7809414105
 31
0.0
  0
LINE
  5
1D1
330
1F
100
AcDbEntity
  8
0
  6
Continuous
 62
     7
370
    15
100
AcDbLine
 10
246.2087451967
 20
453.8809397655
 30
0.0
 11
248.2587277445
 21
453.8809397655
 31
0.0
  0
LINE
  5
1D2
330
1F
100
AcDbEntity
  8
0
  6
Continuous
 62
     7
370
    15
100
AcDbLine
 10
951.1587500128
 20
714.0309402185
 30
0.0
 11
951.6666709932
 21
714.0309402185
 31
0.0
  0
LINE
  5
1D3
330
1F
100
AcDbEntity
  8
0
  6
Continuous
 62
     7
370
    15
100
AcDbLine
 10
951.2666642221
 20
714.8309388595
 30
0.0
 11
951.6666709932
 21
714.8309388595
 31
0.0
  0
LINE
  5
1D4
330
1F
100
AcDbEntity
  8
0
  6
Continuous
 62
     7
370
    15
100
AcDbLine
 10
952.4087488207
 20
451.830934866
 30
0.0
 11
951.1587500128
 21
451.830934866
 31
0.0
  0
LINE
  5
1D5
330
1F
100
AcDbEntity
  8
0
  6
Continuous
 62
     7
370
    15
100
AcDbLine
 10
952.4087488207
 20
452.6309409575
 30
0.0
 11
951.1587500128
 21
452.6309409575
 31
0.0
  0
LINE
  5
1D6
330
1F
100
AcDbEntity
  8
0
  6
Continuous
 62
     7
370
    15
100
AcDbLine
 10
952.4087488207
 20
452.6309409575
 30
0.0
 11
952.4087488207
 21
451.830934866
 31
0.0
  0
LINE
  5
1D7
330
1F
100
AcDbEntity
  8
0
  6
Continuous
 62
     7
370
    15
100
AcDbLine
 10
247.0087289366
 20
452.6309409575
 30
0.0
 11
247.0087289366
 21
453.8809397655
 31
0.0
  0
LINE
  5
1D8
330
1F
100
AcDbEntity
  8
0
  6
Continuous
 62
     7
370
    15
100
AcDbLine
 10
247.0087289366
 20
452.6309409575
 30
0.0
 11
246.2087451967
 21
452.6309409575
 31
0.0
  0
LINE
  5
1D9
330
1F
100
AcDbEntity
  8
0
  6
Continuous
 62
     7
370
    15
100
AcDbLine
 10
246.2087451967
 20
452.6309409575
 30
0.0
 11
246.2087451967
 21
453.8809397655
 31
0.0
  0
LINE
  5
1DA
330
1F
100
AcDbEntity
  8
0
  6
Continuous
 62
     7
370
    15
100
AcDbLine
 10
247.0087289366
 20
714.0309402185
 30
0.0
 11
246.2087451967
 21
714.0309402185
 31
0.0
  0
LINE
  5
1DB
330
1F
100
AcDbEntity
  8
0
  6
Continuous
 62
     7
370
    15
100
AcDbLine
 10
247.0087289366
 20
712.7809414105
 30
0.0
 11
247.0087289366
 21
714.0309402185
 31
0.0
  0
LINE
  5
1DC
330
1F
100
AcDbEntity
  8
0
  6
Continuous
 62
     7
370
    15
100
AcDbLine
 10
246.2087451967
 20
712.7809414105
 30
0.0
 11
246.2087451967
 21
714.0309402185
 31
0.0
  0
LINE
  5
1DD
330
1F
100
AcDbEntity
  8
0
  6
Continuous
 62
     7
370
    15
100
AcDbLine
 10
245.6281959566
 20
801.2104073005
 30
0.0
 11
245.6281959566
 21
802.2874632316
 31
0.0
  0
LINE
  5
1DE
330
1F
100
AcDbEntity
  8
0
  6
Continuous
 62
     7
370
    15
100
AcDbLine
 10
245.6281959566
 20
802.2874632316
 30
0.0
 11
278.7992536577
 21
793.3993080096
 31
0.0
  0
ARC
  5
1DF
330
1F
100
AcDbEntity
  8
0
  6
Continuous
 62
     7
370
    15
100
AcDbCircle
 10
272.354658805
 20
769.3477627751
 30
0.0
 40
24.90000000000003
100
AcDbArc
 50
0.0
 51
75.0
  0
LINE
  5
1E0
330
1F
100
AcDbEntity
  8
0
  6
Continuous
 62
     7
370
    15
100
AcDbLine
 10
297.2546696218
 20
769.3477609592
 30
0.0
 11
297.2546696218
 21
752.4117567973
 31
0.0
  0
LINE
  5
1E1
330
1F
100
AcDbEntity
  8
0
  6
Continuous
 62
     7
370
    15
100
AcDbLine
 10
297.2546696218
 20
752.4117567973
 30
0.0
 11
245.2046453508
 21
752.4117567973
 31
0.0
  0
LINE
  5
1E2
330
1F
100
AcDbEntity
  8
0
  6
Continuous
 62
     7
370
    15
100
AcDbLine
 10
245.2046453508
 20
801.2104073005
 30
0.0
 11
245.2046453508
 21
752.4117567973
 31
0.0
  0
LINE
  5
1E3
330
1F
100
AcDbEntity
  8
0
  6
Continuous
 62
     7
370
    15
100
AcDbLine
 10
245.2046453508
 20
801.2104073005
 30
0.0
 11
245.6281959566
 21
801.2104073005
 31
0.0
  0
LINE
  5
1E4
330
1F
100
AcDbEntity
  8
0
  6
Continuous
 62
     7
370
    15
100
AcDbLine
 10
243.1546628031
 20
752.4117567973
 30
0.0
 11
243.1546628031
 21
801.2104073005
 31
0.0
  0
LINE
  5
1E5
330
1F
100
AcDbEntity
  8
0
  6
Continuous
 62
     7
370
    15
100
AcDbLine
 10
243.5798525366
 20
801.2104073005
 30
0.0
 11
245.2046453508
 21
801.2104073005
 31
0.0
  0
LINE
  5
1E6
330
1F
100
AcDbEntity
  8
0
  6
Continuous
 62
     7
370
    15
100
AcDbLine
 10
245.2046453508
 20
752.4117567973
 30
0.0
 11
243.1546628031
 21
752.4117567973
 31
0.0
  0
LINE
  5
1E7
330
1F
100
AcDbEntity
  8
0
  6
Continuous
 62
     7
370
    15
100
AcDbLine
 10
297.3546564135
 20
752.4309345918
 30
0.0
 11
298.1546699556
 21
752.4309345918
 31
0.0
  0
LINE
  5
1E8
330
1F
100
AcDbEntity
  8
0
  6
Continuous
 62
     7
370
    15
100
AcDbLine
 10
297.3546564135
 20
769.3477609592
 30
0.0
 11
297.3546564135
 21
752.4309345918
 31
0.0
  0
LINE
  5
1E9
330
1F
100
AcDbEntity
  8
0
  6
Continuous
 62
     7
370
    15
100
AcDbLine
 10
298.1546699556
 20
769.3477609592
 30
0.0
 11
297.3546564135
 21
769.3477609592
 31
0.0
  0
LINE
  5
1EA
330
1F
100
AcDbEntity
  8
0
  6
Continuous
 62
     7
370
    15
100
AcDbLine
 10
298.1546699556
 20
769.3477609592
 30
0.0
 11
298.1546699556
 21
752.4309345918
 31
0.0
  0
ARC
  5
1EB
330
1F
100
AcDbEntity
  8
0
  6
Continuous
 62
     7
370
    15
100
AcDbCircle
 10
272.354658805
 20
769.3477627751
 30
0.0
 40
25.80000000000001
100
AcDbArc
 50
0.0
 51
75.0
  0
ARC
  5
1EC
330
1F
100
AcDbEntity
  8
0
  6
Continuous
 62
     7
370
    15
100
AcDbCircle
 10
272.354658805
 20
769.3477627751
 30
0.0
 40
25.0
100
AcDbArc
 50
0.0
 51
75.0
  0
LINE
  5
1ED
330
1F
100
AcDbEntity
  8
0
  6
Continuous
 62
     7
370
    15
100
AcDbLine
 10
278.8251220735
 20
793.4958973365
 30
0.0
 11
279.0321886095
 21
794.2686417537
 31
0.0
  0
LINE
  5
1EE
330
1F
100
AcDbEntity
  8
0
  6
Continuous
 62
     7
370
    15
100
AcDbLine
 10
243.9546465429
 20
752.0117649274
 30
0.0
 11
243.1546628031
 21
752.0117649274
 31
0.0
  0
LINE
  5
1EF
330
1F
100
AcDbEntity
  8
0
  6
Continuous
 62
     7
370
    15
100
AcDbLine
 10
243.9546465429
 20
724.1394260364
 30
0.0
 11
243.9546465429
 21
752.0117649274
 31
0.0
  0
LINE
  5
1F0
330
1F
100
AcDbEntity
  8
0
  6
Continuous
 62
     7
370
    15
100
AcDbLine
 10
243.1546628031
 20
724.1394260364
 30
0.0
 11
243.9546465429
 21
724.1394260364
 31
0.0
  0
LINE
  5
1F1
330
1F
100
AcDbEntity
  8
0
  6
Continuous
 62
     7
370
    15
100
AcDbLine
 10
243.1546628031
 20
724.1394260364
 30
0.0
 11
243.1546628031
 21
752.0117649274
 31
0.0
  0
ARC
  5
1F2
330
1F
100
AcDbEntity
  8
0
  6
Continuous
 62
     7
370
    15
100
AcDbCircle
 10
245.204658805
 20
801.2103926343
 30
0.0
 40
2.050000000000127
100
AcDbArc
 50
75.0
 51
180.0
  0
LINE
  5
1F3
330
1F
100
AcDbEntity
  8
0
  6
Continuous
 62
     7
370
    15
100
AcDbLine
 10
245.7352458986
 20
803.1905332046
 30
0.0
 11
245.5281793627
 21
802.4177887874
 31
0.0
  0
ARC
  5
1F4
330
1F
100
AcDbEntity
  8
0
  6
Continuous
 62
     7
370
    15
100
AcDbCircle
 10
245.204658805
 20
801.2103926343
 30
0.0
 40
1.249999999999936
100
AcDbArc
 50
75.0
 51
180.0
  0
LINE
  5
1F5
330
1F
100
AcDbEntity
  8
0
  6
Continuous
 62
     7
370
    15
100
AcDbLine
 10
243.5798525366
 20
801.2104073005
 30
0.0
 11
243.1546628031
 21
801.2104073005
 31
0.0
  0
LINE
  5
1F6
330
1F
100
AcDbEntity
  8
0
  6
Continuous
 62
     7
370
    15
100
AcDbLine
 10
243.9546465429
 20
719.1394308047
 30
0.0
 11
243.1546628031
 21
719.1394308047
 31
0.0
  0
LINE
  5
1F7
330
1F
100
AcDbEntity
  8
0
  6
Continuous
 62
     7
370
    15
100
AcDbLine
 10
243.1546628031
 20
719.1394308047
 30
0.0
 11
243.1546628031
 21
724.1394260364
 31
0.0
  0
LINE
  5
1F8
330
1F
100
AcDbEntity
  8
0
  6
Continuous
 62
     7
370
    15
100
AcDbLine
 10
243.9546465429
 20
724.1394260364
 30
0.0
 11
243.9546465429
 21
719.1394308047
 31
0.0
  0
LINE
  5
1F9
330
1F
100
AcDbEntity
  8
0
  6
Continuous
 62
     7
370
    15
100
AcDbLine
 10
245.7352458986
 20
803.1905332046
 30
0.0
 11
279.0321886095
 21
794.2686417537
 31
0.0
  0
LINE
  5
1FA
330
1F
100
AcDbEntity
  8
0
  6
Continuous
 62
     7
370
    15
100
AcDbLine
 10
245.5281793627
 20
802.4177887874
 30
0.0
 11
278.8251220735
 21
793.4958973365
 31
0.0
  0
LINE
  5
1FB
330
1F
100
AcDbEntity
  8
0
  6
Continuous
 62
     7
370
    15
100
AcDbLine
 10
243.1546628031
 20
752.4117567973
 30
0.0
 11
243.1546628031
 21
752.0117649274
 31
0.0
  0
LINE
  5
1FC
330
1F
100
AcDbEntity
  8
0
  6
Continuous
 62
     7
370
    15
100
AcDbLine
 10
243.9546465429
 20
752.0117649274
 30
0.0
 11
243.9546465429
 21
752.4117567973
 31
0.0
  0
LINE
  5
1FD
330
1F
100
AcDbEntity
  8
0
  6
Continuous
 62
     7
370
    15
100
AcDbLine
 10
984.9497556242
 20
703.479144855
 30
0.0
 11
984.9465071711
 21
703.4777292447
 31
0.0
  0
LINE
  5
1FE
330
1F
100
AcDbEntity
  8
0
  6
Continuous
 62
     7
370
    15
100
AcDbLine
 10
244.1752135309
 20
751.5512892442
 30
0.0
 11
244.1752135309
 21
751.5602299409
 31
0.0
  0
LINE
  5
1FF
330
1F
100
AcDbEntity
  8
0
  6
Continuous
 62
     7
370
    15
100
AcDbLine
 10
309.3752145323
 20
752.4220087962
 30
0.0
 11
309.3752145323
 21
752.4309345918
 31
0.0
  0
LINE
  5
200
330
1F
100
AcDbEntity
  8
0
  6
Continuous
 62
     7
370
    15
100
AcDbLine
 10
307.6046585592
 20
752.4309345918
 30
0.0
 11
309.3752145323
 21
752.4309345918
 31
0.0
  0
LINE
  5
201
330
1F
100
AcDbEntity
  8
0
  6
Continuous
 62
     7
370
    15
100
AcDbLine
 10
245.0459181818
 20
751.6309359508
 30
0.0
 11
245.1902210268
 21
751.6309359508
 31
0.0
  0
LINE
  5
202
330
1F
100
AcDbEntity
  8
0
  6
Continuous
 62
     7
370
    15
100
AcDbLine
 10
309.775191501
 20
752.4220087962
 30
0.0
 11
309.775191501
 21
752.4309345918
 31
0.0
  0
LINE
  5
203
330
1F
100
AcDbEntity
  8
0
  6
Continuous
 62
     7
370
    15
100
AcDbLine
 10
309.775191501
 20
752.4309345918
 30
0.0
 11
965.6878590139
 21
752.4309345918
 31
0.0
  0
LINE
  5
204
330
1F
100
AcDbEntity
  8
0
  6
Continuous
 62
     7
370
    15
100
AcDbLine
 10
309.3752145323
 20
752.4309345918
 30
0.0
 11
309.775191501
 21
752.4309345918
 31
0.0
  0
SPLINE
  5
205
330
1F
100
AcDbEntity
  8
0
  6
Continuous
 62
     7
370
    15
100
AcDbSpline
210
0.0
220
0.0
230
1.0
 70
     8
 71
     3
 72
    13
 73
     9
 74
     0
 42
0.00000001
 43
0.00000001
 12
1.0
 22
0.0
 32
0.0
 13
1.0
 23
0.0
 33
0.0
 40
0.0
 40
0.0
 40
0.0
 40
0.0
 40
0.1204580925554602
 40
0.2374714028127299
 40
0.3532585071691128
 40
0.4701176165575582
 40
0.6853836751897889
 40
1.0
 40
1.0
 40
1.0
 40
1.0
 10
244.9751972707668
 20
751.5602299408947
 30
0.0
 10
244.9814104401215
 20
751.5512561231016
 30
0.0
 10
244.993659098649
 20
751.5335651149281
 30
0.0
 10
245.0858929706971
 20
751.4612159146499
 30
0.0
 10
245.2166846539541
 20
751.355547808543
 30
0.0
 10
245.420939633803
 20
751.1736555823003
 30
0.0
 10
245.750143298331
 20
750.8432286273907
 30
0.0
 10
246.0482161041851
 20
750.5531629218087
 30
0.0
 10
246.2251960786739
 20
750.3809371428523
 30
0.0
  0
LINE
  5
206
330
1F
100
AcDbEntity
  8
0
  6
Continuous
 62
     7
370
    15
100
AcDbLine
 10
983.9761137518
 20
705.7184317546
 30
0.0
 11
984.1323375257
 21
705.3591200547
 31
0.0
  0
LINE
  5
207
330
1F
100
AcDbEntity
  8
0
  6
Continuous
 62
     7
370
    15
100
AcDbLine
 10
970.3118979486
 20
699.7770705657
 30
0.0
 11
970.5982088598
 21
699.1186180549
 31
0.0
  0
ARC
  5
208
330
1F
100
AcDbEntity
  8
0
  6
Continuous
 62
     7
370
    15
100
AcDbCircle
 10
974.47520535
 20
716.8309374746
 30
0.0
 40
2.600000000000021
100
AcDbArc
 50
99.9352544307
 51
180.0985172055
  0
ARC
  5
209
330
1F
100
AcDbEntity
  8
0
  6
Continuous
 62
     7
370
    15
100
AcDbCircle
 10
973.98520535
 20
719.6283469906
 30
0.0
 40
0.2400000000001283
100
AcDbArc
 50
279.9352544307
 51
0.0
  0
ARC
  5
20A
330
1F
100
AcDbEntity
  8
0
  6
Continuous
 62
     7
370
    15
100
AcDbCircle
 10
974.47520535
 20
716.8309374746
 30
0.0
 40
3.100000000000187
100
AcDbArc
 50
197.0228698486
 51
260.1349202027
  0
ARC
  5
20B
330
1F
100
AcDbEntity
  8
0
  6
Continuous
 62
     7
370
    15
100
AcDbCircle
 10
973.98520535
 20
714.013225637
 30
0.0
 40
0.2400000000001228
100
AcDbArc
 50
260.1349202027
 51
0.0
  0
ARC
  5
20C
330
1F
100
AcDbEntity
  8
0
  6
Continuous
 62
     7
370
    15
100
AcDbCircle
 10
974.47520535
 20
716.8309374746
 30
0.0
 40
3.100000000000167
100
AcDbArc
 50
279.8650797973
 51
342.2908016858
  0
ARC
  5
20D
330
1F
100
AcDbEntity
  8
0
  6
Continuous
 62
     7
370
    15
100
AcDbCircle
 10
974.96520535
 20
719.6283469906
 30
0.0
 40
0.2400000000001283
100
AcDbArc
 50
180.0
 51
260.0647455693
  0
ARC
  5
20E
330
1F
100
AcDbEntity
  8
0
  6
Continuous
 62
     7
370
    15
100
AcDbCircle
 10
974.47520535
 20
716.8309374746
 30
0.0
 40
2.60000000000001
100
AcDbArc
 50
359.9014800494
 51
80.0647455693
  0
ARC
  5
20F
330
1F
100
AcDbEntity
  8
0
  6
Continuous
 62
     7
370
    15
100
AcDbCircle
 10
974.96520535
 20
714.013225637
 30
0.0
 40
0.2400000000001228
100
AcDbArc
 50
180.0
 51
279.8650797973
  0
SPLINE
  5
210
330
1F
100
AcDbEntity
  8
0
  6
Continuous
 62
     7
370
    15
100
AcDbSpline
210
0.0
220
0.0
230
1.0
 70
     8
 71
     3
 72
    13
 73
     9
 74
     0
 42
0.00000001
 43
0.00000001
 12
1.0
 22
0.0
 32
0.0
 13
1.0
 23
0.0
 33
0.0
 40
0.0
 40
0.0
 40
0.0
 40
0.0
 40
0.2844475718882076
 40
0.5071403997133387
 40
0.6356244498257269
 40
0.7591110904454609
 40
0.8797954392100542
 40
1.0
 40
1.0
 40
1.0
 40
1.0
 10
246.2251960786739
 20
716.8720105128322
 30
0.0
 10
246.0666816546298
 20
716.7154718081642
 30
0.0
 10
245.7840669434675
 20
716.4363795989075
 30
0.0
 10
245.4524805914726
 20
716.1110031424258
 30
0.0
 10
245.2296146922296
 20
715.9193962284261
 30
0.0
 10
245.08903888589
 20
715.8024666585837
 30
0.0
 10
244.9937664660507
 20
715.7223792961237
 30
0.0
 10
244.9813787781787
 20
715.7025917713692
 30
0.0
 10
244.9751972707668
 20
715.6927177147899
 30
0.0
  0
LINE
  5
211
330
1F
100
AcDbEntity
  8
0
  6
Continuous
 62
     7
370
    15
100
AcDbLine
 10
244.1752135309
 20
715.6927177148
 30
0.0
 11
244.9751972708
 21
715.6927177148
 31
0.0
  0
SPLINE
  5
212
330
1F
100
AcDbEntity
  8
0
  6
Continuous
 62
     7
370
    15
100
AcDbSpline
210
0.0
220
0.0
230
1.0
 70
     8
 71
     3
 72
    13
 73
     9
 74
     0
 42
0.00000001
 43
0.00000001
 12
1.0
 22
0.0
 32
0.0
 13
1.0
 23
0.0
 33
0.0
 40
0.0
 40
0.0
 40
0.0
 40
0.0
 40
0.2631902743983082
 40
0.476763981980013
 40
0.6068831044721924
 40
0.7367623253213869
 40
0.8674574599050869
 40
1.0
 40
1.0
 40
1.0
 40
1.0
 10
246.2251960786739
 20
716.8720105128322
 30
0.0
 10
245.9636248856831
 20
716.7144458384736
 30
0.0
 10
245.4897938376832
 20
716.4290205440233
 30
0.0
 10
244.9456027749138
 20
716.1041600365161
 30
0.0
 10
244.5875252175906
 20
715.9169390011064
 30
0.0
 10
244.3590222857908
 20
715.8010265728589
 30
0.0
 10
244.205001963923
 20
715.721972438488
 30
0.0
 10
244.1851893569636
 20
715.7025148073276
 30
0.0
 10
244.1752135309139
 20
715.6927177147899
 30
0.0
  0
LINE
  5
213
330
1F
100
AcDbEntity
  8
0
  6
Continuous
 62
     7
370
    15
100
AcDbLine
 10
965.2549206766
 20
752.4220087962
 30
0.0
 11
965.2549206766
 21
750.3719964461
 31
0.0
  0
LINE
  5
214
330
1F
100
AcDbEntity
  8
0
  6
Continuous
 62
     7
370
    15
100
AcDbLine
 10
965.2549206766
 20
750.3719964461
 30
0.0
 11
246.2251960787
 21
750.3719964461
 31
0.0
  0
SPLINE
  5
215
330
1F
100
AcDbEntity
  8
0
  6
Continuous
 62
     7
370
    15
100
AcDbSpline
210
0.0
220
0.0
230
1.0
 70
     8
 71
     3
 72
    12
 73
     8
 74
     0
 42
0.00000001
 43
0.00000001
 12
1.0
 22
0.0
 32
0.0
 13
1.0
 23
0.0
 33
0.0
 40
0.0
 40
0.0
 40
0.0
 40
0.0
 40
0.2479443797023803
 40
0.4959708811406771
 40
0.7440005259458133
 40
0.9920195837657979
 40
1.0
 40
1.0
 40
1.0
 40
1.0
 10
246.2251960786739
 20
750.371996446136
 30
0.0
 10
246.1352891675705
 20
750.6173562043191
 30
0.0
 10
245.9554455672673
 20
751.1081569863676
 30
0.0
 10
245.6855435711423
 20
751.7530420209673
 30
0.0
 10
245.4159175924538
 20
752.2106646998024
 30
0.0
 10
245.2325499621452
 20
752.3889714770036
 30
0.0
 10
245.1401429557284
 20
752.4049264310144
 30
0.0
 10
245.1372622999111
 20
752.4054238038098
 30
0.0
  0
LINE
  5
216
330
1F
100
AcDbEntity
  8
0
  6
Continuous
 62
     7
370
    15
100
AcDbLine
 10
297.2546696218
 20
752.4220087962
 30
0.0
 11
965.2549206766
 21
752.4220087962
 31
0.0
  0
LINE
  5
217
330
1F
100
AcDbEntity
  8
0
  6
Continuous
 62
     7
370
    15
100
AcDbLine
 10
952.4666547331
 20
706.8219968514
 30
0.0
 11
952.4666547331
 21
707.022000237
 31
0.0
  0
LINE
  5
218
330
1F
100
AcDbEntity
  8
0
  6
Continuous
 62
     7
370
    15
100
AcDbLine
 10
952.4666547331
 20
707.022000237
 30
0.0
 11
951.6666709932
 21
707.022000237
 31
0.0
  0
LINE
  5
219
330
1F
100
AcDbEntity
  8
0
  6
Continuous
 62
     7
370
    15
100
AcDbLine
 10
951.6666709932
 20
707.022000237
 30
0.0
 11
951.6666709932
 21
717.2720023828
 31
0.0
  0
LINE
  5
21A
330
1F
100
AcDbEntity
  8
0
  6
Continuous
 62
     7
370
    15
100
AcDbLine
 10
951.6666709932
 20
717.2720023828
 30
0.0
 11
951.2666642221
 21
717.2720023828
 31
0.0
  0
LINE
  5
21B
330
1F
100
AcDbEntity
  8
0
  6
Continuous
 62
     7
370
    15
100
AcDbLine
 10
951.2666642221
 20
717.2720023828
 30
0.0
 11
951.2666642221
 21
716.8720105128
 31
0.0
  0
LINE
  5
21C
330
1F
100
AcDbEntity
  8
0
  6
Continuous
 62
     7
370
    15
100
AcDbLine
 10
246.2251960787
 20
716.8720105128
 30
0.0
 11
951.2666642221
 21
716.8720105128
 31
0.0
  0
LINE
  5
21D
330
1F
100
AcDbEntity
  8
0
  6
Continuous
 62
     7
370
    15
100
AcDbLine
 10
246.2251960787
 20
750.3719964461
 30
0.0
 11
246.2251960787
 21
716.8720105128
 31
0.0
  0
LINE
  5
21E
330
1F
100
AcDbEntity
  8
0
  6
Continuous
 62
     7
370
    15
100
AcDbLine
 10
965.2549206766
 20
750.3719964461
 30
0.0
 11
965.2549206766
 21
749.9720045762
 31
0.0
  0
LINE
  5
21F
330
1F
100
AcDbEntity
  8
0
  6
Continuous
 62
     7
370
    15
100
AcDbLine
 10
965.2549206766
 20
749.9720045762
 30
0.0
 11
965.6548976454
 21
749.9720045762
 31
0.0
  0
LINE
  5
220
330
1F
100
AcDbEntity
  8
0
  6
Continuous
 62
     7
370
    15
100
AcDbLine
 10
965.6548976454
 20
749.9720045762
 30
0.0
 11
965.6548976454
 21
750.447232409
 31
0.0
  0
LINE
  5
221
330
1F
100
AcDbEntity
  8
0
  6
Continuous
 62
     7
370
    15
100
AcDbLine
 10
965.6548976454
 20
750.447232409
 30
0.0
 11
965.6549274477
 21
750.447232409
 31
0.0
  0
LINE
  5
222
330
1F
100
AcDbEntity
  8
0
  6
Continuous
 62
     7
370
    15
100
AcDbLine
 10
965.6549274477
 20
750.447232409
 30
0.0
 11
965.6549274477
 21
751.4220067697
 31
0.0
  0
LINE
  5
223
330
1F
100
AcDbEntity
  8
0
  6
Continuous
 62
     7
370
    15
100
AcDbLine
 10
965.6549274477
 20
751.4220067697
 30
0.0
 11
986.9752108606
 21
751.4220067697
 31
0.0
  0
ARC
  5
224
330
1F
100
AcDbEntity
  8
0
  6
Continuous
 62
     7
370
    15
100
AcDbCircle
 10
986.97520535
 20
729.3220035825
 30
0.0
 40
22.10000000000006
100
AcDbArc
 50
293.5
 51
90.0
  0
LINE
  5
225
330
1F
100
AcDbEntity
  8
0
  6
Continuous
 62
     7
370
    15
100
AcDbLine
 10
995.7875489744
 20
709.0549805598
 30
0.0
 11
984.9975883516
 21
704.3633648591
 31
0.0
  0
LINE
  5
226
330
1F
100
AcDbEntity
  8
0
  6
Continuous
 62
     7
370
    15
100
AcDbLine
 10
984.9975883516
 20
704.3633648591
 30
0.0
 11
984.3396424803
 21
705.8765181737
 31
0.0
  0
LINE
  5
227
330
1F
100
AcDbEntity
  8
0
  6
Continuous
 62
     7
370
    15
100
AcDbLine
 10
984.3396424803
 20
705.8765181737
 30
0.0
 11
983.9728354963
 21
705.7170161443
 31
0.0
  0
LINE
  5
228
330
1F
100
AcDbEntity
  8
0
  6
Continuous
 62
     7
370
    15
100
AcDbLine
 10
983.9728354963
 20
705.7170161443
 30
0.0
 11
984.1323375257
 21
705.3501942592
 31
0.0
  0
LINE
  5
229
330
1F
100
AcDbEntity
  8
0
  6
Continuous
 62
     7
370
    15
100
AcDbLine
 10
970.8349585089
 20
699.5683350997
 30
0.0
 11
984.1323375257
 21
705.3501942592
 31
0.0
  0
LINE
  5
22A
330
1F
100
AcDbEntity
  8
0
  6
Continuous
 62
     7
370
    15
100
AcDbLine
 10
970.8349585089
 20
699.5683350997
 30
0.0
 11
970.6754564794
 21
699.9351569848
 31
0.0
  0
LINE
  5
22B
330
1F
100
AcDbEntity
  8
0
  6
Continuous
 62
     7
370
    15
100
AcDbLine
 10
970.6754564794
 20
699.9351569848
 30
0.0
 11
970.3086494955
 21
699.7756549554
 31
0.0
  0
LINE
  5
22C
330
1F
100
AcDbEntity
  8
0
  6
Continuous
 62
     7
370
    15
100
AcDbLine
 10
970.3086494955
 20
699.7756549554
 30
0.0
 11
970.8972155603
 21
698.4220036702
 31
0.0
  0
LINE
  5
22D
330
1F
100
AcDbEntity
  8
0
  6
Continuous
 62
     7
370
    15
100
AcDbLine
 10
970.8972155603
 20
698.4220036702
 30
0.0
 11
952.9666482958
 21
698.4220036702
 31
0.0
  0
LINE
  5
22E
330
1F
100
AcDbEntity
  8
0
  6
Continuous
 62
     7
370
    15
100
AcDbLine
 10
952.9666482958
 20
706.4220049815
 30
0.0
 11
952.9666482958
 21
698.4220036702
 31
0.0
  0
LINE
  5
22F
330
1F
100
AcDbEntity
  8
0
  6
Continuous
 62
     7
370
    15
100
AcDbLine
 10
952.9666482958
 20
706.4220049815
 30
0.0
 11
953.3666550669
 21
706.4220049815
 31
0.0
  0
LINE
  5
230
330
1F
100
AcDbEntity
  8
0
  6
Continuous
 62
     7
370
    15
100
AcDbLine
 10
953.3666550669
 20
706.4220049815
 30
0.0
 11
953.3666550669
 21
706.8219968514
 31
0.0
  0
LINE
  5
231
330
1F
100
AcDbEntity
  8
0
  6
Continuous
 62
     7
370
    15
100
AcDbLine
 10
953.3666550669
 20
706.8219968514
 30
0.0
 11
952.4666547331
 21
706.8219968514
 31
0.0
  0
LINE
  5
232
330
1F
100
AcDbEntity
  8
0
  6
Continuous
 62
     7
370
    15
100
AcDbLine
 10
974.225211099
 20
719.6397223907
 30
0.0
 11
974.225211099
 21
719.6194121079
 31
0.0
  0
ARC
  5
233
330
1F
100
AcDbEntity
  8
0
  6
Continuous
 62
     7
370
    15
100
AcDbCircle
 10
973.98520535
 20
719.6397154201
 30
0.0
 40
0.2400000000001243
100
AcDbArc
 50
0.0
 51
99.8650797973
  0
ARC
  5
234
330
1F
100
AcDbEntity
  8
0
  6
Continuous
 62
     7
370
    15
100
AcDbCircle
 10
974.47520535
 20
716.8220035825
 30
0.0
 40
3.100000000000148
100
AcDbArc
 50
99.8650797973
 51
260.1349202027
  0
ARC
  5
235
330
1F
100
AcDbEntity
  8
0
  6
Continuous
 62
     7
370
    15
100
AcDbCircle
 10
973.98520535
 20
714.0042917448
 30
0.0
 40
0.2400000000001243
100
AcDbArc
 50
260.1349202027
 51
0.0
  0
LINE
  5
236
330
1F
100
AcDbEntity
  8
0
  6
Continuous
 62
     7
370
    15
100
AcDbLine
 10
974.225211099
 20
714.0245923238
 30
0.0
 11
974.225211099
 21
714.0042969422
 31
0.0
  0
ARC
  5
237
330
1F
100
AcDbEntity
  8
0
  6
Continuous
 62
     7
370
    15
100
AcDbCircle
 10
973.98520535
 20
714.0245940665
 30
0.0
 40
0.2400000000001087
100
AcDbArc
 50
0.0
 51
80.0647455693
  0
ARC
  5
238
330
1F
100
AcDbEntity
  8
0
  6
Continuous
 62
     7
370
    15
100
AcDbCircle
 10
974.47520535
 20
716.8220035825
 30
0.0
 40
2.600000000000001
100
AcDbArc
 50
99.9352544307
 51
260.0647455693
  0
ARC
  5
239
330
1F
100
AcDbEntity
  8
0
  6
Continuous
 62
     7
370
    15
100
AcDbCircle
 10
973.98520535
 20
719.6194130984
 30
0.0
 40
0.2400000000000091
100
AcDbArc
 50
279.9352544307
 51
0.0
  0
ARC
  5
23A
330
1F
100
AcDbEntity
  8
0
  6
Continuous
 62
     7
370
    15
100
AcDbCircle
 10
974.47520535
 20
716.8220035825
 30
0.0
 40
3.100000000000187
100
AcDbArc
 50
279.8650797973
 51
80.1349202027
  0
ARC
  5
23B
330
1F
100
AcDbEntity
  8
0
  6
Continuous
 62
     7
370
    15
100
AcDbCircle
 10
974.96520535
 20
719.6397154201
 30
0.0
 40
0.2400000000001243
100
AcDbArc
 50
80.1349202027
 51
180.0
  0
LINE
  5
23C
330
1F
100
AcDbEntity
  8
0
  6
Continuous
 62
     7
370
    15
100
AcDbLine
 10
974.7252046617
 20
719.6194121079
 30
0.0
 11
974.7252046617
 21
719.6397223907
 31
0.0
  0
ARC
  5
23D
330
1F
100
AcDbEntity
  8
0
  6
Continuous
 62
     7
370
    15
100
AcDbCircle
 10
974.96520535
 20
719.6194130984
 30
0.0
 40
0.2400000000001228
100
AcDbArc
 50
180.0
 51
260.0647455692
  0
ARC
  5
23E
330
1F
100
AcDbEntity
  8
0
  6
Continuous
 62
     7
370
    15
100
AcDbCircle
 10
974.47520535
 20
716.8220035825
 30
0.0
 40
2.600000000000001
100
AcDbArc
 50
279.9352544307
 51
80.0647455693
  0
ARC
  5
23F
330
1F
100
AcDbEntity
  8
0
  6
Continuous
 62
     7
370
    15
100
AcDbCircle
 10
974.96520535
 20
714.0245940665
 30
0.0
 40
0.2400000000001479
100
AcDbArc
 50
99.9352544308
 51
180.0
  0
LINE
  5
240
330
1F
100
AcDbEntity
  8
0
  6
Continuous
 62
     7
370
    15
100
AcDbLine
 10
974.7252046617
 20
714.0042969422
 30
0.0
 11
974.7252046617
 21
714.0245923238
 31
0.0
  0
ARC
  5
241
330
1F
100
AcDbEntity
  8
0
  6
Continuous
 62
     7
370
    15
100
AcDbCircle
 10
974.96520535
 20
714.0042917448
 30
0.0
 40
0.2400000000001243
100
AcDbArc
 50
180.0
 51
279.8650797973
  0
SPLINE
  5
242
330
1F
100
AcDbEntity
  8
0
  6
Continuous
 62
     7
370
    15
100
AcDbSpline
210
0.0
220
0.0
230
1.0
 70
     8
 71
     3
 72
    13
 73
     9
 74
     0
 42
0.00000001
 43
0.00000001
 12
1.0
 22
0.0
 32
0.0
 13
1.0
 23
0.0
 33
0.0
 40
0.0
 40
0.0
 40
0.0
 40
0.0
 40
0.1408100493218165
 40
0.2698808231849353
 40
0.3884813041218451
 40
0.4982122541959196
 40
0.7058416467333879
 40
1.0
 40
1.0
 40
1.0
 40
1.0
 10
244.9751972707667
 20
751.5512892441784
 30
0.0
 10
244.9833925194094
 20
751.530974165579
 30
0.0
 10
244.9990997822118
 20
751.4920376680642
 30
0.0
 10
245.1113838135818
 20
751.4035243527995
 30
0.0
 10
245.2561407931796
 20
751.2957603644762
 30
0.0
 10
245.4661572133927
 20
751.1228371933134
 30
0.0
 10
245.78407754091
 20
750.8108713083694
 30
0.0
 10
246.0621715939563
 20
750.5341917341278
 30
0.0
 10
246.2251960786739
 20
750.371996446136
 30
0.0
  0
LWPOLYLINE
  5
243
330
1F
100
AcDbEntity
  8
0
  6
Continuous
 62
     7
370
    15
100
AcDbPolyline
 90
        2
 70
   128
 43
0.0
 10
246.2251960787
 20
750.3719964461
 10
246.2251960787
 20
750.3719964461
  0
SPLINE
  5
244
330
1F
100
AcDbEntity
  8
0
  6
Continuous
 62
     7
370
    15
100
AcDbSpline
210
0.0
220
0.0
230
1.0
 70
     8
 71
     3
 72
    13
 73
     9
 74
     0
 42
0.00000001
 43
0.00000001
 12
1.0
 22
0.0
 32
0.0
 13
1.0
 23
0.0
 33
0.0
 40
0.0
 40
0.0
 40
0.0
 40
0.0
 40
0.1539275738977908
 40
0.29303551763873
 40
0.4178711783514272
 40
0.5291978307421236
 40
0.7284444183756713
 40
0.9999999999999999
 40
0.9999999999999999
 40
0.9999999999999999
 40
0.9999999999999999
 10
244.1752135309139
 20
751.5512892441784
 30
0.0
 10
244.1884664267895
 20
751.5310559530773
 30
0.0
 10
244.2136962742095
 20
751.4925373642295
 30
0.0
 10
244.3961358764348
 20
751.4046104893532
 30
0.0
 10
244.6313667250847
 20
751.2978826403275
 30
0.0
 10
244.9687747554942
 20
751.1290847596441
 30
0.0
 10
245.4892666634698
 20
750.8186948184958
 30
0.0
 10
245.9559919919075
 20
750.5353993824866
 30
0.0
 10
246.2251960786739
 20
750.371996446136
 30
0.0
  0
LINE
  5
245
330
1F
100
AcDbEntity
  8
0
  6
Continuous
 62
     7
370
    15
100
AcDbLine
 10
244.1752135309
 20
751.5512892442
 30
0.0
 11
244.9751972708
 21
751.5512892442
 31
0.0
  0
SPLINE
  5
246
330
1F
100
AcDbEntity
  8
0
  6
Continuous
 62
     7
370
    15
100
AcDbSpline
210
0.0
220
0.0
230
1.0
 70
     8
 71
     3
 72
    11
 73
     7
 74
     0
 42
0.00000001
 43
0.00000001
 12
1.0
 22
0.0
 32
0.0
 13
1.0
 23
0.0
 33
0.0
 40
0.0
 40
0.0
 40
0.0
 40
0.0
 40
0.2506669058153673
 40
0.5014817303639886
 40
0.7523060714322445
 40
1.0
 40
1.0
 40
1.0
 40
1.0
 10
245.0459181817928
 20
715.6219968037639
 30
0.0
 10
245.1444550283848
 20
715.640892555274
 30
0.0
 10
245.3415868682373
 20
715.6786952086916
 30
0.0
 10
245.6373096127223
 20
715.9694386784754
 30
0.0
 10
245.9319210497313
 20
716.3831372197535
 30
0.0
 10
246.1278478387972
 20
716.7097363677218
 30
0.0
 10
246.2251960786738
 20
716.8720105128322
 30
0.0
  0
SPLINE
  5
247
330
1F
100
AcDbEntity
  8
0
  6
Continuous
 62
     7
370
    15
100
AcDbSpline
210
0.0
220
0.0
230
1.0
 70
     8
 71
     3
 72
    12
 73
     8
 74
     0
 42
0.00000001
 43
0.00000001
 12
1.0
 22
0.0
 32
0.0
 13
1.0
 23
0.0
 33
0.0
 40
0.0
 40
0.0
 40
0.0
 40
0.0
 40
0.228671441555132
 40
0.4574161034324977
 40
0.6861580639370317
 40
0.9149005194596991
 40
1.0
 40
1.0
 40
1.0
 40
1.0
 10
245.0459181817928
 20
714.8219981627498
 30
0.0
 10
245.1358425297109
 20
714.8477355347848
 30
0.0
 10
245.3157200192159
 20
714.8992185199304
 30
0.0
 10
245.5855350536248
 20
715.2988228568344
 30
0.0
 10
245.8552755043154
 20
715.8802064805772
 30
0.0
 10
246.0690446250556
 20
716.4457088126187
 30
0.0
 10
246.191886908366
 20
716.7810747219321
 30
0.0
 10
246.2251960786739
 20
716.8720105128322
 30
0.0
  0
LINE
  5
248
330
1F
100
AcDbEntity
  8
0
  6
Continuous
 62
     7
370
    15
100
AcDbLine
 10
245.0459181818
 20
715.6219968038
 30
0.0
 11
245.0459181818
 21
714.8219981627
 31
0.0
  0
LINE
  5
249
330
1F
100
AcDbEntity
  8
0
  6
Continuous
 62
     7
370
    15
100
AcDbLine
 10
951.2666642221
 20
714.8219981627
 30
0.0
 11
951.1587500128
 21
714.8219981627
 31
0.0
  0
LINE
  5
24A
330
1F
100
AcDbEntity
  8
0
  6
Continuous
 62
     7
370
    15
100
AcDbLine
 10
248.2587277445
 20
714.8219981627
 30
0.0
 11
245.0459181818
 21
714.8219981627
 31
0.0
  0
LINE
  5
24B
330
1F
100
AcDbEntity
  8
0
  6
Continuous
 62
     7
370
    15
100
AcDbLine
 10
951.2666642221
 20
716.8720105128
 30
0.0
 11
951.2666642221
 21
714.8219981627
 31
0.0
  0
LINE
  5
24C
330
1F
100
AcDbEntity
  8
0
  6
Continuous
 62
     7
370
    15
100
AcDbLine
 10
244.1752135309
 20
751.5512892442
 30
0.0
 11
244.1752135309
 21
715.6927177148
 31
0.0
  0
SPLINE
  5
24D
330
1F
100
AcDbEntity
  8
0
  6
Continuous
 62
     7
370
    15
100
AcDbSpline
210
0.0
220
0.0
230
1.0
 70
     8
 71
     3
 72
    11
 73
     7
 74
     0
 42
0.00000001
 43
0.00000001
 12
1.0
 22
0.0
 32
0.0
 13
1.0
 23
0.0
 33
0.0
 40
0.0
 40
0.0
 40
0.0
 40
0.0
 40
0.2506728969523398
 40
0.5014882269657672
 40
0.7523099797114994
 40
1.0
 40
1.0
 40
1.0
 40
1.0
 10
246.2251960786739
 20
750.371996446136
 30
0.0
 10
246.1266597323877
 20
750.5362392143327
 30
0.0
 10
245.9295310511802
 20
750.8648180739391
 30
0.0
 10
245.6338063281313
 20
751.2788777208988
 30
0.0
 10
245.3391940325406
 20
751.5664174159504
 30
0.0
 10
245.1432665158116
 20
751.6035570144629
 30
0.0
 10
245.0459181817927
 20
751.6220101552043
 30
0.0
  0
LINE
  5
24E
330
1F
100
AcDbEntity
  8
0
  6
Continuous
 62
     7
370
    15
100
AcDbLine
 10
245.0459181818
 20
751.6220101552
 30
0.0
 11
245.0459181818
 21
752.4220087962
 31
0.0
  0
LINE
  5
24F
330
1F
100
AcDbEntity
  8
0
  6
Continuous
 62
     7
370
    15
100
AcDbLine
 10
952.9666482958
 20
698.4220036702
 30
0.0
 11
952.1744131597
 21
698.4220036702
 31
0.0
  0
LINE
  5
250
330
1F
100
AcDbEntity
  8
0
  6
Continuous
 62
     7
370
    15
100
AcDbLine
 10
952.1744131597
 20
706.4220049815
 30
0.0
 11
952.9666482958
 21
706.4220049815
 31
0.0
  0
LWPOLYLINE
  5
251
330
1F
100
AcDbEntity
  8
0
  6
Continuous
 62
     7
370
    15
100
AcDbPolyline
 90
        9
 70
   128
 43
0.0
 10
984.1323375257
 20
705.3501942592
 10
984.2918097528
 20
704.9834319787
 10
984.4451427015
 20
704.6307512956
 10
984.5864653143
 20
704.3057271676
 10
984.7103535685
 20
704.0208467679
 10
984.8120092901
 20
703.7870475488
 10
984.8875581774
 20
703.6133149104
 10
984.9340498003
 20
703.5063394742
 10
984.9497556242
 20
703.4702190595
  0
LINE
  5
252
330
1F
100
AcDbEntity
  8
0
  6
Continuous
 62
     7
370
    15
100
AcDbLine
 10
973.0799972567
 20
698.3090975719
 30
0.0
 11
984.9497556242
 21
703.4702190595
 31
0.0
  0
LWPOLYLINE
  5
253
330
1F
100
AcDbEntity
  8
0
  6
Continuous
 62
     7
370
    15
100
AcDbPolyline
 90
        3
 70
   128
 43
0.0
 10
971.0304915461
 20
699.1186180549
 10
970.994430736
 20
699.2015579181
 10
970.8349585089
 20
699.5683350997
  0
LINE
  5
254
330
1F
100
AcDbEntity
  8
0
  6
Continuous
 62
     7
370
    15
100
AcDbLine
 10
965.2549206766
 20
751.6220101552
 30
0.0
 11
965.6878590139
 21
751.6220101552
 31
0.0
  0
LINE
  5
255
330
1F
100
AcDbEntity
  8
0
  6
Continuous
 62
     7
370
    15
100
AcDbLine
 10
965.2549206766
 20
752.4220087962
 30
0.0
 11
965.6878590139
 21
752.4220087962
 31
0.0
  0
LINE
  5
256
330
1F
100
AcDbEntity
  8
0
  6
Continuous
 62
     7
370
    15
100
AcDbLine
 10
965.6878590139
 20
751.4220067697
 30
0.0
 11
965.6878590139
 21
752.4309345918
 31
0.0
  0
LINE
  5
257
330
1F
100
AcDbEntity
  8
0
  6
Continuous
 62
     7
370
    15
100
AcDbLine
 10
986.9546472582
 20
752.4309345918
 30
0.0
 11
965.6878590139
 21
752.4309345918
 31
0.0
  0
LINE
  5
258
330
1F
100
AcDbEntity
  8
0
  6
Continuous
 62
     7
370
    15
100
AcDbLine
 10
996.2455212625
 20
707.7634373145
 30
0.0
 11
995.7670151743
 21
708.8639029698
 31
0.0
  0
LINE
  5
259
330
1F
100
AcDbEntity
  8
0
  6
Continuous
 62
     7
370
    15
100
AcDbLine
 10
986.8303119692
 20
703.6695965962
 30
0.0
 11
996.2455212625
 21
707.7634373145
 31
0.0
  0
LINE
  5
25A
330
1F
100
AcDbEntity
  8
0
  6
Continuous
 62
     7
370
    15
100
AcDbLine
 10
986.3518058809
 20
704.7700622516
 30
0.0
 11
995.7670151743
 21
708.8639029698
 31
0.0
  0
LINE
  5
25B
330
1F
100
AcDbEntity
  8
0
  6
Continuous
 62
     7
370
    15
100
AcDbLine
 10
986.8303119692
 20
703.6695965962
 30
0.0
 11
986.3518058809
 21
704.7700622516
 31
0.0
  0
ARC
  5
25C
330
1F
100
AcDbEntity
  8
0
  6
Continuous
 62
     7
370
    15
100
AcDbCircle
 10
986.954658805
 20
729.1309374746
 30
0.0
 40
23.30000000000018
100
AcDbArc
 50
293.5
 51
90.0
  0
ARC
  5
25D
330
1F
100
AcDbEntity
  8
0
  6
Continuous
 62
     7
370
    15
100
AcDbCircle
 10
986.954658805
 20
729.1309374746
 30
0.0
 40
22.09999999999994
100
AcDbArc
 50
293.5
 51
354.3950486522
  0
LINE
  5
25E
330
1F
100
AcDbEntity
  8
0
  6
Continuous
 62
     7
370
    15
100
AcDbLine
 10
951.1878370794
 20
712.7809414105
 30
0.0
 11
951.1878370794
 21
714.0309402185
 31
0.0
  0
LINE
  5
25F
330
1F
100
AcDbEntity
  8
0
  6
Continuous
 62
     7
370
    15
100
AcDbLine
 10
307.7958404573
 20
752.4220087962
 30
0.0
 11
307.6046585592
 21
752.4309345918
 31
0.0
  0
LINE
  5
260
330
1F
100
AcDbEntity
  8
0
  6
Continuous
 62
     7
370
    15
100
AcDbLine
 10
297.3546564135
 20
763.6309304671
 30
0.0
 11
297.2546696218
 21
763.6309304671
 31
0.0
  0
LWPOLYLINE
  5
261
330
1F
100
AcDbEntity
  8
0
  6
Continuous
 62
     7
370
    15
100
AcDbPolyline
 90
        3
 70
   128
 43
0.0
 10
298.1546699556
 20
752.5147536235
 10
298.3607828173
 20
752.4549552636
 10
298.6046552214
 20
752.4309345918
  0
LINE
  5
262
330
1F
100
AcDbEntity
  8
0
  6
Continuous
 62
     7
370
    15
100
AcDbLine
 10
298.6046552214
 20
752.4309345918
 30
0.0
 11
307.6046585592
 21
752.4309345918
 31
0.0
  0
LINE
  5
263
330
1F
100
AcDbEntity
  8
0
  6
Continuous
 62
     7
370
    15
100
AcDbLine
 10
246.2087451967
 20
519.6309375042
 30
0.0
 11
245.4087316545
 21
519.6309375042
 31
0.0
  0
LINE
  5
264
330
1F
100
AcDbEntity
  8
0
  6
Continuous
 62
     7
370
    15
100
AcDbLine
 10
245.4087316545
 20
522.3309375742
 30
0.0
 11
245.4087316545
 21
519.6309375042
 31
0.0
  0
LINE
  5
265
330
1F
100
AcDbEntity
  8
0
  6
Continuous
 62
     7
370
    15
100
AcDbLine
 10
245.4087316545
 20
694.6309396462
 30
0.0
 11
245.4087316545
 21
675.3309407668
 31
0.0
  0
LINE
  5
266
330
1F
100
AcDbEntity
  8
0
  6
Continuous
 62
     7
370
    15
100
AcDbLine
 10
245.4087316545
 20
595.3309351044
 30
0.0
 11
245.4087316545
 21
550.3309370415
 31
0.0
  0
LINE
  5
267
330
1F
100
AcDbEntity
  8
0
  6
Continuous
 62
     7
370
    15
100
AcDbLine
 10
246.1087286028
 20
699.6309348779
 30
0.0
 11
245.4087316545
 21
699.6309348779
 31
0.0
  0
LINE
  5
268
330
1F
100
AcDbEntity
  8
0
  6
Continuous
 62
     7
370
    15
100
AcDbLine
 10
245.4087316545
 20
699.6309348779
 30
0.0
 11
245.4087316545
 21
694.6309396462
 31
0.0
  0
LINE
  5
269
330
1F
100
AcDbEntity
  8
0
  6
Continuous
 62
     7
370
    15
100
AcDbLine
 10
246.2087451967
 20
709.6309402423
 30
0.0
 11
245.4087316545
 21
709.6309402423
 31
0.0
  0
LINE
  5
26A
330
1F
100
AcDbEntity
  8
0
  6
Continuous
 62
     7
370
    15
100
AcDbLine
 10
245.4087316545
 20
709.6309402423
 30
0.0
 11
245.4087316545
 21
704.6309301095
 31
0.0
  0
LINE
  5
26B
330
1F
100
AcDbEntity
  8
0
  6
Continuous
 62
     7
370
    15
100
AcDbLine
 10
245.4087316545
 20
704.6309301095
 30
0.0
 11
245.4087316545
 21
699.6309348779
 31
0.0
  0
ARC
  5
26C
330
1F
100
AcDbEntity
  8
0
  6
Continuous
 62
     7
370
    15
100
AcDbCircle
 10
243.2087406981
 20
593.3309374746
 30
0.0
 40
2.000000000000114
100
AcDbArc
 50
90.0
 51
180.0
  0
LINE
  5
26D
330
1F
100
AcDbEntity
  8
0
  6
Continuous
 62
     7
370
    15
100
AcDbLine
 10
241.2087499651
 20
593.3309385018
 30
0.0
 11
241.2087499651
 21
552.3309373693
 31
0.0
  0
ARC
  5
26E
330
1F
100
AcDbEntity
  8
0
  6
Continuous
 62
     7
370
    15
100
AcDbCircle
 10
243.2087406981
 20
552.3309374746
 30
0.0
 40
2.0
100
AcDbArc
 50
180.0
 51
270.0
  0
LINE
  5
26F
330
1F
100
AcDbEntity
  8
0
  6
Continuous
 62
     7
370
    15
100
AcDbLine
 10
244.9587463888
 20
550.3309370415
 30
0.0
 11
243.2087540182
 21
550.3309370415
 31
0.0
  0
LINE
  5
270
330
1F
100
AcDbEntity
  8
0
  6
Continuous
 62
     7
370
    15
100
AcDbLine
 10
244.9587463888
 20
550.3309370415
 30
0.0
 11
244.9587463888
 21
522.3309375742
 31
0.0
  0
LINE
  5
271
330
1F
100
AcDbEntity
  8
0
  6
Continuous
 62
     7
370
    15
100
AcDbLine
 10
201.2087285074
 20
522.3309375742
 30
0.0
 11
244.9587463888
 21
522.3309375742
 31
0.0
  0
ARC
  5
272
330
1F
100
AcDbEntity
  8
0
  6
Continuous
 62
     7
370
    15
100
AcDbCircle
 10
201.2087406981
 20
527.3309374746
 30
0.0
 40
5.0
100
AcDbArc
 50
180.0
 51
270.0
  0
LINE
  5
273
330
1F
100
AcDbEntity
  8
0
  6
Continuous
 62
     7
370
    15
100
AcDbLine
 10
244.9587463888
 20
675.3309407668
 30
0.0
 11
244.9587463888
 21
595.3309351044
 31
0.0
  0
LINE
  5
274
330
1F
100
AcDbEntity
  8
0
  6
Continuous
 62
     7
370
    15
100
AcDbLine
 10
244.9587463888
 20
595.3309351044
 30
0.0
 11
243.2087540182
 21
595.3309351044
 31
0.0
  0
LINE
  5
275
330
1F
100
AcDbEntity
  8
0
  6
Continuous
 62
     7
370
    15
100
AcDbLine
 10
244.9587463888
 20
675.3309407668
 30
0.0
 11
201.2087285074
 21
675.3309407668
 31
0.0
  0
ARC
  5
276
330
1F
100
AcDbEntity
  8
0
  6
Continuous
 62
     7
370
    15
100
AcDbCircle
 10
201.2087406981
 20
670.3309374746
 30
0.0
 40
5.0
100
AcDbArc
 50
90.0
 51
180.0
  0
LINE
  5
277
330
1F
100
AcDbEntity
  8
0
  6
Continuous
 62
     7
370
    15
100
AcDbLine
 10
196.2087332758
 20
670.330930634
 30
0.0
 11
196.2087332758
 21
527.3309379281
 31
0.0
  0
LINE
  5
278
330
1F
100
AcDbEntity
  8
0
  6
Continuous
 62
     7
370
    15
100
AcDbLine
 10
244.9587463888
 20
675.3309407668
 30
0.0
 11
246.2087451967
 21
675.3309407668
 31
0.0
  0
LINE
  5
279
330
1F
100
AcDbEntity
  8
0
  6
Continuous
 62
     7
370
    15
100
AcDbLine
 10
246.2370872053
 20
595.3309351044
 30
0.0
 11
244.9587463888
 21
595.3309351044
 31
0.0
  0
LINE
  5
27A
330
1F
100
AcDbEntity
  8
0
  6
Continuous
 62
     7
370
    15
100
AcDbLine
 10
246.2087451967
 20
522.3309375742
 30
0.0
 11
244.9587463888
 21
522.3309375742
 31
0.0
  0
LINE
  5
27B
330
1F
100
AcDbEntity
  8
0
  6
Continuous
 62
     7
370
    15
100
AcDbLine
 10
244.9587463888
 20
550.3309370415
 30
0.0
 11
246.2087451967
 21
550.3309370415
 31
0.0
  0
LINE
  5
27C
330
1F
100
AcDbEntity
  8
0
  6
Continuous
 62
     7
370
    15
100
AcDbLine
 10
247.0087289366
 20
714.1309419112
 30
0.0
 11
246.2087451967
 21
714.1309419112
 31
0.0
  0
LINE
  5
27D
330
1F
100
AcDbEntity
  8
0
  6
Continuous
 62
     7
370
    15
100
AcDbLine
 10
246.2087451967
 20
714.1309419112
 30
0.0
 11
246.2087451967
 21
714.0309402185
 31
0.0
  0
LINE
  5
27E
330
1F
100
AcDbEntity
  8
0
  6
Continuous
 62
     7
370
    15
100
AcDbLine
 10
246.2087451967
 20
453.699570282
 30
0.0
 11
214.9546324762
 21
422.4454501109
 31
0.0
  0
LINE
  5
27F
330
1F
100
AcDbEntity
  8
0
  6
Continuous
 62
     7
370
    15
100
AcDbLine
 10
214.9546324762
 20
422.4454501109
 30
0.0
 11
214.3889247927
 21
423.0111354427
 31
0.0
  0
LINE
  5
280
330
1F
100
AcDbEntity
  8
0
  6
Continuous
 62
     7
370
    15
100
AcDbLine
 10
245.8426236662
 20
454.4648194151
 30
0.0
 11
214.3889247927
 21
423.0111354427
 31
0.0
  0
ARC
  5
281
330
1F
100
AcDbEntity
  8
0
  6
Continuous
 62
     7
370
    15
100
AcDbCircle
 10
244.9587406981
 20
455.3487044276
 30
0.0
 40
1.249999999999915
100
AcDbArc
 50
315.0
 51
0.0
  0
LINE
  5
282
330
1F
100
AcDbEntity
  8
0
  6
Continuous
 62
     7
370
    15
100
AcDbLine
 10
211.4190935644
 20
418.9099111991
 30
0.0
 11
210.8534156832
 21
419.4755965309
 31
0.0
  0
LWPOLYLINE
  5
283
330
1F
100
AcDbEntity
  8
0
  6
Continuous
 62
     7
370
    15
100
AcDbPolyline
 90
        9
 70
   128
 43
0.0
 10
214.3889247927
 20
423.0111354427
 10
213.6991798433
 20
422.3213830428
 10
213.0359589609
 20
421.6581398087
 10
212.4246835264
 20
421.0468941765
 10
211.8889271768
 20
420.5111303763
 10
211.4492535147
 20
420.071441813
 10
211.1225306543
 20
419.7447264032
 10
210.9213351759
 20
419.5435309248
 10
210.8534156832
 20
419.4755965309
  0
LWPOLYLINE
  5
284
330
1F
100
AcDbEntity
  8
0
  6
Continuous
 62
     7
370
    15
100
AcDbPolyline
 90
        9
 70
   128
 43
0.0
 10
214.9546324762
 20
422.4454501109
 10
214.2648577246
 20
421.755697711
 10
213.6016368421
 20
421.0924544768
 10
212.99039121
 20
420.4812088447
 10
212.4546348604
 20
419.9454450445
 10
212.0149313959
 20
419.5057564812
 10
211.6882085356
 20
419.1790410714
 10
211.4870130571
 20
418.977845593
 10
211.4190935644
 20
418.9099111991
  0
LINE
  5
285
330
1F
100
AcDbEntity
  8
0
  6
Continuous
 62
     7
370
    15
100
AcDbLine
 10
246.2087451967
 20
714.8219981627
 30
0.0
 11
246.2087451967
 21
714.1309419112
 31
0.0
  0
LINE
  5
286
330
1F
100
AcDbEntity
  8
0
  6
Continuous
 62
     7
370
    15
100
AcDbLine
 10
246.2087451967
 20
703.8355955319
 30
0.0
 11
246.1087286028
 21
703.8355955319
 31
0.0
  0
LINE
  5
287
330
1F
100
AcDbEntity
  8
0
  6
Continuous
 62
     7
370
    15
100
AcDbLine
 10
246.1087286028
 20
703.8355955319
 30
0.0
 11
246.1087286028
 21
675.3309407668
 31
0.0
  0
LINE
  5
288
330
1F
100
AcDbEntity
  8
0
  6
Continuous
 62
     7
370
    15
100
AcDbLine
 10
246.2087451967
 20
704.8355826573
 30
0.0
 11
246.1087286028
 21
704.8355826573
 31
0.0
  0
LINE
  5
289
330
1F
100
AcDbEntity
  8
0
  6
Continuous
 62
     7
370
    15
100
AcDbLine
 10
246.1087286028
 20
704.8355826573
 30
0.0
 11
246.1087286028
 21
703.8355955319
 31
0.0
  0
LINE
  5
28A
330
1F
100
AcDbEntity
  8
0
  6
Continuous
 62
     7
370
    15
100
AcDbLine
 10
246.1087286028
 20
487.2453865992
 30
0.0
 11
246.1087286028
 21
490.7976185368
 31
0.0
  0
LINE
  5
28B
330
1F
100
AcDbEntity
  8
0
  6
Continuous
 62
     7
370
    15
100
AcDbLine
 10
246.1087286028
 20
490.9976181971
 30
0.0
 11
246.1087286028
 21
492.2453874188
 31
0.0
  0
LINE
  5
28C
330
1F
100
AcDbEntity
  8
0
  6
Continuous
 62
     7
370
    15
100
AcDbLine
 10
246.1087286028
 20
492.2453874188
 30
0.0
 11
246.1587368997
 21
492.2453874188
 31
0.0
  0
LINE
  5
28D
330
1F
100
AcDbEntity
  8
0
  6
Continuous
 62
     7
370
    15
100
AcDbLine
 10
246.1087286028
 20
472.2453878658
 30
0.0
 11
246.2087451967
 21
472.2453878658
 31
0.0
  0
LINE
  5
28E
330
1F
100
AcDbEntity
  8
0
  6
Continuous
 62
     7
370
    15
100
AcDbLine
 10
246.1087286028
 20
472.2453878658
 30
0.0
 11
246.1087286028
 21
487.2453865992
 31
0.0
  0
LINE
  5
28F
330
1F
100
AcDbEntity
  8
0
  6
Continuous
 62
     7
370
    15
100
AcDbLine
 10
246.1087286028
 20
467.2453851836
 30
0.0
 11
246.2087451967
 21
467.2453851836
 31
0.0
  0
LINE
  5
290
330
1F
100
AcDbEntity
  8
0
  6
Continuous
 62
     7
370
    15
100
AcDbLine
 10
246.1087286028
 20
467.2453851836
 30
0.0
 11
246.1087286028
 21
472.2453878658
 31
0.0
  0
LINE
  5
291
330
1F
100
AcDbEntity
  8
0
  6
Continuous
 62
     7
370
    15
100
AcDbLine
 10
246.0087418112
 20
479.7453881638
 30
0.0
 11
246.1087286028
 21
479.7453881638
 31
0.0
  0
LINE
  5
292
330
1F
100
AcDbEntity
  8
0
  6
Continuous
 62
     7
370
    15
100
AcDbLine
 10
246.0087418112
 20
479.7453881638
 30
0.0
 11
246.0087418112
 21
479.8453861313
 31
0.0
  0
LINE
  5
293
330
1F
100
AcDbEntity
  8
0
  6
Continuous
 62
     7
370
    15
100
AcDbLine
 10
246.0087418112
 20
479.8453861313
 30
0.0
 11
246.1087286028
 21
479.8453861313
 31
0.0
  0
LINE
  5
294
330
1F
100
AcDbEntity
  8
0
  6
Continuous
 62
     7
370
    15
100
AcDbLine
 10
246.0087418112
 20
471.627384557
 30
0.0
 11
246.1087286028
 21
471.627384557
 31
0.0
  0
LINE
  5
295
330
1F
100
AcDbEntity
  8
0
  6
Continuous
 62
     7
370
    15
100
AcDbLine
 10
246.0087418112
 20
471.627384557
 30
0.0
 11
246.0087418112
 21
479.7453881638
 31
0.0
  0
LINE
  5
296
330
1F
100
AcDbEntity
  8
0
  6
Continuous
 62
     7
370
    15
100
AcDbLine
 10
246.0087418112
 20
479.9652249949
 30
0.0
 11
246.1087286028
 21
479.9652249949
 31
0.0
  0
LINE
  5
297
330
1F
100
AcDbEntity
  8
0
  6
Continuous
 62
     7
370
    15
100
AcDbLine
 10
246.0087418112
 20
480.4895633297
 30
0.0
 11
246.1087286028
 21
480.4895633297
 31
0.0
  0
SPLINE
  5
298
330
1F
100
AcDbEntity
  8
0
  6
Continuous
 62
     7
370
    15
100
AcDbSpline
210
0.0
220
0.0
230
1.0
 70
    24
 71
     3
 72
    10
 73
     6
 74
     0
 42
0.00000001
 43
0.00000001
 12
1.0
 22
0.0
 32
0.0
 13
1.0
 23
0.0
 33
0.0
 40
0.0
 40
0.0
 40
0.0
 40
0.0
 40
0.2804044240358687
 40
0.5607944270725498
 40
1.0
 40
1.0
 40
1.0
 40
1.0
 10
246.0087418111721
 20
480.4895633297
 30
0.0
 10
246.0087418111721
 20
480.4012798450237
 30
0.0
 10
246.0087418111721
 20
480.2247174160277
 30
0.0
 10
246.0087418111722
 20
480.0122555208111
 30
0.0
 10
246.0087418111721
 20
479.9830503733943
 30
0.0
 10
246.0087418111721
 20
479.9652249949012
 30
0.0
  0
LINE
  5
299
330
1F
100
AcDbEntity
  8
0
  6
Continuous
 62
     7
370
    15
100
AcDbLine
 10
246.0087418112
 20
480.6383029954
 30
0.0
 11
246.1087286028
 21
480.6383029954
 31
0.0
  0
LINE
  5
29A
330
1F
100
AcDbEntity
  8
0
  6
Continuous
 62
     7
370
    15
100
AcDbLine
 10
246.0087418112
 20
480.6383029954
 30
0.0
 11
246.0087418112
 21
480.4895633297
 31
0.0
  0
LINE
  5
29B
330
1F
100
AcDbEntity
  8
0
  6
Continuous
 62
     7
370
    15
100
AcDbLine
 10
246.0087418112
 20
481.9203542011
 30
0.0
 11
246.1087286028
 21
481.9203542011
 31
0.0
  0
LINE
  5
29C
330
1F
100
AcDbEntity
  8
0
  6
Continuous
 62
     7
370
    15
100
AcDbLine
 10
246.0087418112
 20
482.0705951588
 30
0.0
 11
246.1087286028
 21
482.0705951588
 31
0.0
  0
LINE
  5
29D
330
1F
100
AcDbEntity
  8
0
  6
Continuous
 62
     7
370
    15
100
AcDbLine
 10
246.0087418112
 20
482.0705951588
 30
0.0
 11
246.0087418112
 21
481.9203542011
 31
0.0
  0
LINE
  5
29E
330
1F
100
AcDbEntity
  8
0
  6
Continuous
 62
     7
370
    15
100
AcDbLine
 10
246.0087418112
 20
482.5934284763
 30
0.0
 11
246.1087286028
 21
482.5934284763
 31
0.0
  0
SPLINE
  5
29F
330
1F
100
AcDbEntity
  8
0
  6
Continuous
 62
     7
370
    15
100
AcDbSpline
210
0.0
220
0.0
230
1.0
 70
    24
 71
     3
 72
     9
 73
     5
 74
     0
 42
0.00000001
 43
0.00000001
 12
1.0
 22
0.0
 32
0.0
 13
1.0
 23
0.0
 33
0.0
 40
0.0
 40
0.0
 40
0.0
 40
0.0
 40
0.5595195056377054
 40
1.0
 40
1.0
 40
1.0
 40
1.0
 10
246.0087418111721
 20
482.593428476337
 30
0.0
 10
246.0087418111721
 20
482.566868026924
 30
0.0
 10
246.0087418111721
 20
482.519397922405
 30
0.0
 10
246.008741811172
 20
482.2078332984182
 30
0.0
 10
246.0087418111721
 20
482.0705951588188
 30
0.0
  0
LINE
  5
2A0
330
1F
100
AcDbEntity
  8
0
  6
Continuous
 62
     7
370
    15
100
AcDbLine
 10
246.0087418112
 20
481.2768252032
 30
0.0
 11
246.1087286028
 21
481.2768252032
 31
0.0
  0
LINE
  5
2A1
330
1F
100
AcDbEntity
  8
0
  6
Continuous
 62
     7
370
    15
100
AcDbLine
 10
246.0087418112
 20
481.2768252032
 30
0.0
 11
246.0087418112
 21
480.8395655291
 31
0.0
  0
SPLINE
  5
2A2
330
1F
100
AcDbEntity
  8
0
  6
Continuous
 62
     7
370
    15
100
AcDbSpline
210
0.0
220
0.0
230
1.0
 70
    24
 71
     3
 72
     9
 73
     5
 74
     0
 42
0.00000001
 43
0.00000001
 12
1.0
 22
0.0
 32
0.0
 13
1.0
 23
0.0
 33
0.0
 40
0.0
 40
0.0
 40
0.0
 40
0.0
 40
0.092694853126417
 40
0.9999999999999999
 40
0.9999999999999999
 40
0.9999999999999999
 40
0.9999999999999999
 10
246.0087418111721
 20
481.6786946194206
 30
0.0
 10
246.0087418111721
 20
481.6678223084078
 30
0.0
 10
246.0087418111725
 20
481.550530887729
 30
0.0
 10
246.0087418111723
 20
481.4070270100228
 30
0.0
 10
246.0087418111721
 20
481.2768252031836
 30
0.0
  0
LINE
  5
2A3
330
1F
100
AcDbEntity
  8
0
  6
Continuous
 62
     7
370
    15
100
AcDbLine
 10
246.1587368997
 20
479.704134299
 30
0.0
 11
246.2087451967
 21
479.704134299
 31
0.0
  0
LINE
  5
2A4
330
1F
100
AcDbEntity
  8
0
  6
Continuous
 62
     7
370
    15
100
AcDbLine
 10
246.1587368997
 20
479.704134299
 30
0.0
 11
246.1587368997
 21
504.7041356029
 31
0.0
  0
LINE
  5
2A5
330
1F
100
AcDbEntity
  8
0
  6
Continuous
 62
     7
370
    15
100
AcDbLine
 10
246.1587368997
 20
504.7041356029
 30
0.0
 11
246.2087451967
 21
504.7041356029
 31
0.0
  0
LINE
  5
2A6
330
1F
100
AcDbEntity
  8
0
  6
Continuous
 62
     7
370
    15
100
AcDbLine
 10
407.0332824739
 20
449.6809357243
 30
0.0
 11
407.0332824739
 21
449.7309365706
 31
0.0
  0
LINE
  5
2A7
330
1F
100
AcDbEntity
  8
0
  6
Continuous
 62
     7
370
    15
100
AcDbLine
 10
407.0332824739
 20
449.7309365706
 30
0.0
 11
382.0332765135
 21
449.7309365706
 31
0.0
  0
LINE
  5
2A8
330
1F
100
AcDbEntity
  8
0
  6
Continuous
 62
     7
370
    15
100
AcDbLine
 10
407.0332824739
 20
449.6809357243
 30
0.0
 11
382.0332765135
 21
449.6809357243
 31
0.0
  0
LINE
  5
2A9
330
1F
100
AcDbEntity
  8
0
  6
Continuous
 62
     7
370
    15
100
AcDbLine
 10
382.0332765135
 20
449.6809357243
 30
0.0
 11
382.0332765135
 21
449.7309365706
 31
0.0
  0
LINE
  5
2AA
330
1F
100
AcDbEntity
  8
0
  6
Continuous
 62
     7
370
    15
100
AcDbLine
 10
246.0087418112
 20
479.288485034
 30
0.0
 11
221.2087392363
 21
479.288485034
 31
0.0
  0
LINE
  5
2AB
330
1F
100
AcDbEntity
  8
0
  6
Continuous
 62
     7
370
    15
100
AcDbLine
 10
221.2087392363
 20
479.0884816484
 30
0.0
 11
221.2087392363
 21
479.288485034
 31
0.0
  0
LINE
  5
2AC
330
1F
100
AcDbEntity
  8
0
  6
Continuous
 62
     7
370
    15
100
AcDbLine
 10
246.0087418112
 20
479.0884816484
 30
0.0
 11
221.2087392363
 21
479.0884816484
 31
0.0
  0
LINE
  5
2AD
330
1F
100
AcDbEntity
  8
0
  6
Continuous
 62
     7
370
    15
100
AcDbLine
 10
245.208728269
 20
479.0784829693
 30
0.0
 11
245.208728269
 21
479.0884816484
 31
0.0
  0
LINE
  5
2AE
330
1F
100
AcDbEntity
  8
0
  6
Continuous
 62
     7
370
    15
100
AcDbLine
 10
245.208728269
 20
479.0784829693
 30
0.0
 11
233.2087337526
 21
479.0784829693
 31
0.0
  0
LINE
  5
2AF
330
1F
100
AcDbEntity
  8
0
  6
Continuous
 62
     7
370
    15
100
AcDbLine
 10
233.2087337526
 20
479.0784829693
 30
0.0
 11
233.2087337526
 21
479.0884816484
 31
0.0
  0
LINE
  5
2B0
330
1F
100
AcDbEntity
  8
0
  6
Continuous
 62
     7
370
    15
100
AcDbLine
 10
222.7087497267
 20
479.0784829693
 30
0.0
 11
222.7087497267
 21
479.0884816484
 31
0.0
  0
LINE
  5
2B1
330
1F
100
AcDbEntity
  8
0
  6
Continuous
 62
     7
370
    15
100
AcDbLine
 10
233.2087337526
 20
479.0784829693
 30
0.0
 11
222.7087497267
 21
479.0784829693
 31
0.0
  0
LINE
  5
2B2
330
1F
100
AcDbEntity
  8
0
  6
Continuous
 62
     7
370
    15
100
AcDbLine
 10
976.1361360105
 20
692.8333380656
 30
0.0
 11
976.0410367998
 21
692.8024330573
 31
0.0
  0
LINE
  5
2B3
330
1F
100
AcDbEntity
  8
0
  6
Continuous
 62
     7
370
    15
100
AcDbLine
 10
976.1361360105
 20
692.8333380656
 30
0.0
 11
977.6125430616
 21
688.2894077735
 31
0.0
  0
LINE
  5
2B4
330
1F
100
AcDbEntity
  8
0
  6
Continuous
 62
     7
370
    15
100
AcDbLine
 10
976.0410367998
 20
692.8024330573
 30
0.0
 11
977.5050758871
 21
688.2965454297
 31
0.0
  0
LINE
  5
2B5
330
1F
100
AcDbEntity
  8
0
  6
Continuous
 62
     7
370
    15
100
AcDbLine
 10
975.8271157297
 20
693.7843897777
 30
0.0
 11
975.732016519
 21
693.7534847693
 31
0.0
  0
LWPOLYLINE
  5
2B6
330
1F
100
AcDbEntity
  8
0
  6
Continuous
 62
     7
370
    15
100
AcDbPolyline
 90
        9
 70
   128
 43
0.0
 10
975.8271157297
 20
693.7843897777
 10
975.8330463919
 20
693.766120954
 10
975.8506297621
 20
693.7119999366
 10
975.8792101892
 20
693.6241128879
 10
975.9176253828
 20
693.5058274703
 10
975.9644448313
 20
693.3617034392
 10
976.0178803953
 20
693.1972840266
 10
976.0758459124
 20
693.0188724237
 10
976.1361360105
 20
692.8333380656
  0
LWPOLYLINE
  5
2B7
330
1F
100
AcDbEntity
  8
0
  6
Continuous
 62
     7
370
    15
100
AcDbPolyline
 90
        9
 70
   128
 43
0.0
 10
975.732016519
 20
693.7534847693
 10
975.7379471811
 20
693.7352159457
 10
975.7555305513
 20
693.6810949283
 10
975.7840811762
 20
693.5932078795
 10
975.8225261721
 20
693.474922462
 10
975.8693456205
 20
693.3308133321
 10
975.9227811846
 20
693.1663790183
 10
975.9807467016
 20
692.9879674153
 10
976.0410367998
 20
692.8024330573
  0
LINE
  5
2B8
330
1F
100
AcDbEntity
  8
0
  6
Continuous
 62
     7
370
    15
100
AcDbLine
 10
246.1587368997
 20
490.897618367
 30
0.0
 11
234.2087506803
 21
490.897618367
 31
0.0
  0
LINE
  5
2B9
330
1F
100
AcDbEntity
  8
0
  6
Continuous
 62
     7
370
    15
100
AcDbLine
 10
234.2087506803
 20
490.897618367
 30
0.0
 11
234.2087506803
 21
490.9976181971
 31
0.0
  0
LINE
  5
2BA
330
1F
100
AcDbEntity
  8
0
  6
Continuous
 62
     7
370
    15
100
AcDbLine
 10
246.1587368997
 20
490.9976181971
 30
0.0
 11
234.2087506803
 21
490.9976181971
 31
0.0
  0
LINE
  5
2BB
330
1F
100
AcDbEntity
  8
0
  6
Continuous
 62
     7
370
    15
100
AcDbLine
 10
236.1955225023
 20
490.7976185368
 30
0.0
 11
236.1955225023
 21
490.897618367
 31
0.0
  0
LINE
  5
2BC
330
1F
100
AcDbEntity
  8
0
  6
Continuous
 62
     7
370
    15
100
AcDbLine
 10
246.1587368997
 20
490.7976185368
 30
0.0
 11
236.1955225023
 21
490.7976185368
 31
0.0
  0
LINE
  5
2BD
330
1F
100
AcDbEntity
  8
0
  6
Continuous
 62
     7
370
    15
100
AcDbLine
 10
236.1955225023
 20
490.7976185368
 30
0.0
 11
235.9455108198
 21
490.7976185368
 31
0.0
  0
LINE
  5
2BE
330
1F
100
AcDbEntity
  8
0
  6
Continuous
 62
     7
370
    15
100
AcDbLine
 10
396.5437590631
 20
437.8309362965
 30
0.0
 11
396.6437756571
 21
437.8309362965
 31
0.0
  0
LINE
  5
2BF
330
1F
100
AcDbEntity
  8
0
  6
Continuous
 62
     7
370
    15
100
AcDbLine
 10
396.5437590631
 20
437.8309362965
 30
0.0
 11
396.5437590631
 21
449.6809357243
 31
0.0
  0
LINE
  5
2C0
330
1F
100
AcDbEntity
  8
0
  6
Continuous
 62
     7
370
    15
100
AcDbLine
 10
396.5437590631
 20
449.7309365706
 30
0.0
 11
396.5437590631
 21
449.8309382634
 31
0.0
  0
LINE
  5
2C1
330
1F
100
AcDbEntity
  8
0
  6
Continuous
 62
     7
370
    15
100
AcDbLine
 10
396.6437756571
 20
437.8309362965
 30
0.0
 11
396.6437756571
 21
449.6809357243
 31
0.0
  0
LINE
  5
2C2
330
1F
100
AcDbEntity
  8
0
  6
Continuous
 62
     7
370
    15
100
AcDbLine
 10
396.6437756571
 20
449.7309365706
 30
0.0
 11
396.6437756571
 21
449.8309382634
 31
0.0
  0
LINE
  5
2C3
330
1F
100
AcDbEntity
  8
0
  6
Continuous
 62
     7
370
    15
100
AcDbLine
 10
396.4437722715
 20
439.8177230196
 30
0.0
 11
396.5437590631
 21
439.8177230196
 31
0.0
  0
LINE
  5
2C4
330
1F
100
AcDbEntity
  8
0
  6
Continuous
 62
     7
370
    15
100
AcDbLine
 10
396.4437722715
 20
439.8177230196
 30
0.0
 11
396.4437722715
 21
449.6809357243
 31
0.0
  0
LINE
  5
2C5
330
1F
100
AcDbEntity
  8
0
  6
Continuous
 62
     7
370
    15
100
AcDbLine
 10
396.4437722715
 20
449.7309365706
 30
0.0
 11
396.4437722715
 21
449.8309382634
 31
0.0
  0
LINE
  5
2C6
330
1F
100
AcDbEntity
  8
0
  6
Continuous
 62
     7
370
    15
100
AcDbLine
 10
396.4437722715
 20
439.5677187877
 30
0.0
 11
396.4437722715
 21
439.8177230196
 31
0.0
  0
LINE
  5
2C7
330
1F
100
AcDbEntity
  8
0
  6
Continuous
 62
     7
370
    15
100
AcDbLine
 10
974.5707988295
 20
694.4148728089
 30
0.0
 11
974.4756996187
 21
694.3839678006
 31
0.0
  0
LINE
  5
2C8
330
1F
100
AcDbEntity
  8
0
  6
Continuous
 62
     7
370
    15
100
AcDbLine
 10
974.5707988295
 20
694.4148728089
 30
0.0
 11
981.9871961626
 21
671.5895125108
 31
0.0
  0
LINE
  5
2C9
330
1F
100
AcDbEntity
  8
0
  6
Continuous
 62
     7
370
    15
100
AcDbLine
 10
981.9871961626
 20
671.5895125108
 30
0.0
 11
981.8920969519
 21
671.5586224036
 31
0.0
  0
LINE
  5
2CA
330
1F
100
AcDbEntity
  8
0
  6
Continuous
 62
     7
370
    15
100
AcDbLine
 10
981.3056766542
 20
674.0106382804
 30
0.0
 11
981.2105774435
 21
673.9797332721
 31
0.0
  0
LWPOLYLINE
  5
2CB
330
1F
100
AcDbEntity
  8
0
  6
Continuous
 62
     7
370
    15
100
AcDbPolyline
 90
        9
 70
   128
 43
0.0
 10
981.3056766542
 20
674.0106382804
 10
981.3429593595
 20
673.8959440427
 10
981.3829242739
 20
673.7728753524
 10
981.4229189905
 20
673.6497917609
 10
981.4602016958
 20
673.5350975232
 10
981.4921795877
 20
673.4366157489
 10
981.5167367014
 20
673.3610519605
 10
981.5321743044
 20
673.3135470586
 10
981.5374493154
 20
673.2973345952
  0
LINE
  5
2CC
330
1F
100
AcDbEntity
  8
0
  6
Continuous
 62
     7
370
    15
100
AcDbLine
 10
981.5374493154
 20
673.2973345952
 30
0.0
 11
981.4423501047
 21
673.2664444881
 31
0.0
  0
LINE
  5
2CD
330
1F
100
AcDbEntity
  8
0
  6
Continuous
 62
     7
370
    15
100
AcDbLine
 10
975.2798556837
 20
692.5562360721
 30
0.0
 11
975.184756473
 21
692.5253310638
 31
0.0
  0
LINE
  5
2CE
330
1F
100
AcDbEntity
  8
0
  6
Continuous
 62
     7
370
    15
100
AcDbLine
 10
975.2798556837
 20
692.5562360721
 30
0.0
 11
981.3056766542
 21
674.0106382804
 31
0.0
  0
LINE
  5
2CF
330
1F
100
AcDbEntity
  8
0
  6
Continuous
 62
     7
370
    15
100
AcDbLine
 10
975.2026080641
 20
692.7939990001
 30
0.0
 11
975.2798556837
 21
692.5562360721
 31
0.0
  0
LINE
  5
2D0
330
1F
100
AcDbEntity
  8
0
  6
Continuous
 62
     7
370
    15
100
AcDbLine
 10
243.1546628031
 20
762.9273870425
 30
0.0
 11
231.6546618494
 21
762.9273870425
 31
0.0
  0
LINE
  5
2D1
330
1F
100
AcDbEntity
  8
0
  6
Continuous
 62
     7
370
    15
100
AcDbLine
 10
231.6546618494
 20
762.9273870425
 30
0.0
 11
231.6546618494
 21
763.0273887353
 31
0.0
  0
LINE
  5
2D2
330
1F
100
AcDbEntity
  8
0
  6
Continuous
 62
     7
370
    15
100
AcDbLine
 10
243.1546628031
 20
763.0273887353
 30
0.0
 11
231.6546618494
 21
763.0273887353
 31
0.0
  0
LINE
  5
2D3
330
1F
100
AcDbEntity
  8
0
  6
Continuous
 62
     7
370
    15
100
AcDbLine
 10
233.6414336714
 20
762.8273853498
 30
0.0
 11
233.6414336714
 21
762.9273870425
 31
0.0
  0
LINE
  5
2D4
330
1F
100
AcDbEntity
  8
0
  6
Continuous
 62
     7
370
    15
100
AcDbLine
 10
243.1546628031
 20
762.8273853498
 30
0.0
 11
233.6414336714
 21
762.8273853498
 31
0.0
  0
LINE
  5
2D5
330
1F
100
AcDbEntity
  8
0
  6
Continuous
 62
     7
370
    15
100
AcDbLine
 10
233.6414336714
 20
762.8273853498
 30
0.0
 11
233.3914517912
 21
762.8273853498
 31
0.0
  0
LINE
  5
2D6
330
1F
100
AcDbEntity
  8
0
  6
Continuous
 62
     7
370
    15
100
AcDbLine
 10
232.9087435755
 20
503.3539991291
 30
0.0
 11
234.2087506803
 21
503.3539991291
 31
0.0
  0
LINE
  5
2D7
330
1F
100
AcDbEntity
  8
0
  6
Continuous
 62
     7
370
    15
100
AcDbLine
 10
234.2087506803
 20
503.3539991291
 30
0.0
 11
234.2087506803
 21
513.1077786373
 31
0.0
  0
LINE
  5
2D8
330
1F
100
AcDbEntity
  8
0
  6
Continuous
 62
     7
370
    15
100
AcDbLine
 10
232.9087435755
 20
513.9089335153
 30
0.0
 11
232.9087435755
 21
503.3539991291
 31
0.0
  0
LINE
  5
2D9
330
1F
100
AcDbEntity
  8
0
  6
Continuous
 62
     7
370
    15
100
AcDbLine
 10
234.2087506803
 20
502.3070686893
 30
0.0
 11
239.4087492975
 21
502.3070686893
 31
0.0
  0
LINE
  5
2DA
330
1F
100
AcDbEntity
  8
0
  6
Continuous
 62
     7
370
    15
100
AcDbLine
 10
239.4087492975
 20
502.3070686893
 30
0.0
 11
239.4087492975
 21
500.9210222797
 31
0.0
  0
LINE
  5
2DB
330
1F
100
AcDbEntity
  8
0
  6
Continuous
 62
     7
370
    15
100
AcDbLine
 10
239.4087492975
 20
500.9210222797
 30
0.0
 11
232.9087435755
 21
500.9210222797
 31
0.0
  0
LINE
  5
2DC
330
1F
100
AcDbEntity
  8
0
  6
Continuous
 62
     7
370
    15
100
AcDbLine
 10
234.2087506803
 20
503.3539991291
 30
0.0
 11
234.2087506803
 21
502.3070686893
 31
0.0
  0
LINE
  5
2DD
330
1F
100
AcDbEntity
  8
0
  6
Continuous
 62
     7
370
    15
100
AcDbLine
 10
232.9087435755
 20
503.3539991291
 30
0.0
 11
232.9087435755
 21
500.9210222797
 31
0.0
  0
LINE
  5
2DE
330
1F
100
AcDbEntity
  8
0
  6
Continuous
 62
     7
370
    15
100
AcDbLine
 10
232.9087435755
 20
498.4741882818
 30
0.0
 11
239.4087492975
 21
498.4741882818
 31
0.0
  0
LINE
  5
2DF
330
1F
100
AcDbEntity
  8
0
  6
Continuous
 62
     7
370
    15
100
AcDbLine
 10
239.4087492975
 20
500.9210222797
 30
0.0
 11
239.4087492975
 21
498.4741882818
 31
0.0
  0
LINE
  5
2E0
330
1F
100
AcDbEntity
  8
0
  6
Continuous
 62
     7
370
    15
100
AcDbLine
 10
232.9087435755
 20
500.9210222797
 30
0.0
 11
232.9087435755
 21
498.4741882818
 31
0.0
  0
LINE
  5
2E1
330
1F
100
AcDbEntity
  8
0
  6
Continuous
 62
     7
370
    15
100
AcDbLine
 10
232.9087435755
 20
520.787686708
 30
0.0
 11
239.4087492975
 21
520.787686708
 31
0.0
  0
LINE
  5
2E2
330
1F
100
AcDbEntity
  8
0
  6
Continuous
 62
     7
370
    15
100
AcDbLine
 10
239.4087492975
 20
520.787686708
 30
0.0
 11
239.4087492975
 21
519.4016402984
 31
0.0
  0
LINE
  5
2E3
330
1F
100
AcDbEntity
  8
0
  6
Continuous
 62
     7
370
    15
100
AcDbLine
 10
239.4087492975
 20
519.4016402984
 30
0.0
 11
235.5087279829
 21
519.4016402984
 31
0.0
  0
LINE
  5
2E4
330
1F
100
AcDbEntity
  8
0
  6
Continuous
 62
     7
370
    15
100
AcDbLine
 10
232.9087435755
 20
520.787686708
 30
0.0
 11
232.9087435755
 21
519.4950770983
 31
0.0
  0
LINE
  5
2E5
330
1F
100
AcDbEntity
  8
0
  6
Continuous
 62
     7
370
    15
100
AcDbLine
 10
235.5087279829
 20
516.9548063441
 30
0.0
 11
239.4087492975
 21
516.9548063441
 31
0.0
  0
LINE
  5
2E6
330
1F
100
AcDbEntity
  8
0
  6
Continuous
 62
     7
370
    15
100
AcDbLine
 10
239.4087492975
 20
519.4016402984
 30
0.0
 11
239.4087492975
 21
516.9548063441
 31
0.0
  0
LINE
  5
2E7
330
1F
100
AcDbEntity
  8
0
  6
Continuous
 62
     7
370
    15
100
AcDbLine
 10
234.2087506803
 20
513.1077786373
 30
0.0
 11
234.2087506803
 21
513.9089335153
 31
0.0
  0
LINE
  5
2E8
330
1F
100
AcDbEntity
  8
0
  6
Continuous
 62
     7
370
    15
100
AcDbLine
 10
234.2087506803
 20
513.9089335153
 30
0.0
 11
229.0087520632
 21
513.9089335153
 31
0.0
  0
LINE
  5
2E9
330
1F
100
AcDbEntity
  8
0
  6
Continuous
 62
     7
370
    15
100
AcDbLine
 10
229.0087520632
 20
513.9089335153
 30
0.0
 11
229.0087520632
 21
514.9695936289
 31
0.0
  0
LINE
  5
2EA
330
1F
100
AcDbEntity
  8
0
  6
Continuous
 62
     7
370
    15
100
AcDbLine
 10
229.0087520632
 20
514.9695936289
 30
0.0
 11
235.5087279829
 21
514.9695936289
 31
0.0
  0
LINE
  5
2EB
330
1F
100
AcDbEntity
  8
0
  6
Continuous
 62
     7
370
    15
100
AcDbLine
 10
235.5087279829
 20
513.1077786373
 30
0.0
 11
235.5087279829
 21
514.9695936289
 31
0.0
  0
LINE
  5
2EC
330
1F
100
AcDbEntity
  8
0
  6
Continuous
 62
     7
370
    15
100
AcDbLine
 10
235.5087279829
 20
513.1077786373
 30
0.0
 11
234.2087506803
 21
513.1077786373
 31
0.0
  0
LINE
  5
2ED
330
1F
100
AcDbEntity
  8
0
  6
Continuous
 62
     7
370
    15
100
AcDbLine
 10
235.5087279829
 20
519.4950770983
 30
0.0
 11
229.0087520632
 21
519.4950770983
 31
0.0
  0
LINE
  5
2EE
330
1F
100
AcDbEntity
  8
0
  6
Continuous
 62
     7
370
    15
100
AcDbLine
 10
235.5087279829
 20
514.9695936289
 30
0.0
 11
235.5087279829
 21
519.4950770983
 31
0.0
  0
LINE
  5
2EF
330
1F
100
AcDbEntity
  8
0
  6
Continuous
 62
     7
370
    15
100
AcDbLine
 10
229.0087520632
 20
514.9695936289
 30
0.0
 11
229.0087520632
 21
519.4950770983
 31
0.0
  0
LINE
  5
2F0
330
1F
100
AcDbEntity
  8
0
  6
Continuous
 62
     7
370
    15
100
AcDbLine
 10
235.5087279829
 20
502.3070686893
 30
0.0
 11
235.5087279829
 21
513.1077786373
 31
0.0
  0
LINE
  5
2F1
330
1F
100
AcDbEntity
  8
0
  6
Continuous
 62
     7
370
    15
100
AcDbLine
 10
232.9087435755
 20
499.7667969601
 30
0.0
 11
229.0087520632
 21
499.7667969601
 31
0.0
  0
LINE
  5
2F2
330
1F
100
AcDbEntity
  8
0
  6
Continuous
 62
     7
370
    15
100
AcDbLine
 10
229.0087520632
 20
499.7667969601
 30
0.0
 11
229.0087520632
 21
500.8274578886
 31
0.0
  0
LINE
  5
2F3
330
1F
100
AcDbEntity
  8
0
  6
Continuous
 62
     7
370
    15
100
AcDbLine
 10
229.0087520632
 20
500.8274578886
 30
0.0
 11
232.9087435755
 21
500.8274578886
 31
0.0
  0
LINE
  5
2F4
330
1F
100
AcDbEntity
  8
0
  6
Continuous
 62
     7
370
    15
100
AcDbLine
 10
229.0087520632
 20
500.8274578886
 30
0.0
 11
229.0087520632
 21
504.2960421579
 31
0.0
  0
LINE
  5
2F5
330
1F
100
AcDbEntity
  8
0
  6
Continuous
 62
     7
370
    15
100
AcDbLine
 10
232.2087466272
 20
504.1309372919
 30
0.0
 11
232.2087466272
 21
513.9089335153
 31
0.0
  0
LINE
  5
2F6
330
1F
100
AcDbEntity
  8
0
  6
Continuous
 62
     7
370
    15
100
AcDbLine
 10
245.5087482485
 20
504.1309372919
 30
0.0
 11
245.5087482485
 21
515.1309374651
 31
0.0
  0
SPLINE
  5
2F7
330
1F
100
AcDbEntity
  8
0
  6
Continuous
 62
     7
370
    15
100
AcDbSpline
210
0.0
220
0.0
230
1.0
 70
     8
 71
     3
 72
    11
 73
     7
 74
     0
 42
0.00000001
 43
0.00000001
 12
1.0
 22
0.0
 32
0.0
 13
1.0
 23
0.0
 33
0.0
 40
0.0
 40
0.0
 40
0.0
 40
0.0
 40
0.2164600731674612
 40
0.4403207421459771
 40
0.7519076421798584
 40
0.9999999999999999
 40
0.9999999999999999
 40
0.9999999999999999
 40
0.9999999999999999
 10
239.5087360891261
 20
508.8750786544715
 30
0.0
 10
239.6898380099547
 20
508.561402658658
 30
0.0
 10
240.0582335806318
 20
507.9233263370118
 30
0.0
 10
240.3652675992473
 20
506.7392312217162
 30
0.0
 10
240.1801189574741
 20
505.469113539148
 30
0.0
 10
239.7149391242123
 20
504.6563296936507
 30
0.0
 10
239.5087360891262
 20
504.2960421578917
 30
0.0
  0
SPLINE
  5
2F8
330
1F
100
AcDbEntity
  8
0
  6
Continuous
 62
     7
370
    15
100
AcDbSpline
210
0.0
220
0.0
230
1.0
 70
     8
 71
     3
 72
    11
 73
     7
 74
     0
 42
0.00000001
 43
0.00000001
 12
1.0
 22
0.0
 32
0.0
 13
1.0
 23
0.0
 33
0.0
 40
0.0
 40
0.0
 40
0.0
 40
0.0
 40
0.2164604586033526
 40
0.4403240816593273
 40
0.751909683717767
 40
1.0
 40
1.0
 40
1.0
 40
1.0
 10
239.5087360891262
 20
514.2099739914719
 30
0.0
 10
239.6898381959716
 20
513.844518002481
 30
0.0
 10
240.058236283076
 20
513.1011070636997
 30
0.0
 10
240.3652654224564
 20
511.7215808254941
 30
0.0
 10
240.1801207948342
 20
510.2417892390267
 30
0.0
 10
239.7149393653301
 20
509.2948382911773
 30
0.0
 10
239.5087360891262
 20
508.8750786544715
 30
0.0
  0
SPLINE
  5
2F9
330
1F
100
AcDbEntity
  8
0
  6
Continuous
 62
     7
370
    15
100
AcDbSpline
210
0.0
220
0.0
230
1.0
 70
     8
 71
     3
 72
    11
 73
     7
 74
     0
 42
0.00000001
 43
0.00000001
 12
1.0
 22
0.0
 32
0.0
 13
1.0
 23
0.0
 33
0.0
 40
0.0
 40
0.0
 40
0.0
 40
0.0
 40
0.2164630255797368
 40
0.4403225674007143
 40
0.751910610114396
 40
1.0
 40
1.0
 40
1.0
 40
1.0
 10
239.5087360891262
 20
514.9658323662314
 30
0.0
 10
239.6898377050229
 20
514.9140544119169
 30
0.0
 10
240.058229157829
 20
514.8087292566508
 30
0.0
 10
240.3652686628464
 20
514.6132676115192
 30
0.0
 10
240.1801231024157
 20
514.403614096808
 30
0.0
 10
239.7149391540054
 20
514.2694466688002
 30
0.0
 10
239.5087360891262
 20
514.2099739914719
 30
0.0
  0
LINE
  5
2FA
330
1F
100
AcDbEntity
  8
0
  6
Continuous
 62
     7
370
    15
100
AcDbLine
 10
240.5087530168
 20
514.4044401986
 30
0.0
 11
240.5087530168
 21
505.2200734081
 31
0.0
  0
LINE
  5
2FB
330
1F
100
AcDbEntity
  8
0
  6
Continuous
 62
     7
370
    15
100
AcDbLine
 10
240.5087530168
 20
505.2200734081
 30
0.0
 11
239.5087360891
 21
504.2960421579
 31
0.0
  0
SPLINE
  5
2FC
330
1F
100
AcDbEntity
  8
0
  6
Continuous
 62
     7
370
    15
100
AcDbSpline
210
0.0
220
0.0
230
1.0
 70
     8
 71
     3
 72
    11
 73
     7
 74
     0
 42
0.00000001
 43
0.00000001
 12
1.0
 22
0.0
 32
0.0
 13
1.0
 23
0.0
 33
0.0
 40
0.0
 40
0.0
 40
0.0
 40
0.0
 40
0.2164605200268098
 40
0.4403223157208039
 40
0.7519097222841243
 40
0.9999999999999999
 40
0.9999999999999999
 40
0.9999999999999999
 40
0.9999999999999999
 10
236.5087449106136
 20
508.8750786544715
 30
0.0
 10
236.3276429078356
 20
509.2405335517966
 30
0.0
 10
235.9592466144377
 20
509.9839390774869
 30
0.0
 10
235.6522143188651
 20
511.3634871621209
 30
0.0
 10
235.837358936247
 20
512.8432564757985
 30
0.0
 10
236.3025417177762
 20
513.7902131888955
 30
0.0
 10
236.5087449106135
 20
514.2099739914719
 30
0.0
  0
SPLINE
  5
2FD
330
1F
100
AcDbEntity
  8
0
  6
Continuous
 62
     7
370
    15
100
AcDbSpline
210
0.0
220
0.0
230
1.0
 70
     8
 71
     3
 72
    11
 73
     7
 74
     0
 42
0.00000001
 43
0.00000001
 12
1.0
 22
0.0
 32
0.0
 13
1.0
 23
0.0
 33
0.0
 40
0.0
 40
0.0
 40
0.0
 40
0.0
 40
0.2164629780019707
 40
0.4403236502849722
 40
0.7519105549182966
 40
1.0
 40
1.0
 40
1.0
 40
1.0
 10
236.5087449106136
 20
504.2960421578917
 30
0.0
 10
236.3276432303162
 20
504.6097172887252
 30
0.0
 10
235.9592506595525
 20
505.2477875023342
 30
0.0
 10
235.6522131138136
 20
506.4318925823338
 30
0.0
 10
235.8373587378759
 20
507.7019991803564
 30
0.0
 10
236.3025417956724
 20
508.5147902668662
 30
0.0
 10
236.5087449106136
 20
508.8750786544715
 30
0.0
  0
SPLINE
  5
2FE
330
1F
100
AcDbEntity
  8
0
  6
Continuous
 62
     7
370
    15
100
AcDbSpline
210
0.0
220
0.0
230
1.0
 70
     8
 71
     3
 72
     9
 73
     5
 74
     0
 42
0.00000001
 43
0.00000001
 12
1.0
 22
0.0
 32
0.0
 13
1.0
 23
0.0
 33
0.0
 40
0.0
 40
0.0
 40
0.0
 40
0.0
 40
0.3613870323142612
 40
1.0
 40
1.0
 40
1.0
 40
1.0
 10
235.8621835264125
 20
504.5874203951988
 30
0.0
 10
235.8800757155896
 20
504.5503545249342
 30
0.0
 10
235.9295854864926
 20
504.4477889457896
 30
0.0
 10
236.2830304033475
 20
504.3551820942082
 30
0.0
 10
236.5087449106136
 20
504.2960421578917
 30
0.0
  0
SPLINE
  5
2FF
330
1F
100
AcDbEntity
  8
0
  6
Continuous
 62
     7
370
    15
100
AcDbSpline
210
0.0
220
0.0
230
1.0
 70
     8
 71
     3
 72
    11
 73
     7
 74
     0
 42
0.00000001
 43
0.00000001
 12
1.0
 22
0.0
 32
0.0
 13
1.0
 23
0.0
 33
0.0
 40
0.0
 40
0.0
 40
0.0
 40
0.0
 40
0.2164584269549598
 40
0.440322718318786
 40
0.7519106792443632
 40
0.9999999999999999
 40
0.9999999999999999
 40
0.9999999999999999
 40
0.9999999999999999
 10
236.5087449106136
 20
514.2099739914719
 30
0.0
 10
236.3276424909043
 20
514.2617526757974
 30
0.0
 10
235.9592414502875
 20
514.3670815897784
 30
0.0
 10
235.6522165938237
 20
514.5625348028443
 30
0.0
 10
235.8373567189726
 20
514.772192837081
 30
0.0
 10
236.3025414851129
 20
514.9063598662377
 30
0.0
 10
236.5087449106136
 20
514.9658323662314
 30
0.0
  0
LINE
  5
300
330
1F
100
AcDbEntity
  8
0
  6
Continuous
 62
     7
370
    15
100
AcDbLine
 10
236.5087449106
 20
508.8750786545
 30
0.0
 11
239.5087360891
 21
508.8750786545
 31
0.0
  0
LINE
  5
301
330
1F
100
AcDbEntity
  8
0
  6
Continuous
 62
     7
370
    15
100
AcDbLine
 10
236.5087449106
 20
514.2099739915
 30
0.0
 11
239.5087360891
 21
514.2099739915
 31
0.0
  0
LINE
  5
302
330
1F
100
AcDbEntity
  8
0
  6
Continuous
 62
     7
370
    15
100
AcDbLine
 10
236.5087449106
 20
504.2960421579
 30
0.0
 11
239.5087360891
 21
504.2960421579
 31
0.0
  0
SPLINE
  5
303
330
1F
100
AcDbEntity
  8
0
  6
Continuous
 62
     7
370
    15
100
AcDbSpline
210
0.0
220
0.0
230
1.0
 70
     8
 71
     3
 72
     9
 73
     5
 74
     0
 42
0.00000001
 43
0.00000001
 12
1.0
 22
0.0
 32
0.0
 13
1.0
 23
0.0
 33
0.0
 40
0.0
 40
0.0
 40
0.0
 40
0.0
 40
0.5549883869470134
 40
1.0
 40
1.0
 40
1.0
 40
1.0
 10
239.5087360891262
 20
504.2960421578917
 30
0.0
 10
239.6971932663342
 20
504.347662171233
 30
0.0
 10
240.0367628530864
 20
504.4406731504811
 30
0.0
 10
240.1567211216193
 20
504.5423931597126
 30
0.0
 10
240.2101039441982
 20
504.5876597451005
 30
0.0
  0
LINE
  5
304
330
1F
100
AcDbEntity
  8
0
  6
Continuous
 62
     7
370
    15
100
AcDbLine
 10
240.5087530168
 20
505.2200734081
 30
0.0
 11
240.5087530168
 21
504.857435024
 31
0.0
  0
LINE
  5
305
330
1F
100
AcDbEntity
  8
0
  6
Continuous
 62
     7
370
    15
100
AcDbLine
 10
239.5087360891
 20
514.9658323662
 30
0.0
 11
236.5087449106
 21
514.9658323662
 31
0.0
  0
SPLINE
  5
306
330
1F
100
AcDbEntity
  8
0
  6
Continuous
 62
     7
370
    15
100
AcDbSpline
210
0.0
220
0.0
230
1.0
 70
     8
 71
     3
 72
    11
 73
     7
 74
     0
 42
0.00000001
 43
0.00000001
 12
1.0
 22
0.0
 32
0.0
 13
1.0
 23
0.0
 33
0.0
 40
0.0
 40
0.0
 40
0.0
 40
0.0
 40
0.2164600731674612
 40
0.4403207421459771
 40
0.7519076421798584
 40
0.9999999999999999
 40
0.9999999999999999
 40
0.9999999999999999
 40
0.9999999999999999
 10
231.2087296995082
 20
508.8750786544715
 30
0.0
 10
231.3898316203368
 20
508.561402658658
 30
0.0
 10
231.7582271910139
 20
507.9233263370118
 30
0.0
 10
232.0652612096295
 20
506.7392312217162
 30
0.0
 10
231.8801125678561
 20
505.469113539148
 30
0.0
 10
231.4149327345944
 20
504.6563296936507
 30
0.0
 10
231.2087296995082
 20
504.2960421578917
 30
0.0
  0
SPLINE
  5
307
330
1F
100
AcDbEntity
  8
0
  6
Continuous
 62
     7
370
    15
100
AcDbSpline
210
0.0
220
0.0
230
1.0
 70
     8
 71
     3
 72
    11
 73
     7
 74
     0
 42
0.00000001
 43
0.00000001
 12
1.0
 22
0.0
 32
0.0
 13
1.0
 23
0.0
 33
0.0
 40
0.0
 40
0.0
 40
0.0
 40
0.0
 40
0.1676822840523285
 40
0.4054822285115408
 40
0.7364651629084368
 40
1.0
 40
1.0
 40
1.0
 40
1.0
 10
231.3434958013454
 20
513.9089335152838
 30
0.0
 10
231.4738913660873
 20
513.6418470479033
 30
0.0
 10
231.7892084222593
 20
512.9959898149177
 30
0.0
 10
232.0621508273084
 20
511.7205199671628
 30
0.0
 10
231.8807908639396
 20
510.2420201204358
 30
0.0
 10
231.415140737378
 20
509.294909202091
 30
0.0
 10
231.2087296995082
 20
508.8750786544715
 30
0.0
  0
LINE
  5
308
330
1F
100
AcDbEntity
  8
0
  6
Continuous
 62
     7
370
    15
100
AcDbLine
 10
232.2087466272
 20
505.2200734081
 30
0.0
 11
231.2087296995
 21
504.2960421579
 31
0.0
  0
LINE
  5
309
330
1F
100
AcDbEntity
  8
0
  6
Continuous
 62
     7
370
    15
100
AcDbLine
 10
227.2087513956
 20
504.857435024
 30
0.0
 11
227.2087513956
 21
514.4044401986
 31
0.0
  0
SPLINE
  5
30A
330
1F
100
AcDbEntity
  8
0
  6
Continuous
 62
     7
370
    15
100
AcDbSpline
210
0.0
220
0.0
230
1.0
 70
     8
 71
     3
 72
    11
 73
     7
 74
     0
 42
0.00000001
 43
0.00000001
 12
1.0
 22
0.0
 32
0.0
 13
1.0
 23
0.0
 33
0.0
 40
0.0
 40
0.0
 40
0.0
 40
0.0
 40
0.2164605200268098
 40
0.4403223157208039
 40
0.7519097222841243
 40
0.9999999999999999
 40
0.9999999999999999
 40
0.9999999999999999
 40
0.9999999999999999
 10
228.2087385209956
 20
508.8750786544715
 30
0.0
 10
228.0276365182177
 20
509.2405335517966
 30
0.0
 10
227.6592402248197
 20
509.9839390774869
 30
0.0
 10
227.3522079292472
 20
511.3634871621209
 30
0.0
 10
227.5373525466291
 20
512.8432564757985
 30
0.0
 10
228.0025353281582
 20
513.7902131888955
 30
0.0
 10
228.2087385209956
 20
514.2099739914719
 30
0.0
  0
SPLINE
  5
30B
330
1F
100
AcDbEntity
  8
0
  6
Continuous
 62
     7
370
    15
100
AcDbSpline
210
0.0
220
0.0
230
1.0
 70
     8
 71
     3
 72
    11
 73
     7
 74
     0
 42
0.00000001
 43
0.00000001
 12
1.0
 22
0.0
 32
0.0
 13
1.0
 23
0.0
 33
0.0
 40
0.0
 40
0.0
 40
0.0
 40
0.0
 40
0.2164629780019707
 40
0.4403236502849722
 40
0.7519105549182966
 40
1.0
 40
1.0
 40
1.0
 40
1.0
 10
228.2087385209956
 20
504.2960421578917
 30
0.0
 10
228.0276368406982
 20
504.6097172887252
 30
0.0
 10
227.6592442699345
 20
505.2477875023342
 30
0.0
 10
227.3522067241957
 20
506.4318925823338
 30
0.0
 10
227.5373523482581
 20
507.7019991803564
 30
0.0
 10
228.0025354060544
 20
508.5147902668662
 30
0.0
 10
228.2087385209956
 20
508.8750786544715
 30
0.0
  0
SPLINE
  5
30C
330
1F
100
AcDbEntity
  8
0
  6
Continuous
 62
     7
370
    15
100
AcDbSpline
210
0.0
220
0.0
230
1.0
 70
     8
 71
     3
 72
     9
 73
     5
 74
     0
 42
0.00000001
 43
0.00000001
 12
1.0
 22
0.0
 32
0.0
 13
1.0
 23
0.0
 33
0.0
 40
0.0
 40
0.0
 40
0.0
 40
0.0
 40
0.361386132197284
 40
1.0
 40
1.0
 40
1.0
 40
1.0
 10
227.562206939117
 20
504.5874203951988
 30
0.0
 10
227.5800875056571
 20
504.5503545018886
 30
0.0
 10
227.6295652386056
 20
504.4477886035104
 30
0.0
 10
227.9830184186198
 20
504.3551820116828
 30
0.0
 10
228.2087385209956
 20
504.2960421578917
 30
0.0
  0
SPLINE
  5
30D
330
1F
100
AcDbEntity
  8
0
  6
Continuous
 62
     7
370
    15
100
AcDbSpline
210
0.0
220
0.0
230
1.0
 70
     8
 71
     3
 72
    11
 73
     7
 74
     0
 42
0.00000001
 43
0.00000001
 12
1.0
 22
0.0
 32
0.0
 13
1.0
 23
0.0
 33
0.0
 40
0.0
 40
0.0
 40
0.0
 40
0.0
 40
0.2164584269549598
 40
0.440322718318786
 40
0.7519106792443632
 40
0.9999999999999999
 40
0.9999999999999999
 40
0.9999999999999999
 40
0.9999999999999999
 10
228.2087385209956
 20
514.2099739914719
 30
0.0
 10
228.0276361012863
 20
514.2617526757974
 30
0.0
 10
227.6592350606697
 20
514.3670815897784
 30
0.0
 10
227.3522102042056
 20
514.5625348028443
 30
0.0
 10
227.5373503293547
 20
514.772192837081
 30
0.0
 10
228.0025350954949
 20
514.9063598662377
 30
0.0
 10
228.2087385209956
 20
514.9658323662314
 30
0.0
  0
LINE
  5
30E
330
1F
100
AcDbEntity
  8
0
  6
Continuous
 62
     7
370
    15
100
AcDbLine
 10
228.208738521
 20
508.8750786545
 30
0.0
 11
231.2087296995
 21
508.8750786545
 31
0.0
  0
LINE
  5
30F
330
1F
100
AcDbEntity
  8
0
  6
Continuous
 62
     7
370
    15
100
AcDbLine
 10
228.208738521
 20
514.2099739915
 30
0.0
 11
229.0087520632
 21
514.2099739915
 31
0.0
  0
LINE
  5
310
330
1F
100
AcDbEntity
  8
0
  6
Continuous
 62
     7
370
    15
100
AcDbLine
 10
228.208738521
 20
504.2960421579
 30
0.0
 11
231.2087296995
 21
504.2960421579
 31
0.0
  0
SPLINE
  5
311
330
1F
100
AcDbEntity
  8
0
  6
Continuous
 62
     7
370
    15
100
AcDbSpline
210
0.0
220
0.0
230
1.0
 70
     8
 71
     3
 72
     9
 73
     5
 74
     0
 42
0.00000001
 43
0.00000001
 12
1.0
 22
0.0
 32
0.0
 13
1.0
 23
0.0
 33
0.0
 40
0.0
 40
0.0
 40
0.0
 40
0.0
 40
0.5549883869470134
 40
1.0
 40
1.0
 40
1.0
 40
1.0
 10
231.2087296995082
 20
504.2960421578917
 30
0.0
 10
231.3971868767162
 20
504.347662171233
 30
0.0
 10
231.7367564634685
 20
504.4406731504811
 30
0.0
 10
231.8567147320013
 20
504.5423931597126
 30
0.0
 10
231.9100975545803
 20
504.5876597451005
 30
0.0
  0
LINE
  5
312
330
1F
100
AcDbEntity
  8
0
  6
Continuous
 62
     7
370
    15
100
AcDbLine
 10
229.0087520632
 20
514.9658323662
 30
0.0
 11
228.208738521
 21
514.9658323662
 31
0.0
  0
SPLINE
  5
313
330
1F
100
AcDbEntity
  8
0
  6
Continuous
 62
     7
370
    15
100
AcDbSpline
210
0.0
220
0.0
230
1.0
 70
     8
 71
     3
 72
    11
 73
     7
 74
     0
 42
0.00000001
 43
0.00000001
 12
1.0
 22
0.0
 32
0.0
 13
1.0
 23
0.0
 33
0.0
 40
0.0
 40
0.0
 40
0.0
 40
0.0
 40
0.2164600731674612
 40
0.4403207421459771
 40
0.7519076421798584
 40
0.9999999999999999
 40
0.9999999999999999
 40
0.9999999999999999
 40
0.9999999999999999
 10
244.5087313207545
 20
508.8750786544715
 30
0.0
 10
244.6898332415832
 20
508.561402658658
 30
0.0
 10
245.0582288122603
 20
507.9233263370118
 30
0.0
 10
245.3652628308758
 20
506.7392312217162
 30
0.0
 10
245.1801141891025
 20
505.469113539148
 30
0.0
 10
244.7149343558407
 20
504.6563296936507
 30
0.0
 10
244.5087313207546
 20
504.2960421578917
 30
0.0
  0
SPLINE
  5
314
330
1F
100
AcDbEntity
  8
0
  6
Continuous
 62
     7
370
    15
100
AcDbSpline
210
0.0
220
0.0
230
1.0
 70
     8
 71
     3
 72
    11
 73
     7
 74
     0
 42
0.00000001
 43
0.00000001
 12
1.0
 22
0.0
 32
0.0
 13
1.0
 23
0.0
 33
0.0
 40
0.0
 40
0.0
 40
0.0
 40
0.0
 40
0.2164604586033526
 40
0.4403240816593273
 40
0.751909683717767
 40
1.0
 40
1.0
 40
1.0
 40
1.0
 10
244.5087313207546
 20
514.2099739914719
 30
0.0
 10
244.6898334276001
 20
513.844518002481
 30
0.0
 10
245.0582315147045
 20
513.1011070636997
 30
0.0
 10
245.3652606540848
 20
511.7215808254941
 30
0.0
 10
245.1801160264627
 20
510.2417892390267
 30
0.0
 10
244.7149345969586
 20
509.2948382911773
 30
0.0
 10
244.5087313207546
 20
508.8750786544715
 30
0.0
  0
SPLINE
  5
315
330
1F
100
AcDbEntity
  8
0
  6
Continuous
 62
     7
370
    15
100
AcDbSpline
210
0.0
220
0.0
230
1.0
 70
     8
 71
     3
 72
    11
 73
     7
 74
     0
 42
0.00000001
 43
0.00000001
 12
1.0
 22
0.0
 32
0.0
 13
1.0
 23
0.0
 33
0.0
 40
0.0
 40
0.0
 40
0.0
 40
0.0
 40
0.2164630255797368
 40
0.4403225674007143
 40
0.751910610114396
 40
1.0
 40
1.0
 40
1.0
 40
1.0
 10
244.5087313207546
 20
514.9658323662314
 30
0.0
 10
244.6898329366513
 20
514.9140544119169
 30
0.0
 10
245.0582243894574
 20
514.8087292566508
 30
0.0
 10
245.3652638944748
 20
514.6132676115192
 30
0.0
 10
245.1801183340442
 20
514.403614096808
 30
0.0
 10
244.7149343856339
 20
514.2694466688002
 30
0.0
 10
244.5087313207546
 20
514.2099739914719
 30
0.0
  0
LINE
  5
316
330
1F
100
AcDbEntity
  8
0
  6
Continuous
 62
     7
370
    15
100
AcDbLine
 10
245.5087482485
 20
505.2200734081
 30
0.0
 11
244.5087313208
 21
504.2960421579
 31
0.0
  0
LINE
  5
317
330
1F
100
AcDbEntity
  8
0
  6
Continuous
 62
     7
370
    15
100
AcDbLine
 10
240.5087530168
 20
504.857435024
 30
0.0
 11
240.5087530168
 21
514.4044401986
 31
0.0
  0
SPLINE
  5
318
330
1F
100
AcDbEntity
  8
0
  6
Continuous
 62
     7
370
    15
100
AcDbSpline
210
0.0
220
0.0
230
1.0
 70
     8
 71
     3
 72
    11
 73
     7
 74
     0
 42
0.00000001
 43
0.00000001
 12
1.0
 22
0.0
 32
0.0
 13
1.0
 23
0.0
 33
0.0
 40
0.0
 40
0.0
 40
0.0
 40
0.0
 40
0.2164605200268098
 40
0.4403223157208039
 40
0.7519097222841243
 40
0.9999999999999999
 40
0.9999999999999999
 40
0.9999999999999999
 40
0.9999999999999999
 10
241.508740142242
 20
508.8750786544715
 30
0.0
 10
241.3276381394641
 20
509.2405335517966
 30
0.0
 10
240.959241846066
 20
509.9839390774869
 30
0.0
 10
240.6522095504936
 20
511.3634871621209
 30
0.0
 10
240.8373541678754
 20
512.8432564757985
 30
0.0
 10
241.3025369494045
 20
513.7902131888955
 30
0.0
 10
241.5087401422419
 20
514.2099739914719
 30
0.0
  0
SPLINE
  5
319
330
1F
100
AcDbEntity
  8
0
  6
Continuous
 62
     7
370
    15
100
AcDbSpline
210
0.0
220
0.0
230
1.0
 70
     8
 71
     3
 72
    11
 73
     7
 74
     0
 42
0.00000001
 43
0.00000001
 12
1.0
 22
0.0
 32
0.0
 13
1.0
 23
0.0
 33
0.0
 40
0.0
 40
0.0
 40
0.0
 40
0.0
 40
0.2164629780019707
 40
0.4403236502849722
 40
0.7519105549182966
 40
1.0
 40
1.0
 40
1.0
 40
1.0
 10
241.508740142242
 20
504.2960421578917
 30
0.0
 10
241.3276384619445
 20
504.6097172887252
 30
0.0
 10
240.9592458911809
 20
505.2477875023342
 30
0.0
 10
240.652208345442
 20
506.4318925823338
 30
0.0
 10
240.8373539695043
 20
507.7019991803564
 30
0.0
 10
241.3025370273008
 20
508.5147902668662
 30
0.0
 10
241.508740142242
 20
508.8750786544715
 30
0.0
  0
SPLINE
  5
31A
330
1F
100
AcDbEntity
  8
0
  6
Continuous
 62
     7
370
    15
100
AcDbSpline
210
0.0
220
0.0
230
1.0
 70
     8
 71
     3
 72
     9
 73
     5
 74
     0
 42
0.00000001
 43
0.00000001
 12
1.0
 22
0.0
 32
0.0
 13
1.0
 23
0.0
 33
0.0
 40
0.0
 40
0.0
 40
0.0
 40
0.0
 40
0.361386132197284
 40
1.0
 40
1.0
 40
1.0
 40
1.0
 10
240.8622085603634
 20
504.5874203951988
 30
0.0
 10
240.8800891269035
 20
504.5503545018886
 30
0.0
 10
240.9295668598519
 20
504.4477886035104
 30
0.0
 10
241.283020039866
 20
504.3551820116828
 30
0.0
 10
241.508740142242
 20
504.2960421578917
 30
0.0
  0
SPLINE
  5
31B
330
1F
100
AcDbEntity
  8
0
  6
Continuous
 62
     7
370
    15
100
AcDbSpline
210
0.0
220
0.0
230
1.0
 70
     8
 71
     3
 72
    11
 73
     7
 74
     0
 42
0.00000001
 43
0.00000001
 12
1.0
 22
0.0
 32
0.0
 13
1.0
 23
0.0
 33
0.0
 40
0.0
 40
0.0
 40
0.0
 40
0.0
 40
0.2164584269549598
 40
0.440322718318786
 40
0.7519106792443632
 40
0.9999999999999999
 40
0.9999999999999999
 40
0.9999999999999999
 40
0.9999999999999999
 10
241.508740142242
 20
514.2099739914719
 30
0.0
 10
241.3276377225327
 20
514.2617526757974
 30
0.0
 10
240.959236681916
 20
514.3670815897784
 30
0.0
 10
240.652211825452
 20
514.5625348028443
 30
0.0
 10
240.8373519506011
 20
514.772192837081
 30
0.0
 10
241.3025367167413
 20
514.9063598662377
 30
0.0
 10
241.508740142242
 20
514.9658323662314
 30
0.0
  0
LINE
  5
31C
330
1F
100
AcDbEntity
  8
0
  6
Continuous
 62
     7
370
    15
100
AcDbLine
 10
241.5087401422
 20
508.8750786545
 30
0.0
 11
244.5087313208
 21
508.8750786545
 31
0.0
  0
LINE
  5
31D
330
1F
100
AcDbEntity
  8
0
  6
Continuous
 62
     7
370
    15
100
AcDbLine
 10
241.5087401422
 20
514.2099739915
 30
0.0
 11
244.5087313208
 21
514.2099739915
 31
0.0
  0
LINE
  5
31E
330
1F
100
AcDbEntity
  8
0
  6
Continuous
 62
     7
370
    15
100
AcDbLine
 10
241.5087401422
 20
504.2960421579
 30
0.0
 11
244.5087313208
 21
504.2960421579
 31
0.0
  0
SPLINE
  5
31F
330
1F
100
AcDbEntity
  8
0
  6
Continuous
 62
     7
370
    15
100
AcDbSpline
210
0.0
220
0.0
230
1.0
 70
     8
 71
     3
 72
     9
 73
     5
 74
     0
 42
0.00000001
 43
0.00000001
 12
1.0
 22
0.0
 32
0.0
 13
1.0
 23
0.0
 33
0.0
 40
0.0
 40
0.0
 40
0.0
 40
0.0
 40
0.5549883869470134
 40
1.0
 40
1.0
 40
1.0
 40
1.0
 10
244.5087313207546
 20
504.2960421578917
 30
0.0
 10
244.6971884979625
 20
504.347662171233
 30
0.0
 10
245.0367580847148
 20
504.4406731504811
 30
0.0
 10
245.1567163532477
 20
504.5423931597126
 30
0.0
 10
245.2100991758266
 20
504.5876597451005
 30
0.0
  0
LINE
  5
320
330
1F
100
AcDbEntity
  8
0
  6
Continuous
 62
     7
370
    15
100
AcDbLine
 10
244.5087313208
 20
514.9658323662
 30
0.0
 11
241.5087401422
 21
514.9658323662
 31
0.0
  0
LINE
  5
321
330
1F
100
AcDbEntity
  8
0
  6
Continuous
 62
     7
370
    15
100
AcDbLine
 10
744.4911106976
 20
444.6892180877
 30
0.0
 11
748.0087384137
 21
444.6892180877
 31
0.0
  0
LINE
  5
322
330
1F
100
AcDbEntity
  8
0
  6
Continuous
 62
     7
370
    15
100
AcDbLine
 10
745.1170488748
 20
445.6892126637
 30
0.0
 11
747.5529714974
 21
445.6892126637
 31
0.0
  0
LINE
  5
323
330
1F
100
AcDbEntity
  8
0
  6
Continuous
 62
     7
370
    15
100
AcDbLine
 10
744.5138796719
 20
443.6892160611
 30
0.0
 11
748.0087384137
 21
443.6892160611
 31
0.0
  0
LINE
  5
324
330
1F
100
AcDbEntity
  8
0
  6
Continuous
 62
     7
370
    15
100
AcDbLine
 10
747.4454596194
 20
442.6892140346
 30
0.0
 11
745.2245682033
 21
442.6892140346
 31
0.0
  0
LINE
  5
325
330
1F
100
AcDbEntity
  8
0
  6
Continuous
 62
     7
370
    15
100
AcDbLine
 10
729.0850124809
 20
446.4809411602
 30
0.0
 11
726.9350133392
 21
446.4809411602
 31
0.0
  0
LINE
  5
326
330
1F
100
AcDbEntity
  8
0
  6
Continuous
 62
     7
370
    15
100
AcDbLine
 10
729.0850124809
 20
446.4809411602
 30
0.0
 11
729.0850124809
 21
441.9809394913
 31
0.0
  0
LINE
  5
327
330
1F
100
AcDbEntity
  8
0
  6
Continuous
 62
     7
370
    15
100
AcDbLine
 10
726.9350133392
 20
446.4809411602
 30
0.0
 11
726.9350133392
 21
441.9809394913
 31
0.0
  0
LINE
  5
328
330
1F
100
AcDbEntity
  8
0
  6
Continuous
 62
     7
370
    15
100
AcDbLine
 10
729.0850124809
 20
441.9809394913
 30
0.0
 11
726.9350133392
 21
441.9809394913
 31
0.0
  0
ARC
  5
329
330
1F
100
AcDbEntity
  8
0
  6
Continuous
 62
     7
370
    15
100
AcDbCircle
 10
746.3350123189
 20
444.2309374744
 30
0.0
 40
1.899999999999977
100
AcDbArc
 50
90.0
 51
331.7522921995
  0
ARC
  5
32A
330
1F
100
AcDbEntity
  8
0
  6
Continuous
 62
     7
370
    15
100
AcDbCircle
 10
746.3350123189
 20
444.2309374744
 30
0.0
 40
1.899999999999977
100
AcDbArc
 50
28.2477078005
 51
90.0
  0
SPLINE
  5
32B
330
1F
100
AcDbEntity
  8
0
  6
Continuous
 62
     7
370
    15
100
AcDbSpline
210
0.0
220
0.0
230
1.0
 70
     8
 71
     3
 72
    12
 73
     8
 74
     0
 42
0.00000001
 43
0.00000001
 12
1.0
 22
0.0
 32
0.0
 13
1.0
 23
0.0
 33
0.0
 40
0.0
 40
0.0
 40
0.0
 40
0.0
 40
0.1928931711593959
 40
0.4122201832023378
 40
0.6315557260841189
 40
0.8508891832548225
 40
1.0
 40
1.0
 40
1.0
 40
1.0
 10
729.0850124808708
 20
446.4809411602054
 30
0.0
 10
729.1304415772667
 20
446.6978773271101
 30
0.0
 10
729.2275253170717
 20
447.1614783241136
 30
0.0
 10
729.3765435523097
 20
447.8046068206641
 30
0.0
 10
729.5316722746126
 20
448.3146045206917
 30
0.0
 10
729.6704373998436
 20
448.5906300238394
 30
0.0
 10
729.757063209485
 20
448.6193266619342
 30
0.0
 10
729.7921210082927
 20
448.6309403018985
 30
0.0
  0
LINE
  5
32C
330
1F
100
AcDbEntity
  8
0
  6
Continuous
 62
     7
370
    15
100
AcDbLine
 10
748.0087384137
 20
448.6309403019
 30
0.0
 11
729.7921210083
 21
448.6309403019
 31
0.0
  0
LINE
  5
32D
330
1F
100
AcDbEntity
  8
0
  6
Continuous
 62
     7
370
    15
100
AcDbLine
 10
729.7921210083
 20
439.8309403496
 30
0.0
 11
748.0087384137
 21
439.8309403496
 31
0.0
  0
SPLINE
  5
32E
330
1F
100
AcDbEntity
  8
0
  6
Continuous
 62
     7
370
    15
100
AcDbSpline
210
0.0
220
0.0
230
1.0
 70
     8
 71
     3
 72
    12
 73
     8
 74
     0
 42
0.00000001
 43
0.00000001
 12
1.0
 22
0.0
 32
0.0
 13
1.0
 23
0.0
 33
0.0
 40
0.0
 40
0.0
 40
0.0
 40
0.0
 40
0.1928939931414775
 40
0.4122211610694883
 40
0.6315538760749706
 40
0.8508876460767499
 40
1.0
 40
1.0
 40
1.0
 40
1.0
 10
729.7921210082927
 20
439.8309403495822
 30
0.0
 10
729.7466904747743
 20
439.8501921570179
 30
0.0
 10
729.6496038471921
 20
439.8913339379756
 30
0.0
 10
729.5005860794304
 20
440.2348396537208
 30
0.0
 10
729.3454629617557
 20
440.7809317566963
 30
0.0
 10
729.2066892401963
 20
441.3998672175491
 30
0.0
 10
729.1200684383662
 20
441.8135283517746
 30
0.0
 10
729.0850124808708
 20
441.9809394912754
 30
0.0
  0
SPLINE
  5
32F
330
1F
100
AcDbEntity
  8
0
  6
Continuous
 62
     7
370
    15
100
AcDbSpline
210
0.0
220
0.0
230
1.0
 70
     8
 71
     3
 72
    12
 73
     8
 74
     0
 42
0.00000001
 43
0.00000001
 12
1.0
 22
0.0
 32
0.0
 13
1.0
 23
0.0
 33
0.0
 40
0.0
 40
0.0
 40
0.0
 40
0.0
 40
0.1928950812039524
 40
0.4122216263703823
 40
0.6315557034815833
 40
0.8508889169950155
 40
1.0
 40
1.0
 40
1.0
 40
1.0
 10
726.9350133391778
 20
441.9809394912754
 30
0.0
 10
726.9542667696777
 20
441.7640007692448
 30
0.0
 10
726.9954118335352
 20
441.3003972794102
 30
0.0
 10
727.3389126505134
 20
440.657267881501
 30
0.0
 10
727.8850065860014
 20
440.1472679768699
 30
0.0
 10
728.5039432423893
 20
439.8712400682454
 30
0.0
 10
728.9176026405352
 20
439.8425509615716
 30
0.0
 10
729.0850124808708
 20
439.8309403495822
 30
0.0
  0
SPLINE
  5
330
330
1F
100
AcDbEntity
  8
0
  6
Continuous
 62
     7
370
    15
100
AcDbSpline
210
0.0
220
0.0
230
1.0
 70
     8
 71
     3
 72
    12
 73
     8
 74
     0
 42
0.00000001
 43
0.00000001
 12
1.0
 22
0.0
 32
0.0
 13
1.0
 23
0.0
 33
0.0
 40
0.0
 40
0.0
 40
0.0
 40
0.0
 40
0.2241741431189818
 40
0.4483918572198803
 40
0.6726083208238742
 40
0.8968252199421356
 40
1.0
 40
1.0
 40
1.0
 40
1.0
 10
727.5850131663242
 20
441.9809394912754
 30
0.0
 10
727.6031064898134
 20
441.8048534124769
 30
0.0
 10
727.6392966534501
 20
441.4526470304006
 30
0.0
 10
727.9206239529453
 20
440.9886471298367
 30
0.0
 10
728.331474928813
 20
440.6487738711588
 30
0.0
 10
728.7482424336789
 20
440.4974225808028
 30
0.0
 10
729.0043137297165
 20
440.484886951378
 30
0.0
 10
729.0850124808708
 20
440.4809364514384
 30
0.0
  0
LINE
  5
331
330
1F
100
AcDbEntity
  8
0
  6
Continuous
 62
     7
370
    15
100
AcDbLine
 10
729.0850124809
 20
439.8309403496
 30
0.0
 11
729.0850124809
 21
440.4809364514
 31
0.0
  0
LINE
  5
332
330
1F
100
AcDbEntity
  8
0
  6
Continuous
 62
     7
370
    15
100
AcDbLine
 10
729.0850124809
 20
448.6309403019
 30
0.0
 11
729.0850124809
 21
447.9809367495
 31
0.0
  0
SPLINE
  5
333
330
1F
100
AcDbEntity
  8
0
  6
Continuous
 62
     7
370
    15
100
AcDbSpline
210
0.0
220
0.0
230
1.0
 70
     8
 71
     3
 72
    12
 73
     8
 74
     0
 42
0.00000001
 43
0.00000001
 12
1.0
 22
0.0
 32
0.0
 13
1.0
 23
0.0
 33
0.0
 40
0.0
 40
0.0
 40
0.0
 40
0.0
 40
0.2241740739152804
 40
0.4483913398860781
 40
0.672607538244202
 40
0.8968261814023052
 40
1.0
 40
1.0
 40
1.0
 40
1.0
 10
729.0850124808708
 20
447.9809367494616
 30
0.0
 10
728.908925949651
 20
447.9628435935114
 30
0.0
 10
728.5567189602765
 20
447.9266537955671
 30
0.0
 10
728.0927261899448
 20
447.645324414717
 30
0.0
 10
727.7528444717362
 20
447.2344789186202
 30
0.0
 10
727.6014940099185
 20
446.8177085267832
 30
0.0
 10
727.5889623644963
 20
446.5616385505361
 30
0.0
 10
727.5850131663242
 20
446.4809411602054
 30
0.0
  0
SPLINE
  5
334
330
1F
100
AcDbEntity
  8
0
  6
Continuous
 62
     7
370
    15
100
AcDbSpline
210
0.0
220
0.0
230
1.0
 70
     8
 71
     3
 72
    12
 73
     8
 74
     0
 42
0.00000001
 43
0.00000001
 12
1.0
 22
0.0
 32
0.0
 13
1.0
 23
0.0
 33
0.0
 40
0.0
 40
0.0
 40
0.0
 40
0.0
 40
0.1928954735306554
 40
0.4122215741758262
 40
0.6315559672148408
 40
0.8508894448453889
 40
1.0
 40
1.0
 40
1.0
 40
1.0
 10
729.0850124808708
 20
448.6309403018985
 30
0.0
 10
728.8680740774549
 20
448.6116850311898
 30
0.0
 10
728.4044722701213
 20
448.5705361236626
 30
0.0
 10
727.7613381219629
 20
448.2270430044007
 30
0.0
 10
727.251345893497
 20
447.6809418534235
 30
0.0
 10
726.9753184056628
 20
447.0620071446669
 30
0.0
 10
726.9466254685631
 20
446.6483497264581
 30
0.0
 10
726.9350133391778
 20
446.4809411602054
 30
0.0
  0
LINE
  5
335
330
1F
100
AcDbEntity
  8
0
  6
Continuous
 62
     7
370
    15
100
AcDbLine
 10
729.7921210083
 20
448.6309403019
 30
0.0
 11
729.0850124809
 21
448.6309403019
 31
0.0
  0
LINE
  5
336
330
1F
100
AcDbEntity
  8
0
  6
Continuous
 62
     7
370
    15
100
AcDbLine
 10
729.4391311261
 20
447.9809367495
 30
0.0
 11
729.0850124809
 21
447.9809367495
 31
0.0
  0
LINE
  5
337
330
1F
100
AcDbEntity
  8
0
  6
Continuous
 62
     7
370
    15
100
AcDbLine
 10
729.0850124809
 20
440.4809364514
 30
0.0
 11
729.4388070258
 21
440.4809364514
 31
0.0
  0
LINE
  5
338
330
1F
100
AcDbEntity
  8
0
  6
Continuous
 62
     7
370
    15
100
AcDbLine
 10
729.0850124809
 20
439.8309403496
 30
0.0
 11
729.7921210083
 21
439.8309403496
 31
0.0
  0
LINE
  5
339
330
1F
100
AcDbEntity
  8
0
  6
Continuous
 62
     7
370
    15
100
AcDbLine
 10
747.4454596194
 20
445.7726591663
 30
0.0
 11
745.2245682033
 21
445.7726591663
 31
0.0
  0
LINE
  5
33A
330
1F
100
AcDbEntity
  8
0
  6
Continuous
 62
     7
370
    15
100
AcDbLine
 10
747.1529721769
 20
445.6892126637
 30
0.0
 11
747.0454602989
 21
445.7726591663
 31
0.0
  0
LINE
  5
33B
330
1F
100
AcDbEntity
  8
0
  6
Continuous
 62
     7
370
    15
100
AcDbLine
 10
432.0087462219
 20
450.6309369044
 30
0.0
 11
432.0087462219
 21
449.8309382634
 31
0.0
  0
LINE
  5
33C
330
1F
100
AcDbEntity
  8
0
  6
Continuous
 62
     7
370
    15
100
AcDbLine
 10
349.0087270292
 20
449.8309382634
 30
0.0
 11
432.0087462219
 21
449.8309382634
 31
0.0
  0
LINE
  5
33D
330
1F
100
AcDbEntity
  8
0
  6
Continuous
 62
     7
370
    15
100
AcDbLine
 10
437.0087414535
 20
450.6309369044
 30
0.0
 11
437.0087414535
 21
449.8309382634
 31
0.0
  0
LINE
  5
33E
330
1F
100
AcDbEntity
  8
0
  6
Continuous
 62
     7
370
    15
100
AcDbLine
 10
432.0087462219
 20
449.8309382634
 30
0.0
 11
437.0087414535
 21
449.8309382634
 31
0.0
  0
LINE
  5
33F
330
1F
100
AcDbEntity
  8
0
  6
Continuous
 62
     7
370
    15
100
AcDbLine
 10
943.0087387117
 20
450.3309392767
 30
0.0
 11
940.5087410959
 21
450.3309392767
 31
0.0
  0
LINE
  5
340
330
1F
100
AcDbEntity
  8
0
  6
Continuous
 62
     7
370
    15
100
AcDbLine
 10
870.5087333473
 20
450.3309392767
 30
0.0
 11
753.0087410959
 21
450.3309392767
 31
0.0
  0
LINE
  5
341
330
1F
100
AcDbEntity
  8
0
  6
Continuous
 62
     7
370
    15
100
AcDbLine
 10
948.0087339434
 20
450.3309392767
 30
0.0
 11
948.0087339434
 21
450.6309369044
 31
0.0
  0
LINE
  5
342
330
1F
100
AcDbEntity
  8
0
  6
Continuous
 62
     7
370
    15
100
AcDbLine
 10
948.0087339434
 20
450.3309392767
 30
0.0
 11
943.0087387117
 21
450.3309392767
 31
0.0
  0
LINE
  5
343
330
1F
100
AcDbEntity
  8
0
  6
Continuous
 62
     7
370
    15
100
AcDbLine
 10
753.0087410959
 20
450.3309392767
 30
0.0
 11
748.0087384137
 21
450.3309392767
 31
0.0
  0
LINE
  5
344
330
1F
100
AcDbEntity
  8
0
  6
Continuous
 62
     7
370
    15
100
AcDbLine
 10
748.0087384137
 20
450.3309392767
 30
0.0
 11
748.0087384137
 21
450.6309369044
 31
0.0
  0
LINE
  5
345
330
1F
100
AcDbEntity
  8
0
  6
Continuous
 62
     7
370
    15
100
AcDbLine
 10
748.0087384137
 20
450.3309392767
 30
0.0
 11
748.0087384137
 21
449.0809404688
 31
0.0
  0
LINE
  5
346
330
1F
100
AcDbEntity
  8
0
  6
Continuous
 62
     7
370
    15
100
AcDbLine
 10
948.0087339434
 20
449.0809404688
 30
0.0
 11
948.0087339434
 21
450.3309392767
 31
0.0
  0
LINE
  5
347
330
1F
100
AcDbEntity
  8
0
  6
Continuous
 62
     7
370
    15
100
AcDbLine
 10
748.0087384137
 20
441.5809401708
 30
0.0
 11
748.0087384137
 21
449.0809404688
 31
0.0
  0
LINE
  5
348
330
1F
100
AcDbEntity
  8
0
  6
Continuous
 62
     7
370
    15
100
AcDbLine
 10
948.0087339434
 20
449.0809404688
 30
0.0
 11
948.0087339434
 21
441.5809401708
 31
0.0
  0
LINE
  5
349
330
1F
100
AcDbEntity
  8
0
  6
Continuous
 62
     7
370
    15
100
AcDbLine
 10
748.0087384137
 20
439.5309352713
 30
0.0
 11
873.6087411198
 21
439.5309352713
 31
0.0
  0
LINE
  5
34A
330
1F
100
AcDbEntity
  8
0
  6
Continuous
 62
     7
370
    15
100
AcDbLine
 10
937.4087333235
 20
439.5309352713
 30
0.0
 11
948.0087339434
 21
439.5309352713
 31
0.0
  0
LINE
  5
34B
330
1F
100
AcDbEntity
  8
0
  6
Continuous
 62
     7
370
    15
100
AcDbLine
 10
748.0087384137
 20
439.5309352713
 30
0.0
 11
748.0087384137
 21
441.5809401708
 31
0.0
  0
LINE
  5
34C
330
1F
100
AcDbEntity
  8
0
  6
Continuous
 62
     7
370
    15
100
AcDbLine
 10
948.0087339434
 20
441.5809401708
 30
0.0
 11
948.0087339434
 21
439.5309352713
 31
0.0
  0
LINE
  5
34D
330
1F
100
AcDbEntity
  8
0
  6
Continuous
 62
     7
370
    15
100
AcDbLine
 10
763.0087390098
 20
439.030934258
 30
0.0
 11
753.0087410959
 21
439.030934258
 31
0.0
  0
LINE
  5
34E
330
1F
100
AcDbEntity
  8
0
  6
Continuous
 62
     7
370
    15
100
AcDbLine
 10
753.0087410959
 20
439.030934258
 30
0.0
 11
748.0087384137
 21
439.030934258
 31
0.0
  0
LINE
  5
34F
330
1F
100
AcDbEntity
  8
0
  6
Continuous
 62
     7
370
    15
100
AcDbLine
 10
748.0087384137
 20
439.030934258
 30
0.0
 11
748.0087384137
 21
439.5309352713
 31
0.0
  0
LINE
  5
350
330
1F
100
AcDbEntity
  8
0
  6
Continuous
 62
     7
370
    15
100
AcDbLine
 10
768.008741692
 20
439.030934258
 30
0.0
 11
768.008741692
 21
439.5309352713
 31
0.0
  0
LINE
  5
351
330
1F
100
AcDbEntity
  8
0
  6
Continuous
 62
     7
370
    15
100
AcDbLine
 10
768.008741692
 20
439.030934258
 30
0.0
 11
763.0087390098
 21
439.030934258
 31
0.0
  0
LINE
  5
352
330
1F
100
AcDbEntity
  8
0
  6
Continuous
 62
     7
370
    15
100
AcDbLine
 10
943.0087387117
 20
439.030934258
 30
0.0
 11
937.4087333235
 21
439.030934258
 31
0.0
  0
LINE
  5
353
330
1F
100
AcDbEntity
  8
0
  6
Continuous
 62
     7
370
    15
100
AcDbLine
 10
948.0087339434
 20
439.030934258
 30
0.0
 11
948.0087339434
 21
439.5309352713
 31
0.0
  0
LINE
  5
354
330
1F
100
AcDbEntity
  8
0
  6
Continuous
 62
     7
370
    15
100
AcDbLine
 10
948.0087339434
 20
439.030934258
 30
0.0
 11
943.0087387117
 21
439.030934258
 31
0.0
  0
LINE
  5
355
330
1F
100
AcDbEntity
  8
0
  6
Continuous
 62
     7
370
    15
100
AcDbLine
 10
773.0087443742
 20
439.030934258
 30
0.0
 11
768.008741692
 21
439.030934258
 31
0.0
  0
LINE
  5
356
330
1F
100
AcDbEntity
  8
0
  6
Continuous
 62
     7
370
    15
100
AcDbLine
 10
873.6087411198
 20
439.030934258
 30
0.0
 11
773.0087443742
 21
439.030934258
 31
0.0
  0
LINE
  5
357
330
1F
100
AcDbEntity
  8
0
  6
Continuous
 62
     7
370
    15
100
AcDbLine
 10
943.0087387117
 20
450.6309369044
 30
0.0
 11
940.5087410959
 21
450.6309369044
 31
0.0
  0
LINE
  5
358
330
1F
100
AcDbEntity
  8
0
  6
Continuous
 62
     7
370
    15
100
AcDbLine
 10
870.5087333473
 20
450.6309369044
 30
0.0
 11
351.5087544474
 21
450.6309369044
 31
0.0
  0
LINE
  5
359
330
1F
100
AcDbEntity
  8
0
  6
Continuous
 62
     7
370
    15
100
AcDbLine
 10
948.0087339434
 20
450.6309369044
 30
0.0
 11
948.0087339434
 21
451.830934866
 31
0.0
  0
LINE
  5
35A
330
1F
100
AcDbEntity
  8
0
  6
Continuous
 62
     7
370
    15
100
AcDbLine
 10
948.0087339434
 20
450.6309369044
 30
0.0
 11
943.0087387117
 21
450.6309369044
 31
0.0
  0
LINE
  5
35B
330
1F
100
AcDbEntity
  8
0
  6
Continuous
 62
     7
370
    15
100
AcDbLine
 10
747.0087438377
 20
445.7984530764
 30
0.0
 11
747.0087438377
 21
445.6892126637
 31
0.0
  0
LINE
  5
35C
330
1F
100
AcDbEntity
  8
0
  6
Continuous
 62
     7
370
    15
100
AcDbLine
 10
747.0087438377
 20
449.3809380965
 30
0.0
 11
745.5087407979
 21
449.3809380965
 31
0.0
  0
LINE
  5
35D
330
1F
100
AcDbEntity
  8
0
  6
Continuous
 62
     7
370
    15
100
AcDbLine
 10
745.5087407979
 20
449.3809380965
 30
0.0
 11
745.5087407979
 21
448.6309403019
 31
0.0
  0
LINE
  5
35E
330
1F
100
AcDbEntity
  8
0
  6
Continuous
 62
     7
370
    15
100
AcDbLine
 10
747.0087438377
 20
449.3809380965
 30
0.0
 11
747.0087438377
 21
448.6309403019
 31
0.0
  0
ARC
  5
35F
330
1F
100
AcDbEntity
  8
0
  6
Continuous
 62
     7
370
    15
100
AcDbCircle
 10
748.2587406981
 20
449.3809374745
 30
0.0
 40
2.75
100
AcDbArc
 50
152.9643082106
 51
180.0
  0
ARC
  5
360
330
1F
100
AcDbEntity
  8
0
  6
Continuous
 62
     7
370
    15
100
AcDbCircle
 10
748.2587406981
 20
449.3809374745
 30
0.0
 40
1.25
100
AcDbArc
 50
101.5369590265
 51
180.0
  0
LINE
  5
361
330
1F
100
AcDbEntity
  8
0
  6
Continuous
 62
     7
370
    15
100
AcDbLine
 10
247.0087289366
 20
714.8219981627
 30
0.0
 11
247.0087289366
 21
714.0309402185
 31
0.0
  0
LINE
  5
362
330
1F
100
AcDbEntity
  8
0
  6
Continuous
 62
     7
370
    15
100
AcDbLine
 10
383.2295417341
 20
447.8309342103
 30
0.0
 11
383.7587415728
 21
447.8309342103
 31
0.0
  0
LINE
  5
363
330
1F
100
AcDbEntity
  8
0
  6
Continuous
 62
     7
370
    15
100
AcDbLine
 10
377.2587358507
 20
447.8309342103
 30
0.0
 11
383.2295417341
 21
447.8309342103
 31
0.0
  0
LINE
  5
364
330
1F
100
AcDbEntity
  8
0
  6
Continuous
 62
     7
370
    15
100
AcDbLine
 10
383.4388434442
 20
448.4309369164
 30
0.0
 11
384.0087532553
 21
448.4309369164
 31
0.0
  0
LINE
  5
365
330
1F
100
AcDbEntity
  8
0
  6
Continuous
 62
     7
370
    15
100
AcDbLine
 10
377.0087539705
 20
448.4309369164
 30
0.0
 11
383.4388434442
 21
448.4309369164
 31
0.0
  0
LINE
  5
366
330
1F
100
AcDbEntity
  8
0
  6
Continuous
 62
     7
370
    15
100
AcDbLine
 10
952.4087488207
 20
452.6309409575
 30
0.0
 11
953.0338823351
 21
452.6309409575
 31
0.0
  0
LINE
  5
367
330
1F
100
AcDbEntity
  8
0
  6
Continuous
 62
     7
370
    15
100
AcDbLine
 10
1010.1404964479
 20
453.8235777454
 30
0.0
 11
1010.1897000822
 21
453.8809397655
 31
0.0
  0
LWPOLYLINE
  5
368
330
1F
100
AcDbEntity
  8
0
  6
Continuous
 62
     7
370
    15
100
AcDbPolyline
 90
        3
 70
   128
 43
0.0
 10
247.8277861627
 20
453.8809397655
 10
248.0338692221
 20
453.6560663419
 10
248.2587277445
 20
453.4499832826
  0
LINE
  5
369
330
1F
100
AcDbEntity
  8
0
  6
Continuous
 62
     8
370
    15
100
AcDbLine
 10
345.0087487253
 20
354.1309425073
 30
0.0
 11
288.0087375196
 21
354.1309425073
 31
0.0
  0
LINE
  5
36A
330
1F
100
AcDbEntity
  8
0
  6
Continuous
 62
     8
370
    15
100
AcDbLine
 10
934.0087353739
 20
354.1309425073
 30
0.0
 11
877.0087390694
 21
354.1309425073
 31
0.0
  0
LINE
  5
36B
330
1F
100
AcDbEntity
  8
0
  6
Continuous
 62
     8
370
    15
100
AcDbLine
 10
937.4087333235
 20
448.6309403019
 30
0.0
 11
873.6087411198
 21
448.6309403019
 31
0.0
  0
LINE
  5
36C
330
1F
100
AcDbEntity
  8
0
  6
Continuous
 62
     8
370
    15
100
AcDbLine
 10
937.3448371443
 20
392.3910373287
 30
0.0
 11
873.6726522001
 21
392.3910373287
 31
0.0
  0
LINE
  5
36D
330
1F
100
AcDbEntity
  8
0
  6
Continuous
 62
     8
370
    15
100
AcDbLine
 10
937.4087333235
 20
393.1635060744
 30
0.0
 11
873.6087411198
 21
393.1635060744
 31
0.0
  0
LINE
  5
36E
330
1F
100
AcDbEntity
  8
0
  6
Continuous
 62
     8
370
    15
100
AcDbLine
 10
348.4087466749
 20
448.6309403019
 30
0.0
 11
284.60873957
 21
448.6309403019
 31
0.0
  0
LINE
  5
36F
330
1F
100
AcDbEntity
  8
0
  6
Continuous
 62
     8
370
    15
100
AcDbLine
 10
348.4087466749
 20
393.1635060744
 30
0.0
 11
284.60873957
 21
393.1635060744
 31
0.0
  0
LINE
  5
370
330
1F
100
AcDbEntity
  8
0
  6
Continuous
 62
     8
370
    15
100
AcDbLine
 10
348.3448206934
 20
392.3910373287
 30
0.0
 11
284.6726655516
 21
392.3910373287
 31
0.0
  0
LWPOLYLINE
  5
371
330
1F
100
AcDbEntity
  8
0
  6
Continuous
 62
     8
370
    15
100
AcDbPolyline
 90
        6
 70
   128
 43
0.0
 10
1021.6268777403
 20
647.6775595384
 10
1021.6111719164
 20
647.7258840041
 10
1021.4991151842
 20
648.0707862811
 10
1021.2811409983
 20
648.7416514592
 10
1020.9610938581
 20
649.726603313
 10
1020.5446958097
 20
651.0082074838
  0
LINE
  5
372
330
1F
100
AcDbEntity
  8
0
  6
Continuous
 62
     8
370
    15
100
AcDbLine
 10
987.2695385965
 20
658.2446136909
 30
0.0
 11
986.3196491751
 21
657.931987329
 31
0.0
  0
LINE
  5
373
330
1F
100
AcDbEntity
  8
0
  6
Continuous
 62
     8
370
    15
100
AcDbLine
 10
987.7678334268
 20
656.7110308843
 30
0.0
 11
986.8168115171
 21
656.4019211965
 31
0.0
  0
LINE
  5
374
330
1F
100
AcDbEntity
  8
0
  6
Continuous
 62
     8
370
    15
100
AcDbLine
 10
989.3922388109
 20
651.7116615014
 30
0.0
 11
988.4374618086
 21
651.4140257077
 31
0.0
  0
LINE
  5
375
330
1F
100
AcDbEntity
  8
0
  6
Continuous
 62
     8
370
    15
100
AcDbLine
 10
989.1955136808
 20
652.3170807796
 30
0.0
 11
988.2471739801
 21
651.9997009473
 31
0.0
  0
LINE
  5
376
330
1F
100
AcDbEntity
  8
0
  6
Continuous
 62
     8
370
    15
100
AcDbLine
 10
989.7214650663
 20
650.6983825402
 30
0.0
 11
988.7659430059
 21
650.4030713277
 31
0.0
  0
LWPOLYLINE
  5
377
330
1F
100
AcDbEntity
  8
0
  6
Continuous
 62
     8
370
    15
100
AcDbPolyline
 90
        8
 70
   128
 43
0.0
 10
972.5679635557
 20
697.6235249476
 10
972.5443899187
 20
697.6158657508
 10
972.5004612955
 20
697.6015904384
 10
972.4413036856
 20
697.5823679404
 10
972.36924167
 20
697.5589582162
 10
972.2870468649
 20
697.5322553353
 10
972.197848514
 20
697.5032576757
 10
972.1050738844
 20
697.4731275277
  0
LINE
  5
378
330
1F
100
AcDbEntity
  8
0
  6
Continuous
 62
     8
370
    15
100
AcDbLine
 10
971.6295480284
 20
698.3053424792
 30
0.0
 11
971.6295480284
 21
697.81861095
 31
0.0
  0
LINE
  5
379
330
1F
100
AcDbEntity
  8
0
  6
Continuous
 62
     8
370
    15
100
AcDbLine
 10
953.2551645788
 20
698.3186194139
 30
0.0
 11
953.2551645788
 21
698.4220036702
 31
0.0
  0
LINE
  5
37A
330
1F
100
AcDbEntity
  8
0
  6
Continuous
 62
     8
370
    15
100
AcDbLine
 10
973.4334826025
 20
698.0333068805
 30
0.0
 11
973.1824874433
 21
698.161203547
 31
0.0
  0
LINE
  5
37B
330
1F
100
AcDbEntity
  8
0
  6
Continuous
 62
     8
370
    15
100
AcDbLine
 10
951.6666709932
 20
716.0809376674
 30
0.0
 11
951.2666642221
 21
716.0809376674
 31
0.0
  0
LINE
  5
37C
330
1F
100
AcDbEntity
  8
0
  6
Continuous
 62
     8
370
    15
100
AcDbLine
 10
954.4587313684
 20
575.578920676
 30
0.0
 11
954.4587313684
 21
575.8202412562
 31
0.0
  0
LINE
  5
37D
330
1F
100
AcDbEntity
  8
0
  6
Continuous
 62
     8
370
    15
100
AcDbLine
 10
984.1323375257
 20
705.3591200547
 30
0.0
 11
984.1290592703
 21
705.3577044444
 31
0.0
  0
LINE
  5
37E
330
1F
100
AcDbEntity
  8
0
  6
Continuous
 62
     8
370
    15
100
AcDbLine
 10
965.2549206766
 20
750.3719964461
 30
0.0
 11
965.6548976454
 21
750.3719964461
 31
0.0
  0
LINE
  5
37F
330
1F
100
AcDbEntity
  8
0
  6
Continuous
 62
     8
370
    15
100
AcDbLine
 10
986.9546472582
 20
751.4220067697
 30
0.0
 11
986.9546472582
 21
752.4309345918
 31
0.0
  0
LINE
  5
380
330
1F
100
AcDbEntity
  8
0
  6
Continuous
 62
     8
370
    15
100
AcDbLine
 10
307.6046585592
 20
752.4220087962
 30
0.0
 11
307.6046585592
 21
752.4309345918
 31
0.0
  0
LINE
  5
381
330
1F
100
AcDbEntity
  8
0
  6
Continuous
 62
     8
370
    15
100
AcDbLine
 10
297.2546696218
 20
753.6809333997
 30
0.0
 11
297.3546564135
 21
753.6809333997
 31
0.0
  0
LINE
  5
382
330
1F
100
AcDbEntity
  8
0
  6
Continuous
 62
     8
370
    15
100
AcDbLine
 10
298.6046552214
 20
752.4309345918
 30
0.0
 11
298.6046552214
 21
752.4220087962
 31
0.0
  0
LINE
  5
383
330
1F
100
AcDbEntity
  8
0
  6
Continuous
 62
     8
370
    15
100
AcDbLine
 10
246.1087286028
 20
694.6309396462
 30
0.0
 11
245.4087316545
 21
694.6309396462
 31
0.0
  0
LINE
  5
384
330
1F
100
AcDbEntity
  8
0
  6
Continuous
 62
     8
370
    15
100
AcDbLine
 10
246.1087286028
 20
704.6309301095
 30
0.0
 11
245.4087316545
 21
704.6309301095
 31
0.0
  0
LINE
  5
385
330
1F
100
AcDbEntity
  8
0
  6
Continuous
 62
     8
370
    15
100
AcDbLine
 10
245.8426236662
 20
454.4648194151
 30
0.0
 11
246.2087451967
 21
454.0987053351
 31
0.0
  0
LINE
  5
386
330
1F
100
AcDbEntity
  8
0
  6
Continuous
 62
     8
370
    15
100
AcDbLine
 10
246.1087286028
 20
487.2453865992
 30
0.0
 11
246.1587368997
 21
487.2453865992
 31
0.0
  0
LINE
  5
387
330
1F
100
AcDbEntity
  8
0
  6
Continuous
 62
     8
370
    15
100
AcDbLine
 10
748.0087384137
 20
446.4809411602
 30
0.0
 11
729.0850124809
 21
446.4809411602
 31
0.0
  0
LINE
  5
388
330
1F
100
AcDbEntity
  8
0
  6
Continuous
 62
     8
370
    15
100
AcDbLine
 10
729.0850124809
 20
441.9809394913
 30
0.0
 11
748.0087384137
 21
441.9809394913
 31
0.0
  0
LINE
  5
389
330
1F
100
AcDbEntity
  8
0
  6
Continuous
 62
     8
370
    15
100
AcDbLine
 10
943.0087387117
 20
450.3309392767
 30
0.0
 11
943.0087387117
 21
450.6309369044
 31
0.0
  0
LINE
  5
38A
330
1F
100
AcDbEntity
  8
0
  6
Continuous
 62
     8
370
    15
100
AcDbLine
 10
753.0087410959
 20
450.3309392767
 30
0.0
 11
753.0087410959
 21
450.6309369044
 31
0.0
  0
LINE
  5
38B
330
1F
100
AcDbEntity
  8
0
  6
Continuous
 62
     8
370
    15
100
AcDbLine
 10
748.0087384137
 20
449.0809404688
 30
0.0
 11
873.5396444353
 21
449.0809404688
 31
0.0
  0
LINE
  5
38C
330
1F
100
AcDbEntity
  8
0
  6
Continuous
 62
     8
370
    15
100
AcDbLine
 10
937.4778449091
 20
449.0809404688
 30
0.0
 11
948.0087339434
 21
449.0809404688
 31
0.0
  0
LINE
  5
38D
330
1F
100
AcDbEntity
  8
0
  6
Continuous
 62
     8
370
    15
100
AcDbLine
 10
748.0087384137
 20
441.5809401708
 30
0.0
 11
873.6087411198
 21
441.5809401708
 31
0.0
  0
LINE
  5
38E
330
1F
100
AcDbEntity
  8
0
  6
Continuous
 62
     8
370
    15
100
AcDbLine
 10
937.4087333235
 20
441.5809401708
 30
0.0
 11
948.0087339434
 21
441.5809401708
 31
0.0
  0
LINE
  5
38F
330
1F
100
AcDbEntity
  8
0
  6
Continuous
 62
     8
370
    15
100
AcDbLine
 10
763.0087390098
 20
439.030934258
 30
0.0
 11
763.0087390098
 21
439.5309352713
 31
0.0
  0
LINE
  5
390
330
1F
100
AcDbEntity
  8
0
  6
Continuous
 62
     8
370
    15
100
AcDbLine
 10
753.0087410959
 20
439.030934258
 30
0.0
 11
753.0087410959
 21
439.5309352713
 31
0.0
  0
LINE
  5
391
330
1F
100
AcDbEntity
  8
0
  6
Continuous
 62
     8
370
    15
100
AcDbLine
 10
943.0087387117
 20
439.030934258
 30
0.0
 11
943.0087387117
 21
439.5309352713
 31
0.0
  0
LINE
  5
392
330
1F
100
AcDbEntity
  8
0
  6
Continuous
 62
     8
370
    15
100
AcDbLine
 10
773.0087443742
 20
439.030934258
 30
0.0
 11
773.0087443742
 21
439.5309352713
 31
0.0
  0
LINE
  5
393
330
1F
100
AcDbEntity
  8
0
  6
Continuous
 62
     8
370
    15
100
AcDbLine
 10
943.0087387117
 20
450.6309369044
 30
0.0
 11
943.0087387117
 21
451.830934866
 31
0.0
  0
ENDSEC
  0
SECTION
  2
OBJECTS
  0
DICTIONARY
  5
C
330
0
100
AcDbDictionary
281
     1
  3
ACAD_GROUP
350
D
  3
ACAD_LAYOUT
350
1A
  3
ACAD_MLINESTYLE
350
17
  3
ACAD_PLOTSETTINGS
350
19
  3
ACAD_PLOTSTYLENAME
350
E
  0
DICTIONARY
  5
D
102
{ACAD_REACTORS
330
C
102
}
330
C
100
AcDbDictionary
281
     1
  0
DICTIONARY
  5
1A
102
{ACAD_REACTORS
330
C
102
}
330
C
100
AcDbDictionary
281
     1
  3
Layout1
350
1E
  3
Layout2
350
26
  3
Model
350
22
  0
DICTIONARY
  5
17
102
{ACAD_REACTORS
330
C
102
}
330
C
100
AcDbDictionary
281
     1
  3
Standard
350
18
  0
DICTIONARY
  5
19
102
{ACAD_REACTORS
330
C
102
}
330
C
100
AcDbDictionary
281
     1
  0
ACDBDICTIONARYWDFLT
  5
E
102
{ACAD_REACTORS
330
C
102
}
330
C
100
AcDbDictionary
281
     1
  3
Normal
350
F
100
AcDbDictionaryWithDefault
340
F
  0
LAYOUT
  5
1E
102
{ACAD_REACTORS
330
1A
102
}
330
1A
100
AcDbPlotSettings
  1

  2
none_device
  4

  6

 40
0.0
 41
0.0
 42
0.0
 43
0.0
 44
0.0
 45
0.0
 46
0.0
 47
0.0
 48
0.0
 49
0.0
140
0.0
141
0.0
142
1.0
143
1.0
 70
   688
 72
     0
 73
     0
 74
     5
  7

 75
    16
147
1.0
148
0.0
149
0.0
100
AcDbLayout
  1
Layout1
 70
     1
 71
     1
 10
0.0
 20
0.0
 11
420.0
 21
297.0
 12
0.0
 22
0.0
 32
0.0
 14
1.0000000000E+20
 24
1.0000000000E+20
 34
1.0000000000E+20
 15
-1.0000000000E+20
 25
-1.0000000000E+20
 35
-1.0000000000E+20
146
0.0
 13
0.0
 23
0.0
 33
0.0
 16
1.0
 26
0.0
 36
0.0
 17
0.0
 27
1.0
 37
0.0
 76
     0
330
1B
  0
LAYOUT
  5
26
102
{ACAD_REACTORS
330
1A
102
}
330
1A
100
AcDbPlotSettings
  1

  2
none_device
  4

  6

 40
0.0
 41
0.0
 42
0.0
 43
0.0
 44
0.0
 45
0.0
 46
0.0
 47
0.0
 48
0.0
 49
0.0
140
0.0
141
0.0
142
1.0
143
1.0
 70
   688
 72
     0
 73
     0
 74
     5
  7

 75
    16
147
1.0
148
0.0
149
0.0
100
AcDbLayout
  1
Layout2
 70
     1
 71
     2
 10
0.0
 20
0.0
 11
0.0
 21
0.0
 12
0.0
 22
0.0
 32
0.0
 14
0.0
 24
0.0
 34
0.0
 15
0.0
 25
0.0
 35
0.0
146
0.0
 13
0.0
 23
0.0
 33
0.0
 16
1.0
 26
0.0
 36
0.0
 17
0.0
 27
1.0
 37
0.0
 76
     0
330
23
  0
LAYOUT
  5
22
102
{ACAD_REACTORS
330
1A
102
}
330
1A
100
AcDbPlotSettings
  1

  2
none_device
  4

  6

 40
0.0
 41
0.0
 42
0.0
 43
0.0
 44
0.0
 45
0.0
 46
0.0
 47
0.0
 48
0.0
 49
0.0
140
0.0
141
0.0
142
1.0
143
1.0
 70
  1712
 72
     0
 73
     0
 74
     0
  7

 75
     0
147
1.0
148
0.0
149
0.0
100
AcDbLayout
  1
Model
 70
     1
 71
     0
 10
0.0
 20
0.0
 11
1397.0
 21
1079.5
 12
0.0
 22
0.0
 32
0.0
 14
0.0
 24
0.0
 34
0.0
 15
1397.0
 25
1079.5
 35
0.0
146
0.0
 13
0.0
 23
0.0
 33
0.0
 16
1.0
 26
0.0
 36
0.0
 17
0.0
 27
1.0
 37
0.0
 76
     0
330
1F
331
29
  0
MLINESTYLE
  5
18
102
{ACAD_REACTORS
330
17
102
}
330
17
100
AcDbMlineStyle
  2
Standard
 70
     0
  3

 62
   256
 51
90.0
 52
90.0
 71
     2
 49
0.5
 62
   256
  6
BYLAYER
 49
-0.5
 62
   256
  6
BYLAYER
  0
ACDBPLACEHOLDER
  5
F
102
{ACAD_REACTORS
330
E
102
}
330
E
  0
ENDSEC
  0
EOF
