  0
SECTION
  2
HEADER
  9
$ACADVER
  1
AC1015
  9
$ACADMAINTVER
 70
     6
  9
$DWGCODEPAGE
  3
ANSI_1252
  9
$INSBASE
 10
0.0
 20
0.0
 30
0.0
  9
$EXTMIN
 10
0.0
 20
0.0
 30
0.0
  9
$EXTMAX
 10
420.0
 20
297.0
 30
0.0
  9
$LIMMIN
 10
0.0
 20
0.0
  9
$LIMMAX
 10
420.0
 20
297.0
  9
$ORTHOMODE
 70
     0
  9
$REGENMODE
 70
     1
  9
$FILLMODE
 70
     1
  9
$QTEXTMODE
 70
     0
  9
$MIRRTEXT
 70
     1
  9
$LTSCALE
 40
1.0
  9
$ATTMODE
 70
     1
  9
$TEXTSIZE
 40
3.5
  9
$TRACEWID
 40
1.0
  9
$TEXTSTYLE
  7
Standard
  9
$CLAYER
  8
0
  9
$CELTYPE
  6
ByLayer
  9
$CECOLOR
 62
   256
  9
$CELTSCALE
 40
1.0
  9
$DISPSILH
 70
     0
  9
$DIMSCALE
 40
1.0
  9
$DIMASZ
 40
3.302
  9
$DIMEXO
 40
1.0
  9
$DIMDLI
 40
3.75
  9
$DIMRND
 40
0.0
  9
$DIMDLE
 40
0.0
  9
$DIMEXE
 40
1.0
  9
$DIMTP
 40
0.0
  9
$DIMTM
 40
0.0
  9
$DIMTXT
 40
3.5
  9
$DIMCEN
 40
2.5
  9
$DIMTSZ
 40
0.0
  9
$DIMTOL
 70
     0
  9
$DIMLIM
 70
     0
  9
$DIMTIH
 70
     1
  9
$DIMTOH
 70
     1
  9
$DIMSE1
 70
     0
  9
$DIMSE2
 70
     0
  9
$DIMTAD
 70
     1
  9
$DIMZIN
 70
     0
  9
$DIMBLK
  1

  9
$DIMASO
 70
     1
  9
$DIMSHO
 70
     1
  9
$DIMPOST
  1

  9
$DIMAPOST
  1

  9
$DIMALT
 70
     0
  9
$DIMALTD
 70
     3
  9
$DIMALTF
 40
0.0393700787
  9
$DIMLFAC
 40
4.0
  9
$DIMTOFL
 70
     1
  9
$DIMTVP
 40
0.0
  9
$DIMTIX
 70
     0
  9
$DIMSOXD
 70
     0
  9
$DIMSAH
 70
     0
  9
$DIMBLK1
  1

  9
$DIMBLK2
  1

  9
$DIMSTYLE
  2
ISO-25
  9
$DIMCLRD
 70
     0
  9
$DIMCLRE
 70
     0
  9
$DIMCLRT
 70
     0
  9
$DIMTFAC
 40
1.0
  9
$DIMGAP
 40
1.524
  9
$DIMJUST
 70
     0
  9
$DIMSD1
 70
     0
  9
$DIMSD2
 70
     0
  9
$DIMTOLJ
 70
     0
  9
$DIMTZIN
 70
     0
  9
$DIMALTZ
 70
     0
  9
$DIMALTTZ
 70
     0
  9
$DIMUPT
 70
     0
  9
$DIMDEC
 70
     1
  9
$DIMTDEC
 70
     1
  9
$DIMALTU
 70
     2
  9
$DIMALTTD
 70
     3
  9
$DIMTXSTY
  7
Standard
  9
$DIMAUNIT
 70
     0
  9
$DIMADEC
 70
     1
  9
$DIMALTRND
 40
0.0
  9
$DIMAZIN
 70
     0
  9
$DIMDSEP
 70
    44
  9
$DIMATFIT
 70
     3
  9
$DIMFRAC
 70
     0
  9
$DIMLDRBLK
  1

  9
$DIMLUNIT
 70
     2
  9
$DIMLWD
 70
    -2
  9
$DIMLWE
 70
    -2
  9
$DIMTMOVE
 70
     0
  9
$LUNITS
 70
     2
  9
$LUPREC
 70
     1
  9
$SKETCHINC
 40
1.0
  9
$FILLETRAD
 40
10.0
  9
$AUNITS
 70
     0
  9
$AUPREC
 70
     1
  9
$MENU
  1
.
  9
$ELEVATION
 40
0.0
  9
$PELEVATION
 40
0.0
  9
$THICKNESS
 40
0.0
  9
$LIMCHECK
 70
     0
  9
$CHAMFERA
 40
0.0
  9
$CHAMFERB
 40
0.0
  9
$CHAMFERC
 40
0.0
  9
$CHAMFERD
 40
0.0
  9
$SKPOLY
 70
     0
  9
$TDCREATE
 40
2457847.401190671
  9
$TDUCREATE
 40
2457847.359524005
  9
$TDUPDATE
 40
2457847.401193055
  9
$TDUUPDATE
 40
2457847.359526389
  9
$TDINDWG
 40
0.0000000116
  9
$TDUSRTIMER
 40
0.0000000116
  9
$USRTIMER
 70
     1
  9
$ANGBASE
 50
0.0
  9
$ANGDIR
 70
     0
  9
$PDMODE
 70
     0
  9
$PDSIZE
 40
-1.0
  9
$PLINEWID
 40
0.0
  9
$SPLFRAME
 70
     0
  9
$SPLINETYPE
 70
     6
  9
$SPLINESEGS
 70
     8
  9
$HANDSEED
  5
316
  9
$SURFTAB1
 70
     6
  9
$SURFTAB2
 70
     6
  9
$SURFTYPE
 70
     6
  9
$SURFU
 70
     6
  9
$SURFV
 70
     6
  9
$UCSBASE
  2

  9
$UCSNAME
  2

  9
$UCSORG
 10
0.0
 20
0.0
 30
0.0
  9
$UCSXDIR
 10
1.0
 20
0.0
 30
0.0
  9
$UCSYDIR
 10
0.0
 20
1.0
 30
0.0
  9
$UCSORTHOREF
  2

  9
$UCSORTHOVIEW
 70
     0
  9
$UCSORGTOP
 10
0.0
 20
0.0
 30
0.0
  9
$UCSORGBOTTOM
 10
0.0
 20
0.0
 30
0.0
  9
$UCSORGLEFT
 10
0.0
 20
0.0
 30
0.0
  9
$UCSORGRIGHT
 10
0.0
 20
0.0
 30
0.0
  9
$UCSORGFRONT
 10
0.0
 20
0.0
 30
0.0
  9
$UCSORGBACK
 10
0.0
 20
0.0
 30
0.0
  9
$PUCSBASE
  2

  9
$PUCSNAME
  2

  9
$PUCSORG
 10
0.0
 20
0.0
 30
0.0
  9
$PUCSXDIR
 10
1.0
 20
0.0
 30
0.0
  9
$PUCSYDIR
 10
0.0
 20
1.0
 30
0.0
  9
$PUCSORTHOREF
  2

  9
$PUCSORTHOVIEW
 70
     0
  9
$PUCSORGTOP
 10
0.0
 20
0.0
 30
0.0
  9
$PUCSORGBOTTOM
 10
0.0
 20
0.0
 30
0.0
  9
$PUCSORGLEFT
 10
0.0
 20
0.0
 30
0.0
  9
$PUCSORGRIGHT
 10
0.0
 20
0.0
 30
0.0
  9
$PUCSORGFRONT
 10
0.0
 20
0.0
 30
0.0
  9
$PUCSORGBACK
 10
0.0
 20
0.0
 30
0.0
  9
$USERI1
 70
     0
  9
$USERI2
 70
     0
  9
$USERI3
 70
     0
  9
$USERI4
 70
     0
  9
$USERI5
 70
     0
  9
$USERR1
 40
0.0
  9
$USERR2
 40
0.0
  9
$USERR3
 40
0.0
  9
$USERR4
 40
0.0
  9
$USERR5
 40
0.0
  9
$WORLDVIEW
 70
     1
  9
$SHADEDGE
 70
     3
  9
$SHADEDIF
 70
    70
  9
$TILEMODE
 70
     1
  9
$MAXACTVP
 70
    64
  9
$PINSBASE
 10
0.0
 20
0.0
 30
0.0
  9
$PLIMCHECK
 70
     0
  9
$PEXTMIN
 10
1.0000000000E+20
 20
1.0000000000E+20
 30
1.0000000000E+20
  9
$PEXTMAX
 10
-1.0000000000E+20
 20
-1.0000000000E+20
 30
-1.0000000000E+20
  9
$PLIMMIN
 10
0.0
 20
0.0
  9
$PLIMMAX
 10
420.0
 20
297.0
  9
$UNITMODE
 70
     0
  9
$VISRETAIN
 70
     1
  9
$PLINEGEN
 70
     0
  9
$PSLTSCALE
 70
     1
  9
$TREEDEPTH
 70
  3020
  9
$CMLSTYLE
  2
Standard
  9
$CMLJUST
 70
     0
  9
$CMLSCALE
 40
20.0
  9
$PROXYGRAPHICS
 70
     1
  9
$MEASUREMENT
 70
     1
  9
$CELWEIGHT
370
    -1
  9
$ENDCAPS
280
     0
  9
$JOINSTYLE
280
     0
  9
$LWDISPLAY
290
     1
  9
$INSUNITS
 70
     4
  9
$HYPERLINKBASE
  1

  9
$STYLESHEET
  1

  9
$XEDIT
290
     1
  9
$CEPSNTYPE
380
     0
  9
$PSTYLEMODE
290
     1
  9
$FINGERPRINTGUID
  2
{8313E66A-7D72-4730-9800-C6C52C3F5166}
  9
$VERSIONGUID
  2
{FAEB1C32-E019-11D5-929B-00C0DF256EC4}
  9
$EXTNAMES
290
     1
  9
$PSVPSCALE
 40
0.0
  9
$OLESTARTUP
290
     0
  0
ENDSEC
  0
SECTION
  2
CLASSES
  0
CLASS
  1
ACDBDICTIONARYWDFLT
  2
AcDbDictionaryWithDefault
  3
ObjectDBX Classes
 90
        0
280
     0
281
     0
  0
CLASS
  1
VISUALSTYLE
  2
AcDbVisualStyle
  3
ObjectDBX Classes
 90
     4095
280
     0
281
     0
  0
CLASS
  1
MATERIAL
  2
AcDbMaterial
  3
ObjectDBX Classes
 90
     1153
280
     0
281
     0
  0
CLASS
  1
SCALE
  2
AcDbScale
  3
ObjectDBX Classes
 90
     1153
280
     0
281
     0
  0
CLASS
  1
TABLESTYLE
  2
AcDbTableStyle
  3
ObjectDBX Classes
 90
     4095
280
     0
281
     0
  0
CLASS
  1
MLEADERSTYLE
  2
AcDbMLeaderStyle
  3
ACDB_MLEADERSTYLE_CLASS
 90
     4095
280
     0
281
     0
  0
CLASS
  1
SUN
  2
AcDbSun
  3
SCENEOE
 90
     1153
280
     0
281
     0
  0
CLASS
  1
ACDBPLACEHOLDER
  2
AcDbPlaceHolder
  3
ObjectDBX Classes
 90
        0
280
     0
281
     0
  0
CLASS
  1
LAYOUT
  2
AcDbLayout
  3
ObjectDBX Classes
 90
        0
280
     0
281
     0
  0
ENDSEC
  0
SECTION
  2
TABLES
  0
TABLE
  2
VPORT
  5
8
330
0
100
AcDbSymbolTable
 70
     1
  0
VPORT
  5
29
330
8
100
AcDbSymbolTableRecord
100
AcDbViewportTableRecord
  2
*Active
 70
     0
 10
0.0
 20
0.0
 11
1.0
 21
1.0
 12
210.0
 22
148.5
 13
0.0
 23
0.0
 14
10.0
 24
10.0
 15
10.0
 25
10.0
 16
0.0
 26
0.0
 36
1.0
 17
0.0
 27
0.0
 37
0.0
 40
297.0
 41
1.4141414141
 42
50.0
 43
0.0
 44
0.0
 50
0.0
 51
0.0
 71
     0
 72
  2000
 73
     1
 74
     3
 75
     0
 76
     0
 77
     0
 78
     0
281
     0
 65
     1
110
0.0
120
0.0
130
0.0
111
1.0
121
0.0
131
0.0
112
0.0
122
1.0
132
0.0
 79
     0
146
0.0
  0
ENDTAB
  0
TABLE
  2
LTYPE
  5
5
330
0
100
AcDbSymbolTable
 70
     6
  0
LTYPE
  5
14
330
5
100
AcDbSymbolTableRecord
100
AcDbLinetypeTableRecord
  2
ByBlock
 70
     0
  3

 72
    65
 73
     0
 40
0.0
  0
LTYPE
  5
15
330
5
100
AcDbSymbolTableRecord
100
AcDbLinetypeTableRecord
  2
ByLayer
 70
     0
  3

 72
    65
 73
     0
 40
0.0
  0
LTYPE
  5
16
330
5
100
AcDbSymbolTableRecord
100
AcDbLinetypeTableRecord
  2
Continuous
 70
     0
  3
Solid line
 72
    65
 73
     0
 40
0.0
  0
LTYPE
  5
6E
330
5
100
AcDbSymbolTableRecord
100
AcDbLinetypeTableRecord
  2
HIDDEN
 70
     0
  3
Hidden __ __ __ __ __ __ __ __ __ __ __ __ __ __
 72
    65
 73
     2
 40
1.905
 49
1.27
 74
     0
 49
-0.635
 74
     0
  0
LTYPE
  5
6F
330
5
100
AcDbSymbolTableRecord
100
AcDbLinetypeTableRecord
  2
PHANTOM
 70
     0
  3
Phantom ______  __  __  ______  __  __  ______
 72
    65
 73
     6
 40
12.7
 49
6.35
 74
     0
 49
-1.27
 74
     0
 49
1.27
 74
     0
 49
-1.27
 74
     0
 49
1.27
 74
     0
 49
-1.27
 74
     0
  0
LTYPE
  5
70
330
5
100
AcDbSymbolTableRecord
100
AcDbLinetypeTableRecord
  2
CENTER
 70
     0
  3
Center ____ _ ____ _ ____ _ ____ _ ____ _ ____
 72
    65
 73
     4
 40
10.16
 49
6.35
 74
     0
 49
-1.27
 74
     0
 49
1.27
 74
     0
 49
-1.27
 74
     0
  0
LTYPE
  5
71
330
5
100
AcDbSymbolTableRecord
100
AcDbLinetypeTableRecord
  2
CENTERX2
 70
     0
  3
Center (2x) ________  __  ________  __  _____
 72
    65
 73
     4
 40
20.32
 49
12.7
 74
     0
 49
-2.54
 74
     0
 49
2.54
 74
     0
 49
-2.54
 74
     0
  0
LTYPE
  5
72
330
5
100
AcDbSymbolTableRecord
100
AcDbLinetypeTableRecord
  2
DOT2
 70
     0
  3
Dot (.5x) ........................................
 72
    65
 73
     2
 40
0.635
 49
0.0
 74
     0
 49
-0.635
 74
     0
  0
ENDTAB
  0
TABLE
  2
LAYER
  5
2
330
0
100
AcDbSymbolTable
 70
     4
  0
LAYER
  5
10
330
2
100
AcDbSymbolTableRecord
100
AcDbLayerTableRecord
  2
0
 70
     0
 62
     7
  6
Continuous
370
    -3
390
F
  0
LAYER
  5
73
330
2
100
AcDbSymbolTableRecord
100
AcDbLayerTableRecord
  2
FORMAT
 70
     0
 62
     7
  6
Continuous
370
    -3
390
F
  0
LAYER
  5
74
330
2
100
AcDbSymbolTableRecord
100
AcDbLayerTableRecord
  2
SLD-0
 70
     0
 62
     1
  6
Continuous
370
    -3
390
F
  0
LAYER
  5
75
330
2
100
AcDbSymbolTableRecord
100
AcDbLayerTableRecord
  2
WATERMARK
 70
     0
 62
    20
  6
Continuous
370
    -3
390
F
  0
ENDTAB
  0
TABLE
  2
STYLE
  5
3
330
0
100
AcDbSymbolTable
 70
     1
  0
STYLE
  5
11
330
3
100
AcDbSymbolTableRecord
100
AcDbTextStyleTableRecord
  2
Standard
 70
     0
 40
0.0
 41
1.0
 50
0.0
 71
     0
 42
3.5
  3
txt
  4

  0
ENDTAB
  0
TABLE
  2
VIEW
  5
6
330
0
100
AcDbSymbolTable
 70
     0
  0
ENDTAB
  0
TABLE
  2
UCS
  5
7
330
0
100
AcDbSymbolTable
 70
     0
  0
ENDTAB
  0
TABLE
  2
APPID
  5
9
330
0
100
AcDbSymbolTable
 70
     1
  0
APPID
  5
12
330
9
100
AcDbSymbolTableRecord
100
AcDbRegAppTableRecord
  2
ACAD
 70
     0
  0
ENDTAB
  0
TABLE
  2
DIMSTYLE
  5
A
330
0
100
AcDbSymbolTable
 70
     1
100
AcDbDimStyleTable
  0
DIMSTYLE
105
27
330
A
100
AcDbSymbolTableRecord
100
AcDbDimStyleTableRecord
  2
ISO-25
 70
     0
 41
2.5
 42
0.625
 43
3.75
 44
1.25
 73
     0
 74
     0
 77
     1
 78
     8
140
2.5
141
2.5
143
0.0393700787
147
0.625
171
     3
172
     1
178
     0
271
     2
272
     2
274
     3
278
    44
283
     0
284
     8
340
11
  0
ENDTAB
  0
TABLE
  2
BLOCK_RECORD
  5
1
330
0
100
AcDbSymbolTable
 70
     1
  0
BLOCK_RECORD
  5
1F
330
1
100
AcDbSymbolTableRecord
100
AcDbBlockTableRecord
  2
*Model_Space
340
22
  0
BLOCK_RECORD
  5
1B
330
1
100
AcDbSymbolTableRecord
100
AcDbBlockTableRecord
  2
*Paper_Space
340
1E
  0
BLOCK_RECORD
  5
23
330
1
100
AcDbSymbolTableRecord
100
AcDbBlockTableRecord
  2
*Paper_Space0
340
26
  0
ENDTAB
  0
ENDSEC
  0
SECTION
  2
BLOCKS
  0
BLOCK
  5
20
330
1F
100
AcDbEntity
  8
0
100
AcDbBlockBegin
  2
*Model_Space
 70
     0
 10
0.0
 20
0.0
 30
0.0
  3
*Model_Space
  1

  0
ENDBLK
  5
21
330
1F
100
AcDbEntity
  8
0
100
AcDbBlockEnd
  0
BLOCK
  5
1C
330
1B
100
AcDbEntity
 67
     1
  8
0
100
AcDbBlockBegin
  2
*Paper_Space
 70
     0
 10
0.0
 20
0.0
 30
0.0
  3
*Paper_Space
  1

  0
ENDBLK
  5
1D
330
1B
100
AcDbEntity
 67
     1
  8
0
100
AcDbBlockEnd
  0
BLOCK
  5
24
330
23
100
AcDbEntity
  8
0
100
AcDbBlockBegin
  2
*Paper_Space0
 70
     0
 10
0.0
 20
0.0
 30
0.0
  3
*Paper_Space0
  1

  0
ENDBLK
  5
25
330
23
100
AcDbEntity
  8
0
100
AcDbBlockEnd
  0
ENDSEC
  0
SECTION
  2
ENTITIES
  0
LINE
  5
76
330
1F
100
AcDbEntity
  8
0
  6
Continuous
 62
     7
370
    25
100
AcDbLine
 10
132.1800840006
 20
203.8162330086
 30
0.0
 11
132.2238338098
 21
203.8412334318
 31
0.0
  0
LINE
  5
77
330
1F
100
AcDbEntity
  8
0
  6
Continuous
 62
     7
370
    25
100
AcDbLine
 10
123.0613407597
 20
203.8412334318
 30
0.0
 11
123.105090569
 21
203.8162330086
 31
0.0
  0
LINE
  5
78
330
1F
100
AcDbEntity
  8
0
  6
Continuous
 62
     7
370
    25
100
AcDbLine
 10
125.1800921664
 20
203.8162330086
 30
0.0
 11
125.2238419757
 21
203.8412334318
 31
0.0
  0
LINE
  5
79
330
1F
100
AcDbEntity
  8
0
  6
Continuous
 62
     7
370
    25
100
AcDbLine
 10
130.0613325939
 20
203.8412334318
 30
0.0
 11
130.1050824032
 21
203.8162330086
 31
0.0
  0
LINE
  5
7A
330
1F
100
AcDbEntity
  8
0
  6
Continuous
 62
     7
370
    25
100
AcDbLine
 10
123.5175919638
 20
203.8412334318
 30
0.0
 11
123.5175919638
 21
203.8162330086
 31
0.0
  0
LINE
  5
7B
330
1F
100
AcDbEntity
  8
0
  6
Continuous
 62
     7
370
    25
100
AcDbLine
 10
124.7675907717
 20
203.8162330086
 30
0.0
 11
124.7675907717
 21
203.8412334318
 31
0.0
  0
LINE
  5
7C
330
1F
100
AcDbEntity
  8
0
  6
Continuous
 62
     7
370
    25
100
AcDbLine
 10
130.5175912485
 20
203.8412334318
 30
0.0
 11
130.5175912485
 21
203.8162330086
 31
0.0
  0
LINE
  5
7D
330
1F
100
AcDbEntity
  8
0
  6
Continuous
 62
     7
370
    25
100
AcDbLine
 10
131.7675900564
 20
203.8162330086
 30
0.0
 11
131.7675900564
 21
203.8412334318
 31
0.0
  0
LINE
  5
7E
330
1F
100
AcDbEntity
  8
0
  6
Continuous
 62
     7
370
    25
100
AcDbLine
 10
147.7425885305
 20
91.5062295194
 30
0.0
 11
147.7425885305
 21
92.5062315459
 31
0.0
  0
LINE
  5
7F
330
1F
100
AcDbEntity
  8
0
  6
Continuous
 62
     7
370
    25
100
AcDbLine
 10
133.4925931797
 20
92.5062315459
 30
0.0
 11
133.4925931797
 21
91.5062295194
 31
0.0
  0
ARC
  5
80
330
1F
100
AcDbEntity
  8
0
  6
Continuous
 62
     7
370
    25
100
AcDbCircle
 10
147.2425889635
 20
91.5062319248
 30
0.0
 40
0.5
100
AcDbArc
 50
270.0
 51
0.0
  0
ARC
  5
81
330
1F
100
AcDbEntity
  8
0
  6
Continuous
 62
     7
370
    25
100
AcDbCircle
 10
133.9925889635
 20
91.5062319248
 30
0.0
 40
0.5
100
AcDbArc
 50
180.0
 51
270.0
  0
LINE
  5
82
330
1F
100
AcDbEntity
  8
0
  6
Continuous
 62
     7
370
    25
100
AcDbLine
 10
291.242588769
 20
91.5062295194
 30
0.0
 11
291.242588769
 21
92.5062315459
 31
0.0
  0
LINE
  5
83
330
1F
100
AcDbEntity
  8
0
  6
Continuous
 62
     7
370
    25
100
AcDbLine
 10
276.992578517
 20
92.5062315459
 30
0.0
 11
276.992578517
 21
91.5062295194
 31
0.0
  0
ARC
  5
84
330
1F
100
AcDbEntity
  8
0
  6
Continuous
 62
     7
370
    25
100
AcDbCircle
 10
290.7425889635
 20
91.5062319248
 30
0.0
 40
0.5000000000000568
100
AcDbArc
 50
270.0
 51
0.0
  0
ARC
  5
85
330
1F
100
AcDbEntity
  8
0
  6
Continuous
 62
     7
370
    25
100
AcDbCircle
 10
277.4925889635
 20
91.5062319248
 30
0.0
 40
0.5
100
AcDbArc
 50
180.0
 51
270.0
  0
LINE
  5
86
330
1F
100
AcDbEntity
  8
0
  6
Continuous
 62
     7
370
    25
100
AcDbLine
 10
291.242588769
 20
91.3812385793
 30
0.0
 11
291.242588769
 21
91.5062295194
 31
0.0
  0
LINE
  5
87
330
1F
100
AcDbEntity
  8
0
  6
Continuous
 62
     7
370
    25
100
AcDbLine
 10
276.992578517
 20
91.5062295194
 30
0.0
 11
276.992578517
 21
91.3812385793
 31
0.0
  0
ARC
  5
88
330
1F
100
AcDbEntity
  8
0
  6
Continuous
 62
     7
370
    25
100
AcDbCircle
 10
290.7425889635
 20
91.3812319248
 30
0.0
 40
0.5
100
AcDbArc
 50
270.0
 51
0.0
  0
ARC
  5
89
330
1F
100
AcDbEntity
  8
0
  6
Continuous
 62
     7
370
    25
100
AcDbCircle
 10
277.4925889635
 20
91.3812319248
 30
0.0
 40
0.5000000000000568
100
AcDbArc
 50
180.0
 51
270.0
  0
LINE
  5
8A
330
1F
100
AcDbEntity
  8
0
  6
Continuous
 62
     7
370
    25
100
AcDbLine
 10
147.6925951347
 20
92.5062315459
 30
0.0
 11
147.6925951347
 21
104.5062260623
 31
0.0
  0
LINE
  5
8B
330
1F
100
AcDbEntity
  8
0
  6
Continuous
 62
     7
370
    25
100
AcDbLine
 10
133.5425865755
 20
104.5062260623
 30
0.0
 11
133.5425865755
 21
92.5062315459
 31
0.0
  0
LINE
  5
8C
330
1F
100
AcDbEntity
  8
0
  6
Continuous
 62
     7
370
    25
100
AcDbLine
 10
291.192580472
 20
92.5062315459
 30
0.0
 11
291.192580472
 21
104.5062260623
 31
0.0
  0
LINE
  5
8D
330
1F
100
AcDbEntity
  8
0
  6
Continuous
 62
     7
370
    25
100
AcDbLine
 10
277.0425868139
 20
104.5062260623
 30
0.0
 11
277.0425868139
 21
92.5062315459
 31
0.0
  0
ARC
  5
8E
330
1F
100
AcDbEntity
  8
0
  6
Continuous
 62
     7
370
    25
100
AcDbCircle
 10
292.4675889635
 20
127.6312319248
 30
0.0
 40
0.375
100
AcDbArc
 50
90.0
 51
180.0
  0
ARC
  5
8F
330
1F
100
AcDbEntity
  8
0
  6
Continuous
 62
     7
370
    25
100
AcDbCircle
 10
275.7675889635
 20
127.6312319248
 30
0.0
 40
0.3750000000000568
100
AcDbArc
 50
0.0
 51
90.0
  0
ARC
  5
90
330
1F
100
AcDbEntity
  8
0
  6
Continuous
 62
     7
370
    25
100
AcDbCircle
 10
290.9175889635
 20
106.0143734113
 30
0.0
 40
1.174999999999944
100
AcDbArc
 50
350.5402980318
 51
0.0
  0
ARC
  5
91
330
1F
100
AcDbEntity
  8
0
  6
Continuous
 62
     7
370
    25
100
AcDbCircle
 10
277.3175889635
 20
106.0143734113
 30
0.0
 40
1.175000000000011
100
AcDbArc
 50
180.0
 51
189.4597019682
  0
LINE
  5
92
330
1F
100
AcDbEntity
  8
0
  6
Continuous
 62
     7
370
    25
100
AcDbLine
 10
292.0925808058
 20
106.0143725867
 30
0.0
 11
292.0925808058
 21
127.6312338109
 31
0.0
  0
LINE
  5
93
330
1F
100
AcDbEntity
  8
0
  6
Continuous
 62
     7
370
    25
100
AcDbLine
 10
276.1425864801
 20
127.6312338109
 30
0.0
 11
276.1425864801
 21
106.0143725867
 31
0.0
  0
LINE
  5
94
330
1F
100
AcDbEntity
  8
0
  6
Continuous
 62
     7
370
    25
100
AcDbLine
 10
276.1585605249
 20
105.8212535377
 30
0.0
 11
276.3776671991
 21
104.5062260623
 31
0.0
  0
LINE
  5
95
330
1F
100
AcDbEntity
  8
0
  6
Continuous
 62
     7
370
    25
100
AcDbLine
 10
291.8575000868
 20
104.5062260623
 30
0.0
 11
292.076606761
 21
105.8212535377
 31
0.0
  0
ARC
  5
96
330
1F
100
AcDbEntity
  8
0
  6
Continuous
 62
     7
370
    25
100
AcDbCircle
 10
292.4675889635
 20
127.5062319248
 30
0.0
 40
0.3750000000000568
100
AcDbArc
 50
90.0
 51
180.0
  0
LINE
  5
97
330
1F
100
AcDbEntity
  8
0
  6
Continuous
 62
     7
370
    25
100
AcDbLine
 10
292.0925808058
 20
105.8893667455
 30
0.0
 11
292.0925808058
 21
106.0143725867
 31
0.0
  0
LINE
  5
98
330
1F
100
AcDbEntity
  8
0
  6
Continuous
 62
     7
370
    25
100
AcDbLine
 10
276.1425864801
 20
106.0143725867
 30
0.0
 11
276.1425864801
 21
105.8893667455
 31
0.0
  0
ARC
  5
99
330
1F
100
AcDbEntity
  8
0
  6
Continuous
 62
     7
370
    25
100
AcDbCircle
 10
290.9175889635
 20
105.8893734113
 30
0.0
 40
1.175000000000011
100
AcDbArc
 50
350.5402980318
 51
0.0
  0
ARC
  5
9A
330
1F
100
AcDbEntity
  8
0
  6
Continuous
 62
     7
370
    25
100
AcDbCircle
 10
277.3175889635
 20
105.8893734113
 30
0.0
 40
1.174999999999944
100
AcDbArc
 50
180.0
 51
189.4597019682
  0
LINE
  5
9B
330
1F
100
AcDbEntity
  8
0
  6
Continuous
 62
     7
370
    25
100
AcDbLine
 10
276.1585605249
 20
105.6962625976
 30
0.0
 11
276.3776671991
 21
104.3812351222
 31
0.0
  0
LINE
  5
9C
330
1F
100
AcDbEntity
  8
0
  6
Continuous
 62
     7
370
    25
100
AcDbLine
 10
291.8575000868
 20
104.3812351222
 30
0.0
 11
292.076606761
 21
105.6962625976
 31
0.0
  0
ARC
  5
9D
330
1F
100
AcDbEntity
  8
0
  6
Continuous
 62
     7
370
    25
100
AcDbCircle
 10
148.9675889635
 20
127.6312319248
 30
0.0
 40
0.3749999999999858
100
AcDbArc
 50
90.0
 51
180.0
  0
ARC
  5
9E
330
1F
100
AcDbEntity
  8
0
  6
Continuous
 62
     7
370
    25
100
AcDbCircle
 10
132.2675889635
 20
127.6312319248
 30
0.0
 40
0.375
100
AcDbArc
 50
0.0
 51
90.0
  0
ARC
  5
9F
330
1F
100
AcDbEntity
  8
0
  6
Continuous
 62
     7
370
    25
100
AcDbCircle
 10
147.4175889635
 20
106.0143734113
 30
0.0
 40
1.174999999999983
100
AcDbArc
 50
350.5402980318
 51
0.0
  0
ARC
  5
A0
330
1F
100
AcDbEntity
  8
0
  6
Continuous
 62
     7
370
    25
100
AcDbCircle
 10
133.8175889635
 20
106.0143734113
 30
0.0
 40
1.175
100
AcDbArc
 50
180.0
 51
189.4597019682
  0
LINE
  5
A1
330
1F
100
AcDbEntity
  8
0
  6
Continuous
 62
     7
370
    25
100
AcDbLine
 10
148.5925954685
 20
106.0143725867
 30
0.0
 11
148.5925954685
 21
127.6312338109
 31
0.0
  0
LINE
  5
A2
330
1F
100
AcDbEntity
  8
0
  6
Continuous
 62
     7
370
    25
100
AcDbLine
 10
132.6425862417
 20
127.6312338109
 30
0.0
 11
132.6425862417
 21
106.0143725867
 31
0.0
  0
LINE
  5
A3
330
1F
100
AcDbEntity
  8
0
  6
Continuous
 62
     7
370
    25
100
AcDbLine
 10
132.6585602865
 20
105.8212535377
 30
0.0
 11
132.8776818619
 21
104.5062260623
 31
0.0
  0
LINE
  5
A4
330
1F
100
AcDbEntity
  8
0
  6
Continuous
 62
     7
370
    25
100
AcDbLine
 10
148.3574998484
 20
104.5062260623
 30
0.0
 11
148.5766065226
 21
105.8212535377
 31
0.0
  0
LINE
  5
A5
330
1F
100
AcDbEntity
  8
0
  6
Continuous
 62
     7
370
    25
100
AcDbLine
 10
313.317586194
 20
138.7312354441
 30
0.0
 11
315.5676019297
 21
139.6312283273
 31
0.0
  0
LINE
  5
A6
330
1F
100
AcDbEntity
  8
0
  6
Continuous
 62
     7
370
    25
100
AcDbLine
 10
313.7703430757
 20
154.6001301999
 30
0.0
 11
313.0675745115
 21
154.8812331552
 31
0.0
  0
LINE
  5
A7
330
1F
100
AcDbEntity
  8
0
  6
Continuous
 62
     7
370
    25
100
AcDbLine
 10
315.5676019297
 20
153.8812311287
 30
0.0
 11
314.919520627
 21
154.1404591794
 31
0.0
  0
LINE
  5
A8
330
1F
100
AcDbEntity
  8
0
  6
Continuous
 62
     7
370
    25
100
AcDbLine
 10
315.7153618441
 20
153.8147346969
 30
0.0
 11
315.5676019297
 21
153.8812311287
 31
0.0
  0
LINE
  5
A9
330
1F
100
AcDbEntity
  8
0
  6
Continuous
 62
     7
370
    25
100
AcDbLine
 10
315.5676019297
 20
139.6312283273
 30
0.0
 11
320.4201948748
 21
141.8148966427
 31
0.0
  0
ARC
  5
AA
330
1F
100
AcDbEntity
  8
0
  6
Continuous
 62
     7
370
    25
100
AcDbCircle
 10
320.3175889635
 20
142.0428783273
 30
0.0
 40
0.25
100
AcDbArc
 50
294.227745318
 51
0.0
  0
LINE
  5
AB
330
1F
100
AcDbEntity
  8
0
  6
Continuous
 62
     7
370
    25
100
AcDbLine
 10
314.9266135797
 20
154.1403176184
 30
0.0
 11
313.7647700415
 21
154.6050550337
 31
0.0
  0
LINE
  5
AC
330
1F
100
AcDbEntity
  8
0
  6
Continuous
 62
     7
370
    25
100
AcDbLine
 10
116.6175869212
 20
155.4687337871
 30
0.0
 11
114.3175852404
 21
155.4687337871
 31
0.0
  0
LINE
  5
AD
330
1F
100
AcDbEntity
  8
0
  6
Continuous
 62
     7
370
    25
100
AcDbLine
 10
114.3175852404
 20
148.0437310333
 30
0.0
 11
116.6175869212
 21
148.0437310333
 31
0.0
  0
ARC
  5
AE
330
1F
100
AcDbEntity
  8
0
  6
Continuous
 62
     7
370
    25
100
AcDbCircle
 10
114.3175889635
 20
154.2187319248
 30
0.0
 40
1.25
100
AcDbArc
 50
90.0
 51
180.0
  0
ARC
  5
AF
330
1F
100
AcDbEntity
  8
0
  6
Continuous
 62
     7
370
    25
100
AcDbCircle
 10
114.3175889635
 20
149.2937319248
 30
0.0
 40
1.25
100
AcDbArc
 50
180.0
 51
270.0
  0
LINE
  5
B0
330
1F
100
AcDbEntity
  8
0
  6
Continuous
 62
     7
370
    25
100
AcDbLine
 10
118.1925875053
 20
155.4687337871
 30
0.0
 11
117.5925922499
 21
155.4687337871
 31
0.0
  0
LINE
  5
B1
330
1F
100
AcDbEntity
  8
0
  6
Continuous
 62
     7
370
    25
100
AcDbLine
 10
117.5925922499
 20
148.0437310333
 30
0.0
 11
118.1925875053
 21
148.0437310333
 31
0.0
  0
LINE
  5
B2
330
1F
100
AcDbEntity
  8
0
  6
Continuous
 62
     7
370
    25
100
AcDbLine
 10
118.1925875053
 20
148.2562290425
 30
0.0
 11
119.5675921545
 21
148.2562290425
 31
0.0
  0
LINE
  5
B3
330
1F
100
AcDbEntity
  8
0
  6
Continuous
 62
     7
370
    25
100
AcDbLine
 10
119.5675921545
 20
155.2562283273
 30
0.0
 11
118.1925875053
 21
155.2562283273
 31
0.0
  0
LINE
  5
B4
330
1F
100
AcDbEntity
  8
0
  6
Continuous
 62
     7
370
    25
100
AcDbLine
 10
119.5675921545
 20
148.5062332745
 30
0.0
 11
120.0675857172
 21
148.5062332745
 31
0.0
  0
LINE
  5
B5
330
1F
100
AcDbEntity
  8
0
  6
Continuous
 62
     7
370
    25
100
AcDbLine
 10
120.0675857172
 20
155.0062315459
 30
0.0
 11
119.5675921545
 21
155.0062315459
 31
0.0
  0
LINE
  5
B6
330
1F
100
AcDbEntity
  8
0
  6
Continuous
 62
     7
370
    25
100
AcDbLine
 10
120.0675857172
 20
147.5687341685
 30
0.0
 11
120.767590116
 21
147.5687341685
 31
0.0
  0
LINE
  5
B7
330
1F
100
AcDbEntity
  8
0
  6
Continuous
 62
     7
370
    25
100
AcDbLine
 10
120.767590116
 20
155.9437306519
 30
0.0
 11
120.0675857172
 21
155.9437306519
 31
0.0
  0
ARC
  5
B8
330
1F
100
AcDbEntity
  8
0
  6
Continuous
 62
     7
370
    25
100
AcDbCircle
 10
305.4231398968
 20
191.324603667
 30
0.0
 40
0.062499999999965
100
AcDbArc
 50
24.0
 51
114.0
  0
ARC
  5
B9
330
1F
100
AcDbEntity
  8
0
  6
Continuous
 62
     7
370
    25
100
AcDbCircle
 10
303.8472739824
 20
190.6229829577
 30
0.0
 40
0.062499999999991
100
AcDbArc
 50
114.0
 51
204.0
  0
ARC
  5
BA
330
1F
100
AcDbEntity
  8
0
  6
Continuous
 62
     7
370
    25
100
AcDbCircle
 10
305.4739819772
 20
191.2104104848
 30
0.0
 40
0.0624999999999881
100
AcDbArc
 50
294.0
 51
24.0
  0
ARC
  5
BB
330
1F
100
AcDbEntity
  8
0
  6
Continuous
 62
     7
370
    25
100
AcDbCircle
 10
303.8981160628
 20
190.5087897755
 30
0.0
 40
0.0625000000000632
100
AcDbArc
 50
204.0
 51
294.0000000001
  0
LINE
  5
BC
330
1F
100
AcDbEntity
  8
0
  6
Continuous
 62
     7
370
    25
100
AcDbLine
 10
305.5310738192
 20
191.2358308132
 30
0.0
 11
305.4802310572
 21
191.350025862
 31
0.0
  0
LINE
  5
BD
330
1F
100
AcDbEntity
  8
0
  6
Continuous
 62
     7
370
    25
100
AcDbLine
 10
303.7901711569
 20
190.5975619252
 30
0.0
 11
303.8410139189
 21
190.4833668764
 31
0.0
  0
LINE
  5
BE
330
1F
100
AcDbEntity
  8
0
  6
Continuous
 62
     7
370
    25
100
AcDbLine
 10
305.643011342
 20
190.8614950175
 30
0.0
 11
305.59216858
 21
190.9756900663
 31
0.0
  0
LINE
  5
BF
330
1F
100
AcDbEntity
  8
0
  6
Continuous
 62
     7
370
    25
100
AcDbLine
 10
303.9934527979
 20
190.263898849
 30
0.0
 11
304.0442955599
 21
190.1497075255
 31
0.0
  0
ARC
  5
C0
330
1F
100
AcDbEntity
  8
0
  6
Continuous
 62
     7
370
    25
100
AcDbCircle
 10
305.34945918
 20
191.4286284331
 30
0.0
 40
0.0625000000000632
100
AcDbArc
 50
214.9606183547
 51
294.0000000001
  0
ARC
  5
C1
330
1F
100
AcDbEntity
  8
0
  6
Continuous
 62
     7
370
    25
100
AcDbCircle
 10
303.8192705384
 20
190.747344556
 30
0.0
 40
0.062499999999991
100
AcDbArc
 50
294.0
 51
24.0
  0
LINE
  5
C2
330
1F
100
AcDbEntity
  8
0
  6
Continuous
 62
     7
370
    25
100
AcDbLine
 10
305.1751744852
 20
191.6664333935
 30
0.0
 11
305.1666212187
 21
191.6856223638
 31
0.0
  0
LINE
  5
C3
330
1F
100
AcDbEntity
  8
0
  6
Continuous
 62
     7
370
    25
100
AcDbLine
 10
303.7451100454
 20
191.0675445492
 30
0.0
 11
303.7536633119
 21
191.0483481283
 31
0.0
  0
LINE
  5
C4
330
1F
100
AcDbEntity
  8
0
  6
Continuous
 62
     7
370
    25
100
AcDbLine
 10
303.8757038221
 20
190.7742747958
 30
0.0
 11
303.8763594732
 21
190.7727660532
 31
0.0
  0
LINE
  5
C5
330
1F
100
AcDbEntity
  8
0
  6
Continuous
 62
     7
370
    25
100
AcDbLine
 10
296.7650783167
 20
200.8367383773
 30
0.0
 11
296.8713533983
 21
200.8367383773
 31
0.0
  0
LINE
  5
C6
330
1F
100
AcDbEntity
  8
0
  6
Continuous
 62
     7
370
    25
100
AcDbLine
 10
296.8713533983
 20
202.8367387052
 30
0.0
 11
296.7650783167
 21
202.8367387052
 31
0.0
  0
LINE
  5
C7
330
1F
100
AcDbEntity
  8
0
  6
Continuous
 62
     7
370
    25
100
AcDbLine
 10
312.6175892458
 20
157.622033536
 30
0.0
 11
312.5925850973
 21
157.622033536
 31
0.0
  0
ARC
  5
C8
330
1F
100
AcDbEntity
  8
0
  6
Continuous
 62
     7
370
    25
100
AcDbCircle
 10
117.9050889635
 20
141.1937319248
 30
0.0
 40
0.3624999999999972
100
AcDbArc
 50
0.0
 51
90.0
  0
ARC
  5
C9
330
1F
100
AcDbEntity
  8
0
  6
Continuous
 62
     7
370
    25
100
AcDbCircle
 10
116.6300889635
 20
141.4937319248
 30
0.0
 40
0.0625000000000284
100
AcDbArc
 50
90.0
 51
180.0
  0
LINE
  5
CA
330
1F
100
AcDbEntity
  8
0
  6
Continuous
 62
     7
370
    25
100
AcDbLine
 10
117.9050919518
 20
141.5562348361
 30
0.0
 11
116.6300889954
 21
141.5562348361
 31
0.0
  0
SPLINE
  5
CB
330
1F
100
AcDbEntity
  8
0
  6
Continuous
 62
     7
370
    25
100
AcDbSpline
210
0.0
220
0.0
230
1.0
 70
     8
 71
     3
 72
    12
 73
     8
 74
     0
 42
0.000000001
 43
0.00000001
 40
0.0
 40
0.0
 40
0.0
 40
0.0
 40
0.0943586596049788
 40
0.2995584865901068
 40
0.5210711308335897
 40
0.7700347282716795
 40
1.0
 40
1.0
 40
1.0
 40
1.0
 10
117.905091951838
 20
141.0134525890335
 30
0.0
 10
117.9083446768326
 20
141.0136204076265
 30
0.0
 10
117.9186710356503
 20
141.0141531778458
 30
0.0
 10
117.9357555952665
 20
141.0067761325044
 30
0.0
 10
117.9531230089557
 20
140.9917566940876
 30
0.0
 10
117.965226654093
 20
140.9706362007002
 30
0.0
 10
117.9663282947841
 20
140.9545574259365
 30
0.0
 10
117.9668572649865
 20
140.9468369479164
 30
0.0
  0
LINE
  5
CC
330
1F
100
AcDbEntity
  8
0
  6
Continuous
 62
     7
370
    25
100
AcDbLine
 10
116.6300889954
 20
141.0143317575
 30
0.0
 11
117.9050919518
 21
141.0143317575
 31
0.0
  0
ARC
  5
CD
330
1F
100
AcDbEntity
  8
0
  6
Continuous
 62
     7
370
    25
100
AcDbCircle
 10
116.6300889635
 20
141.076831541
 30
0.0
 40
0.0625000000000284
100
AcDbArc
 50
180.0
 51
270.0
  0
SPLINE
  5
CE
330
1F
100
AcDbEntity
  8
0
  6
Continuous
 62
     7
370
    25
100
AcDbSpline
210
0.0
220
0.0
230
1.0
 70
     8
 71
     3
 72
    12
 73
     8
 74
     0
 42
0.000000001
 43
0.00000001
 40
0.0
 40
0.0
 40
0.0
 40
0.0
 40
0.1267174947255108
 40
0.418463203862001
 40
0.6528202889656153
 40
0.860270999266078
 40
0.9999999999999999
 40
0.9999999999999999
 40
0.9999999999999999
 40
0.9999999999999999
 10
117.9662314162164
 20
136.8675323123916
 30
0.0
 10
117.9663350796265
 20
136.8633593774145
 30
0.0
 10
117.9666774105953
 20
136.8495789618232
 30
0.0
 10
117.9567236345586
 20
136.8292528587652
 30
0.0
 10
117.9396120869854
 20
136.8118724533062
 30
0.0
 10
117.9214817638321
 20
136.8028375351153
 30
0.0
 10
117.9096891138721
 20
136.8026897740358
 30
0.0
 10
117.9049429402261
 20
136.8026303048118
 30
0.0
  0
LINE
  5
CF
330
1F
100
AcDbEntity
  8
0
  6
Continuous
 62
     7
370
    25
100
AcDbLine
 10
117.9050919518
 20
136.8019224997
 30
0.0
 11
116.6300889954
 21
136.8019224997
 31
0.0
  0
ARC
  5
D0
330
1F
100
AcDbEntity
  8
0
  6
Continuous
 62
     7
370
    25
100
AcDbCircle
 10
116.6300889635
 20
136.7394220834
 30
0.0
 40
0.0625
100
AcDbArc
 50
90.0
 51
180.0
  0
ARC
  5
D1
330
1F
100
AcDbEntity
  8
0
  6
Continuous
 62
     7
370
    25
100
AcDbCircle
 10
117.9050889635
 20
136.8187319248
 30
0.0
 40
0.3625000000000114
100
AcDbArc
 50
270.0
 51
0.0
  0
ARC
  5
D2
330
1F
100
AcDbEntity
  8
0
  6
Continuous
 62
     7
370
    25
100
AcDbCircle
 10
116.6300889635
 20
136.5187319248
 30
0.0
 40
0.0624999999999858
100
AcDbArc
 50
180.0
 51
270.0
  0
LINE
  5
D3
330
1F
100
AcDbEntity
  8
0
  6
Continuous
 62
     7
370
    25
100
AcDbLine
 10
116.6300889954
 20
136.4562304611
 30
0.0
 11
117.9050919518
 21
136.4562304611
 31
0.0
  0
ARC
  5
D4
330
1F
100
AcDbEntity
  8
0
  6
Continuous
 62
     7
370
    25
100
AcDbCircle
 10
116.6300889635
 20
136.9356323087
 30
0.0
 40
0.0625
100
AcDbArc
 50
90.0
 51
180.0
  0
LINE
  5
D5
330
1F
100
AcDbEntity
  8
0
  6
Continuous
 62
     7
370
    25
100
AcDbLine
 10
117.6675897941
 20
136.9981335397
 30
0.0
 11
116.6300889954
 21
136.9981335397
 31
0.0
  0
SPLINE
  5
D6
330
1F
100
AcDbEntity
  8
0
  6
Continuous
 62
     7
370
    25
100
AcDbSpline
210
0.0
220
0.0
230
1.0
 70
     8
 71
     3
 72
    16
 73
    12
 74
     0
 42
0.000000001
 43
0.00000001
 40
0.0
 40
0.0
 40
0.0
 40
0.0
 40
0.023565281022197
 40
0.0874183521951402
 40
0.1409804842932792
 40
0.1912334445097618
 40
0.2447072510113521
 40
0.3225773165688235
 40
0.5211451417936418
 40
0.8498078340634332
 40
0.9999999999999999
 40
0.9999999999999999
 40
0.9999999999999999
 40
0.9999999999999999
 10
117.6686701283365
 20
138.1233127708419
 30
0.0
 10
117.6684310606564
 20
138.1204654848246
 30
0.0
 10
117.6675442092483
 20
138.1099031218453
 30
0.0
 10
117.6745900856798
 20
138.0936080061628
 30
0.0
 10
117.6861141964426
 20
138.0783493021919
 30
0.0
 10
117.6987556003869
 20
138.0687980420902
 30
0.0
 10
117.7111688456239
 20
138.0626940596179
 30
0.0
 10
117.7286107177081
 20
138.0571420820777
 30
0.0
 10
117.7596487577564
 20
138.0520271195504
 30
0.0
 10
117.8114510685369
 20
138.0469216192008
 30
0.0
 10
117.8659176212264
 20
138.0450615771653
 30
0.0
 10
117.8830009803682
 20
138.0444781775459
 30
0.0
  0
ARC
  5
D7
330
1F
100
AcDbEntity
  8
0
  6
Continuous
 62
     7
370
    25
100
AcDbCircle
 10
119.3050889635
 20
138.1040052042
 30
0.0
 40
0.0625
100
AcDbArc
 50
270.0
 51
0.0
  0
LINE
  5
D8
330
1F
100
AcDbEntity
  8
0
  6
Continuous
 62
     7
370
    25
100
AcDbLine
 10
118.0300903425
 20
138.0415053959
 30
0.0
 11
119.3050858483
 21
138.0415053959
 31
0.0
  0
SPLINE
  5
D9
330
1F
100
AcDbEntity
  8
0
  6
Continuous
 62
     7
370
    25
100
AcDbSpline
210
0.0
220
0.0
230
1.0
 70
     8
 71
     3
 72
    13
 73
     9
 74
     0
 42
0.000000001
 43
0.00000001
 40
0.0
 40
0.0
 40
0.0
 40
0.0
 40
0.1181203637365981
 40
0.3944197566925292
 40
0.671596968253958
 40
0.8795735079122594
 40
0.9952860514068512
 40
1.0
 40
1.0
 40
1.0
 40
1.0
 10
118.0284884676843
 20
139.6754102702125
 30
0.0
 10
118.0225493275083
 20
139.6753904552213
 30
0.0
 10
118.0027177409041
 20
139.6753242903047
 30
0.0
 10
117.9707055091749
 20
139.6761987582034
 30
0.0
 10
117.9414387892317
 20
139.6778616671776
 30
0.0
 10
117.9280861552051
 20
139.6791369963125
 30
0.0
 10
117.9233326776668
 20
139.6800633377329
 30
0.0
 10
117.9241914280707
 20
139.6798659916994
 30
0.0
 10
117.9242250428109
 20
139.6798582668289
 30
0.0
  0
LINE
  5
DA
330
1F
100
AcDbEntity
  8
0
  6
Continuous
 62
     7
370
    25
100
AcDbLine
 10
119.3050858483
 20
139.6752985115
 30
0.0
 11
118.0300903425
 21
139.6752985115
 31
0.0
  0
ARC
  5
DB
330
1F
100
AcDbEntity
  8
0
  6
Continuous
 62
     7
370
    25
100
AcDbCircle
 10
119.3050889635
 20
139.6127957067
 30
0.0
 40
0.0625000000000284
100
AcDbArc
 50
0.0
 51
90.0
  0
ARC
  5
DC
330
1F
100
AcDbEntity
  8
0
  6
Continuous
 62
     7
370
    25
100
AcDbCircle
 10
117.9050889635
 20
136.8937319248
 30
0.0
 40
0.0625
100
AcDbArc
 50
270.0
 51
0.0
  0
ARC
  5
DD
330
1F
100
AcDbEntity
  8
0
  6
Continuous
 62
     7
370
    25
100
AcDbCircle
 10
117.7300889635
 20
136.8937319248
 30
0.0
 40
0.0625000000000142
100
AcDbArc
 50
180.0
 51
270.0
  0
LINE
  5
DE
330
1F
100
AcDbEntity
  8
0
  6
Continuous
 62
     7
370
    25
100
AcDbLine
 10
117.7300852642
 20
136.8312330837
 30
0.0
 11
117.9050919518
 21
136.8312330837
 31
0.0
  0
LINE
  5
DF
330
1F
100
AcDbEntity
  8
0
  6
Continuous
 62
     7
370
    25
100
AcDbLine
 10
116.3705703721
 20
140.2613909836
 30
0.0
 11
116.3675901399
 21
140.2562351818
 31
0.0
  0
LINE
  5
E0
330
1F
100
AcDbEntity
  8
0
  6
Continuous
 62
     7
370
    25
100
AcDbLine
 10
117.6675897941
 20
140.2562351818
 30
0.0
 11
117.6646095619
 21
140.2613909836
 31
0.0
  0
LINE
  5
E1
330
1F
100
AcDbEntity
  8
0
  6
Continuous
 62
     7
370
    25
100
AcDbLine
 10
116.3675901399
 20
137.7562301154
 30
0.0
 11
116.3705703721
 21
137.7510668631
 31
0.0
  0
LINE
  5
E2
330
1F
100
AcDbEntity
  8
0
  6
Continuous
 62
     7
370
    25
100
AcDbLine
 10
118.3395651088
 20
140.3809057469
 30
0.0
 11
118.2675925002
 21
140.2562351818
 31
0.0
  0
LINE
  5
E3
330
1F
100
AcDbEntity
  8
0
  6
Continuous
 62
     7
370
    25
100
AcDbLine
 10
119.5675921545
 20
140.2562351818
 30
0.0
 11
119.4956120953
 21
140.3809057469
 31
0.0
  0
LINE
  5
E4
330
1F
100
AcDbEntity
  8
0
  6
Continuous
 62
     7
370
    25
100
AcDbLine
 10
119.4956120953
 20
137.6315595503
 30
0.0
 11
119.5675921545
 21
137.7562301154
 31
0.0
  0
LINE
  5
E5
330
1F
100
AcDbEntity
  8
0
  6
Continuous
 62
     7
370
    25
100
AcDbLine
 10
118.2675925002
 20
137.7562301154
 30
0.0
 11
118.3395651088
 21
137.6315595503
 31
0.0
  0
LINE
  5
E6
330
1F
100
AcDbEntity
  8
0
  6
Continuous
 62
     7
370
    25
100
AcDbLine
 10
119.6300876245
 20
139.7562341685
 30
0.0
 11
119.5675921545
 21
139.7562341685
 31
0.0
  0
LINE
  5
E7
330
1F
100
AcDbEntity
  8
0
  6
Continuous
 62
     7
370
    25
100
AcDbLine
 10
119.5675921545
 20
138.2562311287
 30
0.0
 11
119.6300876245
 21
138.2562311287
 31
0.0
  0
LINE
  5
E8
330
1F
100
AcDbEntity
  8
0
  6
Continuous
 62
     7
370
    25
100
AcDbLine
 10
300.1800966368
 20
126.4937313194
 30
0.0
 11
292.0925808058
 21
126.4937313194
 31
0.0
  0
LINE
  5
E9
330
1F
100
AcDbEntity
  8
0
  6
Continuous
 62
     7
370
    25
100
AcDbLine
 10
300.1800966368
 20
126.1937336917
 30
0.0
 11
292.0925808058
 21
126.1937336917
 31
0.0
  0
LINE
  5
EA
330
1F
100
AcDbEntity
  8
0
  6
Continuous
 62
     7
370
    25
100
AcDbLine
 10
301.4300954447
 20
126.4937313194
 30
0.0
 11
301.4300954447
 21
126.1937336917
 31
0.0
  0
LINE
  5
EB
330
1F
100
AcDbEntity
  8
0
  6
Continuous
 62
     7
370
    25
100
AcDbLine
 10
301.4300954447
 20
126.1937336917
 30
0.0
 11
300.1800966368
 21
126.1937336917
 31
0.0
  0
LINE
  5
EC
330
1F
100
AcDbEntity
  8
0
  6
Continuous
 62
     7
370
    25
100
AcDbLine
 10
300.1800966368
 20
126.4937313194
 30
0.0
 11
301.4300954447
 21
126.4937313194
 31
0.0
  0
LINE
  5
ED
330
1F
100
AcDbEntity
  8
0
  6
Continuous
 62
     7
370
    25
100
AcDbLine
 10
301.4300954447
 20
125.8812339897
 30
0.0
 11
301.4300954447
 21
126.1937336917
 31
0.0
  0
LINE
  5
EE
330
1F
100
AcDbEntity
  8
0
  6
Continuous
 62
     7
370
    25
100
AcDbLine
 10
197.0300865278
 20
125.8812339897
 30
0.0
 11
197.0300865278
 21
125.8937286134
 31
0.0
  0
LINE
  5
EF
330
1F
100
AcDbEntity
  8
0
  6
Continuous
 62
     7
370
    25
100
AcDbLine
 10
301.4300954447
 20
114.0687333341
 30
0.0
 11
301.4300954447
 21
125.8812339897
 31
0.0
  0
LINE
  5
F0
330
1F
100
AcDbEntity
  8
0
  6
Continuous
 62
     7
370
    25
100
AcDbLine
 10
197.0300865278
 20
114.0687333341
 30
0.0
 11
197.0300865278
 21
125.8812339897
 31
0.0
  0
ARC
  5
F1
330
1F
100
AcDbEntity
  8
0
  6
Continuous
 62
     7
370
    25
100
AcDbCircle
 10
299.6800889635
 20
124.5062319248
 30
0.0
 40
0.5
100
AcDbArc
 50
0.0
 51
90.0
  0
LINE
  5
F2
330
1F
100
AcDbEntity
  8
0
  6
Continuous
 62
     7
370
    25
100
AcDbLine
 10
299.6801030741
 20
125.0062303538
 30
0.0
 11
292.0925808058
 21
125.0062303538
 31
0.0
  0
LINE
  5
F3
330
1F
100
AcDbEntity
  8
0
  6
Continuous
 62
     7
370
    25
100
AcDbLine
 10
292.0925808058
 20
122.506232738
 30
0.0
 11
299.6801030741
 21
122.506232738
 31
0.0
  0
ARC
  5
F4
330
1F
100
AcDbEntity
  8
0
  6
Continuous
 62
     7
370
    25
100
AcDbCircle
 10
299.6800889635
 20
123.0062319248
 30
0.0
 40
0.5
100
AcDbArc
 50
270.0
 51
0.0
  0
LINE
  5
F5
330
1F
100
AcDbEntity
  8
0
  6
Continuous
 62
     7
370
    25
100
AcDbLine
 10
300.1800966368
 20
123.0062263007
 30
0.0
 11
300.1800966368
 21
124.5062293406
 31
0.0
  0
LINE
  5
F6
330
1F
100
AcDbEntity
  8
0
  6
Continuous
 62
     7
370
    25
100
AcDbLine
 10
301.4300954447
 20
113.6937307115
 30
0.0
 11
301.1175882921
 21
113.6937307115
 31
0.0
  0
LINE
  5
F7
330
1F
100
AcDbEntity
  8
0
  6
Continuous
 62
     7
370
    25
100
AcDbLine
 10
301.1175882921
 20
113.6937307115
 30
0.0
 11
292.0925808058
 21
113.6937307115
 31
0.0
  0
LINE
  5
F8
330
1F
100
AcDbEntity
  8
0
  6
Continuous
 62
     7
370
    25
100
AcDbLine
 10
276.1425864801
 20
113.6937307115
 30
0.0
 11
197.3425936804
 21
113.6937307115
 31
0.0
  0
LINE
  5
F9
330
1F
100
AcDbEntity
  8
0
  6
Continuous
 62
     7
370
    25
100
AcDbLine
 10
197.0300865278
 20
113.6937307115
 30
0.0
 11
197.3425936804
 21
113.6937307115
 31
0.0
  0
LINE
  5
FA
330
1F
100
AcDbEntity
  8
0
  6
Continuous
 62
     7
370
    25
100
AcDbLine
 10
197.0300865278
 20
113.6937307115
 30
0.0
 11
197.0300865278
 21
114.0687333341
 31
0.0
  0
LINE
  5
FB
330
1F
100
AcDbEntity
  8
0
  6
Continuous
 62
     7
370
    25
100
AcDbLine
 10
301.4300954447
 20
113.6937307115
 30
0.0
 11
301.4300954447
 21
114.0687333341
 31
0.0
  0
ARC
  5
FC
330
1F
100
AcDbEntity
  8
0
  6
Continuous
 62
     7
370
    25
100
AcDbCircle
 10
301.1175889635
 20
114.3062319248
 30
0.0
 40
0.6125000000000114
100
AcDbArc
 50
300.6774244726
 51
0.0
  0
ARC
  5
FD
330
1F
100
AcDbEntity
  8
0
  6
Continuous
 62
     7
370
    25
100
AcDbCircle
 10
197.3425889635
 20
114.3062319248
 30
0.0
 40
0.6125000000000398
100
AcDbArc
 50
180.0
 51
239.3225755274
  0
LINE
  5
FE
330
1F
100
AcDbEntity
  8
0
  6
Continuous
 62
     7
370
    25
100
AcDbLine
 10
301.7300856218
 20
125.8812339897
 30
0.0
 11
301.4300954447
 21
125.8812339897
 31
0.0
  0
LINE
  5
FF
330
1F
100
AcDbEntity
  8
0
  6
Continuous
 62
     7
370
    25
100
AcDbLine
 10
301.7300856218
 20
125.8812339897
 30
0.0
 11
301.7300856218
 21
114.3062280412
 31
0.0
  0
LINE
  5
100
330
1F
100
AcDbEntity
  8
0
  6
Continuous
 62
     7
370
    25
100
AcDbLine
 10
196.7300963507
 20
114.3062280412
 30
0.0
 11
196.7300963507
 21
125.8812339897
 31
0.0
  0
LINE
  5
101
330
1F
100
AcDbEntity
  8
0
  6
Continuous
 62
     7
370
    25
100
AcDbLine
 10
196.7300963507
 20
125.8812339897
 30
0.0
 11
197.0300865278
 21
125.8812339897
 31
0.0
  0
LINE
  5
102
330
1F
100
AcDbEntity
  8
0
  6
Continuous
 62
     7
370
    25
100
AcDbLine
 10
191.7300862179
 20
122.3187314267
 30
0.0
 11
192.0300912962
 21
122.3187314267
 31
0.0
  0
LINE
  5
103
330
1F
100
AcDbEntity
  8
0
  6
Continuous
 62
     7
370
    25
100
AcDbLine
 10
191.7300862179
 20
122.3187314267
 30
0.0
 11
191.7300862179
 21
124.8187290425
 31
0.0
  0
LINE
  5
104
330
1F
100
AcDbEntity
  8
0
  6
Continuous
 62
     7
370
    25
100
AcDbLine
 10
192.0300912962
 20
122.3187314267
 30
0.0
 11
192.0300912962
 21
124.8187290425
 31
0.0
  0
LINE
  5
105
330
1F
100
AcDbEntity
  8
0
  6
Continuous
 62
     7
370
    25
100
AcDbLine
 10
306.7300808535
 20
124.8187290425
 30
0.0
 11
306.7300808535
 21
122.3187314267
 31
0.0
  0
LINE
  5
106
330
1F
100
AcDbEntity
  8
0
  6
Continuous
 62
     7
370
    25
100
AcDbLine
 10
306.7300808535
 20
122.3187314267
 30
0.0
 11
306.4300906763
 21
122.3187314267
 31
0.0
  0
LINE
  5
107
330
1F
100
AcDbEntity
  8
0
  6
Continuous
 62
     7
370
    25
100
AcDbLine
 10
306.4300906763
 20
124.8187290425
 30
0.0
 11
306.4300906763
 21
122.3187314267
 31
0.0
  0
LINE
  5
108
330
1F
100
AcDbEntity
  8
0
  6
Continuous
 62
     7
370
    25
100
AcDbLine
 10
191.7300862179
 20
124.8187290425
 30
0.0
 11
191.7300862179
 21
125.8687319155
 31
0.0
  0
LINE
  5
109
330
1F
100
AcDbEntity
  8
0
  6
Continuous
 62
     7
370
    25
100
AcDbLine
 10
192.0300912962
 20
124.8187290425
 30
0.0
 11
192.0300912962
 21
125.8687319155
 31
0.0
  0
LINE
  5
10A
330
1F
100
AcDbEntity
  8
0
  6
Continuous
 62
     7
370
    25
100
AcDbLine
 10
191.7305928574
 20
125.8937286134
 30
0.0
 11
191.7300862179
 21
125.8687319155
 31
0.0
  0
LINE
  5
10B
330
1F
100
AcDbEntity
  8
0
  6
Continuous
 62
     7
370
    25
100
AcDbLine
 10
192.031089674
 20
125.8937286134
 30
0.0
 11
192.0300912962
 21
125.8687319155
 31
0.0
  0
LINE
  5
10C
330
1F
100
AcDbEntity
  8
0
  6
Continuous
 62
     7
370
    25
100
AcDbLine
 10
306.7300808535
 20
125.8687319155
 30
0.0
 11
306.7300808535
 21
124.8187290425
 31
0.0
  0
LINE
  5
10D
330
1F
100
AcDbEntity
  8
0
  6
Continuous
 62
     7
370
    25
100
AcDbLine
 10
306.4300906763
 20
125.8687319155
 30
0.0
 11
306.4300906763
 21
124.8187290425
 31
0.0
  0
LINE
  5
10E
330
1F
100
AcDbEntity
  8
0
  6
Continuous
 62
     7
370
    25
100
AcDbLine
 10
196.7300963507
 20
125.8687319155
 30
0.0
 11
196.7290830717
 21
125.8937286134
 31
0.0
  0
LINE
  5
10F
330
1F
100
AcDbEntity
  8
0
  6
Continuous
 62
     7
370
    25
100
AcDbLine
 10
197.0299673185
 20
125.8812339897
 30
0.0
 11
197.0295798883
 21
125.8937286134
 31
0.0
  0
ARC
  5
110
330
1F
100
AcDbEntity
  8
0
  6
Continuous
 62
     7
370
    25
100
AcDbCircle
 10
306.1175889635
 20
125.8687319248
 30
0.0
 40
0.3125000000000142
100
AcDbArc
 50
0.0
 51
90.0
  0
ARC
  5
111
330
1F
100
AcDbEntity
  8
0
  6
Continuous
 62
     7
370
    25
100
AcDbCircle
 10
306.1175889635
 20
125.8687319248
 30
0.0
 40
0.6125000000000114
100
AcDbArc
 50
0.0
 51
90.0
  0
LINE
  5
112
330
1F
100
AcDbEntity
  8
0
  6
Continuous
 62
     7
370
    25
100
AcDbLine
 10
302.0425927744
 20
126.1812316174
 30
0.0
 11
306.1175835237
 21
126.1812316174
 31
0.0
  0
LINE
  5
113
330
1F
100
AcDbEntity
  8
0
  6
Continuous
 62
     7
370
    25
100
AcDbLine
 10
302.0425927744
 20
126.4812292452
 30
0.0
 11
306.1175835237
 21
126.4812292452
 31
0.0
  0
ARC
  5
114
330
1F
100
AcDbEntity
  8
0
  6
Continuous
 62
     7
370
    25
100
AcDbCircle
 10
302.0425889635
 20
125.8687319248
 30
0.0
 40
0.6125000000000114
100
AcDbArc
 50
90.0
 51
178.8306171944
  0
ARC
  5
115
330
1F
100
AcDbEntity
  8
0
  6
Continuous
 62
     7
370
    25
100
AcDbCircle
 10
302.0425889635
 20
125.8687319248
 30
0.0
 40
0.3125
100
AcDbArc
 50
90.0
 51
180.0
  0
SPLINE
  5
116
330
1F
100
AcDbEntity
  8
0
  6
Continuous
 62
     7
370
    25
100
AcDbSpline
210
0.0
220
0.0
230
1.0
 70
     8
 71
     3
 72
    11
 73
     7
 74
     0
 42
0.000000001
 43
0.00000001
 40
0.0
 40
0.0
 40
0.0
 40
0.0
 40
0.2500044599984945
 40
0.5000141553180864
 40
0.750022498167614
 40
1.0
 40
1.0
 40
1.0
 40
1.0
 10
297.6675820455461
 20
128.3829973931297
 30
0.0
 10
297.6598791035892
 20
128.408894112916
 30
0.0
 10
297.6444730583687
 20
128.4606880947894
 30
0.0
 10
297.5259473077153
 20
128.5383614654049
 30
0.0
 10
297.3565521525147
 20
128.6160485125069
 30
0.0
 10
297.2222488292375
 20
128.667838107365
 30
0.0
 10
297.1551013097673
 20
128.693731307505
 30
0.0
  0
SPLINE
  5
117
330
1F
100
AcDbEntity
  8
0
  6
Continuous
 62
     7
370
    25
100
AcDbSpline
210
0.0
220
0.0
230
1.0
 70
     8
 71
     3
 72
    11
 73
     7
 74
     0
 42
0.000000001
 43
0.00000001
 40
0.0
 40
0.0
 40
0.0
 40
0.0
 40
0.2499790740671562
 40
0.4999858447953487
 40
0.7499971121472577
 40
1.0
 40
1.0
 40
1.0
 40
1.0
 10
297.1551013097673
 20
194.0687315459236
 30
0.0
 10
297.2222486070747
 20
194.0946267583896
 30
0.0
 10
297.3565506413358
 20
194.1464200524056
 30
0.0
 10
297.5259486208065
 20
194.2240989391964
 30
0.0
 10
297.6444723347942
 20
194.3017804702779
 30
0.0
 10
297.6598788946926
 20
194.3535707529348
 30
0.0
 10
297.6675820455461
 20
194.3794654602989
 30
0.0
  0
LINE
  5
118
330
1F
100
AcDbEntity
  8
0
  6
Continuous
 62
     7
370
    25
100
AcDbLine
 10
297.6675820455
 20
128.3829973931
 30
0.0
 11
297.6675820455
 21
159.5562340612
 31
0.0
  0
LINE
  5
119
330
1F
100
AcDbEntity
  8
0
  6
Continuous
 62
     7
370
    25
100
AcDbLine
 10
297.6675820455
 20
159.7562299962
 30
0.0
 11
297.6675820455
 21
160.0062342281
 31
0.0
  0
LINE
  5
11A
330
1F
100
AcDbEntity
  8
0
  6
Continuous
 62
     7
370
    25
100
AcDbLine
 10
297.6675820455
 20
189.6781491036
 30
0.0
 11
297.6675820455
 21
194.3794654603
 31
0.0
  0
SPLINE
  5
11B
330
1F
100
AcDbEntity
  8
0
  6
Continuous
 62
     7
370
    25
100
AcDbSpline
210
0.0
220
0.0
230
1.0
 70
     8
 71
     3
 72
    12
 73
     8
 74
     0
 42
0.000000001
 43
0.00000001
 40
0.0
 40
0.0
 40
0.0
 40
0.0
 40
0.3486209010157321
 40
0.5715565878855041
 40
0.7575552013936865
 40
0.9445176986719196
 40
1.0
 40
1.0
 40
1.0
 40
1.0
 10
297.1551013097673
 20
128.693731307505
 30
0.0
 10
297.2040798410871
 20
128.6449596417192
 30
0.0
 10
297.2843791064473
 20
128.5649995280232
 30
0.0
 10
297.3785636217716
 20
128.4685492723113
 30
0.0
 10
297.433180050468
 20
128.4072060104098
 30
0.0
 10
297.4578835641033
 20
128.3831107693552
 30
0.0
 10
297.4643422780243
 20
128.3815815580291
 30
0.0
 10
297.4658203229814
 20
128.3812316055282
 30
0.0
  0
LINE
  5
11C
330
1F
100
AcDbEntity
  8
0
  6
Continuous
 62
     7
370
    25
100
AcDbLine
 10
297.465820323
 20
128.18122822
 30
0.0
 11
297.465820323
 21
128.3812316055
 31
0.0
  0
SPLINE
  5
11D
330
1F
100
AcDbEntity
  8
0
  6
Continuous
 62
     7
370
    25
100
AcDbSpline
210
0.0
220
0.0
230
1.0
 70
     8
 71
     3
 72
    12
 73
     8
 74
     0
 42
0.000000001
 43
0.00000001
 40
0.0
 40
0.0
 40
0.0
 40
0.0
 40
0.2353691640090658
 40
0.5035799999278106
 40
0.7398170972309538
 40
0.9425336498521335
 40
1.0
 40
1.0
 40
1.0
 40
1.0
 10
297.1551013097673
 20
128.693731307505
 30
0.0
 10
297.1905162843594
 20
128.635304648934
 30
0.0
 10
297.2662877771022
 20
128.5102989080891
 30
0.0
 10
297.3689891148385
 20
128.3429192579428
 30
0.0
 10
297.4328980566561
 20
128.2238680407802
 30
0.0
 10
297.4582165401171
 20
128.1840022024672
 30
0.0
 10
297.4644447124786
 20
128.1817300648563
 30
0.0
 10
297.4658203229814
 20
128.1812282199844
 30
0.0
  0
LINE
  5
11E
330
1F
100
AcDbEntity
  8
0
  6
Continuous
 62
     7
370
    25
100
AcDbLine
 10
297.6675820455
 20
128.3829973931
 30
0.0
 11
297.46757866
 21
128.3829973931
 31
0.0
  0
SPLINE
  5
11F
330
1F
100
AcDbEntity
  8
0
  6
Continuous
 62
     7
370
    25
100
AcDbSpline
210
0.0
220
0.0
230
1.0
 70
     8
 71
     3
 72
    11
 73
     7
 74
     0
 42
0.000000001
 43
0.00000001
 40
0.0
 40
0.0
 40
0.0
 40
0.0
 40
0.2500100851656182
 40
0.5000104083179563
 40
0.7500266891183153
 40
1.0
 40
1.0
 40
1.0
 40
1.0
 10
297.4675786600023
 20
128.3829973931297
 30
0.0
 10
297.4628837553234
 20
128.4088935463716
 30
0.0
 10
297.4534941292852
 20
128.4606848417017
 30
0.0
 10
297.3812256594763
 20
128.5383653971543
 30
0.0
 10
297.2779313853966
 20
128.6160457793594
 30
0.0
 10
297.1960423224174
 20
128.667837615148
 30
0.0
 10
297.1551013097673
 20
128.693731307505
 30
0.0
  0
LINE
  5
120
330
1F
100
AcDbEntity
  8
0
  6
Continuous
 62
     7
370
    25
100
AcDbLine
 10
297.465820323
 20
128.18122822
 30
0.0
 11
120.9693592892
 21
128.18122822
 31
0.0
  0
SPLINE
  5
121
330
1F
100
AcDbEntity
  8
0
  6
Continuous
 62
     7
370
    25
100
AcDbSpline
210
0.0
220
0.0
230
1.0
 70
     8
 71
     3
 72
    12
 73
     8
 74
     0
 42
0.000000001
 43
0.00000001
 40
0.0
 40
0.0
 40
0.0
 40
0.0
 40
0.2301673862269586
 40
0.4604252973814321
 40
0.6906751823494162
 40
0.9209291003706274
 40
1.0
 40
1.0
 40
1.0
 40
1.0
 10
120.9693592891603
 20
128.1812282199844
 30
0.0
 10
120.9932052987001
 20
128.1877472874496
 30
0.0
 10
121.0409066964252
 20
128.2007879863318
 30
0.0
 10
121.1124773349969
 20
128.3019738689095
 30
0.0
 10
121.1840081894249
 20
128.4489756102324
 30
0.0
 10
121.2400356294335
 20
128.5899816268052
 30
0.0
 10
121.2719322148076
 20
128.6726096003795
 30
0.0
 10
121.280085752955
 20
128.693731307505
 30
0.0
  0
SPLINE
  5
122
330
1F
100
AcDbEntity
  8
0
  6
Continuous
 62
     7
370
    25
100
AcDbSpline
210
0.0
220
0.0
230
1.0
 70
     8
 71
     3
 72
    12
 73
     8
 74
     0
 42
0.000000001
 43
0.00000001
 40
0.0
 40
0.0
 40
0.0
 40
0.0
 40
0.1873981418352645
 40
0.3754463684250037
 40
0.5704415308359266
 40
0.7798341483900898
 40
1.0
 40
1.0
 40
1.0
 40
1.0
 10
297.4658203229814
 20
194.5812309081539
 30
0.0
 10
297.4600767127089
 20
194.576147583068
 30
0.0
 10
297.4485695675614
 20
194.5659632988253
 30
0.0
 10
297.4056717572314
 20
194.4881631704602
 30
0.0
 10
297.3419417040338
 20
194.3736399354754
 30
0.0
 10
297.2527257480623
 20
194.23038255783
 30
0.0
 10
297.1881823672373
 20
194.1235086745642
 30
0.0
 10
297.1551013097673
 20
194.0687315459236
 30
0.0
  0
SPLINE
  5
123
330
1F
100
AcDbEntity
  8
0
  6
Continuous
 62
     7
370
    25
100
AcDbSpline
210
0.0
220
0.0
230
1.0
 70
     8
 71
     3
 72
    11
 73
     7
 74
     0
 42
0.000000001
 43
0.00000001
 40
0.0
 40
0.0
 40
0.0
 40
0.0
 40
0.2500002492739789
 40
0.5000004124170061
 40
0.7500037196786311
 40
1.0
 40
1.0
 40
1.0
 40
1.0
 10
121.280085752955
 20
194.0687315459236
 30
0.0
 10
121.2541923187597
 20
194.1358880009805
 30
0.0
 10
121.20240545929
 20
194.2702008879573
 30
0.0
 10
121.124728144605
 20
194.43960688895
 30
0.0
 10
121.0470378975646
 20
194.558119016108
 30
0.0
 10
120.9952519160302
 20
194.5735270163194
 30
0.0
 10
120.9693592891603
 20
194.5812309081539
 30
0.0
  0
LINE
  5
124
330
1F
100
AcDbEntity
  8
0
  6
Continuous
 62
     7
370
    25
100
AcDbLine
 10
120.9693592892
 20
194.5812309082
 30
0.0
 11
290.5771327124
 21
194.5812309082
 31
0.0
  0
LINE
  5
125
330
1F
100
AcDbEntity
  8
0
  6
Continuous
 62
     7
370
    25
100
AcDbLine
 10
293.3521461592
 20
194.5812309082
 30
0.0
 11
297.465820323
 21
194.5812309082
 31
0.0
  0
LINE
  5
126
330
1F
100
AcDbEntity
  8
0
  6
Continuous
 62
     7
370
    25
100
AcDbLine
 10
297.465820323
 20
194.5812309082
 30
0.0
 11
297.465820323
 21
194.3812312479
 31
0.0
  0
SPLINE
  5
127
330
1F
100
AcDbEntity
  8
0
  6
Continuous
 62
     7
370
    25
100
AcDbSpline
210
0.0
220
0.0
230
1.0
 70
     8
 71
     3
 72
    12
 73
     8
 74
     0
 42
0.000000001
 43
0.00000001
 40
0.0
 40
0.0
 40
0.0
 40
0.0
 40
0.1739993553064074
 40
0.3320972317782477
 40
0.5068917370414793
 40
0.7762564388547883
 40
1.0
 40
1.0
 40
1.0
 40
1.0
 10
297.4658203229814
 20
194.3812312479004
 30
0.0
 10
297.4598311430664
 20
194.3779170699634
 30
0.0
 10
297.448400123297
 20
194.3715915906734
 30
0.0
 10
297.4082328558211
 20
194.3273029893737
 30
0.0
 10
297.3449513207458
 20
194.2577292322223
 30
0.0
 10
297.2545932039565
 20
194.1691668918175
 30
0.0
 10
297.1861546878329
 20
194.1000793938324
 30
0.0
 10
297.1551013097673
 20
194.0687315459236
 30
0.0
  0
LWPOLYLINE
  5
128
330
1F
100
AcDbEntity
  8
0
  6
Continuous
 62
     7
370
    25
100
AcDbPolyline
 90
        2
 70
   128
 43
0.0
 10
297.1551013098
 20
194.0687315459
 10
297.1551013098
 20
194.0687315459
  0
SPLINE
  5
129
330
1F
100
AcDbEntity
  8
0
  6
Continuous
 62
     7
370
    25
100
AcDbSpline
210
0.0
220
0.0
230
1.0
 70
     8
 71
     3
 72
    11
 73
     7
 74
     0
 42
0.000000001
 43
0.00000001
 40
0.0
 40
0.0
 40
0.0
 40
0.0
 40
0.2499767725803744
 40
0.4999895919119547
 40
0.7499933763889384
 40
1.0
 40
1.0
 40
1.0
 40
1.0
 10
297.1551013097673
 20
194.0687315459236
 30
0.0
 10
297.1960420241489
 20
194.0946271108359
 30
0.0
 10
297.27792935658
 20
194.1464219748113
 30
0.0
 10
297.3812274223474
 20
194.2240959020404
 30
0.0
 10
297.453493157903
 20
194.3017829126368
 30
0.0
 10
297.4628834748626
 20
194.3535711797243
 30
0.0
 10
297.4675786600023
 20
194.3794654602989
 30
0.0
  0
LINE
  5
12A
330
1F
100
AcDbEntity
  8
0
  6
Continuous
 62
     7
370
    25
100
AcDbLine
 10
297.46757866
 20
194.3794654603
 30
0.0
 11
297.6675820455
 21
194.3794654603
 31
0.0
  0
SPLINE
  5
12B
330
1F
100
AcDbEntity
  8
0
  6
Continuous
 62
     7
370
    25
100
AcDbSpline
210
0.0
220
0.0
230
1.0
 70
     8
 71
     3
 72
    13
 73
     9
 74
     0
 42
0.000000001
 43
0.00000001
 40
0.0
 40
0.0
 40
0.0
 40
0.0
 40
0.3066640853092971
 40
0.4984573810757207
 40
0.6088107160343749
 40
0.728162106673528
 40
0.8581317487207991
 40
1.0
 40
1.0
 40
1.0
 40
1.0
 10
121.280085752955
 20
128.693731307505
 30
0.0
 10
121.2365370413928
 20
128.651548963895
 30
0.0
 10
121.1657521736682
 20
128.582985015488
 30
0.0
 10
121.0888176425474
 20
128.5020271251791
 30
0.0
 10
121.0385939143701
 20
128.4568019412098
 30
0.0
 10
121.0021857484627
 20
128.4267799909109
 30
0.0
 10
120.973700411476
 20
128.4013020475666
 30
0.0
 10
120.9696827895518
 20
128.3892744314312
 30
0.0
 10
120.9675860509782
 20
128.3829973931297
 30
0.0
  0
LINE
  5
12C
330
1F
100
AcDbEntity
  8
0
  6
Continuous
 62
     7
370
    25
100
AcDbLine
 10
120.767590116
 20
128.3829973931
 30
0.0
 11
120.967586051
 21
128.3829973931
 31
0.0
  0
SPLINE
  5
12D
330
1F
100
AcDbEntity
  8
0
  6
Continuous
 62
     7
370
    25
100
AcDbSpline
210
0.0
220
0.0
230
1.0
 70
     8
 71
     3
 72
    13
 73
     9
 74
     0
 42
0.000000001
 43
0.00000001
 40
0.0
 40
0.0
 40
0.0
 40
0.0
 40
0.2855745051205581
 40
0.4687784842177409
 40
0.5798987313661904
 40
0.7049842301922273
 40
0.8448270753019547
 40
1.0
 40
1.0
 40
1.0
 40
1.0
 10
121.280085752955
 20
128.693731307505
 30
0.0
 10
121.2084249191911
 20
128.6513671262999
 30
0.0
 10
121.0907916696283
 20
128.5818251458556
 30
0.0
 10
120.9638130857717
 20
128.5004944757926
 30
0.0
 10
120.8827695477695
 20
128.4561602378862
 30
0.0
 10
120.8236479563211
 20
128.4264382936624
 30
0.0
 10
120.7774027753222
 20
128.4011265382043
 30
0.0
 10
120.7709723845223
 20
128.3892462227823
 30
0.0
 10
120.767590116015
 20
128.3829973931297
 30
0.0
  0
LINE
  5
12E
330
1F
100
AcDbEntity
  8
0
  6
Continuous
 62
     7
370
    25
100
AcDbLine
 10
120.767590116
 20
194.3794654603
 30
0.0
 11
120.767590116
 21
128.3829973931
 31
0.0
  0
SPLINE
  5
12F
330
1F
100
AcDbEntity
  8
0
  6
Continuous
 62
     7
370
    25
100
AcDbSpline
210
0.0
220
0.0
230
1.0
 70
     8
 71
     3
 72
    12
 73
     8
 74
     0
 42
0.000000001
 43
0.00000001
 40
0.0
 40
0.0
 40
0.0
 40
0.0
 40
0.1873951207400499
 40
0.3754448028744235
 40
0.5704470350598159
 40
0.7798267847919669
 40
1.0
 40
1.0
 40
1.0
 40
1.0
 10
120.767590116015
 20
194.3794654602989
 30
0.0
 10
120.7726709548947
 20
194.3737237315867
 30
0.0
 10
120.7828503797597
 20
194.3622202186031
 30
0.0
 10
120.8606684586313
 20
194.3193377404817
 30
0.0
 10
120.9751710558286
 20
194.2555608441974
 30
0.0
 10
121.1184438110182
 20
194.1663770184217
 30
0.0
 10
121.2253100225687
 20
194.1018207430151
 30
0.0
 10
121.280085752955
 20
194.0687315459236
 30
0.0
  0
SPLINE
  5
130
330
1F
100
AcDbEntity
  8
0
  6
Continuous
 62
     7
370
    25
100
AcDbSpline
210
0.0
220
0.0
230
1.0
 70
     8
 71
     3
 72
    11
 73
     7
 74
     0
 42
0.000000001
 43
0.00000001
 40
0.0
 40
0.0
 40
0.0
 40
0.0
 40
0.2542929365957554
 40
0.5087782006059594
 40
0.763255010101836
 40
0.9999999999999999
 40
0.9999999999999999
 40
0.9999999999999999
 40
0.9999999999999999
 10
120.9693592891603
 20
128.3812316055282
 30
0.0
 10
120.995702499783
 20
128.3860967897114
 30
0.0
 10
121.0484088449857
 20
128.395830837725
 30
0.0
 10
121.1274695011519
 20
128.4705682393089
 30
0.0
 10
121.2047425644156
 20
128.5745591372826
 30
0.0
 10
121.2555830933941
 20
128.6549748495862
 30
0.0
 10
121.280085752955
 20
128.693731307505
 30
0.0
  0
LINE
  5
131
330
1F
100
AcDbEntity
  8
0
  6
Continuous
 62
     7
370
    25
100
AcDbLine
 10
120.9693592892
 20
128.18122822
 30
0.0
 11
120.9693592892
 21
128.3812316055
 31
0.0
  0
SPLINE
  5
132
330
1F
100
AcDbEntity
  8
0
  6
Continuous
 62
     7
370
    25
100
AcDbSpline
210
0.0
220
0.0
230
1.0
 70
     8
 71
     3
 72
    12
 73
     8
 74
     0
 42
0.000000001
 43
0.00000001
 40
0.0
 40
0.0
 40
0.0
 40
0.0
 40
0.1739954334216129
 40
0.3321033225861323
 40
0.506892532694256
 40
0.776237247258914
 40
1.0
 40
1.0
 40
1.0
 40
1.0
 10
120.9675860509782
 20
194.3794654602989
 30
0.0
 10
120.9709028650666
 20
194.3734819858032
 30
0.0
 10
120.9772336345443
 20
194.362061388598
 30
0.0
 10
121.0215091388474
 20
194.3218550992477
 30
0.0
 10
121.0910908488759
 20
194.2585941790126
 30
0.0
 10
121.179670689661
 20
194.1682516516737
 30
0.0
 10
121.2487423516656
 20
194.0997955965606
 30
0.0
 10
121.280085752955
 20
194.0687315459236
 30
0.0
  0
LWPOLYLINE
  5
133
330
1F
100
AcDbEntity
  8
0
  6
Continuous
 62
     7
370
    25
100
AcDbPolyline
 90
        2
 70
   128
 43
0.0
 10
121.280085753
 20
194.0687315459
 10
121.280085753
 20
194.0687315459
  0
LINE
  5
134
330
1F
100
AcDbEntity
  8
0
  6
Continuous
 62
     7
370
    25
100
AcDbLine
 10
120.767590116
 20
194.3794654603
 30
0.0
 11
120.967586051
 21
194.3794654603
 31
0.0
  0
SPLINE
  5
135
330
1F
100
AcDbEntity
  8
0
  6
Continuous
 62
     7
370
    25
100
AcDbSpline
210
0.0
220
0.0
230
1.0
 70
     8
 71
     3
 72
    11
 73
     7
 74
     0
 42
0.000000001
 43
0.00000001
 40
0.0
 40
0.0
 40
0.0
 40
0.0
 40
0.2499998843499134
 40
0.4999993272523072
 40
0.7500011755736146
 40
1.0
 40
1.0
 40
1.0
 40
1.0
 10
121.280085752955
 20
194.0687315459236
 30
0.0
 10
121.2541923157477
 20
194.1096807028359
 30
0.0
 10
121.2024054870554
 20
194.191578944353
 30
0.0
 10
121.1247283676544
 20
194.2948774325936
 30
0.0
 10
121.047037135322
 20
194.3671404871893
 30
0.0
 10
120.995251800152
 20
194.3765343466007
 30
0.0
 10
120.9693592891603
 20
194.3812312479004
 30
0.0
  0
LINE
  5
136
330
1F
100
AcDbEntity
  8
0
  6
Continuous
 62
     7
370
    25
100
AcDbLine
 10
120.9693592892
 20
194.5812309082
 30
0.0
 11
120.9693592892
 21
194.3812312479
 31
0.0
  0
LINE
  5
137
330
1F
100
AcDbEntity
  8
0
  6
Continuous
 62
     7
370
    25
100
AcDbLine
 10
123.469356905
 20
194.6912312801
 30
0.0
 11
123.469356905
 21
194.5812309082
 31
0.0
  0
LINE
  5
138
330
1F
100
AcDbEntity
  8
0
  6
Continuous
 62
     7
370
    25
100
AcDbLine
 10
286.3050890074
 20
194.5812309082
 30
0.0
 11
286.3050890074
 21
194.6912312801
 31
0.0
  0
SPLINE
  5
139
330
1F
100
AcDbEntity
  8
0
  6
Continuous
 62
     7
370
    25
100
AcDbSpline
210
0.0
220
0.0
230
1.0
 70
     8
 71
     3
 72
    11
 73
     7
 74
     0
 42
0.000000001
 43
0.00000001
 40
0.0
 40
0.0
 40
0.0
 40
0.0
 40
0.2500012026190178
 40
0.4999937120591932
 40
0.7499987973809822
 40
1.0
 40
1.0
 40
1.0
 40
1.0
 10
298.1800925836473
 20
128.8187296981796
 30
0.0
 10
298.1541913363097
 20
128.7515754327133
 30
0.0
 10
298.1023897422868
 20
128.6172692369058
 30
0.0
 10
298.0247410226515
 20
128.447853950031
 30
0.0
 10
297.9470368143578
 20
128.3293460937799
 30
0.0
 10
297.8952413161238
 20
128.3139380322036
 30
0.0
 10
297.8693437681108
 20
128.3062340612396
 30
0.0
  0
LINE
  5
13A
330
1F
100
AcDbEntity
  8
0
  6
Continuous
 62
     7
370
    25
100
AcDbLine
 10
297.8693437681
 20
128.5062299962
 30
0.0
 11
297.8693437681
 21
128.3062340612
 31
0.0
  0
SPLINE
  5
13B
330
1F
100
AcDbEntity
  8
0
  6
Continuous
 62
     7
370
    25
100
AcDbSpline
210
0.0
220
0.0
230
1.0
 70
     8
 71
     3
 72
    11
 73
     7
 74
     0
 42
0.000000001
 43
0.00000001
 40
0.0
 40
0.0
 40
0.0
 40
0.0
 40
0.2500094016316238
 40
0.4999861551739311
 40
0.7499905983683761
 40
1.0
 40
1.0
 40
1.0
 40
1.0
 10
298.1800925836473
 20
128.8187296981796
 30
0.0
 10
298.1541920961959
 20
128.7777814798891
 30
0.0
 10
298.1023945035715
 20
128.6958903906314
 30
0.0
 10
298.0247377798025
 20
128.5925819548441
 30
0.0
 10
297.9470356307724
 20
128.5203253958467
 30
0.0
 10
297.8952412268727
 20
128.5109284938126
 30
0.0
 10
297.8693437681108
 20
128.5062299962028
 30
0.0
  0
LWPOLYLINE
  5
13C
330
1F
100
AcDbEntity
  8
0
  6
Continuous
 62
     7
370
    25
100
AcDbPolyline
 90
        2
 70
   128
 43
0.0
 10
298.1800925836
 20
128.8187296982
 10
298.1800925836
 20
128.8187296982
  0
SPLINE
  5
13D
330
1F
100
AcDbEntity
  8
0
  6
Continuous
 62
     7
370
    25
100
AcDbSpline
210
0.0
220
0.0
230
1.0
 70
     8
 71
     3
 72
    12
 73
     8
 74
     0
 42
0.000000001
 43
0.00000001
 40
0.0
 40
0.0
 40
0.0
 40
0.0
 40
0.1888394697989131
 40
0.37783744416269
 40
0.5698078779990042
 40
0.7755788724958175
 40
1.0
 40
1.0
 40
1.0
 40
1.0
 10
297.6675820455461
 20
128.5080032343849
 30
0.0
 10
297.672740865589
 20
128.5134179921456
 30
0.0
 10
297.6830628357895
 20
128.5242520526058
 30
0.0
 10
297.7619090395652
 20
128.5651836389667
 30
0.0
 10
297.8743758679332
 20
128.6325100907205
 30
0.0
 10
298.0168288173708
 20
128.7206368895644
 30
0.0
 10
298.1241208499006
 20
128.7851005305358
 30
0.0
 10
298.1800925836473
 20
128.8187296981796
 30
0.0
  0
SPLINE
  5
13E
330
1F
100
AcDbEntity
  8
0
  6
Continuous
 62
     7
370
    25
100
AcDbSpline
210
0.0
220
0.0
230
1.0
 70
     8
 71
     3
 72
    12
 73
     8
 74
     0
 42
0.000000001
 43
0.00000001
 40
0.0
 40
0.0
 40
0.0
 40
0.0
 40
0.1759384530115188
 40
0.3356104248776461
 40
0.5051400331623102
 40
0.7913984459319566
 40
0.9999999999999999
 40
0.9999999999999999
 40
0.9999999999999999
 40
0.9999999999999999
 10
297.8675854310899
 20
128.5080032343849
 30
0.0
 10
297.8709765721808
 20
128.5136666365601
 30
0.0
 10
297.8774453246501
 20
128.524469828118
 30
0.0
 10
297.9227045283805
 20
128.5633612365261
 30
0.0
 10
297.9928035565289
 20
128.6309866236201
 30
0.0
 10
298.0811882511363
 20
128.7212520204352
 30
0.0
 10
298.1507639041775
 20
128.7898240729817
 30
0.0
 10
298.1800925836473
 20
128.8187296981796
 30
0.0
  0
LINE
  5
13F
330
1F
100
AcDbEntity
  8
0
  6
Continuous
 62
     7
370
    25
100
AcDbLine
 10
297.6675820455
 20
128.5080032344
 30
0.0
 11
297.8675854311
 21
128.5080032344
 31
0.0
  0
SPLINE
  5
140
330
1F
100
AcDbEntity
  8
0
  6
Continuous
 62
     7
370
    25
100
AcDbSpline
210
0.0
220
0.0
230
1.0
 70
     8
 71
     3
 72
    12
 73
     8
 74
     0
 42
0.000000001
 43
0.00000001
 40
0.0
 40
0.0
 40
0.0
 40
0.0
 40
0.2301709898666737
 40
0.4604283293364254
 40
0.6906756215385238
 40
0.9209331424495373
 40
1.0
 40
1.0
 40
1.0
 40
1.0
 10
297.8693437681108
 20
159.5562340612396
 30
0.0
 10
297.8931936673743
 20
159.5497140018501
 30
0.0
 10
297.94090241329
 20
159.5366714370438
 30
0.0
 10
298.0125030487705
 20
159.4355027004726
 30
0.0
 10
298.0839940521502
 20
159.2884789166684
 30
0.0
 10
298.1400563771929
 20
159.1474860634829
 30
0.0
 10
298.1719422014061
 20
159.0648529459518
 30
0.0
 10
298.1800925836473
 20
159.043730973719
 30
0.0
  0
SPLINE
  5
141
330
1F
100
AcDbEntity
  8
0
  6
Continuous
 62
     7
370
    25
100
AcDbSpline
210
0.0
220
0.0
230
1.0
 70
     8
 71
     3
 72
    11
 73
     7
 74
     0
 42
0.000000001
 43
0.00000001
 40
0.0
 40
0.0
 40
0.0
 40
0.0
 40
0.2543048003634536
 40
0.5087823044005437
 40
0.7632603250260578
 40
1.0
 40
1.0
 40
1.0
 40
1.0
 10
297.8693437681108
 20
159.3562306756958
 30
0.0
 10
297.8956888847034
 20
159.351366151261
 30
0.0
 10
297.9483970094047
 20
159.3416337987918
 30
0.0
 10
298.0274706528447
 20
159.2668917789559
 30
0.0
 10
298.1047497022415
 20
159.1629051556249
 30
0.0
 10
298.1555902570323
 20
159.0824877172182
 30
0.0
 10
298.1800925836473
 20
159.043730973719
 30
0.0
  0
LINE
  5
142
330
1F
100
AcDbEntity
  8
0
  6
Continuous
 62
     7
370
    25
100
AcDbLine
 10
297.8693437681
 20
159.3562306757
 30
0.0
 11
297.8693437681
 21
159.5562340612
 31
0.0
  0
LINE
  5
143
330
1F
100
AcDbEntity
  8
0
  6
Continuous
 62
     7
370
    25
100
AcDbLine
 10
297.6675820455
 20
159.3544648881
 30
0.0
 11
297.6675820455
 21
128.5080032344
 31
0.0
  0
SPLINE
  5
144
330
1F
100
AcDbEntity
  8
0
  6
Continuous
 62
     7
370
    25
100
AcDbSpline
210
0.0
220
0.0
230
1.0
 70
     8
 71
     3
 72
    12
 73
     8
 74
     0
 42
0.000000001
 43
0.00000001
 40
0.0
 40
0.0
 40
0.0
 40
0.0
 40
0.2905182263621358
 40
0.5021685305588456
 40
0.7241689560144238
 40
0.8552232488355905
 40
0.9999999999999999
 40
0.9999999999999999
 40
0.9999999999999999
 40
0.9999999999999999
 10
298.1800925836473
 20
159.043730973719
 30
0.0
 10
298.1077974619278
 20
159.0877339755272
 30
0.0
 10
297.9828334089144
 20
159.1637943419798
 30
0.0
 10
297.8242571257903
 20
159.2623419753789
 30
0.0
 10
297.7272872827532
 20
159.310619997236
 30
0.0
 10
297.6761991489117
 20
159.3386250306212
 30
0.0
 10
297.6705481252149
 20
159.3490126755336
 30
0.0
 10
297.6675820455461
 20
159.3544648880943
 30
0.0
  0
LINE
  5
145
330
1F
100
AcDbEntity
  8
0
  6
Continuous
 62
     7
370
    25
100
AcDbLine
 10
297.6675820455
 20
159.3544648881
 30
0.0
 11
297.8675854311
 21
159.3544648881
 31
0.0
  0
SPLINE
  5
146
330
1F
100
AcDbEntity
  8
0
  6
Continuous
 62
     7
370
    25
100
AcDbSpline
210
0.0
220
0.0
230
1.0
 70
     8
 71
     3
 72
    13
 73
     9
 74
     0
 42
0.000000001
 43
0.00000001
 40
0.0
 40
0.0
 40
0.0
 40
0.0
 40
0.3126933489676914
 40
0.5321505050410492
 40
0.6354755116534645
 40
0.7470247053628624
 40
0.8681567638035306
 40
0.9999999999999999
 40
0.9999999999999999
 40
0.9999999999999999
 40
0.9999999999999999
 10
298.1800925836473
 20
159.043730973719
 30
0.0
 10
298.1362777535182
 20
159.0874546156972
 30
0.0
 10
298.0617124195948
 20
159.1618647630117
 30
0.0
 10
297.9804558005231
 20
159.244681022215
 30
0.0
 10
297.9303814207422
 20
159.2893253924234
 30
0.0
 10
297.8979112162291
 20
159.3160197751244
 30
0.0
 10
297.8729160085048
 20
159.3385400590357
 30
0.0
 10
297.8694117479662
 20
159.3490088592632
 30
0.0
 10
297.8675854310899
 20
159.3544648880943
 30
0.0
  0
SPLINE
  5
147
330
1F
100
AcDbEntity
  8
0
  6
Continuous
 62
     7
370
    25
100
AcDbSpline
210
0.0
220
0.0
230
1.0
 70
     8
 71
     3
 72
    11
 73
     7
 74
     0
 42
0.000000001
 43
0.00000001
 40
0.0
 40
0.0
 40
0.0
 40
0.0
 40
0.2500050272801124
 40
0.5000045656371538
 40
0.7500041039941953
 40
1.0
 40
1.0
 40
1.0
 40
1.0
 10
312.0551002130418
 20
159.043730973719
 30
0.0
 10
312.0536175565146
 20
159.1108887158863
 30
0.0
 10
312.0506522760124
 20
159.2452027257559
 30
0.0
 10
312.0462489116688
 20
159.4146089674354
 30
0.0
 10
312.0418456706789
 20
159.533122872856
 30
0.0
 10
312.038880305388
 20
159.5485303691918
 30
0.0
 10
312.0373976335435
 20
159.5562340612396
 30
0.0
  0
LINE
  5
148
330
1F
100
AcDbEntity
  8
0
  6
Continuous
 62
     7
370
    25
100
AcDbLine
 10
297.8693437681
 20
128.3062340612
 30
0.0
 11
312.0197248564
 21
128.3062340612
 31
0.0
  0
SPLINE
  5
149
330
1F
100
AcDbEntity
  8
0
  6
Continuous
 62
     7
370
    25
100
AcDbSpline
210
0.0
220
0.0
230
1.0
 70
     8
 71
     3
 72
    11
 73
     7
 74
     0
 42
0.000000001
 43
0.00000001
 40
0.0
 40
0.0
 40
0.0
 40
0.0
 40
0.249998180780638
 40
0.4999991783780414
 40
0.750001819219362
 40
1.0
 40
1.0
 40
1.0
 40
1.0
 10
312.0197248563676
 20
128.3062340612396
 30
0.0
 10
312.022678663306
 20
128.3139376843413
 30
0.0
 10
312.0285863104645
 20
128.3293450173443
 30
0.0
 10
312.0373870299292
 20
128.4478597982031
 30
0.0
 10
312.0462514868829
 20
128.6172628865986
 30
0.0
 10
312.0521506551959
 20
128.7515744936772
 30
0.0
 10
312.0551002130418
 20
128.8187296981796
 30
0.0
  0
LINE
  5
14A
330
1F
100
AcDbEntity
  8
0
  6
Continuous
 62
     7
370
    25
100
AcDbLine
 10
312.5675809488
 20
159.0437309737
 30
0.0
 11
312.5675809488
 21
128.8187296982
 31
0.0
  0
LINE
  5
14B
330
1F
100
AcDbEntity
  8
0
  6
Continuous
 62
     7
370
    25
100
AcDbLine
 10
312.5675809488
 20
128.8187296982
 30
0.0
 11
312.055100213
 21
128.8187296982
 31
0.0
  0
LINE
  5
14C
330
1F
100
AcDbEntity
  8
0
  6
Continuous
 62
     7
370
    25
100
AcDbLine
 10
312.055100213
 20
159.0437309737
 30
0.0
 11
312.5675809488
 21
159.0437309737
 31
0.0
  0
ARC
  5
14D
330
1F
100
AcDbEntity
  8
0
  6
Continuous
 62
     7
370
    25
100
AcDbCircle
 10
312.0550889635
 20
159.0437319248
 30
0.0
 40
0.512500000000017
100
AcDbArc
 50
0.0
 51
90.0
  0
LINE
  5
14E
330
1F
100
AcDbEntity
  8
0
  6
Continuous
 62
     7
370
    25
100
AcDbLine
 10
312.055100213
 20
159.3562306757
 30
0.0
 11
312.055100213
 21
159.5562340612
 31
0.0
  0
ARC
  5
14F
330
1F
100
AcDbEntity
  8
0
  6
Continuous
 62
     7
370
    25
100
AcDbCircle
 10
312.0550889635
 20
159.0437319248
 30
0.0
 40
0.3125000000000284
100
AcDbArc
 50
0.0
 51
90.0
  0
LINE
  5
150
330
1F
100
AcDbEntity
  8
0
  6
Continuous
 62
     7
370
    25
100
AcDbLine
 10
312.055100213
 20
128.3062340612
 30
0.0
 11
312.0197248564
 21
128.3062340612
 31
0.0
  0
LINE
  5
151
330
1F
100
AcDbEntity
  8
0
  6
Continuous
 62
     7
370
    25
100
AcDbLine
 10
312.055100213
 20
128.5062299962
 30
0.0
 11
312.055100213
 21
128.3062340612
 31
0.0
  0
ARC
  5
152
330
1F
100
AcDbEntity
  8
0
  6
Continuous
 62
     7
370
    25
100
AcDbCircle
 10
312.0550889635
 20
128.8187319248
 30
0.0
 40
0.3125
100
AcDbArc
 50
270.0
 51
0.0
  0
ARC
  5
153
330
1F
100
AcDbEntity
  8
0
  6
Continuous
 62
     7
370
    25
100
AcDbCircle
 10
312.0550889635
 20
128.8187319248
 30
0.0
 40
0.5124999999999886
100
AcDbArc
 50
270.0
 51
0.0
  0
LINE
  5
154
330
1F
100
AcDbEntity
  8
0
  6
Continuous
 62
     7
370
    25
100
AcDbLine
 10
298.1675756082
 20
159.5562340612
 30
0.0
 11
312.7994728193
 21
159.5562340612
 31
0.0
  0
LINE
  5
155
330
1F
100
AcDbEntity
  8
0
  6
Continuous
 62
     7
370
    25
100
AcDbLine
 10
298.1675756082
 20
159.7562299962
 30
0.0
 11
312.7994728193
 21
159.7562299962
 31
0.0
  0
LINE
  5
156
330
1F
100
AcDbEntity
  8
0
  6
Continuous
 62
     7
370
    25
100
AcDbLine
 10
308.7958288298
 20
171.0585372443
 30
0.0
 11
302.7288210497
 21
189.7308358843
 31
0.0
  0
LINE
  5
157
330
1F
100
AcDbEntity
  8
0
  6
Continuous
 62
     7
370
    25
100
AcDbLine
 10
308.605600606
 20
170.9967346783
 30
0.0
 11
302.5386226282
 21
189.6690333183
 31
0.0
  0
ARC
  5
158
330
1F
100
AcDbEntity
  8
0
  6
Continuous
 62
     7
370
    25
100
AcDbCircle
 10
312.7994620601
 20
160.1312319248
 30
0.0
 40
0.3750000000000284
100
AcDbArc
 50
270.0
 51
320.0
  0
ARC
  5
159
330
1F
100
AcDbEntity
  8
0
  6
Continuous
 62
     7
370
    25
100
AcDbCircle
 10
312.7994620601
 20
160.1312319248
 30
0.0
 40
0.5750000000000207
100
AcDbArc
 50
270.0
 51
320.0
  0
LINE
  5
15A
330
1F
100
AcDbEntity
  8
0
  6
Continuous
 62
     7
370
    25
100
AcDbLine
 10
298.179198514
 20
189.9281496103
 30
0.0
 11
297.6792049513
 21
189.9281496103
 31
0.0
  0
LINE
  5
15B
330
1F
100
AcDbEntity
  8
0
  6
Continuous
 62
     7
370
    25
100
AcDbLine
 10
297.6792049513
 20
190.1281492705
 30
0.0
 11
298.179198514
 21
190.1281492705
 31
0.0
  0
LINE
  5
15C
330
1F
100
AcDbEntity
  8
0
  6
Continuous
 62
     7
370
    25
100
AcDbLine
 10
298.179198514
 20
189.9281496103
 30
0.0
 11
302.1819782362
 21
189.9281496103
 31
0.0
  0
LINE
  5
15D
330
1F
100
AcDbEntity
  8
0
  6
Continuous
 62
     7
370
    25
100
AcDbLine
 10
298.179198514
 20
190.1281492705
 30
0.0
 11
302.1819782362
 21
190.1281492705
 31
0.0
  0
LINE
  5
15E
330
1F
100
AcDbEntity
  8
0
  6
Continuous
 62
     7
370
    25
100
AcDbLine
 10
315.1810062036
 20
167.7120046611
 30
0.0
 11
310.3184294805
 21
169.481852829
 31
0.0
  0
LINE
  5
15F
330
1F
100
AcDbEntity
  8
0
  6
Continuous
 62
     7
370
    25
100
AcDbLine
 10
315.1126098738
 20
167.5240712161
 30
0.0
 11
310.2500033483
 21
169.2939119334
 31
0.0
  0
LINE
  5
160
330
1F
100
AcDbEntity
  8
0
  6
Continuous
 62
     7
370
    25
100
AcDbLine
 10
298.1675756082
 20
159.5562340612
 30
0.0
 11
297.6675820455
 21
159.5562340612
 31
0.0
  0
LINE
  5
161
330
1F
100
AcDbEntity
  8
0
  6
Continuous
 62
     7
370
    25
100
AcDbLine
 10
297.6675820455
 20
159.5562340612
 30
0.0
 11
297.6675820455
 21
159.7562299962
 31
0.0
  0
LINE
  5
162
330
1F
100
AcDbEntity
  8
0
  6
Continuous
 62
     7
370
    25
100
AcDbLine
 10
297.6675820455
 20
159.7562299962
 30
0.0
 11
298.1675756082
 21
159.7562299962
 31
0.0
  0
ARC
  5
163
330
1F
100
AcDbEntity
  8
0
  6
Continuous
 62
     7
370
    25
100
AcDbCircle
 10
311.1734661612
 20
171.8310806761
 30
0.0
 40
2.700000000000014
100
AcDbArc
 50
198.0
 51
250.0
  0
ARC
  5
164
330
1F
100
AcDbEntity
  8
0
  6
Continuous
 62
     7
370
    25
100
AcDbCircle
 10
311.1734661612
 20
171.8310806761
 30
0.0
 40
2.500000000000053
100
AcDbArc
 50
198.0
 51
250.0
  0
LINE
  5
165
330
1F
100
AcDbEntity
  8
0
  6
Continuous
 62
     7
370
    25
100
AcDbLine
 10
313.0867374048
 20
159.8901839848
 30
0.0
 11
316.1726784811
 21
163.5678725238
 31
0.0
  0
LINE
  5
166
330
1F
100
AcDbEntity
  8
0
  6
Continuous
 62
     7
370
    25
100
AcDbLine
 10
313.2399511442
 20
159.7616316671
 30
0.0
 11
316.3258922205
 21
163.4393127556
 31
0.0
  0
ARC
  5
167
330
1F
100
AcDbEntity
  8
0
  6
Continuous
 62
     7
370
    25
100
AcDbCircle
 10
314.257559606
 20
165.1748380456
 30
0.0
 40
2.700000000000061
100
AcDbArc
 50
320.0
 51
70.0
  0
ARC
  5
168
330
1F
100
AcDbEntity
  8
0
  6
Continuous
 62
     7
370
    25
100
AcDbCircle
 10
314.257559606
 20
165.1748380456
 30
0.0
 40
2.50000000000007
100
AcDbArc
 50
320.0
 51
70.0
  0
ARC
  5
169
330
1F
100
AcDbEntity
  8
0
  6
Continuous
 62
     7
370
    25
100
AcDbCircle
 10
302.1819702595
 20
189.5531505566
 30
0.0
 40
0.5749999999999886
100
AcDbArc
 50
18.0
 51
90.0
  0
ARC
  5
16A
330
1F
100
AcDbEntity
  8
0
  6
Continuous
 62
     7
370
    25
100
AcDbCircle
 10
302.1819702595
 20
189.5531505566
 30
0.0
 40
0.375
100
AcDbArc
 50
18.0
 51
90.0
  0
LINE
  5
16B
330
1F
100
AcDbEntity
  8
0
  6
Continuous
 62
     7
370
    25
100
AcDbLine
 10
297.678251277
 20
190.1281492705
 30
0.0
 11
297.678251277
 21
189.9281496103
 31
0.0
  0
LINE
  5
16C
330
1F
100
AcDbEntity
  8
0
  6
Continuous
 62
     7
370
    25
100
AcDbLine
 10
297.678251277
 20
190.1281492705
 30
0.0
 11
297.6792049513
 21
190.1281492705
 31
0.0
  0
LINE
  5
16D
330
1F
100
AcDbEntity
  8
0
  6
Continuous
 62
     7
370
    25
100
AcDbLine
 10
297.678251277
 20
189.9281496103
 30
0.0
 11
297.6792049513
 21
189.9281496103
 31
0.0
  0
LINE
  5
16E
330
1F
100
AcDbEntity
  8
0
  6
Continuous
 62
     7
370
    25
100
AcDbLine
 10
302.9644382105
 20
190.0246830578
 30
0.0
 11
304.9398553476
 21
190.9041868443
 31
0.0
  0
LINE
  5
16F
330
1F
100
AcDbEntity
  8
0
  6
Continuous
 62
     7
370
    25
100
AcDbLine
 10
303.0457985506
 20
189.8419724698
 30
0.0
 11
305.0212156877
 21
190.7214799817
 31
0.0
  0
LINE
  5
170
330
1F
100
AcDbEntity
  8
0
  6
Continuous
 62
     7
370
    25
100
AcDbLine
 10
306.0817909346
 20
191.4126070137
 30
0.0
 11
306.1631214723
 21
191.229900151
 31
0.0
  0
LWPOLYLINE
  5
171
330
1F
100
AcDbEntity
  8
0
  6
Continuous
 62
     7
370
    25
100
AcDbPolyline
 90
        9
 70
   128
 43
0.0
 10
305.0212156877
 20
190.7214799817
 10
305.2439880476
 20
190.8206658359
 10
305.4582071409
 20
190.9160444434
 10
305.6556177244
 20
191.003942668
 10
305.8286798105
 20
191.0809853966
 10
305.9706878767
 20
191.1442147489
 10
306.0762179003
 20
191.1911981101
 10
306.1411869631
 20
191.2201287146
 10
306.1631214723
 20
191.229900151
  0
LWPOLYLINE
  5
172
330
1F
100
AcDbEntity
  8
0
  6
Continuous
 62
     7
370
    25
100
AcDbPolyline
 90
        9
 70
   128
 43
0.0
 10
304.9398553476
 20
190.9041868443
 10
305.1626277075
 20
191.0033764238
 10
305.3768468008
 20
191.0987513061
 10
305.5742871866
 20
191.1866495306
 10
305.7473194704
 20
191.2636959846
 10
305.8893275366
 20
191.3269253368
 10
305.9948575601
 20
191.3739086981
 10
306.0598564253
 20
191.4028393025
 10
306.0817909346
 20
191.4126070137
  0
ARC
  5
173
330
1F
100
AcDbEntity
  8
0
  6
Continuous
 62
     7
370
    25
100
AcDbCircle
 10
303.1983263595
 20
189.4993926984
 30
0.0
 40
0.5750000000000721
100
AcDbArc
 50
114.0
 51
149.2266769806
  0
ARC
  5
174
330
1F
100
AcDbEntity
  8
0
  6
Continuous
 62
     7
370
    25
100
AcDbCircle
 10
303.1983263595
 20
189.4993926984
 30
0.0
 40
0.3750000000001137
100
AcDbArc
 50
114.0
 51
198.0
  0
LWPOLYLINE
  5
175
330
1F
100
AcDbEntity
  8
0
  6
Continuous
 62
     7
370
    25
100
AcDbPolyline
 90
        3
 70
   128
 43
0.0
 10
302.8655839071
 20
190.3968656356
 10
302.9762995348
 20
190.6141469176
 10
303.0542624102
 20
190.7671445901
  0
LINE
  5
176
330
1F
100
AcDbEntity
  8
0
  6
Continuous
 62
     7
370
    25
100
AcDbLine
 10
303.0437719927
 20
190.3060654099
 30
0.0
 11
303.1322550878
 21
190.4797198172
 31
0.0
  0
LINE
  5
177
330
1F
100
AcDbEntity
  8
0
  6
Continuous
 62
     7
370
    25
100
AcDbLine
 10
303.3276093111
 20
190.8630894418
 30
0.0
 11
303.3425998793
 21
190.8925192351
 31
0.0
  0
LINE
  5
178
330
1F
100
AcDbEntity
  8
0
  6
Continuous
 62
     7
370
    25
100
AcDbLine
 10
302.6296687231
 20
189.9338344033
 30
0.0
 11
302.6235294447
 21
189.9214515383
 31
0.0
  0
LINE
  5
179
330
1F
100
AcDbEntity
  8
0
  6
Continuous
 62
     7
370
    25
100
AcDbLine
 10
302.6296687231
 20
189.9338344033
 30
0.0
 11
302.8655839071
 21
190.3968656356
 31
0.0
  0
LINE
  5
17A
330
1F
100
AcDbEntity
  8
0
  6
Continuous
 62
     7
370
    25
100
AcDbLine
 10
302.8750610456
 20
189.9749131794
 30
0.0
 11
303.0437719927
 21
190.3060654099
 31
0.0
  0
LINE
  5
17B
330
1F
100
AcDbEntity
  8
0
  6
Continuous
 62
     7
370
    25
100
AcDbLine
 10
121.0675877438
 20
194.6412304337
 30
0.0
 11
121.0675877438
 21
194.2791843708
 31
0.0
  0
LINE
  5
17C
330
1F
100
AcDbEntity
  8
0
  6
Continuous
 62
     7
370
    25
100
AcDbLine
 10
121.3675853715
 20
194.6912312801
 30
0.0
 11
121.3675853715
 21
194.5812309082
 31
0.0
  0
LINE
  5
17D
330
1F
100
AcDbEntity
  8
0
  6
Continuous
 62
     7
370
    25
100
AcDbLine
 10
121.0675877438
 20
199.2062309678
 30
0.0
 11
121.0925918922
 21
199.2062309678
 31
0.0
  0
LINE
  5
17E
330
1F
100
AcDbEntity
  8
0
  6
Continuous
 62
     7
370
    25
100
AcDbLine
 10
296.7650783167
 20
195.3037323351
 30
0.0
 11
296.7650783167
 21
194.6912312801
 31
0.0
  0
LINE
  5
17F
330
1F
100
AcDbEntity
  8
0
  6
Continuous
 62
     7
370
    25
100
AcDbLine
 10
296.7650783167
 20
194.6912312801
 30
0.0
 11
293.3521461592
 21
194.6912312801
 31
0.0
  0
LINE
  5
180
330
1F
100
AcDbEntity
  8
0
  6
Continuous
 62
     7
370
    25
100
AcDbLine
 10
290.5771327124
 20
194.6912312801
 30
0.0
 11
121.0925918922
 21
194.6912312801
 31
0.0
  0
LINE
  5
181
330
1F
100
AcDbEntity
  8
0
  6
Continuous
 62
     7
370
    25
100
AcDbLine
 10
121.0925918922
 20
194.6912312801
 30
0.0
 11
121.0925918922
 21
195.3037323351
 31
0.0
  0
ARC
  5
182
330
1F
100
AcDbEntity
  8
0
  6
Continuous
 62
     7
370
    25
100
AcDbCircle
 10
121.5925889635
 20
203.3162319248
 30
0.0
 40
0.5
100
AcDbArc
 50
90.0
 51
180.0
  0
LINE
  5
183
330
1F
100
AcDbEntity
  8
0
  6
Continuous
 62
     7
370
    25
100
AcDbLine
 10
133.4050935612
 20
203.8162330086
 30
0.0
 11
121.5925854549
 21
203.8162330086
 31
0.0
  0
ARC
  5
184
330
1F
100
AcDbEntity
  8
0
  6
Continuous
 62
     7
370
    25
100
AcDbCircle
 10
133.4050889635
 20
203.3162319248
 30
0.0
 40
0.5
100
AcDbArc
 50
0.0
 51
90.0
  0
LINE
  5
185
330
1F
100
AcDbEntity
  8
0
  6
Continuous
 62
     7
370
    25
100
AcDbLine
 10
133.9050871239
 20
203.1912336047
 30
0.0
 11
133.9050871239
 21
203.3162319953
 31
0.0
  0
LINE
  5
186
330
1F
100
AcDbEntity
  8
0
  6
Continuous
 62
     7
370
    25
100
AcDbLine
 10
134.0300929651
 20
203.1912336047
 30
0.0
 11
133.9050871239
 21
203.1912336047
 31
0.0
  0
LINE
  5
187
330
1F
100
AcDbEntity
  8
0
  6
Continuous
 62
     7
370
    25
100
AcDbLine
 10
134.0300929651
 20
203.5287337298
 30
0.0
 11
134.0300929651
 21
203.1912336047
 31
0.0
  0
LINE
  5
188
330
1F
100
AcDbEntity
  8
0
  6
Continuous
 62
     7
370
    25
100
AcDbLine
 10
296.7650783167
 20
195.3037323351
 30
0.0
 11
296.7650783167
 21
203.5287337298
 31
0.0
  0
LINE
  5
189
330
1F
100
AcDbEntity
  8
0
  6
Continuous
 62
     7
370
    25
100
AcDbLine
 10
121.0925918922
 20
203.3162319953
 30
0.0
 11
121.0925918922
 21
195.3037323351
 31
0.0
  0
LINE
  5
18A
330
1F
100
AcDbEntity
  8
0
  6
Continuous
 62
     7
370
    25
100
AcDbLine
 10
306.524266015
 20
203.4912312324
 30
0.0
 11
306.6092622385
 21
203.4912312324
 31
0.0
  0
LINE
  5
18B
330
1F
100
AcDbEntity
  8
0
  6
Continuous
 62
     7
370
    25
100
AcDbLine
 10
306.6092622385
 20
203.4912312324
 30
0.0
 11
306.6092622385
 21
203.8162330086
 31
0.0
  0
ARC
  5
18C
330
1F
100
AcDbEntity
  8
0
  6
Continuous
 62
     7
370
    25
100
AcDbCircle
 10
298.2650889635
 20
190.8412319248
 30
0.0
 40
0.5
100
AcDbArc
 50
180.0
 51
270.0
  0
LINE
  5
18D
330
1F
100
AcDbEntity
  8
0
  6
Continuous
 62
     7
370
    25
100
AcDbLine
 10
297.7650952444
 20
194.7412321265
 30
0.0
 11
296.8800854788
 21
194.7412321265
 31
0.0
  0
LINE
  5
18E
330
1F
100
AcDbEntity
  8
0
  6
Continuous
 62
     7
370
    25
100
AcDbLine
 10
296.8800854788
 20
194.7412321265
 30
0.0
 11
296.8800854788
 21
203.5287337298
 31
0.0
  0
LINE
  5
18F
330
1F
100
AcDbEntity
  8
0
  6
Continuous
 62
     7
370
    25
100
AcDbLine
 10
306.524266015
 20
203.5287337298
 30
0.0
 11
306.524266015
 21
203.4912312324
 31
0.0
  0
ARC
  5
190
330
1F
100
AcDbEntity
  8
0
  6
Continuous
 62
     7
370
    25
100
AcDbCircle
 10
303.4878215458
 20
195.1912319248
 30
0.0
 40
0.7749999999999994
100
AcDbArc
 50
280.1054407084
 51
79.8945592916
  0
ARC
  5
191
330
1F
100
AcDbEntity
  8
0
  6
Continuous
 62
     7
370
    25
100
AcDbCircle
 10
303.6128215458
 20
195.8925921589
 30
0.0
 40
0.0625877752733139
100
AcDbArc
 50
79.8945592916
 51
255.7948950782
  0
ARC
  5
192
330
1F
100
AcDbEntity
  8
0
  6
Continuous
 62
     7
370
    25
100
AcDbCircle
 10
303.4878215458
 20
195.1912319248
 30
0.0
 40
0.6500000000000056
100
AcDbArc
 50
279.7110222516
 51
80.2889777484
  0
ARC
  5
193
330
1F
100
AcDbEntity
  8
0
  6
Continuous
 62
     7
370
    25
100
AcDbCircle
 10
303.6128215458
 20
194.4898716908
 30
0.0
 40
0.0625877752733139
100
AcDbArc
 50
104.2051049218
 51
280.1054407083
  0
ARC
  5
194
330
1F
100
AcDbEntity
  8
0
  6
Continuous
 62
     7
370
    25
100
AcDbCircle
 10
303.3628215458
 20
194.4898716908
 30
0.0
 40
0.0625877752733045
100
AcDbArc
 50
259.8945592917
 51
83.9942235051
  0
ARC
  5
195
330
1F
100
AcDbEntity
  8
0
  6
Continuous
 62
     7
370
    25
100
AcDbCircle
 10
303.4878215458
 20
195.1912319248
 30
0.0
 40
0.6500000000000339
100
AcDbArc
 50
100.4998591652
 51
259.5001408348
  0
ARC
  5
196
330
1F
100
AcDbEntity
  8
0
  6
Continuous
 62
     7
370
    25
100
AcDbCircle
 10
303.3628215458
 20
195.8925921589
 30
0.0
 40
0.0625877752733327
100
AcDbArc
 50
276.0057764949
 51
100.1054407083
  0
ARC
  5
197
330
1F
100
AcDbEntity
  8
0
  6
Continuous
 62
     7
370
    25
100
AcDbCircle
 10
303.4878215458
 20
195.1912319248
 30
0.0
 40
0.7750000000000093
100
AcDbArc
 50
100.1054407084
 51
259.8945592916
  0
ARC
  5
198
330
1F
100
AcDbEntity
  8
0
  6
Continuous
 62
     7
370
    25
100
AcDbCircle
 10
301.9707133284
 20
190.8412319248
 30
0.0
 40
0.5000000000000198
100
AcDbArc
 50
270.0
 51
293.4998700858
  0
ARC
  5
199
330
1F
100
AcDbEntity
  8
0
  6
Continuous
 62
     7
370
    25
100
AcDbCircle
 10
306.6228215458
 20
198.3162319248
 30
0.0
 40
5.500016741342483
100
AcDbArc
 50
293.4904921589
 51
90.1413679245
  0
LINE
  5
19A
330
1F
100
AcDbEntity
  8
0
  6
Continuous
 62
     7
370
    25
100
AcDbLine
 10
297.7650952444
 20
190.8412331636
 30
0.0
 11
297.7650952444
 21
194.7412321265
 31
0.0
  0
LINE
  5
19B
330
1F
100
AcDbEntity
  8
0
  6
Continuous
 62
     7
370
    25
100
AcDbLine
 10
301.9707095728
 20
190.3412321503
 30
0.0
 11
298.2650888071
 21
190.3412321503
 31
0.0
  0
LINE
  5
19C
330
1F
100
AcDbEntity
  8
0
  6
Continuous
 62
     7
370
    25
100
AcDbLine
 10
308.8151109323
 20
193.2720223362
 30
0.0
 11
302.1700871096
 21
190.3827020819
 31
0.0
  0
LINE
  5
19D
330
1F
100
AcDbEntity
  8
0
  6
Continuous
 62
     7
370
    25
100
AcDbLine
 10
296.7650783167
 20
204.1412310595
 30
0.0
 11
296.7650783167
 21
203.5287337298
 31
0.0
  0
LINE
  5
19E
330
1F
100
AcDbEntity
  8
0
  6
Continuous
 62
     7
370
    25
100
AcDbLine
 10
134.0300929651
 20
204.1412310595
 30
0.0
 11
296.7650783167
 21
204.1412310595
 31
0.0
  0
LINE
  5
19F
330
1F
100
AcDbEntity
  8
0
  6
Continuous
 62
     7
370
    25
100
AcDbLine
 10
134.0300929651
 20
203.5287337298
 30
0.0
 11
134.0300929651
 21
204.1412310595
 31
0.0
  0
LINE
  5
1A0
330
1F
100
AcDbEntity
  8
0
  6
Continuous
 62
     7
370
    25
100
AcDbLine
 10
306.524266015
 20
204.0555158551
 30
0.0
 11
306.524266015
 21
203.5287337298
 31
0.0
  0
LINE
  5
1A1
330
1F
100
AcDbEntity
  8
0
  6
Continuous
 62
     7
370
    25
100
AcDbLine
 10
296.8800854788
 20
204.1412310595
 30
0.0
 11
306.524266015
 21
204.1412310595
 31
0.0
  0
LINE
  5
1A2
330
1F
100
AcDbEntity
  8
0
  6
Continuous
 62
     7
370
    25
100
AcDbLine
 10
296.8800854788
 20
203.5287337298
 30
0.0
 11
296.8800854788
 21
204.1412310595
 31
0.0
  0
LINE
  5
1A3
330
1F
100
AcDbEntity
  8
0
  6
Continuous
 62
     7
370
    25
100
AcDbLine
 10
306.524266015
 20
204.0555158551
 30
0.0
 11
306.524266015
 21
204.1412310595
 31
0.0
  0
LINE
  5
1A4
330
1F
100
AcDbEntity
  8
0
  6
Continuous
 62
     7
370
    25
100
AcDbLine
 10
306.6128087149
 20
203.8412334318
 30
0.0
 11
306.524266015
 21
203.8412334318
 31
0.0
  0
LINE
  5
1A5
330
1F
100
AcDbEntity
  8
0
  6
Continuous
 62
     7
370
    25
100
AcDbLine
 10
306.6128087149
 20
204.1412310595
 30
0.0
 11
306.524266015
 21
204.1412310595
 31
0.0
  0
LINE
  5
1A6
330
1F
100
AcDbEntity
  8
0
  6
Continuous
 62
     7
370
    25
100
AcDbLine
 10
121.0675877438
 20
195.141231447
 30
0.0
 11
121.0675877438
 21
194.6412304337
 31
0.0
  0
LINE
  5
1A7
330
1F
100
AcDbEntity
  8
0
  6
Continuous
 62
     7
370
    25
100
AcDbLine
 10
121.0675877438
 20
194.6412304337
 30
0.0
 11
120.767590116
 21
194.6412304337
 31
0.0
  0
LINE
  5
1A8
330
1F
100
AcDbEntity
  8
0
  6
Continuous
 62
     7
370
    25
100
AcDbLine
 10
120.767590116
 20
194.6412304337
 30
0.0
 11
120.767590116
 21
195.141231447
 31
0.0
  0
ARC
  5
1A9
330
1F
100
AcDbEntity
  8
0
  6
Continuous
 62
     7
370
    25
100
AcDbCircle
 10
121.3800889635
 20
203.5287319248
 30
0.0
 40
0.6124999999999972
100
AcDbArc
 50
90.0
 51
180.0
  0
ARC
  5
1AA
330
1F
100
AcDbEntity
  8
0
  6
Continuous
 62
     7
370
    25
100
AcDbCircle
 10
121.3800889635
 20
203.5287319248
 30
0.0
 40
0.3125
100
AcDbArc
 50
90.0
 51
180.0
  0
LINE
  5
1AB
330
1F
100
AcDbEntity
  8
0
  6
Continuous
 62
     7
370
    25
100
AcDbLine
 10
133.9050871239
 20
203.8412334318
 30
0.0
 11
133.9050871239
 21
204.1412310595
 31
0.0
  0
LINE
  5
1AC
330
1F
100
AcDbEntity
  8
0
  6
Continuous
 62
     7
370
    25
100
AcDbLine
 10
133.9050871239
 20
204.1412310595
 30
0.0
 11
121.3800874457
 21
204.1412310595
 31
0.0
  0
LINE
  5
1AD
330
1F
100
AcDbEntity
  8
0
  6
Continuous
 62
     7
370
    25
100
AcDbLine
 10
133.9050871239
 20
203.8412334318
 30
0.0
 11
121.3800874457
 21
203.8412334318
 31
0.0
  0
LINE
  5
1AE
330
1F
100
AcDbEntity
  8
0
  6
Continuous
 62
     7
370
    25
100
AcDbLine
 10
303.0231487856
 20
190.7307038004
 30
0.0
 11
303.1427455053
 21
190.4555873866
 31
0.0
  0
LINE
  5
1AF
330
1F
100
AcDbEntity
  8
0
  6
Continuous
 62
     7
370
    25
100
AcDbLine
 10
303.0231487856
 20
190.7307038004
 30
0.0
 11
308.815915595
 21
193.2494731541
 31
0.0
  0
LINE
  5
1B0
330
1F
100
AcDbEntity
  8
0
  6
Continuous
 62
     7
370
    25
100
AcDbLine
 10
303.1427455053
 20
190.4555873866
 30
0.0
 11
308.9355421171
 21
192.9743567402
 31
0.0
  0
LINE
  5
1B1
330
1F
100
AcDbEntity
  8
0
  6
Continuous
 62
     7
370
    25
100
AcDbLine
 10
121.0675877438
 20
203.5287337298
 30
0.0
 11
121.0675877438
 21
195.141231447
 31
0.0
  0
LINE
  5
1B2
330
1F
100
AcDbEntity
  8
0
  6
Continuous
 62
     7
370
    25
100
AcDbLine
 10
120.767590116
 20
203.5287337298
 30
0.0
 11
120.767590116
 21
195.141231447
 31
0.0
  0
ARC
  5
1B3
330
1F
100
AcDbEntity
  8
0
  6
Continuous
 62
     7
370
    25
100
AcDbCircle
 10
306.6128215458
 20
198.3162319248
 30
0.0
 40
5.824999999999989
100
AcDbArc
 50
293.5
 51
90.0
  0
LWPOLYLINE
  5
1B4
330
1F
100
AcDbEntity
  8
0
  6
Continuous
 62
     7
370
    25
100
AcDbPolyline
 90
        3
 70
   128
 43
0.0
 10
308.815915595
 20
193.2494731541
 10
309.4544601545
 20
193.5780176814
 10
309.647430192
 20
193.6992311771
  0
LWPOLYLINE
  5
1B5
330
1F
100
AcDbEntity
  8
0
  6
Continuous
 62
     7
370
    25
100
AcDbPolyline
 90
        3
 70
   128
 43
0.0
 10
307.9884243116
 20
203.6672474737
 10
307.329435359
 20
203.794562995
 10
306.6128087149
 20
203.8412334318
  0
ARC
  5
1B6
330
1F
100
AcDbEntity
  8
0
  6
Continuous
 62
     7
370
    25
100
AcDbCircle
 10
133.9050889635
 20
203.5287319248
 30
0.0
 40
0.3125000000000079
100
AcDbArc
 50
66.4218215218
 51
90.0
  0
LWPOLYLINE
  5
1B7
330
1F
100
AcDbEntity
  8
0
  6
Continuous
 62
     7
370
    25
100
AcDbPolyline
 90
        3
 70
   128
 43
0.0
 10
134.0300929651
 20
204.1283415551
 10
134.0245795355
 20
204.1294628675
 10
133.9050871239
 20
204.1412310595
  0
LINE
  5
1B8
330
1F
100
AcDbEntity
  8
0
  6
Continuous
 62
     7
370
    25
100
AcDbLine
 10
296.8800854788
 20
204.1412310595
 30
0.0
 11
296.7650783167
 21
204.1303383107
 31
0.0
  0
LWPOLYLINE
  5
1B9
330
1F
100
AcDbEntity
  8
0
  6
Continuous
 62
     7
370
    25
100
AcDbPolyline
 90
        3
 70
   128
 43
0.0
 10
296.8800854788
 20
203.8412334318
 10
296.8191099272
 20
203.8352282639
 10
296.7650783167
 20
203.8193026478
  0
LINE
  5
1BA
330
1F
100
AcDbEntity
  8
0
  6
Continuous
 62
     7
370
    25
100
AcDbLine
 10
306.534249793
 20
203.5287337298
 30
0.0
 11
306.534249793
 21
203.8412334318
 31
0.0
  0
LINE
  5
1BB
330
1F
100
AcDbEntity
  8
0
  6
Continuous
 62
     7
370
    25
100
AcDbLine
 10
133.9050871239
 20
203.2162303026
 30
0.0
 11
134.0300929651
 21
203.2162303026
 31
0.0
  0
LINE
  5
1BC
330
1F
100
AcDbEntity
  8
0
  6
Continuous
 62
     7
370
    25
100
AcDbLine
 10
306.534249793
 20
203.5287337298
 30
0.0
 11
306.534249793
 21
203.4912312324
 31
0.0
  0
LINE
  5
1BD
330
1F
100
AcDbEntity
  8
0
  6
Continuous
 62
     7
370
    25
100
AcDbLine
 10
276.1425864801
 20
125.8937286134
 30
0.0
 11
148.5925954685
 21
125.8937286134
 31
0.0
  0
LINE
  5
1BE
330
1F
100
AcDbEntity
  8
0
  6
Continuous
 62
     7
370
    25
100
AcDbLine
 10
297.3410379991
 20
128.5062299962
 30
0.0
 11
297.404069911
 21
128.5062299962
 31
0.0
  0
LWPOLYLINE
  5
1BF
330
1F
100
AcDbEntity
  8
0
  6
Continuous
 62
     7
370
    25
100
AcDbPolyline
 90
        3
 70
   128
 43
0.0
 10
312.0558154688
 20
128.7116127009
 10
312.1113073931
 20
128.7625150676
 10
312.1628356085
 20
128.8187296982
  0
LINE
  5
1C0
330
1F
100
AcDbEntity
  8
0
  6
Continuous
 62
     7
370
    25
100
AcDbLine
 10
296.8179178343
 20
198.2575299139
 30
0.0
 11
296.8800854788
 21
198.2155980463
 31
0.0
  0
SPLINE
  5
1C1
330
1F
100
AcDbEntity
  8
0
  6
Continuous
 62
     7
370
    25
100
AcDbSpline
210
0.0
220
0.0
230
1.0
 70
     8
 71
     3
 72
     9
 73
     5
 74
     0
 42
0.000000001
 43
0.00000001
 40
0.0
 40
0.0
 40
0.0
 40
0.0
 40
0.3870709206892
 40
1.0
 40
1.0
 40
1.0
 40
1.0
 10
296.7650783166795
 20
198.1345841581806
 30
0.0
 10
296.7828878767376
 20
198.1279586641075
 30
0.0
 10
296.8288989798874
 20
198.1108416612045
 30
0.0
 10
296.8606341005091
 20
198.1033360791419
 30
0.0
 10
296.8800854787737
 20
198.0987356896385
 30
0.0
  0
SPLINE
  5
1C2
330
1F
100
AcDbEntity
  8
0
  6
Continuous
 62
     7
370
    25
100
AcDbSpline
210
0.0
220
0.0
230
1.0
 70
     8
 71
     3
 72
     9
 73
     5
 74
     0
 42
0.000000001
 43
0.00000001
 40
0.0
 40
0.0
 40
0.0
 40
0.0
 40
0.7459998198146462
 40
1.0
 40
1.0
 40
1.0
 40
1.0
 10
296.7650783166795
 20
198.2285732324108
 30
0.0
 10
296.7819290124946
 20
198.2333103466242
 30
0.0
 10
296.8045170820456
 20
198.2396603672108
 30
0.0
 10
296.8152034857951
 20
198.253910402396
 30
0.0
 10
296.8179178342729
 20
198.2575299139007
 30
0.0
  0
LINE
  5
1C3
330
1F
100
AcDbEntity
  8
0
  6
Continuous
 62
     7
370
    25
100
AcDbLine
 10
296.8800854788
 20
197.8132070894
 30
0.0
 11
296.7650783167
 21
197.6427154536
 31
0.0
  0
LINE
  5
1C4
330
1F
100
AcDbEntity
  8
0
  6
Continuous
 62
     7
370
    25
100
AcDbLine
 10
294.7742831812
 20
194.6912312801
 30
0.0
 11
294.7001052008
 21
194.5812309082
 31
0.0
  0
LINE
  5
1C5
330
1F
100
AcDbEntity
  8
0
  6
Continuous
 62
     7
370
    25
100
AcDbLine
 10
296.8800854788
 20
203.3367359931
 30
0.0
 11
296.8713533983
 21
203.3367359931
 31
0.0
  0
LINE
  5
1C6
330
1F
100
AcDbEntity
  8
0
  6
Continuous
 62
     7
370
    25
100
AcDbLine
 10
296.8713533983
 20
203.3367359931
 30
0.0
 11
296.8713533983
 21
202.8367387052
 31
0.0
  0
LINE
  5
1C7
330
1F
100
AcDbEntity
  8
0
  6
Continuous
 62
     7
370
    25
100
AcDbLine
 10
296.8713533983
 20
202.8367387052
 30
0.0
 11
296.8713533983
 21
198.4322795565
 31
0.0
  0
ARC
  5
1C8
330
1F
100
AcDbEntity
  8
0
  6
Continuous
 62
     7
370
    25
100
AcDbCircle
 10
296.5588477032
 20
198.4322777576
 30
0.0
 40
0.3125000000000568
100
AcDbArc
 50
326.0
 51
0.0
  0
LINE
  5
1C9
330
1F
100
AcDbEntity
  8
0
  6
Continuous
 62
     7
370
    25
100
AcDbLine
 10
290.5771327124
 20
194.5812309082
 30
0.0
 11
293.3521461592
 21
194.5812309082
 31
0.0
  0
LINE
  5
1CA
330
1F
100
AcDbEntity
  8
0
  6
Continuous
 62
     7
370
    25
100
AcDbLine
 10
290.5771327124
 20
194.6912312801
 30
0.0
 11
293.3521461592
 21
194.6912312801
 31
0.0
  0
LINE
  5
1CB
330
1F
100
AcDbEntity
  8
0
  6
Continuous
 62
     7
370
    25
100
AcDbLine
 10
290.5771327124
 20
194.5812309082
 30
0.0
 11
290.5771327124
 21
194.6912312801
 31
0.0
  0
LINE
  5
1CC
330
1F
100
AcDbEntity
  8
0
  6
Continuous
 62
     7
370
    25
100
AcDbLine
 10
293.3521461592
 20
194.5812309082
 30
0.0
 11
293.3521461592
 21
194.6912312801
 31
0.0
  0
LINE
  5
1CD
330
1F
100
AcDbEntity
  8
0
  6
Continuous
 62
     7
370
    25
100
AcDbLine
 10
121.2675911293
 20
220.1287316079
 30
0.0
 11
120.9175926552
 21
220.1287316079
 31
0.0
  0
ARC
  5
1CE
330
1F
100
AcDbEntity
  8
0
  6
Continuous
 62
     7
370
    25
100
AcDbCircle
 10
120.9175889635
 20
218.9412319248
 30
0.0
 40
1.187500000000028
100
AcDbArc
 50
90.0
 51
270.0
  0
LINE
  5
1CF
330
1F
100
AcDbEntity
  8
0
  6
Continuous
 62
     7
370
    25
100
AcDbLine
 10
120.9175926552
 20
217.7537323828
 30
0.0
 11
121.2675911293
 21
217.7537323828
 31
0.0
  0
LINE
  5
1D0
330
1F
100
AcDbEntity
  8
0
  6
Continuous
 62
     7
370
    25
100
AcDbLine
 10
121.2675911293
 20
213.7970643039
 30
0.0
 11
119.0876555548
 21
217.9897891278
 31
0.0
  0
ARC
  5
1D1
330
1F
100
AcDbEntity
  8
0
  6
Continuous
 62
     7
370
    25
100
AcDbCircle
 10
120.9175889635
 20
218.9412319248
 30
0.0
 40
2.062500000000028
100
AcDbArc
 50
90.0
 51
207.4713961742
  0
LINE
  5
1D2
330
1F
100
AcDbEntity
  8
0
  6
Continuous
 62
     7
370
    25
100
AcDbLine
 10
120.9175926552
 20
221.0037315185
 30
0.0
 11
121.2675911293
 21
221.0037315185
 31
0.0
  0
LINE
  5
1D3
330
1F
100
AcDbEntity
  8
0
  6
Continuous
 62
     7
370
    25
100
AcDbLine
 10
133.2675856457
 20
204.1412310595
 30
0.0
 11
133.2675856457
 21
204.5162336822
 31
0.0
  0
LINE
  5
1D4
330
1F
100
AcDbEntity
  8
0
  6
Continuous
 62
     7
370
    25
100
AcDbLine
 10
122.3925915465
 20
204.1412310595
 30
0.0
 11
122.3925915465
 21
204.5162336822
 31
0.0
  0
LINE
  5
1D5
330
1F
100
AcDbEntity
  8
0
  6
Continuous
 62
     7
370
    25
100
AcDbLine
 10
122.0175889239
 20
204.5162336822
 30
0.0
 11
122.0175889239
 21
204.1412310595
 31
0.0
  0
LINE
  5
1D6
330
1F
100
AcDbEntity
  8
0
  6
Continuous
 62
     7
370
    25
100
AcDbLine
 10
127.812955986
 20
222.1412321473
 30
0.0
 11
140.7675933943
 21
222.1412321473
 31
0.0
  0
ARC
  5
1D7
330
1F
100
AcDbEntity
  8
0
  6
Continuous
 62
     7
370
    25
100
AcDbCircle
 10
140.7675889635
 20
220.8912319248
 30
0.0
 40
1.250000000000002
100
AcDbArc
 50
18.2051197958
 51
90.0
  0
LINE
  5
1D8
330
1F
100
AcDbEntity
  8
0
  6
Continuous
 62
     7
370
    25
100
AcDbLine
 10
132.8925830231
 20
204.5162336822
 30
0.0
 11
132.8925830231
 21
204.1412310595
 31
0.0
  0
LINE
  5
1D9
330
1F
100
AcDbEntity
  8
0
  6
Continuous
 62
     7
370
    25
100
AcDbLine
 10
133.9833182201
 20
221.7662313874
 30
0.0
 11
140.7675933943
 21
221.7662313874
 31
0.0
  0
ARC
  5
1DA
330
1F
100
AcDbEntity
  8
0
  6
Continuous
 62
     7
370
    25
100
AcDbCircle
 10
140.7675889635
 20
220.8912319248
 30
0.0
 40
0.8750000000000284
100
AcDbArc
 50
28.3800916461
 51
90.0
  0
SPLINE
  5
1DB
330
1F
100
AcDbEntity
  8
0
  6
Continuous
 62
     7
370
    25
100
AcDbSpline
210
0.0
220
0.0
230
1.0
 70
     8
 71
     3
 72
     9
 73
     5
 74
     0
 42
0.000000001
 43
0.00000001
 40
0.0
 40
0.0
 40
0.0
 40
0.0
 40
0.240365175190022
 40
1.0
 40
1.0
 40
1.0
 40
1.0
 10
132.0044440135866
 20
203.8412334318145
 30
0.0
 10
132.0016625034636
 20
203.8392304852146
 30
0.0
 10
131.9900904855088
 20
203.8308975534644
 30
0.0
 10
131.9785163922841
 20
203.8225636965549
 30
0.0
 10
131.9697243080049
 20
203.8162330086216
 30
0.0
  0
SPLINE
  5
1DC
330
1F
100
AcDbEntity
  8
0
  6
Continuous
 62
     7
370
    25
100
AcDbSpline
210
0.0
220
0.0
230
1.0
 70
     8
 71
     3
 72
     9
 73
     5
 74
     0
 42
0.000000001
 43
0.00000001
 40
0.0
 40
0.0
 40
0.0
 40
0.0
 40
0.2403003659866726
 40
1.0
 40
1.0
 40
1.0
 40
1.0
 10
131.7954999313264
 20
203.8412334318145
 30
0.0
 10
131.7933692038913
 20
203.839230399791
 30
0.0
 10
131.7845022701003
 20
203.830894865156
 30
0.0
 10
131.7756281347852
 20
203.8225628428886
 30
0.0
 10
131.7688864574342
 20
203.8162330086216
 30
0.0
  0
SPLINE
  5
1DD
330
1F
100
AcDbEntity
  8
0
  6
Continuous
 62
     7
370
    25
100
AcDbSpline
210
0.0
220
0.0
230
1.0
 70
     8
 71
     3
 72
     9
 73
     5
 74
     0
 42
0.000000001
 43
0.00000001
 40
0.0
 40
0.0
 40
0.0
 40
0.0
 40
0.240365175190022
 40
1.0
 40
1.0
 40
1.0
 40
1.0
 10
125.0044521794229
 20
203.8412334318145
 30
0.0
 10
125.0016706692999
 20
203.8392304852146
 30
0.0
 10
124.9900986513452
 20
203.8308975534644
 30
0.0
 10
124.9785245581204
 20
203.8225636965549
 30
0.0
 10
124.9697324738412
 20
203.8162330086216
 30
0.0
  0
LINE
  5
1DE
330
1F
100
AcDbEntity
  8
0
  6
Continuous
 62
     7
370
    25
100
AcDbLine
 10
124.7788038955
 20
203.8162330086
 30
0.0
 11
124.8054248199
 21
203.8412334318
 31
0.0
  0
LINE
  5
1DF
330
1F
100
AcDbEntity
  8
0
  6
Continuous
 62
     7
370
    25
100
AcDbLine
 10
127.5013876066
 20
203.8162330086
 30
0.0
 11
127.4956804619
 21
203.8412334318
 31
0.0
  0
SPLINE
  5
1E0
330
1F
100
AcDbEntity
  8
0
  6
Continuous
 62
     7
370
    25
100
AcDbSpline
210
0.0
220
0.0
230
1.0
 70
     8
 71
     3
 72
     9
 73
     5
 74
     0
 42
0.000000001
 43
0.00000001
 40
0.0
 40
0.0
 40
0.0
 40
0.0
 40
0.2403058458519622
 40
1.0
 40
1.0
 40
1.0
 40
1.0
 10
126.989681731215
 20
203.8412334318145
 30
0.0
 10
126.9918124509574
 20
203.8392304070116
 30
0.0
 10
127.0006791505371
 20
203.8308950925049
 30
0.0
 10
127.0095534509565
 20
203.8225629150928
 30
0.0
 10
127.0162952051072
 20
203.8162330086216
 30
0.0
  0
LINE
  5
1E1
330
1F
100
AcDbEntity
  8
0
  6
Continuous
 62
     7
370
    25
100
AcDbLine
 10
128.4621250734
 20
203.8162330086
 30
0.0
 11
128.496844779
 21
203.8412334318
 31
0.0
  0
SPLINE
  5
1E2
330
1F
100
AcDbEntity
  8
0
  6
Continuous
 62
     7
370
    25
100
AcDbSpline
210
0.0
220
0.0
230
1.0
 70
     8
 71
     3
 72
     9
 73
     5
 74
     0
 42
0.000000001
 43
0.00000001
 40
0.0
 40
0.0
 40
0.0
 40
0.0
 40
0.2403758483821898
 40
1.0
 40
1.0
 40
1.0
 40
1.0
 10
128.0625206336885
 20
203.8412334318145
 30
0.0
 10
128.0611796725692
 20
203.8392304992884
 30
0.0
 10
128.0556010708573
 20
203.8308979960875
 30
0.0
 10
128.0500150243475
 20
203.822563837084
 30
0.0
 10
128.0457717285066
 20
203.8162330086216
 30
0.0
  0
LINE
  5
1E3
330
1F
100
AcDbEntity
  8
0
  6
Continuous
 62
     7
370
    25
100
AcDbLine
 10
126.8230494962
 20
203.8162330086
 30
0.0
 11
126.7883297906
 21
203.8412334318
 31
0.0
  0
LINE
  5
1E4
330
1F
100
AcDbEntity
  8
0
  6
Continuous
 62
     7
370
    25
100
AcDbLine
 10
130.1147383556
 20
203.8162330086
 30
0.0
 11
130.0713610754
 21
203.8412334318
 31
0.0
  0
SPLINE
  5
1E5
330
1F
100
AcDbEntity
  8
0
  6
Continuous
 62
     7
370
    25
100
AcDbSpline
210
0.0
220
0.0
230
1.0
 70
     8
 71
     3
 72
     9
 73
     5
 74
     0
 42
0.000000001
 43
0.00000001
 40
0.0
 40
0.0
 40
0.0
 40
0.0
 40
0.240164248146294
 40
1.0
 40
1.0
 40
1.0
 40
1.0
 10
130.1462245092302
 20
203.8412334318145
 30
0.0
 10
130.1494578057452
 20
203.8392302205746
 30
0.0
 10
130.1629206610203
 20
203.8308892153862
 30
0.0
 10
130.1763968035198
 20
203.822561047971
 30
0.0
 10
130.1866364583879
 20
203.8162330086216
 30
0.0
  0
LINE
  5
1E6
330
1F
100
AcDbEntity
  8
0
  6
Continuous
 62
     7
370
    25
100
AcDbLine
 10
130.5063706741
 20
203.8162330086
 30
0.0
 11
130.4797572002
 21
203.8412334318
 31
0.0
  0
LINE
  5
1E7
330
1F
100
AcDbEntity
  8
0
  6
Continuous
 62
     7
370
    25
100
AcDbLine
 10
132.1033281193
 20
203.8162330086
 30
0.0
 11
132.1437400684
 21
203.8412334318
 31
0.0
  0
SPLINE
  5
1E8
330
1F
100
AcDbEntity
  8
0
  6
Continuous
 62
     7
370
    25
100
AcDbSpline
210
0.0
220
0.0
230
1.0
 70
     8
 71
     3
 72
     9
 73
     5
 74
     0
 42
0.000000001
 43
0.00000001
 40
0.0
 40
0.0
 40
0.0
 40
0.0
 40
0.2404434877728051
 40
0.9999999999999999
 40
0.9999999999999999
 40
0.9999999999999999
 40
0.9999999999999999
 10
132.2154444560914
 20
203.8412334318145
 30
0.0
 10
132.2119674642276
 20
203.8392305885175
 30
0.0
 10
132.1975067196423
 20
203.830900800443
 30
0.0
 10
132.1830487902667
 20
203.8225647272794
 30
0.0
 10
132.1720671758561
 20
203.8162330086216
 30
0.0
  0
LINE
  5
1E9
330
1F
100
AcDbEntity
  8
0
  6
Continuous
 62
     7
370
    25
100
AcDbLine
 10
131.534222971
 20
203.8162330086
 30
0.0
 11
131.5509867773
 21
203.8412334318
 31
0.0
  0
SPLINE
  5
1EA
330
1F
100
AcDbEntity
  8
0
  6
Continuous
 62
     7
370
    25
100
AcDbSpline
210
0.0
220
0.0
230
1.0
 70
     8
 71
     3
 72
     9
 73
     5
 74
     0
 42
0.000000001
 43
0.00000001
 40
0.0
 40
0.0
 40
0.0
 40
0.0
 40
0.2403161991417073
 40
1.0
 40
1.0
 40
1.0
 40
1.0
 10
131.00807787036
 20
203.8412334318145
 30
0.0
 10
131.0085349958104
 20
203.8392304206547
 30
0.0
 10
131.0104371790679
 20
203.8308955220215
 30
0.0
 10
131.0123312323441
 20
203.8225630514988
 30
0.0
 10
131.013770113936
 20
203.8162330086216
 30
0.0
  0
SPLINE
  5
1EB
330
1F
100
AcDbEntity
  8
0
  6
Continuous
 62
     7
370
    25
100
AcDbSpline
210
0.0
220
0.0
230
1.0
 70
     8
 71
     3
 72
     9
 73
     5
 74
     0
 42
0.000000001
 43
0.00000001
 40
0.0
 40
0.0
 40
0.0
 40
0.0
 40
0.2403161991417073
 40
1.0
 40
1.0
 40
1.0
 40
1.0
 10
124.0080785856157
 20
203.8412334318145
 30
0.0
 10
124.0085357110662
 20
203.8392304206547
 30
0.0
 10
124.0104378943236
 20
203.8308955220215
 30
0.0
 10
124.0123319475998
 20
203.8225630514988
 30
0.0
 10
124.0137708291917
 20
203.8162330086216
 30
0.0
  0
LINE
  5
1EC
330
1F
100
AcDbEntity
  8
0
  6
Continuous
 62
     7
370
    25
100
AcDbLine
 10
124.5342236862
 20
203.8162330086
 30
0.0
 11
124.550980042
 21
203.8412334318
 31
0.0
  0
SPLINE
  5
1ED
330
1F
100
AcDbEntity
  8
0
  6
Continuous
 62
     7
370
    25
100
AcDbSpline
210
0.0
220
0.0
230
1.0
 70
     8
 71
     3
 72
     9
 73
     5
 74
     0
 42
0.000000001
 43
0.00000001
 40
0.0
 40
0.0
 40
0.0
 40
0.0
 40
0.2404013695621506
 40
1.0
 40
1.0
 40
1.0
 40
1.0
 10
123.1462177739053
 20
203.8412334318145
 30
0.0
 10
123.1494563176858
 20
203.8392305329479
 30
0.0
 10
123.1629277208914
 20
203.830899054345
 30
0.0
 10
123.1763978394523
 20
203.8225641730432
 30
0.0
 10
123.186629723063
 20
203.8162330086216
 30
0.0
  0
LINE
  5
1EE
330
1F
100
AcDbEntity
  8
0
  6
Continuous
 62
     7
370
    25
100
AcDbLine
 10
123.50637884
 20
203.8162330086
 30
0.0
 11
123.4797579155
 21
203.8412334318
 31
0.0
  0
LINE
  5
1EF
330
1F
100
AcDbEntity
  8
0
  6
Continuous
 62
     7
370
    25
100
AcDbLine
 10
123.1818464503
 20
203.8162330086
 30
0.0
 11
123.1414345012
 21
203.8412334318
 31
0.0
  0
LINE
  5
1F0
330
1F
100
AcDbEntity
  8
0
  6
Continuous
 62
     7
370
    25
100
AcDbLine
 10
125.1033362851
 20
203.8162330086
 30
0.0
 11
125.1437482343
 21
203.8412334318
 31
0.0
  0
SPLINE
  5
1F1
330
1F
100
AcDbEntity
  8
0
  6
Continuous
 62
     7
370
    25
100
AcDbSpline
210
0.0
220
0.0
230
1.0
 70
     8
 71
     3
 72
     9
 73
     5
 74
     0
 42
0.000000001
 43
0.00000001
 40
0.0
 40
0.0
 40
0.0
 40
0.0
 40
0.2403161991417073
 40
1.0
 40
1.0
 40
1.0
 40
1.0
 10
125.2154377207666
 20
203.8412334318145
 30
0.0
 10
125.2119633141775
 20
203.8392304206547
 30
0.0
 10
125.1975056679534
 20
203.8308955220215
 30
0.0
 10
125.1830455544889
 20
203.8225630514988
 30
0.0
 10
125.1720604405313
 20
203.8162330086216
 30
0.0
  0
LINE
  5
1F2
330
1F
100
AcDbEntity
  8
0
  6
Continuous
 62
     7
370
    25
100
AcDbLine
 10
140.6175834045
 20
92.5062315459
 30
0.0
 11
133.4925931797
 21
92.5062315459
 31
0.0
  0
LINE
  5
1F3
330
1F
100
AcDbEntity
  8
0
  6
Continuous
 62
     7
370
    25
100
AcDbLine
 10
147.7425885305
 20
92.5062315459
 30
0.0
 11
140.6175834045
 21
92.5062315459
 31
0.0
  0
LINE
  5
1F4
330
1F
100
AcDbEntity
  8
0
  6
Continuous
 62
     7
370
    25
100
AcDbLine
 10
140.6175834045
 20
91.0062359567
 30
0.0
 11
133.9925867424
 21
91.0062359567
 31
0.0
  0
LINE
  5
1F5
330
1F
100
AcDbEntity
  8
0
  6
Continuous
 62
     7
370
    25
100
AcDbLine
 10
147.2425949678
 20
91.0062359567
 30
0.0
 11
140.6175834045
 21
91.0062359567
 31
0.0
  0
LINE
  5
1F6
330
1F
100
AcDbEntity
  8
0
  6
Continuous
 62
     7
370
    25
100
AcDbLine
 10
284.1175985441
 20
92.5062315459
 30
0.0
 11
276.992578517
 21
92.5062315459
 31
0.0
  0
LINE
  5
1F7
330
1F
100
AcDbEntity
  8
0
  6
Continuous
 62
     7
370
    25
100
AcDbLine
 10
291.242588769
 20
92.5062315459
 30
0.0
 11
284.1175985441
 21
92.5062315459
 31
0.0
  0
LINE
  5
1F8
330
1F
100
AcDbEntity
  8
0
  6
Continuous
 62
     7
370
    25
100
AcDbLine
 10
284.1175985441
 20
91.0062359567
 30
0.0
 11
277.492601882
 21
91.0062359567
 31
0.0
  0
LINE
  5
1F9
330
1F
100
AcDbEntity
  8
0
  6
Continuous
 62
     7
370
    25
100
AcDbLine
 10
290.7425952063
 20
91.0062359567
 30
0.0
 11
284.1175985441
 21
91.0062359567
 31
0.0
  0
LINE
  5
1FA
330
1F
100
AcDbEntity
  8
0
  6
Continuous
 62
     7
370
    25
100
AcDbLine
 10
284.1175985441
 20
90.8812301154
 30
0.0
 11
277.492601882
 21
90.8812301154
 31
0.0
  0
LINE
  5
1FB
330
1F
100
AcDbEntity
  8
0
  6
Continuous
 62
     7
370
    25
100
AcDbLine
 10
290.7425952063
 20
90.8812301154
 30
0.0
 11
284.1175985441
 21
90.8812301154
 31
0.0
  0
LINE
  5
1FC
330
1F
100
AcDbEntity
  8
0
  6
Continuous
 62
     7
370
    25
100
AcDbLine
 10
295.3675878153
 20
128.0062289829
 30
0.0
 11
295.3675878153
 21
128.18122822
 31
0.0
  0
LINE
  5
1FD
330
1F
100
AcDbEntity
  8
0
  6
Continuous
 62
     7
370
    25
100
AcDbLine
 10
272.8675794706
 20
128.0062289829
 30
0.0
 11
295.3675878153
 21
128.0062289829
 31
0.0
  0
LINE
  5
1FE
330
1F
100
AcDbEntity
  8
0
  6
Continuous
 62
     7
370
    25
100
AcDbLine
 10
272.8675794706
 20
128.0062289829
 30
0.0
 11
272.8675794706
 21
128.18122822
 31
0.0
  0
LINE
  5
1FF
330
1F
100
AcDbEntity
  8
0
  6
Continuous
 62
     7
370
    25
100
AcDbLine
 10
284.1175985441
 20
104.5062260623
 30
0.0
 11
276.3776671991
 21
104.5062260623
 31
0.0
  0
LINE
  5
200
330
1F
100
AcDbEntity
  8
0
  6
Continuous
 62
     7
370
    25
100
AcDbLine
 10
291.8575000868
 20
104.5062260623
 30
0.0
 11
284.1175985441
 21
104.5062260623
 31
0.0
  0
LINE
  5
201
330
1F
100
AcDbEntity
  8
0
  6
Continuous
 62
     7
370
    25
100
AcDbLine
 10
295.3675878153
 20
127.8812305922
 30
0.0
 11
295.3675878153
 21
128.0062289829
 31
0.0
  0
LINE
  5
202
330
1F
100
AcDbEntity
  8
0
  6
Continuous
 62
     7
370
    25
100
AcDbLine
 10
292.1880674467
 20
127.8812305922
 30
0.0
 11
295.3675878153
 21
127.8812305922
 31
0.0
  0
LINE
  5
203
330
1F
100
AcDbEntity
  8
0
  6
Continuous
 62
     7
370
    25
100
AcDbLine
 10
277.0425868139
 20
104.3812351222
 30
0.0
 11
276.3776671991
 21
104.3812351222
 31
0.0
  0
LINE
  5
204
330
1F
100
AcDbEntity
  8
0
  6
Continuous
 62
     7
370
    25
100
AcDbLine
 10
291.8575000868
 20
104.3812351222
 30
0.0
 11
291.192580472
 21
104.3812351222
 31
0.0
  0
LINE
  5
205
330
1F
100
AcDbEntity
  8
0
  6
Continuous
 62
     7
370
    25
100
AcDbLine
 10
151.8675875769
 20
128.0062289829
 30
0.0
 11
151.8675875769
 21
128.18122822
 31
0.0
  0
LINE
  5
206
330
1F
100
AcDbEntity
  8
0
  6
Continuous
 62
     7
370
    25
100
AcDbLine
 10
129.3675941334
 20
128.0062289829
 30
0.0
 11
151.8675875769
 21
128.0062289829
 31
0.0
  0
LINE
  5
207
330
1F
100
AcDbEntity
  8
0
  6
Continuous
 62
     7
370
    25
100
AcDbLine
 10
129.3675941334
 20
128.0062289829
 30
0.0
 11
129.3675941334
 21
128.18122822
 31
0.0
  0
LINE
  5
208
330
1F
100
AcDbEntity
  8
0
  6
Continuous
 62
     7
370
    25
100
AcDbLine
 10
140.6175834045
 20
104.5062260623
 30
0.0
 11
132.8776818619
 21
104.5062260623
 31
0.0
  0
LINE
  5
209
330
1F
100
AcDbEntity
  8
0
  6
Continuous
 62
     7
370
    25
100
AcDbLine
 10
148.3574998484
 20
104.5062260623
 30
0.0
 11
140.6175834045
 21
104.5062260623
 31
0.0
  0
LINE
  5
20A
330
1F
100
AcDbEntity
  8
0
  6
Continuous
 62
     7
370
    25
100
AcDbLine
 10
312.6175892458
 20
129.3062286372
 30
0.0
 11
312.6175892458
 21
129.0562318559
 31
0.0
  0
LINE
  5
20B
330
1F
100
AcDbEntity
  8
0
  6
Continuous
 62
     7
370
    25
100
AcDbLine
 10
312.6175892458
 20
129.0562318559
 30
0.0
 11
312.5675809488
 21
129.0562318559
 31
0.0
  0
LINE
  5
20C
330
1F
100
AcDbEntity
  8
0
  6
Continuous
 62
     7
370
    25
100
AcDbLine
 10
312.6175892458
 20
131.5562294717
 30
0.0
 11
312.5675809488
 21
131.5562294717
 31
0.0
  0
LINE
  5
20D
330
1F
100
AcDbEntity
  8
0
  6
Continuous
 62
     7
370
    25
100
AcDbLine
 10
312.6175892458
 20
131.5562294717
 30
0.0
 11
312.6175892458
 21
131.3062326903
 31
0.0
  0
LINE
  5
20E
330
1F
100
AcDbEntity
  8
0
  6
Continuous
 62
     7
370
    25
100
AcDbLine
 10
312.6175892458
 20
131.3062326903
 30
0.0
 11
312.6175892458
 21
129.3062286372
 31
0.0
  0
LINE
  5
20F
330
1F
100
AcDbEntity
  8
0
  6
Continuous
 62
     7
370
    25
100
AcDbLine
 10
313.0675745115
 20
154.880935132
 30
0.0
 11
313.0675745115
 21
154.8812331552
 31
0.0
  0
LINE
  5
210
330
1F
100
AcDbEntity
  8
0
  6
Continuous
 62
     7
370
    25
100
AcDbLine
 10
313.0675745115
 20
151.0224433537
 30
0.0
 11
313.0675745115
 21
154.880935132
 31
0.0
  0
LINE
  5
211
330
1F
100
AcDbEntity
  8
0
  6
Continuous
 62
     7
370
    25
100
AcDbLine
 10
315.5676019297
 20
152.6472659702
 30
0.0
 11
315.5676019297
 21
153.8812311287
 31
0.0
  0
LINE
  5
212
330
1F
100
AcDbEntity
  8
0
  6
Continuous
 62
     7
370
    25
100
AcDbLine
 10
315.5676019297
 20
139.6312283273
 30
0.0
 11
315.5676019297
 21
140.7978029842
 31
0.0
  0
LINE
  5
213
330
1F
100
AcDbEntity
  8
0
  6
Continuous
 62
     7
370
    25
100
AcDbLine
 10
313.8936650858
 20
151.5132801528
 30
0.0
 11
313.8938438997
 21
151.7610566611
 31
0.0
  0
LINE
  5
214
330
1F
100
AcDbEntity
  8
0
  6
Continuous
 62
     7
370
    25
100
AcDbLine
 10
314.0774262056
 20
151.3694019909
 30
0.0
 11
313.8936650858
 21
151.5132801528
 31
0.0
  0
LINE
  5
215
330
1F
100
AcDbEntity
  8
0
  6
Continuous
 62
     7
370
    25
100
AcDbLine
 10
314.9300110445
 20
151.3373793955
 30
0.0
 11
314.0792739496
 21
151.5512110586
 31
0.0
  0
SPLINE
  5
216
330
1F
100
AcDbEntity
  8
0
  6
Continuous
 62
     7
370
    25
100
AcDbSpline
210
0.0
220
0.0
230
1.0
 70
     8
 71
     3
 72
     9
 73
     5
 74
     0
 42
0.000000001
 43
0.00000001
 40
0.0
 40
0.0
 40
0.0
 40
0.0
 40
0.4991480007861329
 40
1.0
 40
1.0
 40
1.0
 40
1.0
 10
314.1025197610765
 20
144.8518799538597
 30
0.0
 10
314.1210336141534
 20
144.8416483608637
 30
0.0
 10
314.1581245231577
 20
144.8211502461164
 30
0.0
 10
314.2017147433589
 20
144.8218177943903
 30
0.0
 10
314.2235469922929
 20
144.822152137278
 30
0.0
  0
SPLINE
  5
217
330
1F
100
AcDbEntity
  8
0
  6
Continuous
 62
     7
370
    25
100
AcDbSpline
210
0.0
220
0.0
230
1.0
 70
     8
 71
     3
 72
     9
 73
     5
 74
     0
 42
0.000000001
 43
0.00000001
 40
0.0
 40
0.0
 40
0.0
 40
0.0
 40
0.8374903430418315
 40
1.0
 40
1.0
 40
1.0
 40
1.0
 10
314.5061326131731
 20
144.9530215854629
 30
0.0
 10
314.4613965302243
 20
144.9975185458613
 30
0.0
 10
314.4079796958448
 20
145.0506498574854
 30
0.0
 10
314.3408504361774
 20
145.0827819747787
 30
0.0
 10
314.329941283217
 20
145.0880037541374
 30
0.0
  0
LINE
  5
218
330
1F
100
AcDbEntity
  8
0
  6
Continuous
 62
     7
370
    25
100
AcDbLine
 10
314.8303520784
 20
144.6487845774
 30
0.0
 11
314.5061326132
 21
144.9530215855
 31
0.0
  0
LINE
  5
219
330
1F
100
AcDbEntity
  8
0
  6
Continuous
 62
     7
370
    25
100
AcDbLine
 10
314.7425246344
 20
145.3948261137
 30
0.0
 11
314.9256897077
 21
145.4118581409
 31
0.0
  0
LINE
  5
21A
330
1F
100
AcDbEntity
  8
0
  6
Continuous
 62
     7
370
    25
100
AcDbLine
 10
314.7457134828
 20
145.0048701758
 30
0.0
 11
314.7425246344
 21
145.3948261137
 31
0.0
  0
SPLINE
  5
21B
330
1F
100
AcDbEntity
  8
0
  6
Continuous
 62
     7
370
    25
100
AcDbSpline
210
0.0
220
0.0
230
1.0
 70
     8
 71
     3
 72
     9
 73
     5
 74
     0
 42
0.000000001
 43
0.00000001
 40
0.0
 40
0.0
 40
0.0
 40
0.0
 40
0.5704680960181224
 40
1.0
 40
1.0
 40
1.0
 40
1.0
 10
314.1678464517503
 20
145.332688271521
 30
0.0
 10
314.2119741475627
 20
145.3319631205693
 30
0.0
 10
314.2893276334463
 20
145.3306919698131
 30
0.0
 10
314.3577029537281
 20
145.2977576417628
 30
0.0
 10
314.3870723352342
 20
145.283611297129
 30
0.0
  0
SPLINE
  5
21C
330
1F
100
AcDbEntity
  8
0
  6
Continuous
 62
     7
370
    25
100
AcDbSpline
210
0.0
220
0.0
230
1.0
 70
     8
 71
     3
 72
    12
 73
     8
 74
     0
 42
0.000000001
 43
0.00000001
 40
0.0
 40
0.0
 40
0.0
 40
0.0
 40
0.2500710847839806
 40
0.3754681767373371
 40
0.5008762896590299
 40
0.7505760268463053
 40
1.0
 40
1.0
 40
1.0
 40
1.0
 10
313.8626408681779
 20
144.9604647154792
 30
0.0
 10
313.8658568427184
 20
145.0046725241748
 30
0.0
 10
313.8706854541439
 20
145.0710481523001
 30
0.0
 10
313.9072648222519
 20
145.1539155013956
 30
0.0
 10
313.9570678303455
 20
145.228139838969
 30
0.0
 10
314.0438714260703
 20
145.3028000394037
 30
0.0
 10
314.126536667272
 20
145.3227291977444
 30
0.0
 10
314.1678464517503
 20
145.332688271521
 30
0.0
  0
SPLINE
  5
21D
330
1F
100
AcDbEntity
  8
0
  6
Continuous
 62
     7
370
    25
100
AcDbSpline
210
0.0
220
0.0
230
1.0
 70
     8
 71
     3
 72
    11
 73
     7
 74
     0
 42
0.000000001
 43
0.00000001
 40
0.0
 40
0.0
 40
0.0
 40
0.0
 40
0.200284700961847
 40
0.4015374524986053
 40
0.600888703692839
 40
1.0
 40
1.0
 40
1.0
 40
1.0
 10
314.0185666189104
 20
144.6615846748336
 30
0.0
 10
313.999399223274
 20
144.6740646183405
 30
0.0
 10
313.9609717888376
 20
144.6990848255704
 30
0.0
 10
313.9162747372196
 20
144.7526558995553
 30
0.0
 10
313.8723679426109
 20
144.8366750324646
 30
0.0
 10
313.8665324951589
 20
144.9109386967649
 30
0.0
 10
313.8626408681779
 20
144.9604647154792
 30
0.0
  0
SPLINE
  5
21E
330
1F
100
AcDbEntity
  8
0
  6
Continuous
 62
     7
370
    25
100
AcDbSpline
210
0.0
220
0.0
230
1.0
 70
     8
 71
     3
 72
    12
 73
     8
 74
     0
 42
0.000000001
 43
0.00000001
 40
0.0
 40
0.0
 40
0.0
 40
0.0
 40
0.1253485855775471
 40
0.2505699204193307
 40
0.5003556624997775
 40
0.7501094697760969
 40
1.0
 40
1.0
 40
1.0
 40
1.0
 10
314.0540313825517
 20
139.7650109524711
 30
0.0
 10
314.0543585043371
 20
139.7619555375696
 30
0.0
 10
314.0550124158219
 20
139.755847809547
 30
0.0
 10
314.0615667250112
 20
139.7459268079248
 30
0.0
 10
314.078169761495
 20
139.7380958934601
 30
0.0
 10
314.1073884404327
 20
139.7350295179221
 30
0.0
 10
314.1331677647781
 20
139.7397529539974
 30
0.0
 10
314.1460609540849
 20
139.7421153182968
 30
0.0
  0
LINE
  5
21F
330
1F
100
AcDbEntity
  8
0
  6
Continuous
 62
     7
370
    25
100
AcDbLine
 10
314.2813933
 20
139.8141400809
 30
0.0
 11
314.2748367891
 21
139.8344280119
 31
0.0
  0
SPLINE
  5
220
330
1F
100
AcDbEntity
  8
0
  6
Continuous
 62
     7
370
    25
100
AcDbSpline
210
0.0
220
0.0
230
1.0
 70
     8
 71
     3
 72
    12
 73
     8
 74
     0
 42
0.000000001
 43
0.00000001
 40
0.0
 40
0.0
 40
0.0
 40
0.0
 40
0.2504359431452739
 40
0.4996834140930483
 40
0.6248594103510622
 40
0.7502029954607039
 40
1.0
 40
1.0
 40
1.0
 40
1.0
 10
314.6146726713091
 20
139.8957760925277
 30
0.0
 10
314.6354830119034
 20
139.9051890056098
 30
0.0
 10
314.6770049352583
 20
139.9239701617264
 30
0.0
 10
314.7236114823728
 20
139.9534598434304
 30
0.0
 10
314.7503941171603
 20
139.9778743189397
 30
0.0
 10
314.7698744856056
 20
140.0020809069882
 30
0.0
 10
314.7724379498471
 20
140.0176406749338
 30
0.0
 10
314.7741448984056
 20
140.0280015463813
 30
0.0
  0
LINE
  5
221
330
1F
100
AcDbEntity
  8
0
  6
Continuous
 62
     7
370
    25
100
AcDbLine
 10
314.6119904623
 20
139.8119198079
 30
0.0
 11
314.6146726713
 21
139.8957760925
 31
0.0
  0
SPLINE
  5
222
330
1F
100
AcDbEntity
  8
0
  6
Continuous
 62
     7
370
    25
100
AcDbSpline
210
0.0
220
0.0
230
1.0
 70
     8
 71
     3
 72
    15
 73
    11
 74
     0
 42
0.000000001
 43
0.00000001
 40
0.0
 40
0.0
 40
0.0
 40
0.0
 40
0.0731695230538488
 40
0.146313343925051
 40
0.2922975037815553
 40
0.438318603422641
 40
0.5844481274736402
 40
0.7305129149647227
 40
0.8766424514549235
 40
1.0
 40
1.0
 40
1.0
 40
1.0
 10
314.6180701360612
 20
140.1440294380172
 30
0.0
 10
314.6296193812895
 20
140.1480700042074
 30
0.0
 10
314.6527138148548
 20
140.1561497172623
 30
0.0
 10
314.6984733653909
 20
140.1690802281592
 30
0.0
 10
314.7541870346882
 20
140.1803557907458
 30
0.0
 10
314.8142137394081
 20
140.1837548304277
 30
0.0
 10
314.8660221498539
 20
140.178890083285
 30
0.0
 10
314.9065561998667
 20
140.16580976454
 30
0.0
 10
314.9373883276177
 20
140.1480422585158
 30
0.0
 10
314.9415478658194
 20
140.1297060198328
 30
0.0
 10
314.9434518918901
 20
140.1213126177772
 30
0.0
  0
SPLINE
  5
223
330
1F
100
AcDbEntity
  8
0
  6
Continuous
 62
     7
370
    25
100
AcDbSpline
210
0.0
220
0.0
230
1.0
 70
     8
 71
     3
 72
    11
 73
     7
 74
     0
 42
0.000000001
 43
0.00000001
 40
0.0
 40
0.0
 40
0.0
 40
0.0
 40
0.2502313956330647
 40
0.500083444811629
 40
0.7498904654810433
 40
1.0
 40
1.0
 40
1.0
 40
1.0
 10
314.3565845594316
 20
139.9495096797928
 30
0.0
 10
314.3668061947997
 20
139.9668532939103
 30
0.0
 10
314.3872339697141
 20
140.0015142295274
 30
0.0
 10
314.448754395602
 20
140.0570385170445
 30
0.0
 10
314.5283588457299
 20
140.1080502100201
 30
0.0
 10
314.5881543113003
 20
140.1320315247577
 30
0.0
 10
314.6180701360612
 20
140.1440294380172
 30
0.0
  0
SPLINE
  5
224
330
1F
100
AcDbEntity
  8
0
  6
Continuous
 62
     7
370
    25
100
AcDbSpline
210
0.0
220
0.0
230
1.0
 70
     8
 71
     3
 72
    12
 73
     8
 74
     0
 42
0.000000001
 43
0.00000001
 40
0.0
 40
0.0
 40
0.0
 40
0.0
 40
0.1252478110392674
 40
0.2504732783860392
 40
0.5000694414478771
 40
0.7498675179048233
 40
1.0
 40
1.0
 40
1.0
 40
1.0
 10
314.1356599435716
 20
139.9423049683555
 30
0.0
 10
314.1473172442388
 20
139.9462544607862
 30
0.0
 10
314.1706297659588
 20
139.9541527410745
 30
0.0
 10
314.2163492867431
 20
139.9654435166624
 30
0.0
 10
314.2694756264345
 20
139.9715699900541
 30
0.0
 10
314.3218494115769
 20
139.9665385648958
 30
0.0
 10
314.3450010147454
 20
139.9551885055278
 30
0.0
 10
314.3565845594316
 20
139.9495096797928
 30
0.0
  0
SPLINE
  5
225
330
1F
100
AcDbEntity
  8
0
  6
Continuous
 62
     7
370
    25
100
AcDbSpline
210
0.0
220
0.0
230
1.0
 70
     8
 71
     3
 72
    13
 73
     9
 74
     0
 42
0.000000001
 43
0.00000001
 40
0.0
 40
0.0
 40
0.0
 40
0.0
 40
0.2497372162457651
 40
0.4990862831920205
 40
0.6243846036863704
 40
0.7495606039164545
 40
0.8747365110690588
 40
1.0
 40
1.0
 40
1.0
 40
1.0
 10
313.8638925657182
 20
139.6990584130272
 30
0.0
 10
313.8669111545383
 20
139.7177743256435
 30
0.0
 10
313.8729436405946
 20
139.7551770620265
 30
0.0
 10
313.9235450525182
 20
139.8136582460286
 30
0.0
 10
313.977610722805
 20
139.8587272896591
 30
0.0
 10
314.0253547320208
 20
139.8910870760361
 30
0.0
 10
314.0790373820501
 20
139.9201058848876
 30
0.0
 10
314.1167813565518
 20
139.9349035488903
 30
0.0
 10
314.1356599435716
 20
139.9423049683555
 30
0.0
  0
LINE
  5
226
330
1F
100
AcDbEntity
  8
0
  6
Continuous
 62
     7
370
    25
100
AcDbLine
 10
313.8753962622
 20
139.6743373866
 30
0.0
 11
313.8638925657
 21
139.699058413
 31
0.0
  0
LINE
  5
227
330
1F
100
AcDbEntity
  8
0
  6
Continuous
 62
     7
370
    25
100
AcDbLine
 10
314.9250340567
 20
154.1380079384
 30
0.0
 11
314.9136197672
 21
154.1420983071
 31
0.0
  0
SPLINE
  5
228
330
1F
100
AcDbEntity
  8
0
  6
Continuous
 62
     7
370
    25
100
AcDbSpline
210
0.0
220
0.0
230
1.0
 70
     8
 71
     3
 72
    16
 73
    12
 74
     0
 42
0.000000001
 43
0.00000001
 40
0.0
 40
0.0
 40
0.0
 40
0.0
 40
0.0008325593789918
 40
0.1257140400287938
 40
0.2506652750518064
 40
0.3755320692120235
 40
0.5004002565697256
 40
0.6252776682447577
 40
0.7501428381864954
 40
0.8750080827494267
 40
1.0
 40
1.0
 40
1.0
 40
1.0
 10
313.7647402391344
 20
154.6020971531852
 30
0.0
 10
313.7646502750387
 20
154.6021396574266
 30
0.0
 10
313.7510659587596
 20
154.6085576740176
 30
0.0
 10
313.7999641028853
 20
154.5825824016516
 30
0.0
 10
313.9178771486756
 20
154.5248478297485
 30
0.0
 10
314.1097008609071
 20
154.4366949998679
 30
0.0
 10
314.3352957235714
 20
154.3416685603556
 30
0.0
 10
314.5649169259867
 20
154.2541003661209
 30
0.0
 10
314.7600781630904
 20
154.1870369984736
 30
0.0
 10
314.8978808000149
 20
154.1443886958312
 30
0.0
 10
314.9159799124761
 20
154.1401355762821
 30
0.0
 10
314.9250340566545
 20
154.1380079383835
 30
0.0
  0
LINE
  5
229
330
1F
100
AcDbEntity
  8
0
  6
Continuous
 62
     7
370
    25
100
AcDbLine
 10
314.2244708643
 20
144.8215635414
 30
0.0
 11
314.2218184576
 21
144.6209641094
 31
0.0
  0
SPLINE
  5
22A
330
1F
100
AcDbEntity
  8
0
  6
Continuous
 62
     7
370
    25
100
AcDbSpline
210
0.0
220
0.0
230
1.0
 70
     8
 71
     3
 72
    13
 73
     9
 74
     0
 42
0.000000001
 43
0.00000001
 40
0.0
 40
0.0
 40
0.0
 40
0.0
 40
0.2498445804749383
 40
0.375053344662811
 40
0.50021614672664
 40
0.6259715443217597
 40
0.7505740059839383
 40
1.0
 40
1.0
 40
1.0
 40
1.0
 10
314.2218184575945
 20
144.6209641094192
 30
0.0
 10
314.1745341350104
 20
144.6220057533586
 30
0.0
 10
314.1035534345224
 20
144.6235694136257
 30
0.0
 10
314.0180924373846
 20
144.6585847132313
 30
0.0
 10
313.9622769756848
 20
144.6991106925119
 30
0.0
 10
313.9170944603834
 20
144.7518910609987
 30
0.0
 10
313.873347510347
 20
144.8361982978072
 30
0.0
 10
313.8674964212963
 20
144.9104275086471
 30
0.0
 10
313.8635945424944
 20
144.9599282736763
 30
0.0
  0
SPLINE
  5
22B
330
1F
100
AcDbEntity
  8
0
  6
Continuous
 62
     7
370
    25
100
AcDbSpline
210
0.0
220
0.0
230
1.0
 70
     8
 71
     3
 72
    12
 73
     8
 74
     0
 42
0.000000001
 43
0.00000001
 40
0.0
 40
0.0
 40
0.0
 40
0.0
 40
0.2500727388391963
 40
0.3754846412052944
 40
0.5008918918258236
 40
0.7505688355147828
 40
0.9999999999999999
 40
0.9999999999999999
 40
0.9999999999999999
 40
0.9999999999999999
 10
313.8635945424944
 20
144.9599357242569
 30
0.0
 10
313.8667981249933
 20
145.0041532948545
 30
0.0
 10
313.8716083095451
 20
145.0705460520495
 30
0.0
 10
313.9081870529088
 20
145.1534363295397
 30
0.0
 10
313.9579889902593
 20
145.2276791730651
 30
0.0
 10
314.0447960301974
 20
145.3023689491553
 30
0.0
 10
314.1274789994894
 20
145.32229701272
 30
0.0
 10
314.1688001260667
 20
145.3322561378463
 30
0.0
  0
SPLINE
  5
22C
330
1F
100
AcDbEntity
  8
0
  6
Continuous
 62
     7
370
    25
100
AcDbSpline
210
0.0
220
0.0
230
1.0
 70
     8
 71
     3
 72
    10
 73
     6
 74
     0
 42
0.000000001
 43
0.00000001
 40
0.0
 40
0.0
 40
0.0
 40
0.0
 40
0.2494278989850726
 40
0.4995802559561031
 40
0.9999999999999999
 40
0.9999999999999999
 40
0.9999999999999999
 40
0.9999999999999999
 10
314.1688001260667
 20
145.3322561378463
 30
0.0
 10
314.212592700313
 20
145.3308113687048
 30
0.0
 10
314.3003050433988
 20
145.3279176341208
 30
0.0
 10
314.460248852363
 20
145.2566578418154
 30
0.0
 10
314.5582287957597
 20
145.1719143983161
 30
0.0
 10
314.6235537633806
 20
145.1154144401535
 30
0.0
  0
LINE
  5
22D
330
1F
100
AcDbEntity
  8
0
  6
Continuous
 62
     7
370
    25
100
AcDbLine
 10
314.6235537634
 20
145.1154144402
 30
0.0
 11
314.7466671572
 21
145.0043262835
 31
0.0
  0
LINE
  5
22E
330
1F
100
AcDbEntity
  8
0
  6
Continuous
 62
     7
370
    25
100
AcDbLine
 10
314.7466671572
 20
145.0043262835
 30
0.0
 11
314.7434485063
 21
145.3944088812
 31
0.0
  0
LINE
  5
22F
330
1F
100
AcDbEntity
  8
0
  6
Continuous
 62
     7
370
    25
100
AcDbLine
 10
314.7434485063
 20
145.3944088812
 30
0.0
 11
314.9266135797
 21
145.4114409084
 31
0.0
  0
LINE
  5
230
330
1F
100
AcDbEntity
  8
0
  6
Continuous
 62
     7
370
    25
100
AcDbLine
 10
314.9266135797
 20
145.4114409084
 30
0.0
 11
314.925987731
 21
144.6568610067
 31
0.0
  0
LINE
  5
231
330
1F
100
AcDbEntity
  8
0
  6
Continuous
 62
     7
370
    25
100
AcDbLine
 10
314.925987731
 20
144.6568610067
 30
0.0
 11
314.8312759504
 21
144.6481289263
 31
0.0
  0
LINE
  5
232
330
1F
100
AcDbEntity
  8
0
  6
Continuous
 62
     7
370
    25
100
AcDbLine
 10
314.8312759504
 20
144.6481289263
 30
0.0
 11
314.5070564852
 21
144.9524627919
 31
0.0
  0
SPLINE
  5
233
330
1F
100
AcDbEntity
  8
0
  6
Continuous
 62
     7
370
    25
100
AcDbSpline
210
0.0
220
0.0
230
1.0
 70
     8
 71
     3
 72
    10
 73
     6
 74
     0
 42
0.000000001
 43
0.00000001
 40
0.0
 40
0.0
 40
0.0
 40
0.0
 40
0.500829158348587
 40
0.7508907091791499
 40
0.9999999999999999
 40
0.9999999999999999
 40
0.9999999999999999
 40
0.9999999999999999
 10
314.5070564851671
 20
144.9524627919182
 30
0.0
 10
314.461215540087
 20
144.9945004504291
 30
0.0
 10
314.392486435188
 20
145.0575273063647
 30
0.0
 10
314.2821762075228
 20
145.1195919483955
 30
0.0
 10
314.2187111436665
 20
145.1240716240572
 30
0.0
 10
314.187039147368
 20
145.1263071889862
 30
0.0
  0
SPLINE
  5
234
330
1F
100
AcDbEntity
  8
0
  6
Continuous
 62
     7
370
    25
100
AcDbSpline
210
0.0
220
0.0
230
1.0
 70
     8
 71
     3
 72
    14
 73
    10
 74
     0
 42
0.000000001
 43
0.00000001
 40
0.0
 40
0.0
 40
0.0
 40
0.0
 40
0.2492233692823755
 40
0.3735453426248417
 40
0.4993854945003529
 40
0.6238373861859918
 40
0.7495797703915401
 40
0.874706361275959
 40
1.0
 40
1.0
 40
1.0
 40
1.0
 10
314.187039147368
 20
145.1263071889862
 30
0.0
 10
314.1683546949956
 20
145.122840419558
 30
0.0
 10
314.1403497362981
 20
145.1176442953841
 30
0.0
 10
314.1074608051616
 20
145.0957033450951
 30
0.0
 10
314.0861955850084
 20
145.0748002663247
 30
0.0
 10
314.0689932330648
 20
145.0499007133229
 30
0.0
 10
314.0568796358234
 20
145.022276419377
 30
0.0
 10
314.049914143294
 20
144.9930274153684
 30
0.0
 10
314.0492219222037
 20
144.9734591330186
 30
0.0
 10
314.0488755807787
 20
144.9636684651359
 30
0.0
  0
SPLINE
  5
235
330
1F
100
AcDbEntity
  8
0
  6
Continuous
 62
     7
370
    25
100
AcDbSpline
210
0.0
220
0.0
230
1.0
 70
     8
 71
     3
 72
    13
 73
     9
 74
     0
 42
0.000000001
 43
0.00000001
 40
0.0
 40
0.0
 40
0.0
 40
0.0
 40
0.1251871756303506
 40
0.2503262603202742
 40
0.3721745008362423
 40
0.5006007786786819
 40
0.7498363240994179
 40
1.0
 40
1.0
 40
1.0
 40
1.0
 10
314.0488755807787
 20
144.9636684651359
 30
0.0
 10
314.0494226980883
 20
144.9523802298373
 30
0.0
 10
314.0505167225314
 20
144.9298080956416
 30
0.0
 10
314.0615199139431
 20
144.8988285280643
 30
0.0
 10
314.0790529884177
 20
144.8717894794955
 30
0.0
 10
314.1103423251093
 20
144.8435413491949
 30
0.0
 10
314.1597124644564
 20
144.8214486460279
 30
0.0
 10
314.2028580024349
 20
144.8215251955276
 30
0.0
 10
314.224470864287
 20
144.8215635414108
 30
0.0
  0
LINE
  5
236
330
1F
100
AcDbEntity
  8
0
  6
Continuous
 62
     7
370
    25
100
AcDbLine
 10
314.1688001261
 20
145.3322561378
 30
0.0
 11
314.1678464518
 21
145.3326882715
 31
0.0
  0
SPLINE
  5
237
330
1F
100
AcDbEntity
  8
0
  6
Continuous
 62
     7
370
    25
100
AcDbSpline
210
0.0
220
0.0
230
1.0
 70
     8
 71
     3
 72
     9
 73
     5
 74
     0
 42
0.000000001
 43
0.00000001
 40
0.0
 40
0.0
 40
0.0
 40
0.0
 40
0.4999787783611662
 40
1.0
 40
1.0
 40
1.0
 40
1.0
 10
313.8635945424944
 20
144.9599357242569
 30
0.0
 10
313.8634355934021
 20
144.9600257539239
 30
0.0
 10
313.8631176817245
 20
144.9602058209006
 30
0.0
 10
313.8627998105239
 20
144.9603784148445
 30
0.0
 10
313.8626408681779
 20
144.9604647154792
 30
0.0
  0
SPLINE
  5
238
330
1F
100
AcDbEntity
  8
0
  6
Continuous
 62
     7
370
    25
100
AcDbSpline
210
0.0
220
0.0
230
1.0
 70
     8
 71
     3
 72
     9
 73
     5
 74
     0
 42
0.000000001
 43
0.00000001
 40
0.0
 40
0.0
 40
0.0
 40
0.0
 40
0.5025547990629506
 40
1.0
 40
1.0
 40
1.0
 40
1.0
 10
314.224470864287
 20
144.8215635414108
 30
0.0
 10
314.2243098069559
 20
144.8216632565463
 30
0.0
 10
314.2239893298034
 20
144.8218616729889
 30
0.0
 10
314.2236939350135
 20
144.8220556462234
 30
0.0
 10
314.2235469922929
 20
144.822152137278
 30
0.0
  0
LINE
  5
239
330
1F
100
AcDbEntity
  8
0
  6
Continuous
 62
     7
370
    25
100
AcDbLine
 10
314.8312759504
 20
144.6481289263
 30
0.0
 11
314.8303520784
 21
144.6487845774
 31
0.0
  0
LINE
  5
23A
330
1F
100
AcDbEntity
  8
0
  6
Continuous
 62
     7
370
    25
100
AcDbLine
 10
314.9266135797
 20
145.4114409084
 30
0.0
 11
314.9256897077
 21
145.4118581409
 31
0.0
  0
LINE
  5
23B
330
1F
100
AcDbEntity
  8
0
  6
Continuous
 62
     7
370
    25
100
AcDbLine
 10
314.7434485063
 20
145.3944088812
 30
0.0
 11
314.7425246344
 21
145.3948261137
 31
0.0
  0
LINE
  5
23C
330
1F
100
AcDbEntity
  8
0
  6
Continuous
 62
     7
370
    25
100
AcDbLine
 10
315.5676019297
 20
152.1857621069
 30
0.0
 11
315.5676019297
 21
141.2534581418
 31
0.0
  0
LINE
  5
23D
330
1F
100
AcDbEntity
  8
0
  6
Continuous
 62
     7
370
    25
100
AcDbLine
 10
313.8945889578
 20
151.5147032137
 30
0.0
 11
313.8947677717
 21
151.7625467772
 31
0.0
  0
LINE
  5
23E
330
1F
100
AcDbEntity
  8
0
  6
Continuous
 62
     7
370
    25
100
AcDbLine
 10
313.8947677717
 20
151.7625467772
 30
0.0
 11
314.9306666956
 21
151.5023054476
 31
0.0
  0
LINE
  5
23F
330
1F
100
AcDbEntity
  8
0
  6
Continuous
 62
     7
370
    25
100
AcDbLine
 10
314.9306666956
 20
151.5023054476
 30
0.0
 11
314.9309349165
 21
151.3388248081
 31
0.0
  0
LINE
  5
240
330
1F
100
AcDbEntity
  8
0
  6
Continuous
 62
     7
370
    25
100
AcDbLine
 10
314.9309349165
 20
151.3388248081
 30
0.0
 11
314.0801978216
 21
151.5526490207
 31
0.0
  0
LINE
  5
241
330
1F
100
AcDbEntity
  8
0
  6
Continuous
 62
     7
370
    25
100
AcDbLine
 10
314.0801978216
 20
151.5526490207
 30
0.0
 11
314.0783500776
 21
151.3707952495
 31
0.0
  0
LINE
  5
242
330
1F
100
AcDbEntity
  8
0
  6
Continuous
 62
     7
370
    25
100
AcDbLine
 10
314.0783500776
 20
151.3707952495
 30
0.0
 11
313.8945889578
 21
151.5147032137
 31
0.0
  0
LINE
  5
243
330
1F
100
AcDbEntity
  8
0
  6
Continuous
 62
     7
370
    25
100
AcDbLine
 10
313.8945889578
 20
151.5147032137
 30
0.0
 11
313.8936650858
 21
151.5132801528
 31
0.0
  0
LINE
  5
244
330
1F
100
AcDbEntity
  8
0
  6
Continuous
 62
     7
370
    25
100
AcDbLine
 10
314.0783500776
 20
151.3707952495
 30
0.0
 11
314.0774262056
 21
151.3694019909
 31
0.0
  0
LINE
  5
245
330
1F
100
AcDbEntity
  8
0
  6
Continuous
 62
     7
370
    25
100
AcDbLine
 10
313.8947677717
 20
151.7625467772
 30
0.0
 11
313.8938438997
 21
151.7610566611
 31
0.0
  0
LINE
  5
246
330
1F
100
AcDbEntity
  8
0
  6
Continuous
 62
     7
370
    25
100
AcDbLine
 10
314.9309349165
 20
151.3388248081
 30
0.0
 11
314.9300110445
 21
151.3373793955
 31
0.0
  0
SPLINE
  5
247
330
1F
100
AcDbEntity
  8
0
  6
Continuous
 62
     7
370
    25
100
AcDbSpline
210
0.0
220
0.0
230
1.0
 70
     8
 71
     3
 72
    12
 73
     8
 74
     0
 42
0.000000001
 43
0.00000001
 40
0.0
 40
0.0
 40
0.0
 40
0.0
 40
0.0304837236696081
 40
0.0888065904319279
 40
0.3925514495688502
 40
0.696276783519285
 40
1.0
 40
1.0
 40
1.0
 40
1.0
 10
315.6817746267229
 20
152.4013521070465
 30
0.0
 10
315.6818281861017
 20
152.4039962915221
 30
0.0
 10
315.6819842177558
 20
152.4116994517495
 30
0.0
 10
315.681118217247
 20
152.4461160559699
 30
0.0
 10
315.6687901235944
 20
152.5060034964486
 30
0.0
 10
315.6304084014916
 20
152.5833019151294
 30
0.0
 10
315.5907030095588
 20
152.6212756321449
 30
0.0
 10
315.5708503827959
 20
152.6402624244674
 30
0.0
  0
SPLINE
  5
248
330
1F
100
AcDbEntity
  8
0
  6
Continuous
 62
     7
370
    25
100
AcDbSpline
210
0.0
220
0.0
230
1.0
 70
     8
 71
     3
 72
    11
 73
     7
 74
     0
 42
0.000000001
 43
0.00000001
 40
0.0
 40
0.0
 40
0.0
 40
0.0
 40
0.3706351386136004
 40
0.745371238995054
 40
0.9443893240383915
 40
1.0
 40
1.0
 40
1.0
 40
1.0
 10
315.5676019296556
 20
152.6472659702285
 30
0.0
 10
315.5676323945709
 20
152.6464660914754
 30
0.0
 10
315.567693661486
 20
152.6448574835613
 30
0.0
 10
315.5686773888575
 20
152.6425549329752
 30
0.0
 10
315.5700052014006
 20
152.6409784379905
 30
0.0
 10
315.570698883331
 20
152.6403907704843
 30
0.0
 10
315.5708503827959
 20
152.6402624244674
 30
0.0
  0
SPLINE
  5
249
330
1F
100
AcDbEntity
  8
0
  6
Continuous
 62
     7
370
    25
100
AcDbSpline
210
0.0
220
0.0
230
1.0
 70
     8
 71
     3
 72
    12
 73
     8
 74
     0
 42
0.000000001
 43
0.00000001
 40
0.0
 40
0.0
 40
0.0
 40
0.0
 40
0.0304765095699836
 40
0.0888237988491806
 40
0.3925691354217031
 40
0.6962881393840553
 40
1.0
 40
1.0
 40
1.0
 40
1.0
 10
315.6817746267229
 20
141.043701946257
 30
0.0
 10
315.6818281716833
 20
141.0410427213419
 30
0.0
 10
315.681984228491
 20
141.0332924093055
 30
0.0
 10
315.6811187521578
 20
140.9986878993581
 30
0.0
 10
315.668790404598
 20
140.9385968261559
 30
0.0
 10
315.6304088756395
 20
140.861290803584
 30
0.0
 10
315.5907030580978
 20
140.8235500333364
 30
0.0
 10
315.5708503827959
 20
140.8046798701271
 30
0.0
  0
SPLINE
  5
24A
330
1F
100
AcDbEntity
  8
0
  6
Continuous
 62
     7
370
    25
100
AcDbSpline
210
0.0
220
0.0
230
1.0
 70
     8
 71
     3
 72
    10
 73
     6
 74
     0
 42
0.000000001
 43
0.00000001
 40
0.0
 40
0.0
 40
0.0
 40
0.0
 40
0.210992864595435
 40
0.4876913816907049
 40
1.0
 40
1.0
 40
1.0
 40
1.0
 10
315.5708503827959
 20
140.8046798701271
 30
0.0
 10
315.5703163849597
 20
140.8041777401951
 30
0.0
 10
315.5690820960988
 20
140.8030171111815
 30
0.0
 10
315.5677768238672
 20
140.8005706832211
 30
0.0
 10
315.5676707829002
 20
140.7988925860786
 30
0.0
 10
315.5676019296556
 20
140.7978029842361
 30
0.0
  0
LINE
  5
24B
330
1F
100
AcDbEntity
  8
0
  6
Continuous
 62
     7
370
    25
100
AcDbLine
 10
315.7347929583
 20
153.8059951658
 30
0.0
 11
320.0832200155
 21
151.8383862371
 31
0.0
  0
SPLINE
  5
24C
330
1F
100
AcDbEntity
  8
0
  6
Continuous
 62
     7
370
    25
100
AcDbSpline
210
0.0
220
0.0
230
1.0
 70
     8
 71
     3
 72
    12
 73
     8
 74
     0
 42
0.000000001
 43
0.00000001
 40
0.0
 40
0.0
 40
0.0
 40
0.0
 40
0.2238945090222023
 40
0.4477417330924692
 40
0.6715236426277428
 40
0.8953924811249339
 40
1.0
 40
1.0
 40
1.0
 40
1.0
 10
315.6815660104662
 20
153.8297103638633
 30
0.0
 10
315.6822014938961
 20
153.8294785320753
 30
0.0
 10
315.6834723265462
 20
153.8290149174606
 30
0.0
 10
315.6932488209169
 20
153.8246707044181
 30
0.0
 10
315.7076656188602
 20
153.8182022754389
 30
0.0
 10
315.7225097404182
 20
153.8115023385462
 30
0.0
 10
315.7318260573527
 20
153.8073253739104
 30
0.0
 10
315.7347929582506
 20
153.8059951658233
 30
0.0
  0
ELLIPSE
  5
24D
330
1F
100
AcDbEntity
  8
0
  6
Continuous
 62
     7
370
    25
100
AcDbEllipse
 10
311.6901471932
 20
144.9601526572
 30
0.0
 11
3.991335993818325
 21
8.869826867053121
 31
0.0
210
0.0
220
0.0
230
1.0
 40
0.0031204507
 41
6.275800656469397
 42
6.276701211229249
  0
SPLINE
  5
24E
330
1F
100
AcDbEntity
  8
0
  6
Continuous
 62
     7
370
    25
100
AcDbSpline
210
0.0
220
0.0
230
1.0
 70
     8
 71
     3
 72
    12
 73
     8
 74
     0
 42
0.000000001
 43
0.00000001
 40
0.0
 40
0.0
 40
0.0
 40
0.0
 40
0.2240843616699395
 40
0.4478857342133818
 40
0.671759517364497
 40
0.8955875829782327
 40
1.0
 40
1.0
 40
1.0
 40
1.0
 10
315.7347929582506
 20
153.8048626775726
 30
0.0
 10
315.7284337608137
 20
153.8077394700276
 30
0.0
 10
315.7157233967715
 20
153.8134894219265
 30
0.0
 10
315.6993629608189
 20
153.8210710775292
 30
0.0
 10
315.687440121358
 20
153.8266668543956
 30
0.0
 10
315.6821824446456
 20
153.829262981795
 30
0.0
 10
315.6817147749438
 20
153.8295515241036
 30
0.0
 10
315.6815660104662
 20
153.829643308638
 30
0.0
  0
LINE
  5
24F
330
1F
100
AcDbEntity
  8
0
  6
Continuous
 62
     7
370
    25
100
AcDbLine
 10
315.7347929583
 20
153.8048626776
 30
0.0
 11
320.0832200155
 21
151.8320010896
 31
0.0
  0
LINE
  5
250
330
1F
100
AcDbEntity
  8
0
  6
Continuous
 62
     7
370
    25
100
AcDbLine
 10
320.0832200155
 20
151.8320010896
 30
0.0
 11
320.4201948748
 21
151.6799421902
 31
0.0
  0
LINE
  5
251
330
1F
100
AcDbEntity
  8
0
  6
Continuous
 62
     7
370
    25
100
AcDbLine
 10
314.1469848261
 20
139.7399993534
 30
0.0
 11
314.1448688612
 21
139.6575586791
 31
0.0
  0
SPLINE
  5
252
330
1F
100
AcDbEntity
  8
0
  6
Continuous
 62
     7
370
    25
100
AcDbSpline
210
0.0
220
0.0
230
1.0
 70
     8
 71
     3
 72
     9
 73
     5
 74
     0
 42
0.000000001
 43
0.00000001
 40
0.0
 40
0.0
 40
0.0
 40
0.0
 40
0.5005376649498409
 40
0.9999999999999999
 40
0.9999999999999999
 40
0.9999999999999999
 40
0.9999999999999999
 10
314.1448688611894
 20
139.6575586791023
 30
0.0
 10
314.1106921228392
 20
139.647738394518
 30
0.0
 10
314.0424120697213
 20
139.6281189227539
 30
0.0
 10
313.9880903718151
 20
139.6266448543657
 30
0.0
 10
313.960958729735
 20
139.6259086127266
 30
0.0
  0
SPLINE
  5
253
330
1F
100
AcDbEntity
  8
0
  6
Continuous
 62
     7
370
    25
100
AcDbSpline
210
0.0
220
0.0
230
1.0
 70
     8
 71
     3
 72
     9
 73
     5
 74
     0
 42
0.000000001
 43
0.00000001
 40
0.0
 40
0.0
 40
0.0
 40
0.0
 40
0.4996528673493537
 40
1.0
 40
1.0
 40
1.0
 40
1.0
 10
313.960958729735
 20
139.6259086127266
 30
0.0
 10
313.9325374278927
 20
139.6304888743444
 30
0.0
 10
313.8756553329434
 20
139.6396557618318
 30
0.0
 10
313.8684310746399
 20
139.6778529475367
 30
0.0
 10
313.8648164377122
 20
139.6969647998794
 30
0.0
  0
SPLINE
  5
254
330
1F
100
AcDbEntity
  8
0
  6
Continuous
 62
     7
370
    25
100
AcDbSpline
210
0.0
220
0.0
230
1.0
 70
     8
 71
     3
 72
    14
 73
    10
 74
     0
 42
0.000000001
 43
0.00000001
 40
0.0
 40
0.0
 40
0.0
 40
0.0
 40
0.2497188507272218
 40
0.4990511196535146
 40
0.6243197097750744
 40
0.7494691242304384
 40
0.8746050039822608
 40
0.937307576231452
 40
1.0
 40
1.0
 40
1.0
 40
1.0
 10
313.8648164377122
 20
139.6969647998794
 30
0.0
 10
313.8678356685705
 20
139.7156802450238
 30
0.0
 10
313.8738694563117
 20
139.753082162528
 30
0.0
 10
313.9244614446367
 20
139.8116046686083
 30
0.0
 10
313.9785378762151
 20
139.8566422144602
 30
0.0
 10
314.0262677920832
 20
139.8891037830319
 30
0.0
 10
314.0710445437383
 20
139.9130042348706
 30
0.0
 10
314.10826801499
 20
139.9295332498828
 30
0.0
 10
314.1271457246447
 20
139.9366770147547
 30
0.0
 10
314.1365838155656
 20
139.9402486081108
 30
0.0
  0
SPLINE
  5
255
330
1F
100
AcDbEntity
  8
0
  6
Continuous
 62
     7
370
    25
100
AcDbSpline
210
0.0
220
0.0
230
1.0
 70
     8
 71
     3
 72
    11
 73
     7
 74
     0
 42
0.000000001
 43
0.00000001
 40
0.0
 40
0.0
 40
0.0
 40
0.0
 40
0.2499341736734594
 40
0.4996726427736944
 40
0.7496321402155336
 40
1.0
 40
1.0
 40
1.0
 40
1.0
 10
314.1365838155656
 20
139.9402486081108
 30
0.0
 10
314.1599557047848
 20
139.9477193195386
 30
0.0
 10
314.2066811824622
 20
139.9626548926445
 30
0.0
 10
314.2704027456734
 20
139.9693759945304
 30
0.0
 10
314.322772852377
 20
139.9644979897553
 30
0.0
 10
314.3459434694133
 20
139.9531230698224
 30
0.0
 10
314.357538233748
 20
139.9474309678062
 30
0.0
  0
SPLINE
  5
256
330
1F
100
AcDbEntity
  8
0
  6
Continuous
 62
     7
370
    25
100
AcDbSpline
210
0.0
220
0.0
230
1.0
 70
     8
 71
     3
 72
    11
 73
     7
 74
     0
 42
0.000000001
 43
0.00000001
 40
0.0
 40
0.0
 40
0.0
 40
0.0
 40
0.2502450627455886
 40
0.5001087121765178
 40
0.7499090081406636
 40
1.0
 40
1.0
 40
1.0
 40
1.0
 10
314.357538233748
 20
139.9474309678062
 30
0.0
 10
314.3677473415945
 20
139.9647802520855
 30
0.0
 10
314.3881499969817
 20
139.9994523775729
 30
0.0
 10
314.4496775110485
 20
140.0549793503817
 30
0.0
 10
314.5292800883104
 20
140.1060004973816
 30
0.0
 10
314.5890777769918
 20
140.1299875021228
 30
0.0
 10
314.6189940080553
 20
140.1419879789337
 30
0.0
  0
SPLINE
  5
257
330
1F
100
AcDbEntity
  8
0
  6
Continuous
 62
     7
370
    25
100
AcDbSpline
210
0.0
220
0.0
230
1.0
 70
     8
 71
     3
 72
    14
 73
    10
 74
     0
 42
0.000000001
 43
0.00000001
 40
0.0
 40
0.0
 40
0.0
 40
0.0
 40
0.1250929616498954
 40
0.2500750075436226
 40
0.375096190690112
 40
0.5002183611946466
 40
0.6253204291418231
 40
0.7504391809678945
 40
1.0
 40
1.0
 40
1.0
 40
1.0
 10
314.6189940080553
 20
140.1419879789337
 30
0.0
 10
314.6420992927115
 20
140.1497212670198
 30
0.0
 10
314.6882893753387
 20
140.1651809863435
 30
0.0
 10
314.7550964808782
 20
140.1781940958257
 30
0.0
 10
314.8151798154658
 20
140.1817554593441
 30
0.0
 10
314.8668061116512
 20
140.1767553536071
 30
0.0
 10
314.908024761539
 20
140.1639604697109
 30
0.0
 10
314.9480964014325
 20
140.1376259911316
 30
0.0
 10
314.953268784086
 20
140.1071515983952
 30
0.0
 10
314.9567139253526
 20
140.0868536825164
 30
0.0
  0
SPLINE
  5
258
330
1F
100
AcDbEntity
  8
0
  6
Continuous
 62
     7
370
    25
100
AcDbSpline
210
0.0
220
0.0
230
1.0
 70
     8
 71
     3
 72
    13
 73
     9
 74
     0
 42
0.000000001
 43
0.00000001
 40
0.0
 40
0.0
 40
0.0
 40
0.0
 40
0.2495867068755269
 40
0.3747535980796718
 40
0.4999217106386823
 40
0.6240421753473984
 40
0.7502295869315729
 40
1.0
 40
1.0
 40
1.0
 40
1.0
 10
314.9567139253526
 20
140.0868536825164
 30
0.0
 10
314.9531111031103
 20
140.0647890168796
 30
0.0
 10
314.9477014776721
 20
140.0316589958886
 30
0.0
 10
314.9061272112417
 20
139.9807951911122
 30
0.0
 10
314.8631118958456
 20
139.9422470981774
 30
0.0
 10
314.8094388633905
 20
139.9044950043044
 30
0.0
 10
314.7272556385822
 20
139.8570524141837
 30
0.0
 10
314.6585556735832
 20
139.8286460336218
 30
0.0
 10
314.6129143342882
 20
139.8097740406974
 30
0.0
  0
LINE
  5
259
330
1F
100
AcDbEntity
  8
0
  6
Continuous
 62
     7
370
    25
100
AcDbLine
 10
314.6129143343
 20
139.8097740407
 30
0.0
 11
314.6155965433
 21
139.8936526771
 31
0.0
  0
SPLINE
  5
25A
330
1F
100
AcDbEntity
  8
0
  6
Continuous
 62
     7
370
    25
100
AcDbSpline
210
0.0
220
0.0
230
1.0
 70
     8
 71
     3
 72
    12
 73
     8
 74
     0
 42
0.000000001
 43
0.00000001
 40
0.0
 40
0.0
 40
0.0
 40
0.0
 40
0.2504113659638051
 40
0.4996469830735482
 40
0.6248142996926218
 40
0.7501717959366955
 40
1.0
 40
1.0
 40
1.0
 40
1.0
 10
314.6155965433031
 20
139.8936526770576
 30
0.0
 10
314.6364072109455
 20
139.9030680875013
 30
0.0
 10
314.6779308345369
 20
139.921854700499
 30
0.0
 10
314.7245343881032
 20
139.9513513235175
 30
0.0
 10
314.7513199439145
 20
139.9757678067509
 30
0.0
 10
314.7707978968628
 20
139.9999712719681
 30
0.0
 10
314.7733616329135
 20
140.015536156207
 30
0.0
 10
314.7750687703996
 20
140.025900482653
 30
0.0
  0
SPLINE
  5
25B
330
1F
100
AcDbEntity
  8
0
  6
Continuous
 62
     7
370
    25
100
AcDbSpline
210
0.0
220
0.0
230
1.0
 70
     8
 71
     3
 72
    12
 73
     8
 74
     0
 42
0.000000001
 43
0.00000001
 40
0.0
 40
0.0
 40
0.0
 40
0.0
 40
0.2501576612273614
 40
0.499749528627061
 40
0.6262905094697604
 40
0.750596155989163
 40
1.0
 40
1.0
 40
1.0
 40
1.0
 10
314.7750687703996
 20
140.025900482653
 30
0.0
 10
314.7733061872386
 20
140.0348758426359
 30
0.0
 10
314.769785007437
 20
140.0528062625907
 30
0.0
 10
314.7402454084423
 20
140.0634284286633
 30
0.0
 10
314.709187609903
 20
140.0652067771125
 30
0.0
 10
314.6728304720006
 20
140.0620992695326
 30
0.0
 10
314.6417577080089
 20
140.0523825337857
 30
0.0
 10
314.6210205659776
 20
140.0458978409752
 30
0.0
  0
SPLINE
  5
25C
330
1F
100
AcDbEntity
  8
0
  6
Continuous
 62
     7
370
    25
100
AcDbSpline
210
0.0
220
0.0
230
1.0
 70
     8
 71
     3
 72
    13
 73
     9
 74
     0
 42
0.000000001
 43
0.00000001
 40
0.0
 40
0.0
 40
0.0
 40
0.0
 40
0.1244763023572563
 40
0.2497235521238955
 40
0.3738665372193387
 40
0.5000413800964579
 40
0.7495934619266909
 40
1.0
 40
1.0
 40
1.0
 40
1.0
 10
314.6210205659776
 20
140.0458978409752
 30
0.0
 10
314.6074458278068
 20
140.0404877765318
 30
0.0
 10
314.58021227595
 20
140.029634140262
 30
0.0
 10
314.5427585555501
 20
140.0075656904052
 30
0.0
 10
314.5118518519828
 20
139.9835109175173
 30
0.0
 10
314.4790594781647
 20
139.9509478803141
 30
0.0
 10
314.456410957505
 20
139.9119474192571
 30
0.0
 10
314.4535591471385
 20
139.8862899243653
 30
0.0
 10
314.4521308050066
 20
139.8734392518982
 30
0.0
  0
LINE
  5
25D
330
1F
100
AcDbEntity
  8
0
  6
Continuous
 62
     7
370
    25
100
AcDbLine
 10
314.452130805
 20
139.8734392519
 30
0.0
 11
314.282317172
 21
139.8120315666
 31
0.0
  0
SPLINE
  5
25E
330
1F
100
AcDbEntity
  8
0
  6
Continuous
 62
     7
370
    25
100
AcDbSpline
210
0.0
220
0.0
230
1.0
 70
     8
 71
     3
 72
    14
 73
    10
 74
     0
 42
0.000000001
 43
0.00000001
 40
0.0
 40
0.0
 40
0.0
 40
0.0
 40
0.250487945687194
 40
0.4998702432918884
 40
0.6270636783750727
 40
0.7499445912903392
 40
0.8747898577824981
 40
0.9374407827210544
 40
1.0
 40
1.0
 40
1.0
 40
1.0
 10
314.2823171720415
 20
139.8120315666183
 30
0.0
 10
314.2803528171622
 20
139.8205483634464
 30
0.0
 10
314.2764327780212
 20
139.8375443641554
 30
0.0
 10
314.2609056317215
 20
139.8551684521481
 30
0.0
 10
314.2359177518707
 20
139.8615975887288
 30
0.0
 10
314.211831510545
 20
139.862145108922
 30
0.0
 10
314.1885336663159
 20
139.8589660899899
 30
0.0
 10
314.1683743136291
 20
139.8537839664887
 30
0.0
 10
314.1581056594389
 20
139.8502768061678
 30
0.0
 10
314.1529750928789
 20
139.848524510382
 30
0.0
  0
SPLINE
  5
25F
330
1F
100
AcDbEntity
  8
0
  6
Continuous
 62
     7
370
    25
100
AcDbSpline
210
0.0
220
0.0
230
1.0
 70
     8
 71
     3
 72
    13
 73
     9
 74
     0
 42
0.000000001
 43
0.00000001
 40
0.0
 40
0.0
 40
0.0
 40
0.0
 40
0.2492449294920371
 40
0.3728082423648684
 40
0.4994986676368755
 40
0.6252067365994042
 40
0.7499940863195076
 40
1.0
 40
1.0
 40
1.0
 40
1.0
 10
314.1529750928789
 20
139.848524510382
 30
0.0
 10
314.1392828628196
 20
139.84294420627
 30
0.0
 10
314.1188027020684
 20
139.8345974632806
 30
0.0
 10
314.0951421031196
 20
139.8194149423973
 30
0.0
 10
314.0801950934185
 20
139.8074025791893
 30
0.0
 10
314.0682755475322
 20
139.795240843298
 30
0.0
 10
314.0571930303677
 20
139.7794929742562
 30
0.0
 10
314.0558506737613
 20
139.7695454119597
 30
0.0
 10
314.0549552545457
 20
139.7629098887428
 30
0.0
  0
SPLINE
  5
260
330
1F
100
AcDbEntity
  8
0
  6
Continuous
 62
     7
370
    25
100
AcDbSpline
210
0.0
220
0.0
230
1.0
 70
     8
 71
     3
 72
    12
 73
     8
 74
     0
 42
0.000000001
 43
0.00000001
 40
0.0
 40
0.0
 40
0.0
 40
0.0
 40
0.2498490056311903
 40
0.4997308939652536
 40
0.7495045000003038
 40
0.8747005449312549
 40
1.0
 40
1.0
 40
1.0
 40
1.0
 10
314.0549552545457
 20
139.7629098887428
 30
0.0
 10
314.0561645457896
 20
139.7569963298483
 30
0.0
 10
314.0585832874323
 20
139.7451684337743
 30
0.0
 10
314.079246491385
 20
139.7359722720164
 30
0.0
 10
314.1035991599131
 20
139.7336583044709
 30
0.0
 10
314.1274753870784
 20
139.7360397937613
 30
0.0
 10
314.140479890229
 20
139.7386791369987
 30
0.0
 10
314.1469848260789
 20
139.7399993534073
 30
0.0
  0
SPLINE
  5
261
330
1F
100
AcDbEntity
  8
0
  6
Continuous
 62
     7
370
    25
100
AcDbSpline
210
0.0
220
0.0
230
1.0
 70
     8
 71
     3
 72
     9
 73
     5
 74
     0
 42
0.000000001
 43
0.00000001
 40
0.0
 40
0.0
 40
0.0
 40
0.0
 40
0.4977973336448521
 40
1.0
 40
1.0
 40
1.0
 40
1.0
 10
314.1365838155656
 20
139.9402486081108
 30
0.0
 10
314.1364369295065
 20
139.9405920831087
 30
0.0
 10
314.1361418574979
 20
139.9412820727385
 30
0.0
 10
314.1358210526312
 20
139.9419630032413
 30
0.0
 10
314.1356599435716
 20
139.9423049683555
 30
0.0
  0
SPLINE
  5
262
330
1F
100
AcDbEntity
  8
0
  6
Continuous
 62
     7
370
    25
100
AcDbSpline
210
0.0
220
0.0
230
1.0
 70
     8
 71
     3
 72
     9
 73
     5
 74
     0
 42
0.000000001
 43
0.00000001
 40
0.0
 40
0.0
 40
0.0
 40
0.0
 40
0.4991896860898861
 40
1.0
 40
1.0
 40
1.0
 40
1.0
 10
313.8648164377122
 20
139.6969647998794
 30
0.0
 10
313.8646697772232
 20
139.6973158778723
 30
0.0
 10
313.8643759801093
 20
139.6980191736388
 30
0.0
 10
313.8640538778512
 20
139.6987116258286
 30
0.0
 10
313.8638925657182
 20
139.6990584130272
 30
0.0
  0
SPLINE
  5
263
330
1F
100
AcDbEntity
  8
0
  6
Continuous
 62
     7
370
    25
100
AcDbSpline
210
0.0
220
0.0
230
1.0
 70
     8
 71
     3
 72
     9
 73
     5
 74
     0
 42
0.000000001
 43
0.00000001
 40
0.0
 40
0.0
 40
0.0
 40
0.0
 40
0.5022099042284291
 40
1.0
 40
1.0
 40
1.0
 40
1.0
 10
314.6189940080553
 20
140.1419879789337
 30
0.0
 10
314.6188329000574
 20
140.1423274635333
 30
0.0
 10
314.6185121019282
 20
140.143003445024
 30
0.0
 10
314.6182170232865
 20
140.1436884495491
 30
0.0
 10
314.6180701360612
 20
140.1440294380172
 30
0.0
  0
SPLINE
  5
264
330
1F
100
AcDbEntity
  8
0
  6
Continuous
 62
     7
370
    25
100
AcDbSpline
210
0.0
220
0.0
230
1.0
 70
     8
 71
     3
 72
     9
 73
     5
 74
     0
 42
0.000000001
 43
0.00000001
 40
0.0
 40
0.0
 40
0.0
 40
0.0
 40
0.5010746166238953
 40
1.0
 40
1.0
 40
1.0
 40
1.0
 10
314.357538233748
 20
139.9474309678062
 30
0.0
 10
314.3573794595701
 20
139.9477789112169
 30
0.0
 10
314.357062592236
 20
139.9484733056226
 30
0.0
 10
314.356743675224
 20
139.9491647170709
 30
0.0
 10
314.3565845594316
 20
139.9495096797928
 30
0.0
  0
LINE
  5
265
330
1F
100
AcDbEntity
  8
0
  6
Continuous
 62
     7
370
    25
100
AcDbLine
 10
314.282317172
 20
139.8120315666
 30
0.0
 11
314.2813933
 21
139.8141400809
 31
0.0
  0
SPLINE
  5
266
330
1F
100
AcDbEntity
  8
0
  6
Continuous
 62
     7
370
    25
100
AcDbSpline
210
0.0
220
0.0
230
1.0
 70
     8
 71
     3
 72
     9
 73
     5
 74
     0
 42
0.000000001
 43
0.00000001
 40
0.0
 40
0.0
 40
0.0
 40
0.0
 40
0.5020532911581354
 40
1.0
 40
1.0
 40
1.0
 40
1.0
 10
314.7750687703996
 20
140.025900482653
 30
0.0
 10
314.7749076394421
 20
140.0262499349954
 30
0.0
 10
314.7745866955096
 20
140.0269459813087
 30
0.0
 10
314.7742917603819
 20
140.0276506559586
 30
0.0
 10
314.7741448984056
 20
140.0280015463813
 30
0.0
  0
SPLINE
  5
267
330
1F
100
AcDbEntity
  8
0
  6
Continuous
 62
     7
370
    25
100
AcDbSpline
210
0.0
220
0.0
230
1.0
 70
     8
 71
     3
 72
     9
 73
     5
 74
     0
 42
0.000000001
 43
0.00000001
 40
0.0
 40
0.0
 40
0.0
 40
0.0
 40
0.4977941793553476
 40
1.0
 40
1.0
 40
1.0
 40
1.0
 10
314.1469848260789
 20
139.7399993534073
 30
0.0
 10
314.1468379395116
 20
139.7403527852952
 30
0.0
 10
314.1465428646123
 20
139.7410627813186
 30
0.0
 10
314.1462220626817
 20
139.7417634422825
 30
0.0
 10
314.1460609540849
 20
139.7421153182968
 30
0.0
  0
LINE
  5
268
330
1F
100
AcDbEntity
  8
0
  6
Continuous
 62
     7
370
    25
100
AcDbLine
 10
314.6155965433
 20
139.8936526771
 30
0.0
 11
314.6146726713
 21
139.8957760925
 31
0.0
  0
SPLINE
  5
269
330
1F
100
AcDbEntity
  8
0
  6
Continuous
 62
     7
370
    25
100
AcDbSpline
210
0.0
220
0.0
230
1.0
 70
     8
 71
     3
 72
     9
 73
     5
 74
     0
 42
0.000000001
 43
0.00000001
 40
0.0
 40
0.0
 40
0.0
 40
0.0
 40
0.4978583991605851
 40
1.0
 40
1.0
 40
1.0
 40
1.0
 10
314.6129143342882
 20
139.8097740406974
 30
0.0
 10
314.6127674580709
 20
139.8101324279293
 30
0.0
 10
314.612472442023
 20
139.8108522856888
 30
0.0
 10
314.612151580309
 20
139.8115629525261
 30
0.0
 10
314.6119904622942
 20
139.8119198079094
 30
0.0
  0
LINE
  5
26A
330
1F
100
AcDbEntity
  8
0
  6
Continuous
 62
     7
370
    25
100
AcDbLine
 10
320.5675971613
 20
150.6253721113
 30
0.0
 11
320.5675971613
 21
142.8418176169
 31
0.0
  0
LINE
  5
26B
330
1F
100
AcDbEntity
  8
0
  6
Continuous
 62
     7
370
    25
100
AcDbLine
 10
320.5675971613
 20
151.4512838716
 30
0.0
 11
320.5675971613
 21
150.6253721113
 31
0.0
  0
SPLINE
  5
26C
330
1F
100
AcDbEntity
  8
0
  6
Continuous
 62
     7
370
    25
100
AcDbSpline
210
0.0
220
0.0
230
1.0
 70
     8
 71
     3
 72
    11
 73
     7
 74
     0
 42
0.000000001
 43
0.00000001
 40
0.0
 40
0.0
 40
0.0
 40
0.0
 40
0.2932983528113689
 40
0.5866104997433805
 40
0.8805191171898036
 40
1.0
 40
1.0
 40
1.0
 40
1.0
 10
320.4201948747545
 20
151.6799421901687
 30
0.0
 10
320.4447046140854
 20
151.6658428266545
 30
0.0
 10
320.493725245465
 20
151.6376434365186
 30
0.0
 10
320.5440024058278
 20
151.5675410126231
 30
0.0
 10
320.5655012214656
 20
151.5021793055541
 30
0.0
 10
320.5671272069616
 20
151.4626957113145
 30
0.0
 10
320.567597161284
 20
151.4512838716491
 30
0.0
  0
LINE
  5
26D
330
1F
100
AcDbEntity
  8
0
  6
Continuous
 62
     7
370
    25
100
AcDbLine
 10
320.5675971613
 20
142.8418176169
 30
0.0
 11
320.5675971613
 21
142.0428769584
 31
0.0
  0
LINE
  5
26E
330
1F
100
AcDbEntity
  8
0
  6
Continuous
 62
     7
370
    25
100
AcDbLine
 10
314.925987731
 20
154.1403250689
 30
0.0
 11
314.9145436392
 21
154.1444228883
 31
0.0
  0
SPLINE
  5
26F
330
1F
100
AcDbEntity
  8
0
  6
Continuous
 62
     7
370
    25
100
AcDbSpline
210
0.0
220
0.0
230
1.0
 70
     8
 71
     3
 72
    16
 73
    12
 74
     0
 42
0.000000001
 43
0.00000001
 40
0.0
 40
0.0
 40
0.0
 40
0.0
 40
0.0325075390354202
 40
0.153499579471977
 40
0.2744898767924988
 40
0.3954588376060806
 40
0.516415234729415
 40
0.6373834248937043
 40
0.7583391105917734
 40
0.879393759957193
 40
1.0
 40
1.0
 40
1.0
 40
1.0
 10
313.7768995866685
 20
154.5994894499763
 30
0.0
 10
313.7723405897027
 20
154.6015269081498
 30
0.0
 10
313.750813149059
 20
154.6111477217244
 30
0.0
 10
313.7989705702415
 20
154.586052600563
 30
0.0
 10
313.9195798751676
 20
154.5267420402591
 30
0.0
 10
314.1108287009817
 20
154.4389438961844
 30
0.0
 10
314.3367484279196
 20
154.3437518735613
 30
0.0
 10
314.566386037888
 20
154.2562127625148
 30
0.0
 10
314.7615632332091
 20
154.1891818921262
 30
0.0
 10
314.8989760921795
 20
154.1466680442172
 30
0.0
 10
314.9169949962534
 20
154.1424367769557
 30
0.0
 10
314.9259877309709
 20
154.1403250689491
 30
0.0
  0
LINE
  5
270
330
1F
100
AcDbEntity
  8
0
  6
Continuous
 62
     7
370
    25
100
AcDbLine
 10
320.5675971613
 20
151.4512838716
 30
0.0
 11
320.5675971613
 21
151.4576690192
 31
0.0
  0
LINE
  5
271
330
1F
100
AcDbEntity
  8
0
  6
Continuous
 62
     7
370
    25
100
AcDbLine
 10
117.5925922499
 20
151.4950783844
 30
0.0
 11
116.6175869212
 21
151.4950783844
 31
0.0
  0
LINE
  5
272
330
1F
100
AcDbEntity
  8
0
  6
Continuous
 62
     7
370
    25
100
AcDbLine
 10
116.6175869212
 20
152.017386436
 30
0.0
 11
117.5925922499
 21
152.017386436
 31
0.0
  0
LINE
  5
273
330
1F
100
AcDbEntity
  8
0
  6
Continuous
 62
     7
370
    25
100
AcDbLine
 10
117.5925922499
 20
152.017386436
 30
0.0
 11
117.5925922499
 21
151.4950783844
 31
0.0
  0
LINE
  5
274
330
1F
100
AcDbEntity
  8
0
  6
Continuous
 62
     7
370
    25
100
AcDbLine
 10
116.6175869212
 20
152.017386436
 30
0.0
 11
116.6175869212
 21
151.4950783844
 31
0.0
  0
LINE
  5
275
330
1F
100
AcDbEntity
  8
0
  6
Continuous
 62
     7
370
    25
100
AcDbLine
 10
116.6175869212
 20
148.2673900123
 30
0.0
 11
117.5925922499
 21
148.2673900123
 31
0.0
  0
LINE
  5
276
330
1F
100
AcDbEntity
  8
0
  6
Continuous
 62
     7
370
    25
100
AcDbLine
 10
117.5925922499
 20
151.4950783844
 30
0.0
 11
117.5925922499
 21
148.2673900123
 31
0.0
  0
LINE
  5
277
330
1F
100
AcDbEntity
  8
0
  6
Continuous
 62
     7
370
    25
100
AcDbLine
 10
116.6175869212
 20
151.4950783844
 30
0.0
 11
116.6175869212
 21
148.2673900123
 31
0.0
  0
LINE
  5
278
330
1F
100
AcDbEntity
  8
0
  6
Continuous
 62
     7
370
    25
100
AcDbLine
 10
117.5925922499
 20
155.2450748081
 30
0.0
 11
116.6175869212
 21
155.2450748081
 31
0.0
  0
LINE
  5
279
330
1F
100
AcDbEntity
  8
0
  6
Continuous
 62
     7
370
    25
100
AcDbLine
 10
117.5925922499
 20
155.2450748081
 30
0.0
 11
117.5925922499
 21
152.017386436
 31
0.0
  0
LINE
  5
27A
330
1F
100
AcDbEntity
  8
0
  6
Continuous
 62
     7
370
    25
100
AcDbLine
 10
116.6175869212
 20
155.2450748081
 30
0.0
 11
116.6175869212
 21
152.017386436
 31
0.0
  0
LINE
  5
27B
330
1F
100
AcDbEntity
  8
0
  6
Continuous
 62
     7
370
    25
100
AcDbLine
 10
120.0675857172
 20
149.8927267189
 30
0.0
 11
120.0675857172
 21
149.4403870697
 31
0.0
  0
LINE
  5
27C
330
1F
100
AcDbEntity
  8
0
  6
Continuous
 62
     7
370
    25
100
AcDbLine
 10
120.767590116
 20
149.8927267189
 30
0.0
 11
120.0675857172
 21
149.8927267189
 31
0.0
  0
LINE
  5
27D
330
1F
100
AcDbEntity
  8
0
  6
Continuous
 62
     7
370
    25
100
AcDbLine
 10
120.0675857172
 20
149.4403870697
 30
0.0
 11
120.767590116
 21
149.4403870697
 31
0.0
  0
LINE
  5
27E
330
1F
100
AcDbEntity
  8
0
  6
Continuous
 62
     7
370
    25
100
AcDbLine
 10
120.0675857172
 20
153.6197381015
 30
0.0
 11
120.767590116
 21
153.6197381015
 31
0.0
  0
LINE
  5
27F
330
1F
100
AcDbEntity
  8
0
  6
Continuous
 62
     7
370
    25
100
AcDbLine
 10
120.767590116
 20
154.0720703001
 30
0.0
 11
120.0675857172
 21
154.0720703001
 31
0.0
  0
LINE
  5
280
330
1F
100
AcDbEntity
  8
0
  6
Continuous
 62
     7
370
    25
100
AcDbLine
 10
120.0675857172
 20
154.0720703001
 30
0.0
 11
120.0675857172
 21
153.6197381015
 31
0.0
  0
LINE
  5
281
330
1F
100
AcDbEntity
  8
0
  6
Continuous
 62
     7
370
    25
100
AcDbLine
 10
120.0675857172
 20
153.6197381015
 30
0.0
 11
120.0675857172
 21
149.8927267189
 31
0.0
  0
LINE
  5
282
330
1F
100
AcDbEntity
  8
0
  6
Continuous
 62
     7
370
    25
100
AcDbLine
 10
113.0675864324
 20
149.2937298412
 30
0.0
 11
113.0675864324
 21
154.2187349792
 31
0.0
  0
LINE
  5
283
330
1F
100
AcDbEntity
  8
0
  6
Continuous
 62
     7
370
    25
100
AcDbLine
 10
118.1925875053
 20
155.4687337871
 30
0.0
 11
118.1925875053
 21
148.0437310333
 31
0.0
  0
LINE
  5
284
330
1F
100
AcDbEntity
  8
0
  6
Continuous
 62
     7
370
    25
100
AcDbLine
 10
119.5675921545
 20
155.2562283273
 30
0.0
 11
119.5675921545
 21
148.2562290425
 31
0.0
  0
LINE
  5
285
330
1F
100
AcDbEntity
  8
0
  6
Continuous
 62
     7
370
    25
100
AcDbLine
 10
120.767590116
 20
147.5768851037
 30
0.0
 11
120.0675857172
 21
147.5768851037
 31
0.0
  0
LINE
  5
286
330
1F
100
AcDbEntity
  8
0
  6
Continuous
 62
     7
370
    25
100
AcDbLine
 10
120.0675857172
 20
149.4403870697
 30
0.0
 11
120.0675857172
 21
147.5768851037
 31
0.0
  0
LINE
  5
287
330
1F
100
AcDbEntity
  8
0
  6
Continuous
 62
     7
370
    25
100
AcDbLine
 10
120.0675857172
 20
155.9355797167
 30
0.0
 11
120.767590116
 21
155.9355797167
 31
0.0
  0
LINE
  5
288
330
1F
100
AcDbEntity
  8
0
  6
Continuous
 62
     7
370
    25
100
AcDbLine
 10
120.0675857172
 20
155.9355797167
 30
0.0
 11
120.0675857172
 21
154.0720703001
 31
0.0
  0
LINE
  5
289
330
1F
100
AcDbEntity
  8
0
  6
Continuous
 62
     7
370
    25
100
AcDbLine
 10
116.6175869212
 20
155.5062325592
 30
0.0
 11
117.5925922499
 21
155.5062325592
 31
0.0
  0
LINE
  5
28A
330
1F
100
AcDbEntity
  8
0
  6
Continuous
 62
     7
370
    25
100
AcDbLine
 10
117.5925922499
 20
155.5062325592
 30
0.0
 11
117.5925922499
 21
155.2450748081
 31
0.0
  0
LINE
  5
28B
330
1F
100
AcDbEntity
  8
0
  6
Continuous
 62
     7
370
    25
100
AcDbLine
 10
116.6175869212
 20
155.5062325592
 30
0.0
 11
116.6175869212
 21
155.2450748081
 31
0.0
  0
LINE
  5
28C
330
1F
100
AcDbEntity
  8
0
  6
Continuous
 62
     7
370
    25
100
AcDbLine
 10
117.5925922499
 20
148.0062322612
 30
0.0
 11
116.6175869212
 21
148.0062322612
 31
0.0
  0
LINE
  5
28D
330
1F
100
AcDbEntity
  8
0
  6
Continuous
 62
     7
370
    25
100
AcDbLine
 10
117.5925922499
 20
148.2673900123
 30
0.0
 11
117.5925922499
 21
148.0062322612
 31
0.0
  0
LINE
  5
28E
330
1F
100
AcDbEntity
  8
0
  6
Continuous
 62
     7
370
    25
100
AcDbLine
 10
116.6175869212
 20
148.2673900123
 30
0.0
 11
116.6175869212
 21
148.0062322612
 31
0.0
  0
LINE
  5
28F
330
1F
100
AcDbEntity
  8
0
  6
Continuous
 62
     7
370
    25
100
AcDbLine
 10
120.0675857172
 20
147.5768851037
 30
0.0
 11
120.0675857172
 21
147.5687341685
 31
0.0
  0
LINE
  5
290
330
1F
100
AcDbEntity
  8
0
  6
Continuous
 62
     7
370
    25
100
AcDbLine
 10
120.0675857172
 20
155.9437306519
 30
0.0
 11
120.0675857172
 21
155.9355797167
 31
0.0
  0
LWPOLYLINE
  5
291
330
1F
100
AcDbEntity
  8
0
  6
Continuous
 62
     7
370
    25
100
AcDbPolyline
 90
       11
 70
   128
 43
0.0
 10
305.3977084265
 20
191.3817020054
 10
305.3869795904
 20
191.3769150074
 10
305.3027582273
 20
191.3394199605
 10
305.1434350119
 20
191.2684867079
 10
304.9262952909
 20
191.1718079741
 10
304.674853097
 20
191.0598592753
 10
304.4163477526
 20
190.9447701569
 10
304.1788232431
 20
190.8390166159
 10
303.9879989729
 20
190.7540501947
 10
303.8645577536
 20
190.6990872617
 10
303.8218510256
 20
190.6800808306
  0
LWPOLYLINE
  5
292
330
1F
100
AcDbEntity
  8
0
  6
Continuous
 62
     7
370
    25
100
AcDbPolyline
 90
       12
 70
   128
 43
0.0
 10
305.643011342
 20
190.8614950175
 10
305.632103692
 20
190.8566409643
 10
305.5466604338
 20
190.818602025
 10
305.3850424395
 20
190.7466405923
 10
305.1647436724
 20
190.6485611494
 10
304.909665595
 20
190.5349919493
 10
304.6474349604
 20
190.4182339008
 10
304.4064533815
 20
190.3109455402
 10
304.2128574953
 20
190.2247497733
 10
304.0876281366
 20
190.1689896281
 10
304.0442955599
 20
190.1497075255
 10
304.0442955599
 20
190.1497075255
  0
ARC
  5
293
330
1F
100
AcDbEntity
  8
0
  6
Continuous
 62
     7
370
    25
100
AcDbCircle
 10
297.9175889635
 20
189.6781505566
 30
0.0
 40
0.2500000000000568
100
AcDbArc
 50
90.0
 51
180.0
  0
LINE
  5
294
330
1F
100
AcDbEntity
  8
0
  6
Continuous
 62
     7
370
    25
100
AcDbLine
 10
297.6675820455
 20
160.0062342281
 30
0.0
 11
297.6675820455
 21
189.6781491036
 31
0.0
  0
ARC
  5
295
330
1F
100
AcDbEntity
  8
0
  6
Continuous
 62
     7
370
    25
100
AcDbCircle
 10
297.9175889635
 20
160.0062319248
 30
0.0
 40
0.2500000000000568
100
AcDbArc
 50
180.0
 51
270.0
  0
LINE
  5
296
330
1F
100
AcDbEntity
  8
0
  6
Continuous
 62
     7
370
    25
100
AcDbLine
 10
120.8675918088
 20
194.6412304337
 30
0.0
 11
120.8675918088
 21
194.3794654603
 31
0.0
  0
LINE
  5
297
330
1F
100
AcDbEntity
  8
0
  6
Continuous
 62
     7
370
    25
100
AcDbLine
 10
134.2675876722
 20
204.1412310595
 30
0.0
 11
134.2675876722
 21
204.5162336822
 31
0.0
  0
LINE
  5
298
330
1F
100
AcDbEntity
  8
0
  6
Continuous
 62
     7
370
    25
100
AcDbLine
 10
134.4550889835
 20
204.5162336822
 30
0.0
 11
134.6425902948
 21
204.5162336822
 31
0.0
  0
SPLINE
  5
299
330
1F
100
AcDbEntity
  8
0
  6
Continuous
 62
     7
370
    25
100
AcDbSpline
210
0.0
220
0.0
230
1.0
 70
     8
 71
     3
 72
    12
 73
     8
 74
     0
 42
0.000000001
 43
0.00000001
 40
0.0
 40
0.0
 40
0.0
 40
0.0
 40
0.2166009901285176
 40
0.4332068689270228
 40
0.6498109712602641
 40
0.8664170139481381
 40
1.0
 40
1.0
 40
1.0
 40
1.0
 10
295.9985327825456
 20
204.8287333841308
 30
0.0
 10
296.0089300705656
 20
204.7507526239072
 30
0.0
 10
296.0297248812718
 20
204.5947893434395
 30
0.0
 10
296.0609841358506
 20
204.3874076814137
 30
0.0
 10
296.0921501939396
 20
204.2318045233
 30
0.0
 10
296.1194472924931
 20
204.1520699366181
 30
0.0
 10
296.1362048694463
 20
204.144223976709
 30
0.0
 10
296.1425972089677
 20
204.1412310595497
 30
0.0
  0
LINE
  5
29A
330
1F
100
AcDbEntity
  8
0
  6
Continuous
 62
     7
370
    25
100
AcDbLine
 10
134.6425902948
 20
204.1412310595
 30
0.0
 11
134.6425902948
 21
204.8287333841
 31
0.0
  0
SPLINE
  5
29B
330
1F
100
AcDbEntity
  8
0
  6
Continuous
 62
     7
370
    25
100
AcDbSpline
210
0.0
220
0.0
230
1.0
 70
     8
 71
     3
 72
    11
 73
     7
 74
     0
 42
0.000000001
 43
0.00000001
 40
0.0
 40
0.0
 40
0.0
 40
0.0
 40
0.2499937881019479
 40
0.5000036059672661
 40
0.7499909818331346
 40
1.0
 40
1.0
 40
1.0
 40
1.0
 10
295.9985327825456
 20
204.8287333841308
 30
0.0
 10
296.0105299383476
 20
204.7877834610782
 30
0.0
 10
296.0345250192171
 20
204.7058809892374
 30
0.0
 10
296.0705753790186
 20
204.6025935227462
 30
0.0
 10
296.1065577041256
 20
204.5303210499418
 30
0.0
 10
296.1305836940327
 20
204.5209296069193
 30
0.0
 10
296.1425972089677
 20
204.5162336821541
 30
0.0
  0
LINE
  5
29C
330
1F
100
AcDbEntity
  8
0
  6
Continuous
 62
     7
370
    25
100
AcDbLine
 10
296.142597209
 20
204.5162336822
 30
0.0
 11
296.142597209
 21
204.1412310595
 31
0.0
  0
LINE
  5
29D
330
1F
100
AcDbEntity
  8
0
  6
Continuous
 62
     7
370
    25
100
AcDbLine
 10
291.1426019773
 20
212.2149744923
 30
0.0
 11
121.9550860033
 21
222.4972395147
 31
0.0
  0
ARC
  5
29E
330
1F
100
AcDbEntity
  8
0
  6
Continuous
 62
     7
370
    25
100
AcDbCircle
 10
290.9909328412
 20
209.7195795491
 30
0.0
 40
2.500000000000025
100
AcDbArc
 50
24.7500765152
 51
86.5221624375
  0
LINE
  5
29F
330
1F
100
AcDbEntity
  8
0
  6
Continuous
 62
     7
370
    25
100
AcDbLine
 10
295.9985327825
 20
204.8287333841
 30
0.0
 11
293.2612788782
 21
210.766231447
 31
0.0
  0
LINE
  5
2A0
330
1F
100
AcDbEntity
  8
0
  6
Continuous
 62
     7
370
    25
100
AcDbLine
 10
134.6425902948
 20
205.0162309701
 30
0.0
 11
134.6425902948
 21
204.8287333841
 31
0.0
  0
LINE
  5
2A1
330
1F
100
AcDbEntity
  8
0
  6
Continuous
 62
     7
370
    25
100
AcDbLine
 10
134.4550889835
 20
205.0162309701
 30
0.0
 11
134.6425902948
 21
205.0162309701
 31
0.0
  0
LINE
  5
2A2
330
1F
100
AcDbEntity
  8
0
  6
Continuous
 62
     7
370
    25
100
AcDbLine
 10
134.4550889835
 20
204.5162336822
 30
0.0
 11
134.4550889835
 21
205.0162309701
 31
0.0
  0
LINE
  5
2A3
330
1F
100
AcDbEntity
  8
0
  6
Continuous
 62
     7
370
    25
100
AcDbLine
 10
121.9550860033
 20
204.5162336822
 30
0.0
 11
134.4550889835
 21
204.5162336822
 31
0.0
  0
SPLINE
  5
2A4
330
1F
100
AcDbEntity
  8
0
  6
Continuous
 62
     7
370
    25
100
AcDbSpline
210
0.0
220
0.0
230
1.0
 70
     8
 71
     3
 72
    11
 73
     7
 74
     0
 42
0.000000001
 43
0.00000001
 40
0.0
 40
0.0
 40
0.0
 40
0.0
 40
0.250001437341071
 40
0.5
 40
0.7499985626589291
 40
1.0
 40
1.0
 40
1.0
 40
1.0
 10
121.2675911292939
 20
222.5162310446485
 30
0.0
 10
121.2779257284108
 20
222.514648421703
 30
0.0
 10
121.2985948078104
 20
222.51148319401
 30
0.0
 10
121.4575711352809
 20
222.5067352796777
 30
0.0
 10
121.6848240358027
 20
222.5019873653455
 30
0.0
 10
121.8649983355013
 20
222.4988221376525
 30
0.0
 10
121.9550860032945
 20
222.497239514707
 30
0.0
  0
LINE
  5
2A5
330
1F
100
AcDbEntity
  8
0
  6
Continuous
 62
     7
370
    25
100
AcDbLine
 10
121.2675911293
 20
204.5162336822
 30
0.0
 11
121.2675911293
 21
222.5162310446
 31
0.0
  0
LINE
  5
2A6
330
1F
100
AcDbEntity
  8
0
  6
Continuous
 62
     7
370
    25
100
AcDbLine
 10
121.9550860033
 20
204.5162336822
 30
0.0
 11
121.2675911293
 21
204.5162336822
 31
0.0
  0
LINE
  5
2A7
330
1F
100
AcDbEntity
  8
0
  6
Continuous
 62
     7
370
    25
100
AcDbLine
 10
121.6425863013
 20
222.5162310446
 30
0.0
 11
121.2675911293
 21
222.5162310446
 31
0.0
  0
LINE
  5
2A8
330
1F
100
AcDbEntity
  8
0
  6
Continuous
 62
     7
370
    25
100
AcDbLine
 10
312.5925850973
 20
152.0562337632
 30
0.0
 11
312.5675809488
 21
152.0562337632
 31
0.0
  0
LINE
  5
2A9
330
1F
100
AcDbEntity
  8
0
  6
Continuous
 62
     7
370
    25
100
AcDbLine
 10
312.5925850973
 20
158.0562310214
 30
0.0
 11
312.5925850973
 21
152.0562337632
 31
0.0
  0
LINE
  5
2AA
330
1F
100
AcDbEntity
  8
0
  6
Continuous
 62
     7
370
    25
100
AcDbLine
 10
312.5925850973
 20
158.0562310214
 30
0.0
 11
312.5675809488
 21
158.0562310214
 31
0.0
  0
LINE
  5
2AB
330
1F
100
AcDbEntity
  8
0
  6
Continuous
 62
     7
370
    25
100
AcDbLine
 10
312.6175892458
 20
152.6845337744
 30
0.0
 11
312.6175892458
 21
152.4970399137
 31
0.0
  0
LINE
  5
2AC
330
1F
100
AcDbEntity
  8
0
  6
Continuous
 62
     7
370
    25
100
AcDbLine
 10
312.6175892458
 20
152.4970399137
 30
0.0
 11
312.5925850973
 21
152.4970399137
 31
0.0
  0
LINE
  5
2AD
330
1F
100
AcDbEntity
  8
0
  6
Continuous
 62
     7
370
    25
100
AcDbLine
 10
312.6175892458
 20
157.5595380659
 30
0.0
 11
312.6175892458
 21
152.6845337744
 31
0.0
  0
LINE
  5
2AE
330
1F
100
AcDbEntity
  8
0
  6
Continuous
 62
     7
370
    25
100
AcDbLine
 10
312.6175892458
 20
157.622033536
 30
0.0
 11
312.6175892458
 21
157.5595380659
 31
0.0
  0
SPLINE
  5
2AF
330
1F
100
AcDbEntity
  8
0
  6
Continuous
 62
     7
370
    25
100
AcDbSpline
210
0.0
220
0.0
230
1.0
 70
    24
 71
     3
 72
    11
 73
     7
 74
     0
 42
0.000000001
 43
0.00000001
 40
0.0
 40
0.0
 40
0.0
 40
0.0
 40
0.2832748774812318
 40
0.5580023576193051
 40
0.7754005575791166
 40
1.0
 40
1.0
 40
1.0
 40
1.0
 10
312.9675877199083
 20
136.1312286849006
 30
0.0
 10
312.9675877199083
 20
136.1408027725878
 30
0.0
 10
312.9675877199082
 20
136.1596620641318
 30
0.0
 10
312.9675877199083
 20
136.292888803796
 30
0.0
 10
312.9675877199083
 20
136.4554938060311
 30
0.0
 10
312.9675877199083
 20
136.5710203177387
 30
0.0
 10
312.9675877199083
 20
136.629724680899
 30
0.0
  0
LINE
  5
2B0
330
1F
100
AcDbEntity
  8
0
  6
Continuous
 62
     7
370
    25
100
AcDbLine
 10
312.5675809488
 20
136.1312286849
 30
0.0
 11
312.9675877199
 21
136.1312286849
 31
0.0
  0
LINE
  5
2B1
330
1F
100
AcDbEntity
  8
0
  6
Continuous
 62
     7
370
    25
100
AcDbLine
 10
312.5675809488
 20
151.1312292809
 30
0.0
 11
312.9675877199
 21
151.1312292809
 31
0.0
  0
SPLINE
  5
2B2
330
1F
100
AcDbEntity
  8
0
  6
Continuous
 62
     7
370
    25
100
AcDbSpline
210
0.0
220
0.0
230
1.0
 70
    24
 71
     3
 72
    11
 73
     7
 74
     0
 42
0.000000001
 43
0.00000001
 40
0.0
 40
0.0
 40
0.0
 40
0.0
 40
0.283357223402056
 40
0.5581116471046539
 40
0.7754831796236261
 40
1.0
 40
1.0
 40
1.0
 40
1.0
 10
312.9675877199083
 20
150.6326364274009
 30
0.0
 10
312.9675877199083
 20
150.706899438718
 30
0.0
 10
312.9675877199083
 20
150.8531708168303
 30
0.0
 10
312.9675877199082
 20
151.0151957633958
 30
0.0
 10
312.9675877199082
 20
151.1136750572549
 30
0.0
 10
312.9675877199082
 20
151.12531513345
 30
0.0
 10
312.9675877199083
 20
151.1312292809471
 30
0.0
  0
LINE
  5
2B3
330
1F
100
AcDbEntity
  8
0
  6
Continuous
 62
     7
370
    25
100
AcDbLine
 10
312.9675877199
 20
136.6297246809
 30
0.0
 11
312.9675877199
 21
150.6326364274
 31
0.0
  0
LINE
  5
2B4
330
1F
100
AcDbEntity
  8
0
  6
Continuous
 62
     7
370
    25
100
AcDbLine
 10
313.317586194
 20
150.4968048925
 30
0.0
 11
313.317586194
 21
136.7656605239
 31
0.0
  0
SPLINE
  5
2B5
330
1F
100
AcDbEntity
  8
0
  6
Continuous
 62
     7
370
    25
100
AcDbSpline
210
0.0
220
0.0
230
1.0
 70
     8
 71
     3
 72
    11
 73
     7
 74
     0
 42
0.000000001
 43
0.00000001
 40
0.0
 40
0.0
 40
0.0
 40
0.0
 40
0.2514192741864775
 40
0.5021442236755062
 40
0.7628124923688506
 40
0.9999999999999999
 40
0.9999999999999999
 40
0.9999999999999999
 40
0.9999999999999999
 10
313.3175861940294
 20
136.7656605238899
 30
0.0
 10
313.3130158458138
 20
136.7026229372259
 30
0.0
 10
313.3038877709513
 20
136.5767218498086
 30
0.0
 10
313.2295347719053
 20
136.3978024947471
 30
0.0
 10
313.1186369416255
 20
136.2419600174475
 30
0.0
 10
313.0163290514881
 20
136.166960034818
 30
0.0
 10
312.9675877199083
 20
136.1312286849006
 30
0.0
  0
SPLINE
  5
2B6
330
1F
100
AcDbEntity
  8
0
  6
Continuous
 62
     7
370
    25
100
AcDbSpline
210
0.0
220
0.0
230
1.0
 70
    24
 71
     3
 72
    13
 73
     9
 74
     0
 42
0.000000001
 43
0.00000001
 40
0.0
 40
0.0
 40
0.0
 40
0.0
 40
0.1275852785771475
 40
0.254676044445392
 40
0.5000454880318205
 40
0.74540319350419
 40
0.8725445584725323
 40
0.9999999999999999
 40
0.9999999999999999
 40
0.9999999999999999
 40
0.9999999999999999
 10
312.9675877199083
 20
136.629724680899
 30
0.0
 10
312.9675877199083
 20
136.5964325810645
 30
0.0
 10
312.9675877199083
 20
136.529977419531
 30
0.0
 10
312.9675877199084
 20
136.4050429247023
 30
0.0
 10
312.9675877199082
 20
136.2681912787309
 30
0.0
 10
312.9675877199083
 20
136.1767502671634
 30
0.0
 10
312.9675877199083
 20
136.1366963399669
 30
0.0
 10
312.9675877199082
 20
136.1330527348681
 30
0.0
 10
312.9675877199083
 20
136.1312286849006
 30
0.0
  0
SPLINE
  5
2B7
330
1F
100
AcDbEntity
  8
0
  6
Continuous
 62
     7
370
    25
100
AcDbSpline
210
0.0
220
0.0
230
1.0
 70
     8
 71
     3
 72
    11
 73
     7
 74
     0
 42
0.000000001
 43
0.00000001
 40
0.0
 40
0.0
 40
0.0
 40
0.0
 40
0.2371828679189734
 40
0.4978527220946641
 40
0.7485791965870358
 40
1.0
 40
1.0
 40
1.0
 40
1.0
 10
312.9675877199083
 20
151.1312292809471
 30
0.0
 10
313.0163292754119
 20
151.0955007195455
 30
0.0
 10
313.1186390092452
 20
151.0205055830656
 30
0.0
 10
313.2295344622485
 20
150.8646625366985
 30
0.0
 10
313.3038878473536
 20
150.6857436616072
 30
0.0
 10
313.3130158713047
 20
150.559842510894
 30
0.0
 10
313.3175861940294
 20
150.4968048925384
 30
0.0
  0
SPLINE
  5
2B8
330
1F
100
AcDbEntity
  8
0
  6
Continuous
 62
     7
370
    25
100
AcDbSpline
210
0.0
220
0.0
230
1.0
 70
    24
 71
     3
 72
    13
 73
     9
 74
     0
 42
0.000000001
 43
0.00000001
 40
0.0
 40
0.0
 40
0.0
 40
0.0
 40
0.1275285512232524
 40
0.2545822077589147
 40
0.4999446188797013
 40
0.7453316054301048
 40
0.8725020043301643
 40
1.0
 40
1.0
 40
1.0
 40
1.0
 10
312.9675877199083
 20
151.1312292809471
 30
0.0
 10
312.9675877199083
 20
151.1294139513434
 30
0.0
 10
312.9675877199083
 20
151.1257900521155
 30
0.0
 10
312.9675877199083
 20
151.08566837181
 30
0.0
 10
312.9675877199083
 20
150.9942213912243
 30
0.0
 10
312.9675877199084
 20
150.8573246121491
 30
0.0
 10
312.9675877199083
 20
150.7323647319806
 30
0.0
 10
312.9675877199083
 20
150.6659076916204
 30
0.0
 10
312.9675877199083
 20
150.6326364274009
 30
0.0
  0
LINE
  5
2B9
330
1F
100
AcDbEntity
  8
0
  6
Continuous
 62
     7
370
    25
100
AcDbLine
 10
117.9675874219
 20
136.9502114053
 30
0.0
 11
117.9675874219
 21
138.0342038269
 31
0.0
  0
LINE
  5
2BA
330
1F
100
AcDbEntity
  8
0
  6
Continuous
 62
     7
370
    25
100
AcDbLine
 10
117.9675874219
 20
139.6882103677
 30
0.0
 11
117.9675874219
 21
140.8660428519
 31
0.0
  0
SPLINE
  5
2BB
330
1F
100
AcDbEntity
  8
0
  6
Continuous
 62
     7
370
    25
100
AcDbSpline
210
0.0
220
0.0
230
1.0
 70
     8
 71
     3
 72
    13
 73
     9
 74
     0
 42
0.000000001
 43
0.00000001
 40
0.0
 40
0.0
 40
0.0
 40
0.0
 40
0.0075655073103395
 40
0.2722695800580348
 40
0.4815253759470125
 40
0.6613620182091158
 40
0.8304724295484913
 40
1.0
 40
1.0
 40
1.0
 40
1.0
 10
117.967587421885
 20
140.8660428519233
 30
0.0
 10
117.9675895114829
 20
140.8661670224606
 30
0.0
 10
117.9676647125101
 20
140.8706357062724
 30
0.0
 10
117.9705046676985
 20
140.8785787433624
 30
0.0
 10
117.9811997596182
 20
140.8882332712029
 30
0.0
 10
117.9951127875947
 20
140.8948998137458
 30
0.0
 10
118.011650247876
 20
140.8992867801063
 30
0.0
 10
118.0239385984032
 20
140.8998680616648
 30
0.0
 10
118.0300903425126
 20
140.9001590604767
 30
0.0
  0
SPLINE
  5
2BC
330
1F
100
AcDbEntity
  8
0
  6
Continuous
 62
     7
370
    25
100
AcDbSpline
210
0.0
220
0.0
230
1.0
 70
     8
 71
     3
 72
    13
 73
     9
 74
     0
 42
0.000000001
 43
0.00000001
 40
0.0
 40
0.0
 40
0.0
 40
0.0
 40
0.0074984362941813
 40
0.2722792367555587
 40
0.4815282742085651
 40
0.6613471777785765
 40
0.8304763802017571
 40
0.9999999999999999
 40
0.9999999999999999
 40
0.9999999999999999
 40
0.9999999999999999
 10
117.9675874218851
 20
136.9502114052757
 30
0.0
 10
117.9675895190688
 20
136.950030120699
 30
0.0
 10
117.9676656708911
 20
136.9434474114202
 30
0.0
 10
117.970502993276
 20
136.9317156977681
 30
0.0
 10
117.9811989638148
 20
136.9174339309083
 30
0.0
 10
117.9951149289486
 20
136.9075547507915
 30
0.0
 10
118.0116486642368
 20
136.9010329668147
 30
0.0
 10
118.0239383452968
 20
136.9001770698114
 30
0.0
 10
118.0300903425126
 20
136.8997486228927
 30
0.0
  0
SPLINE
  5
2BD
330
1F
100
AcDbEntity
  8
0
  6
Continuous
 62
     7
370
    25
100
AcDbSpline
210
0.0
220
0.0
230
1.0
 70
     8
 71
     3
 72
    13
 73
     9
 74
     0
 42
0.000000001
 43
0.00000001
 40
0.0
 40
0.0
 40
0.0
 40
0.0
 40
0.1695275704515087
 40
0.3386379817908842
 40
0.5184746240529875
 40
0.7277304199419653
 40
0.9924344926896607
 40
1.0
 40
1.0
 40
1.0
 40
1.0
 10
118.2050895795732
 20
140.9001590604767
 30
0.0
 10
118.2112413236826
 20
140.8998680616648
 30
0.0
 10
118.2235296742097
 20
140.8992867801063
 30
0.0
 10
118.2400671344912
 20
140.8948998137458
 30
0.0
 10
118.2539801624676
 20
140.8882332712028
 30
0.0
 10
118.2646752543874
 20
140.8785787433624
 30
0.0
 10
118.2675152095755
 20
140.8706357062725
 30
0.0
 10
118.267590410603
 20
140.8661670224606
 30
0.0
 10
118.2675925002008
 20
140.8660428519233
 30
0.0
  0
LINE
  5
2BE
330
1F
100
AcDbEntity
  8
0
  6
Continuous
 62
     7
370
    25
100
AcDbLine
 10
118.2675925002
 20
140.8660428519
 30
0.0
 11
118.2675925002
 21
139.6752985115
 31
0.0
  0
LINE
  5
2BF
330
1F
100
AcDbEntity
  8
0
  6
Continuous
 62
     7
370
    25
100
AcDbLine
 10
118.2675925002
 20
138.0415053959
 30
0.0
 11
118.2675925002
 21
136.9502114053
 31
0.0
  0
SPLINE
  5
2C0
330
1F
100
AcDbEntity
  8
0
  6
Continuous
 62
     7
370
    25
100
AcDbSpline
210
0.0
220
0.0
230
1.0
 70
     8
 71
     3
 72
    13
 73
     9
 74
     0
 42
0.000000001
 43
0.00000001
 40
0.0
 40
0.0
 40
0.0
 40
0.0
 40
0.1695236197982429
 40
0.3386528222214235
 40
0.518471725791435
 40
0.7277207632444413
 40
0.9925015637058188
 40
1.0
 40
1.0
 40
1.0
 40
1.0
 10
118.2050895795732
 20
136.8997486228927
 30
0.0
 10
118.2112415767891
 20
136.9001770698114
 30
0.0
 10
118.2235312578491
 20
136.9010329668147
 30
0.0
 10
118.2400649931372
 20
136.9075547507915
 30
0.0
 10
118.253980958271
 20
136.9174339309084
 30
0.0
 10
118.2646769288096
 20
136.9317156977679
 30
0.0
 10
118.2675142511951
 20
136.9434474114206
 30
0.0
 10
118.267590403017
 20
136.950030120699
 30
0.0
 10
118.2675925002008
 20
136.9502114052757
 30
0.0
  0
LINE
  5
2C1
330
1F
100
AcDbEntity
  8
0
  6
Continuous
 62
     7
370
    25
100
AcDbLine
 10
118.0300903425
 20
140.9001590605
 30
0.0
 11
118.2050895796
 21
140.9001590605
 31
0.0
  0
LINE
  5
2C2
330
1F
100
AcDbEntity
  8
0
  6
Continuous
 62
     7
370
    25
100
AcDbLine
 10
118.0300903425
 20
136.8997486229
 30
0.0
 11
118.2050895796
 21
136.8997486229
 31
0.0
  0
SPLINE
  5
2C3
330
1F
100
AcDbEntity
  8
0
  6
Continuous
 62
     7
370
    25
100
AcDbSpline
210
0.0
220
0.0
230
1.0
 70
     8
 71
     3
 72
    12
 73
     8
 74
     0
 42
0.000000001
 43
0.00000001
 40
0.0
 40
0.0
 40
0.0
 40
0.0
 40
0.2028191421939947
 40
0.4049486026646354
 40
0.609830884810813
 40
0.8226988882638322
 40
1.0
 40
1.0
 40
1.0
 40
1.0
 10
117.905091951838
 20
141.3161026234611
 30
0.0
 10
117.9443766660944
 20
141.312299101087
 30
0.0
 10
118.02281250786
 20
141.3047049901272
 30
0.0
 10
118.1279116139691
 20
141.245744956774
 30
0.0
 10
118.2096825730621
 20
141.1582319308786
 30
0.0
 10
118.259231281271
 20
141.0531660461326
 30
0.0
 10
118.2649801104376
 20
140.9790596163497
 30
0.0
 10
118.2675925002008
 20
140.9453840847
 30
0.0
  0
ARC
  5
2C4
330
1F
100
AcDbEntity
  8
0
  6
Continuous
 62
     7
370
    25
100
AcDbCircle
 10
116.6272823376
 20
141.2563917809
 30
0.0
 40
0.0597767684150769
100
AcDbArc
 50
87.3088409078
 51
177.0260520341
  0
LINE
  5
2C5
330
1F
100
AcDbEntity
  8
0
  6
Continuous
 62
     7
370
    25
100
AcDbLine
 10
116.5675860748
 20
141.0768346782
 30
0.0
 11
116.5675860748
 21
141.2594931121
 31
0.0
  0
LINE
  5
2C6
330
1F
100
AcDbEntity
  8
0
  6
Continuous
 62
     7
370
    25
100
AcDbLine
 10
118.2675925002
 20
141.1937342877
 30
0.0
 11
118.2675925002
 21
140.9453840847
 31
0.0
  0
LINE
  5
2C7
330
1F
100
AcDbEntity
  8
0
  6
Continuous
 62
     7
370
    25
100
AcDbLine
 10
116.5675860748
 20
141.2594931121
 30
0.0
 11
116.5675860748
 21
141.4937319155
 31
0.0
  0
LINE
  5
2C8
330
1F
100
AcDbEntity
  8
0
  6
Continuous
 62
     7
370
    25
100
AcDbLine
 10
118.2675925002
 20
140.9453840847
 30
0.0
 11
118.2675925002
 21
140.8660428519
 31
0.0
  0
LINE
  5
2C9
330
1F
100
AcDbEntity
  8
0
  6
Continuous
 62
     7
370
    25
100
AcDbLine
 10
117.9675874219
 20
140.8660428519
 30
0.0
 11
117.9675874219
 21
140.9453840847
 31
0.0
  0
LINE
  5
2CA
330
1F
100
AcDbEntity
  8
0
  6
Continuous
 62
     7
370
    25
100
AcDbLine
 10
117.9675874219
 20
136.8708701725
 30
0.0
 11
117.9675874219
 21
136.9502114053
 31
0.0
  0
LINE
  5
2CB
330
1F
100
AcDbEntity
  8
0
  6
Continuous
 62
     7
370
    25
100
AcDbLine
 10
118.2675925002
 20
136.9502114053
 30
0.0
 11
118.2675925002
 21
136.8708701725
 31
0.0
  0
LINE
  5
2CC
330
1F
100
AcDbEntity
  8
0
  6
Continuous
 62
     7
370
    25
100
AcDbLine
 10
118.2675925002
 20
136.8708701725
 30
0.0
 11
118.2675925002
 21
136.8187310095
 31
0.0
  0
LINE
  5
2CD
330
1F
100
AcDbEntity
  8
0
  6
Continuous
 62
     7
370
    25
100
AcDbLine
 10
116.5675860748
 20
136.5567611451
 30
0.0
 11
116.5675860748
 21
136.739419579
 31
0.0
  0
LINE
  5
2CE
330
1F
100
AcDbEntity
  8
0
  6
Continuous
 62
     7
370
    25
100
AcDbLine
 10
116.5675860748
 20
136.739419579
 30
0.0
 11
116.5675860748
 21
136.935630619
 31
0.0
  0
LINE
  5
2CF
330
1F
100
AcDbEntity
  8
0
  6
Continuous
 62
     7
370
    25
100
AcDbLine
 10
116.5675860748
 20
136.5187333817
 30
0.0
 11
116.5675860748
 21
136.5567611451
 31
0.0
  0
LINE
  5
2D0
330
1F
100
AcDbEntity
  8
0
  6
Continuous
 62
     7
370
    25
100
AcDbLine
 10
117.6675897941
 20
138.1245495672
 30
0.0
 11
117.6675897941
 21
139.6213935609
 31
0.0
  0
LINE
  5
2D1
330
1F
100
AcDbEntity
  8
0
  6
Continuous
 62
     7
370
    25
100
AcDbLine
 10
119.367588769
 20
139.6008448596
 30
0.0
 11
119.367588769
 21
138.1040083165
 31
0.0
  0
LINE
  5
2D2
330
1F
100
AcDbEntity
  8
0
  6
Continuous
 62
     7
370
    25
100
AcDbLine
 10
117.9050919518
 20
139.6861838098
 30
0.0
 11
117.7300852642
 21
139.6861838098
 31
0.0
  0
LINE
  5
2D3
330
1F
100
AcDbEntity
  8
0
  6
Continuous
 62
     7
370
    25
100
AcDbLine
 10
119.367588769
 20
139.6127955909
 30
0.0
 11
119.367588769
 21
139.6008448596
 31
0.0
  0
SPLINE
  5
2D4
330
1F
100
AcDbEntity
  8
0
  6
Continuous
 62
     7
370
    25
100
AcDbSpline
210
0.0
220
0.0
230
1.0
 70
     8
 71
     3
 72
    10
 73
     6
 74
     0
 42
0.000000001
 43
0.00000001
 40
0.0
 40
0.0
 40
0.0
 40
0.0
 40
0.3271740327466841
 40
0.9874639761050796
 40
1.0
 40
1.0
 40
1.0
 40
1.0
 10
118.0300903425126
 20
138.0416395063385
 30
0.0
 10
118.0134575563036
 20
138.0417106725146
 30
0.0
 10
117.9632571260745
 20
138.0419254635073
 30
0.0
 10
117.9096869388911
 20
138.0427852543175
 30
0.0
 10
117.8834890958721
 20
138.0442570402863
 30
0.0
 10
117.8830009803682
 20
138.0442844624504
 30
0.0
  0
LINE
  5
2D5
330
1F
100
AcDbEntity
  8
0
  6
Continuous
 62
     7
370
    25
100
AcDbLine
 10
118.0300903425
 20
139.6751644011
 30
0.0
 11
118.0300903425
 21
139.6752985115
 31
0.0
  0
SPLINE
  5
2D6
330
1F
100
AcDbEntity
  8
0
  6
Continuous
 62
     7
370
    25
100
AcDbSpline
210
0.0
220
0.0
230
1.0
 70
     8
 71
     3
 72
    13
 73
     9
 74
     0
 42
0.000000001
 43
0.00000001
 40
0.0
 40
0.0
 40
0.0
 40
0.0
 40
0.0075389578332731
 40
0.2722885466255713
 40
0.4815143202531399
 40
0.6613525635979504
 40
0.8304795067775425
 40
1.0
 40
1.0
 40
1.0
 40
1.0
 10
117.6675897941499
 20
139.6265866155609
 30
0.0
 10
117.6675893632304
 20
139.6268001818106
 30
0.0
 10
117.667573799481
 20
139.6345136675498
 30
0.0
 10
117.6705284532311
 20
139.6482722435654
 30
0.0
 10
117.6811894362408
 20
139.6651576538499
 30
0.0
 10
117.6951100874034
 20
139.6768832383457
 30
0.0
 10
117.7116433075134
 20
139.684652876625
 30
0.0
 10
117.7239331845187
 20
139.6856731035023
 30
0.0
 10
117.7300852641969
 20
139.6861838097557
 30
0.0
  0
LINE
  5
2D7
330
1F
100
AcDbEntity
  8
0
  6
Continuous
 62
     7
370
    25
100
AcDbLine
 10
117.6675897941
 20
139.6265866156
 30
0.0
 11
117.6675897941
 21
141.0143317575
 31
0.0
  0
SPLINE
  5
2D8
330
1F
100
AcDbEntity
  8
0
  6
Continuous
 62
     7
370
    25
100
AcDbSpline
210
0.0
220
0.0
230
1.0
 70
     8
 71
     3
 72
     9
 73
     5
 74
     0
 42
0.000000001
 43
0.00000001
 40
0.0
 40
0.0
 40
0.0
 40
0.0
 40
0.7025640023310484
 40
1.0
 40
1.0
 40
1.0
 40
1.0
 10
117.905091951838
 20
139.6861838097557
 30
0.0
 10
117.9113615835569
 20
139.6858686038273
 30
0.0
 10
117.9202855131889
 20
139.6854199529892
 30
0.0
 10
117.9277379240349
 20
139.6817247600337
 30
0.0
 10
117.92995453929
 20
139.6806256766304
 30
0.0
  0
LINE
  5
2D9
330
1F
100
AcDbEntity
  8
0
  6
Continuous
 62
     7
370
    25
100
AcDbLine
 10
117.9675874219
 20
140.990571856
 30
0.0
 11
117.9675874219
 21
140.9453840847
 31
0.0
  0
LINE
  5
2DA
330
1F
100
AcDbEntity
  8
0
  6
Continuous
 62
     7
370
    25
100
AcDbLine
 10
117.9675874219
 20
140.8660428519
 30
0.0
 11
117.9675874219
 21
139.6265866156
 31
0.0
  0
LINE
  5
2DB
330
1F
100
AcDbEntity
  8
0
  6
Continuous
 62
     7
370
    25
100
AcDbLine
 10
117.6675897941
 20
139.6213935609
 30
0.0
 11
117.6675897941
 21
139.6265866156
 31
0.0
  0
LINE
  5
2DC
330
1F
100
AcDbEntity
  8
0
  6
Continuous
 62
     7
370
    25
100
AcDbLine
 10
117.9675874219
 20
138.0318643446
 30
0.0
 11
117.9675874219
 21
136.9502114053
 31
0.0
  0
LINE
  5
2DD
330
1F
100
AcDbEntity
  8
0
  6
Continuous
 62
     7
370
    25
100
AcDbLine
 10
117.6675897941
 20
136.8937285538
 30
0.0
 11
117.6675897941
 21
138.1297426219
 31
0.0
  0
LINE
  5
2DE
330
1F
100
AcDbEntity
  8
0
  6
Continuous
 62
     7
370
    25
100
AcDbLine
 10
117.5559428439
 20
139.137001514
 30
0.0
 11
117.6675897941
 21
138.4818794126
 31
0.0
  0
SPLINE
  5
2DF
330
1F
100
AcDbEntity
  8
0
  6
Continuous
 62
     7
370
    25
100
AcDbSpline
210
0.0
220
0.0
230
1.0
 70
     8
 71
     3
 72
     9
 73
     5
 74
     0
 42
0.000000001
 43
0.00000001
 40
0.0
 40
0.0
 40
0.0
 40
0.0
 40
0.0701958672319877
 40
1.0
 40
1.0
 40
1.0
 40
1.0
 10
117.6675897941499
 20
138.4818794126495
 30
0.0
 10
117.6674770690891
 20
138.4663500811097
 30
0.0
 10
117.6658712044535
 20
138.2451215080878
 30
0.0
 10
117.6089077237137
 20
138.0283304930612
 30
0.0
 10
117.555942843905
 20
137.8267573113426
 30
0.0
  0
LINE
  5
2E0
330
1F
100
AcDbEntity
  8
0
  6
Continuous
 62
     7
370
    25
100
AcDbLine
 10
117.5559428439
 20
137.8267573113
 30
0.0
 11
116.4792370901
 21
137.8267573113
 31
0.0
  0
SPLINE
  5
2E1
330
1F
100
AcDbEntity
  8
0
  6
Continuous
 62
     7
370
    25
100
AcDbSpline
210
0.0
220
0.0
230
1.0
 70
     8
 71
     3
 72
     9
 73
     5
 74
     0
 42
0.000000001
 43
0.00000001
 40
0.0
 40
0.0
 40
0.0
 40
0.0
 40
0.0701956380922284
 40
1.0
 40
1.0
 40
1.0
 40
1.0
 10
116.3675901398568
 20
138.4818794126495
 30
0.0
 10
116.3677002882849
 20
138.4663500792465
 30
0.0
 10
116.3692694517113
 20
138.2451207575243
 30
0.0
 10
116.426253278964
 20
138.0283301571714
 30
0.0
 10
116.4792370901017
 20
137.8267573113426
 30
0.0
  0
LINE
  5
2E2
330
1F
100
AcDbEntity
  8
0
  6
Continuous
 62
     7
370
    25
100
AcDbLine
 10
116.4792370901
 20
139.137001514
 30
0.0
 11
116.3675901399
 21
138.4818794126
 31
0.0
  0
LINE
  5
2E3
330
1F
100
AcDbEntity
  8
0
  6
Continuous
 62
     7
370
    25
100
AcDbLine
 10
117.5559428439
 20
139.137001514
 30
0.0
 11
116.4792370901
 21
139.137001514
 31
0.0
  0
SPLINE
  5
2E4
330
1F
100
AcDbEntity
  8
0
  6
Continuous
 62
     7
370
    25
100
AcDbSpline
210
0.0
220
0.0
230
1.0
 70
     8
 71
     3
 72
     9
 73
     5
 74
     0
 42
0.000000001
 43
0.00000001
 40
0.0
 40
0.0
 40
0.0
 40
0.0
 40
0.0701940397882263
 40
0.9999999999999999
 40
0.9999999999999999
 40
0.9999999999999999
 40
0.9999999999999999
 10
116.3675901398568
 20
139.7267373199447
 30
0.0
 10
116.3677002927589
 20
139.7127584421214
 30
0.0
 10
116.3692695556536
 20
139.5136122202267
 30
0.0
 10
116.4262532818496
 20
139.3184575186478
 30
0.0
 10
116.4792370901017
 20
139.1370015139564
 30
0.0
  0
LINE
  5
2E5
330
1F
100
AcDbEntity
  8
0
  6
Continuous
 62
     7
370
    25
100
AcDbLine
 10
116.3675901399
 20
138.4818794126
 30
0.0
 11
116.3675901399
 21
139.7267373199
 31
0.0
  0
SPLINE
  5
2E6
330
1F
100
AcDbEntity
  8
0
  6
Continuous
 62
     7
370
    25
100
AcDbSpline
210
0.0
220
0.0
230
1.0
 70
     8
 71
     3
 72
     9
 73
     5
 74
     0
 42
0.000000001
 43
0.00000001
 40
0.0
 40
0.0
 40
0.0
 40
0.0
 40
0.0701942689279508
 40
1.0
 40
1.0
 40
1.0
 40
1.0
 10
117.6675897941499
 20
139.7267373199447
 30
0.0
 10
117.6674770646173
 20
139.7127584437986
 30
0.0
 10
117.6658710997104
 20
139.5136128958842
 30
0.0
 10
117.6089077204254
 20
139.3184578210164
 30
0.0
 10
117.555942843905
 20
139.1370015139564
 30
0.0
  0
LINE
  5
2E7
330
1F
100
AcDbEntity
  8
0
  6
Continuous
 62
     7
370
    25
100
AcDbLine
 10
117.5559428439
 20
140.3164731259
 30
0.0
 11
117.6675897941
 21
139.7267373199
 31
0.0
  0
LINE
  5
2E8
330
1F
100
AcDbEntity
  8
0
  6
Continuous
 62
     7
370
    25
100
AcDbLine
 10
116.4792370901
 20
140.3164731259
 30
0.0
 11
116.3675901399
 21
139.7267373199
 31
0.0
  0
LINE
  5
2E9
330
1F
100
AcDbEntity
  8
0
  6
Continuous
 62
     7
370
    25
100
AcDbLine
 10
117.5559428439
 20
140.3164731259
 30
0.0
 11
116.4792370901
 21
140.3164731259
 31
0.0
  0
SPLINE
  5
2EA
330
1F
100
AcDbEntity
  8
0
  6
Continuous
 62
     7
370
    25
100
AcDbSpline
210
0.0
220
0.0
230
1.0
 70
     8
 71
     3
 72
     9
 73
     5
 74
     0
 42
0.000000001
 43
0.00000001
 40
0.0
 40
0.0
 40
0.0
 40
0.0
 40
0.2575531007624076
 40
1.0
 40
1.0
 40
1.0
 40
1.0
 10
116.4792370901017
 20
137.8267573113426
 30
0.0
 10
116.4623821887261
 20
137.8212670640821
 30
0.0
 10
116.3969397563665
 20
137.799950111406
 30
0.0
 10
116.3800958476526
 20
137.7778093532579
 30
0.0
 10
116.3675901398568
 20
137.761371016024
 30
0.0
  0
LINE
  5
2EB
330
1F
100
AcDbEntity
  8
0
  6
Continuous
 62
     7
370
    25
100
AcDbLine
 10
116.3675901399
 20
137.761371016
 30
0.0
 11
116.3675901399
 21
138.4818794126
 31
0.0
  0
SPLINE
  5
2EC
330
1F
100
AcDbEntity
  8
0
  6
Continuous
 62
     7
370
    25
100
AcDbSpline
210
0.0
220
0.0
230
1.0
 70
     8
 71
     3
 72
     9
 73
     5
 74
     0
 42
0.000000001
 43
0.00000001
 40
0.0
 40
0.0
 40
0.0
 40
0.0
 40
0.2575531007624076
 40
1.0
 40
1.0
 40
1.0
 40
1.0
 10
117.555942843905
 20
137.8267573113426
 30
0.0
 10
117.5727977452806
 20
137.8212670640821
 30
0.0
 10
117.6382401776403
 20
137.799950111406
 30
0.0
 10
117.6550840863542
 20
137.7778093532579
 30
0.0
 10
117.6675897941499
 20
137.761371016024
 30
0.0
  0
SPLINE
  5
2ED
330
1F
100
AcDbEntity
  8
0
  6
Continuous
 62
     7
370
    25
100
AcDbSpline
210
0.0
220
0.0
230
1.0
 70
     8
 71
     3
 72
     9
 73
     5
 74
     0
 42
0.000000001
 43
0.00000001
 40
0.0
 40
0.0
 40
0.0
 40
0.0
 40
0.2575524377037893
 40
1.0
 40
1.0
 40
1.0
 40
1.0
 10
116.4792370901017
 20
140.316473125933
 30
0.0
 10
116.4623821881721
 20
140.3109856794488
 30
0.0
 10
116.3969395851828
 20
140.2896795464798
 30
0.0
 10
116.3800957811217
 20
140.2675352558167
 30
0.0
 10
116.3675901398569
 20
140.251094281195
 30
0.0
  0
LINE
  5
2EE
330
1F
100
AcDbEntity
  8
0
  6
Continuous
 62
     7
370
    25
100
AcDbLine
 10
116.3675901399
 20
139.7267373199
 30
0.0
 11
116.3675901399
 21
140.2552219028
 31
0.0
  0
SPLINE
  5
2EF
330
1F
100
AcDbEntity
  8
0
  6
Continuous
 62
     7
370
    25
100
AcDbSpline
210
0.0
220
0.0
230
1.0
 70
     8
 71
     3
 72
     9
 73
     5
 74
     0
 42
0.000000001
 43
0.00000001
 40
0.0
 40
0.0
 40
0.0
 40
0.0
 40
0.3043343038396832
 40
1.0
 40
1.0
 40
1.0
 40
1.0
 10
117.555942843905
 20
140.316473125933
 30
0.0
 10
117.5729929330663
 20
140.3109891761379
 30
0.0
 10
117.6290171437654
 20
140.2929696833436
 30
0.0
 10
117.6439130415328
 20
140.2742366486715
 30
0.0
 10
117.6542756066232
 20
140.2612047190651
 30
0.0
  0
SPLINE
  5
2F0
330
1F
100
AcDbEntity
  8
0
  6
Continuous
 62
     7
370
    25
100
AcDbSpline
210
0.0
220
0.0
230
1.0
 70
     8
 71
     3
 72
     9
 73
     5
 74
     0
 42
0.000000001
 43
0.00000001
 40
0.0
 40
0.0
 40
0.0
 40
0.0
 40
0.1340554096121372
 40
1.0
 40
1.0
 40
1.0
 40
1.0
 10
117.6624637946992
 20
137.7510817642196
 30
0.0
 10
117.6614943498864
 20
137.7485778422141
 30
0.0
 10
117.6542626774333
 20
137.7298995806446
 30
0.0
 10
117.6015709554847
 20
137.7117238748311
 30
0.0
 10
117.555942843905
 20
137.6959847207054
 30
0.0
  0
LINE
  5
2F1
330
1F
100
AcDbEntity
  8
0
  6
Continuous
 62
     7
370
    25
100
AcDbLine
 10
117.5559428439
 20
137.6959847207
 30
0.0
 11
116.4792370901
 21
137.6959847207
 31
0.0
  0
SPLINE
  5
2F2
330
1F
100
AcDbEntity
  8
0
  6
Continuous
 62
     7
370
    25
100
AcDbSpline
210
0.0
220
0.0
230
1.0
 70
     8
 71
     3
 72
     9
 73
     5
 74
     0
 42
0.000000001
 43
0.00000001
 40
0.0
 40
0.0
 40
0.0
 40
0.0
 40
0.2686331077152663
 40
1.0
 40
1.0
 40
1.0
 40
1.0
 10
116.3675901398568
 20
137.761371016024
 30
0.0
 10
116.3692463919789
 20
137.7554264537381
 30
0.0
 10
116.375411872236
 20
137.7332975272759
 30
0.0
 10
116.4353790682869
 20
137.7117464587319
 30
0.0
 10
116.4792370901017
 20
137.6959847207054
 30
0.0
  0
LINE
  5
2F3
330
1F
100
AcDbEntity
  8
0
  6
Continuous
 62
     7
370
    25
100
AcDbLine
 10
116.4792370901
 20
137.6959847207
 30
0.0
 11
116.3675901399
 21
138.2857279773
 31
0.0
  0
LINE
  5
2F4
330
1F
100
AcDbEntity
  8
0
  6
Continuous
 62
     7
370
    25
100
AcDbLine
 10
119.4559452042
 20
139.6068500276
 30
0.0
 11
119.5675921545
 21
138.88838309
 31
0.0
  0
SPLINE
  5
2F5
330
1F
100
AcDbEntity
  8
0
  6
Continuous
 62
     7
370
    25
100
AcDbSpline
210
0.0
220
0.0
230
1.0
 70
     8
 71
     3
 72
     9
 73
     5
 74
     0
 42
0.000000001
 43
0.00000001
 40
0.0
 40
0.0
 40
0.0
 40
0.0
 40
0.0702024221806307
 40
1.0
 40
1.0
 40
1.0
 40
1.0
 10
119.5675921544939
 20
138.8883830900177
 30
0.0
 10
119.5674794477741
 20
138.8713505215259
 30
0.0
 10
119.56587399434
 20
138.6287297121191
 30
0.0
 10
119.5089100975279
 20
138.3909736824207
 30
0.0
 10
119.4559452042489
 20
138.1699087018951
 30
0.0
  0
LINE
  5
2F6
330
1F
100
AcDbEntity
  8
0
  6
Continuous
 62
     7
370
    25
100
AcDbLine
 10
119.4559452042
 20
138.1699087019
 30
0.0
 11
119.367588769
 21
138.1699087019
 31
0.0
  0
LINE
  5
2F7
330
1F
100
AcDbEntity
  8
0
  6
Continuous
 62
     7
370
    25
100
AcDbLine
 10
119.4559452042
 20
139.6068500276
 30
0.0
 11
119.367588769
 21
139.6068500276
 31
0.0
  0
SPLINE
  5
2F8
330
1F
100
AcDbEntity
  8
0
  6
Continuous
 62
     7
370
    25
100
AcDbSpline
210
0.0
220
0.0
230
1.0
 70
     8
 71
     3
 72
     9
 73
     5
 74
     0
 42
0.000000001
 43
0.00000001
 40
0.0
 40
0.0
 40
0.0
 40
0.0
 40
0.0701981917133497
 40
1.0
 40
1.0
 40
1.0
 40
1.0
 10
119.5675921544938
 20
140.025013863562
 30
0.0
 10
119.5674794359368
 20
140.0151024692533
 30
0.0
 10
119.5658737171248
 20
139.8739108791744
 30
0.0
 10
119.5089100888373
 20
139.7355231698936
 30
0.0
 10
119.4559452042489
 20
139.6068500275596
 30
0.0
  0
LINE
  5
2F9
330
1F
100
AcDbEntity
  8
0
  6
Continuous
 62
     7
370
    25
100
AcDbLine
 10
119.5675921545
 20
140.0250138636
 30
0.0
 11
119.5675921545
 21
138.88838309
 31
0.0
  0
SPLINE
  5
2FA
330
1F
100
AcDbEntity
  8
0
  6
Continuous
 62
     7
370
    25
100
AcDbSpline
210
0.0
220
0.0
230
1.0
 70
     8
 71
     3
 72
     9
 73
     5
 74
     0
 42
0.000000001
 43
0.00000001
 40
0.0
 40
0.0
 40
0.0
 40
0.0
 40
0.0839523892223388
 40
0.9999999999999999
 40
0.9999999999999999
 40
0.9999999999999999
 40
0.9999999999999999
 10
118.2675925002008
 20
140.025013863562
 30
0.0
 10
118.2676848151282
 20
140.015101561962
 30
0.0
 10
118.2687844256133
 20
139.897031049713
 30
0.0
 10
118.3162166235885
 20
139.7813071308698
 30
0.0
 10
118.3596667752176
 20
139.6752985115036
 30
0.0
  0
SPLINE
  5
2FB
330
1F
100
AcDbEntity
  8
0
  6
Continuous
 62
     7
370
    25
100
AcDbSpline
210
0.0
220
0.0
230
1.0
 70
     8
 71
     3
 72
     9
 73
     5
 74
     0
 42
0.000000001
 43
0.00000001
 40
0.0
 40
0.0
 40
0.0
 40
0.0
 40
0.2575504623350697
 40
1.0
 40
1.0
 40
1.0
 40
1.0
 10
119.4559452042489
 20
138.1699087018951
 30
0.0
 10
119.4727971935429
 20
138.1446955324815
 30
0.0
 10
119.5382289894759
 20
138.046799496167
 30
0.0
 10
119.5550806482374
 20
137.9451028085088
 30
0.0
 10
119.5675921544938
 20
137.8695981497749
 30
0.0
  0
LINE
  5
2FC
330
1F
100
AcDbEntity
  8
0
  6
Continuous
 62
     7
370
    25
100
AcDbLine
 10
119.5675921545
 20
138.88838309
 30
0.0
 11
119.5675921545
 21
137.8695981498
 31
0.0
  0
LINE
  5
2FD
330
1F
100
AcDbEntity
  8
0
  6
Continuous
 62
     7
370
    25
100
AcDbLine
 10
118.3168482885
 20
138.0415053959
 30
0.0
 11
118.2675925002
 21
137.8695981498
 31
0.0
  0
LINE
  5
2FE
330
1F
100
AcDbEntity
  8
0
  6
Continuous
 62
     7
370
    25
100
AcDbLine
 10
119.4559452042
 20
140.4431776996
 30
0.0
 11
119.5675921545
 21
140.0250138636
 31
0.0
  0
LINE
  5
2FF
330
1F
100
AcDbEntity
  8
0
  6
Continuous
 62
     7
370
    25
100
AcDbLine
 10
118.3792319999
 20
140.4431776996
 30
0.0
 11
118.2675925002
 21
140.0250138636
 31
0.0
  0
LINE
  5
300
330
1F
100
AcDbEntity
  8
0
  6
Continuous
 62
     7
370
    25
100
AcDbLine
 10
119.4559452042
 20
140.4431776996
 30
0.0
 11
118.3792319999
 21
140.4431776996
 31
0.0
  0
SPLINE
  5
301
330
1F
100
AcDbEntity
  8
0
  6
Continuous
 62
     7
370
    25
100
AcDbSpline
210
0.0
220
0.0
230
1.0
 70
     8
 71
     3
 72
     9
 73
     5
 74
     0
 42
0.000000001
 43
0.00000001
 40
0.0
 40
0.0
 40
0.0
 40
0.0
 40
0.3462540078345705
 40
1.0
 40
1.0
 40
1.0
 40
1.0
 10
119.5675921544938
 20
137.8695981497749
 30
0.0
 10
119.5663069286151
 20
137.8422734373344
 30
0.0
 10
119.5625951278863
 20
137.7633582137636
 30
0.0
 10
119.5171535248653
 20
137.6865175163509
 30
0.0
 10
119.4874462590127
 20
137.6362832183822
 30
0.0
  0
LINE
  5
302
330
1F
100
AcDbEntity
  8
0
  6
Continuous
 62
     7
370
    25
100
AcDbLine
 10
119.4559452042
 20
137.5692875977
 30
0.0
 11
118.3792319999
 21
137.5692875977
 31
0.0
  0
LINE
  5
303
330
1F
100
AcDbEntity
  8
0
  6
Continuous
 62
     7
370
    25
100
AcDbLine
 10
118.3477309451
 20
137.6362832184
 30
0.0
 11
118.3792319999
 21
137.5692875977
 31
0.0
  0
LINE
  5
304
330
1F
100
AcDbEntity
  8
0
  6
Continuous
 62
     7
370
    25
100
AcDbLine
 10
118.3792319999
 20
140.4431776996
 30
0.0
 11
118.3373969898
 21
140.376107573
 31
0.0
  0
LINE
  5
305
330
1F
100
AcDbEntity
  8
0
  6
Continuous
 62
     7
370
    25
100
AcDbLine
 10
119.4559452042
 20
140.4431776996
 30
0.0
 11
119.4977802143
 21
140.376107573
 31
0.0
  0
LINE
  5
306
330
1F
100
AcDbEntity
  8
0
  6
Continuous
 62
     7
370
    25
100
AcDbLine
 10
119.5675921545
 20
140.2562351818
 30
0.0
 11
119.5675921545
 21
140.0250138636
 31
0.0
  0
LINE
  5
307
330
1F
100
AcDbEntity
  8
0
  6
Continuous
 62
     7
370
    25
100
AcDbLine
 10
119.5675921545
 20
137.8695981498
 30
0.0
 11
119.5675921545
 21
137.7562301154
 31
0.0
  0
LINE
  5
308
330
1F
100
AcDbEntity
  8
0
  6
Continuous
 62
     7
370
    25
100
AcDbLine
 10
120.767590116
 20
138.8303132648
 30
0.0
 11
119.7417345748
 21
138.8303132648
 31
0.0
  0
SPLINE
  5
309
330
1F
100
AcDbEntity
  8
0
  6
Continuous
 62
     7
370
    25
100
AcDbSpline
210
0.0
220
0.0
230
1.0
 70
     8
 71
     3
 72
     9
 73
     5
 74
     0
 42
0.000000001
 43
0.00000001
 40
0.0
 40
0.0
 40
0.0
 40
0.0
 40
0.0701979143394834
 40
1.0
 40
1.0
 40
1.0
 40
1.0
 10
119.6300876245408
 20
139.4946368331894
 30
0.0
 10
119.6302003438739
 20
139.4788888455338
 30
0.0
 10
119.6318060800865
 20
139.254551871939
 30
0.0
 10
119.6887696907676
 20
139.0347165788558
 30
0.0
 10
119.7417345747857
 20
138.8303132648452
 30
0.0
  0
LINE
  5
30A
330
1F
100
AcDbEntity
  8
0
  6
Continuous
 62
     7
370
    25
100
AcDbLine
 10
119.7417345748
 20
140.158952951
 30
0.0
 11
119.6300876245
 21
139.4946368332
 31
0.0
  0
LINE
  5
30B
330
1F
100
AcDbEntity
  8
0
  6
Continuous
 62
     7
370
    25
100
AcDbLine
 10
120.767590116
 20
140.158952951
 30
0.0
 11
119.7417345748
 21
140.158952951
 31
0.0
  0
SPLINE
  5
30C
330
1F
100
AcDbEntity
  8
0
  6
Continuous
 62
     7
370
    25
100
AcDbSpline
210
0.0
220
0.0
230
1.0
 70
     8
 71
     3
 72
     9
 73
     5
 74
     0
 42
0.000000001
 43
0.00000001
 40
0.0
 40
0.0
 40
0.0
 40
0.0
 40
0.2575518346294872
 40
0.9999999999999999
 40
0.9999999999999999
 40
0.9999999999999999
 40
0.9999999999999999
 10
119.7417345747857
 20
138.8303132648452
 30
0.0
 10
119.7248796723523
 20
138.781927116726
 30
0.0
 10
119.6594369141687
 20
138.5940575634421
 30
0.0
 10
119.6425932052934
 20
138.3988687944601
 30
0.0
 10
119.6300876245408
 20
138.2539512510284
 30
0.0
  0
LINE
  5
30D
330
1F
100
AcDbEntity
  8
0
  6
Continuous
 62
     7
370
    25
100
AcDbLine
 10
119.6300876245
 20
138.253951251
 30
0.0
 11
119.6300876245
 21
139.4946368332
 31
0.0
  0
LINE
  5
30E
330
1F
100
AcDbEntity
  8
0
  6
Continuous
 62
     7
370
    25
100
AcDbLine
 10
120.767590116
 20
137.6775892372
 30
0.0
 11
119.7417345748
 21
137.6775892372
 31
0.0
  0
SPLINE
  5
30F
330
1F
100
AcDbEntity
  8
0
  6
Continuous
 62
     7
370
    25
100
AcDbSpline
210
0.0
220
0.0
230
1.0
 70
     8
 71
     3
 72
     9
 73
     5
 74
     0
 42
0.000000001
 43
0.00000001
 40
0.0
 40
0.0
 40
0.0
 40
0.0
 40
0.2686308098618085
 40
1.0
 40
1.0
 40
1.0
 40
1.0
 10
119.6300876245408
 20
138.2539512510284
 30
0.0
 10
119.6317468471289
 20
138.2015443233481
 30
0.0
 10
119.637923437926
 20
138.0064552801098
 30
0.0
 10
119.697882421516
 20
137.8165096320231
 30
0.0
 10
119.7417345747857
 20
137.6775892372116
 30
0.0
  0
SPLINE
  5
310
330
1F
100
AcDbEntity
  8
0
  6
Continuous
 62
     7
370
    25
100
AcDbSpline
210
0.0
220
0.0
230
1.0
 70
     8
 71
     3
 72
     9
 73
     5
 74
     0
 42
0.000000001
 43
0.00000001
 40
0.0
 40
0.0
 40
0.0
 40
0.0
 40
0.070199127456148
 40
0.9999999999999999
 40
0.9999999999999999
 40
0.9999999999999999
 40
0.9999999999999999
 10
119.6300876245408
 20
140.2469145054802
 30
0.0
 10
119.6302003404796
 20
140.244829867441
 30
0.0
 10
119.6318060005906
 20
140.2151337997729
 30
0.0
 10
119.6887696882742
 20
140.1860215480275
 30
0.0
 10
119.7417345747857
 20
140.1589529509529
 30
0.0
  0
LINE
  5
311
330
1F
100
AcDbEntity
  8
0
  6
Continuous
 62
     7
370
    25
100
AcDbLine
 10
119.6300876245
 20
139.4946368332
 30
0.0
 11
119.6300876245
 21
140.2469145055
 31
0.0
  0
LINE
  5
312
330
1F
100
AcDbEntity
  8
0
  6
Continuous
 62
     7
370
    25
100
AcDbLine
 10
119.7417345748
 20
137.6775892372
 30
0.0
 11
119.6300876245
 21
137.7655507917
 31
0.0
  0
LINE
  5
313
330
1F
100
AcDbEntity
  8
0
  6
Continuous
 62
     7
370
    25
100
AcDbLine
 10
119.6300876245
 20
138.253951251
 30
0.0
 11
119.6300876245
 21
137.7562822695
 31
0.0
  0
LINE
  5
314
330
1F
100
AcDbEntity
  8
0
  6
Continuous
 62
     7
370
    25
100
AcDbLine
 10
119.7417345748
 20
140.3348686094
 30
0.0
 11
119.6300876245
 21
140.2469145055
 31
0.0
  0
LINE
  5
315
330
1F
100
AcDbEntity
  8
0
  6
Continuous
 62
     7
370
    25
100
AcDbLine
 10
120.767590116
 20
140.3348686094
 30
0.0
 11
119.7417345748
 21
140.3348686094
 31
0.0
  0
ENDSEC
  0
SECTION
  2
OBJECTS
  0
DICTIONARY
  5
C
330
0
100
AcDbDictionary
281
     1
  3
ACAD_GROUP
350
D
  3
ACAD_LAYOUT
350
1A
  3
ACAD_MLINESTYLE
350
17
  3
ACAD_PLOTSETTINGS
350
19
  3
ACAD_PLOTSTYLENAME
350
E
  3
ACAD_SCALELIST
350
47
  0
DICTIONARY
  5
D
102
{ACAD_REACTORS
330
C
102
}
330
C
100
AcDbDictionary
281
     1
  0
DICTIONARY
  5
1A
102
{ACAD_REACTORS
330
C
102
}
330
C
100
AcDbDictionary
281
     1
  3
Layout1
350
1E
  3
Layout2
350
26
  3
Model
350
22
  0
DICTIONARY
  5
17
102
{ACAD_REACTORS
330
C
102
}
330
C
100
AcDbDictionary
281
     1
  3
Standard
350
18
  0
DICTIONARY
  5
19
102
{ACAD_REACTORS
330
C
102
}
330
C
100
AcDbDictionary
281
     1
  0
ACDBDICTIONARYWDFLT
  5
E
102
{ACAD_REACTORS
330
C
102
}
330
C
100
AcDbDictionary
281
     1
  3
Normal
350
F
100
AcDbDictionaryWithDefault
340
F
  0
DICTIONARY
  5
47
102
{ACAD_REACTORS
330
C
102
}
330
C
100
AcDbDictionary
281
     1
  3
A0
350
48
  3
A1
350
49
  3
A2
350
4A
  3
A3
350
4B
  3
A4
350
4C
  3
A5
350
4D
  3
A6
350
4E
  3
A7
350
4F
  3
A8
350
50
  3
A9
350
51
  3
B0
350
52
  3
B1
350
53
  3
B2
350
54
  3
B3
350
55
  3
B4
350
56
  3
B5
350
57
  3
B6
350
58
  3
B7
350
59
  3
B8
350
5A
  3
B9
350
5B
  3
C0
350
5C
  3
C1
350
5D
  3
C2
350
5E
  3
C3
350
5F
  3
C4
350
60
  3
C5
350
61
  3
C6
350
62
  3
C7
350
63
  3
C8
350
64
  3
C9
350
65
  3
D0
350
66
  3
D1
350
67
  3
D2
350
68
  0
LAYOUT
  5
1E
102
{ACAD_REACTORS
330
1A
102
}
330
1A
100
AcDbPlotSettings
  1

  2
none_device
  4

  6

 40
0.0
 41
0.0
 42
0.0
 43
0.0
 44
0.0
 45
0.0
 46
0.0
 47
0.0
 48
0.0
 49
0.0
140
0.0
141
0.0
142
1.0
143
1.0
 70
   688
 72
     1
 73
     0
 74
     5
  7

 75
    16
147
1.0
148
0.0
149
0.0
100
AcDbLayout
  1
Layout1
 70
     1
 71
     1
 10
0.0
 20
0.0
 11
420.0
 21
297.0
 12
0.0
 22
0.0
 32
0.0
 14
1.0000000000E+20
 24
1.0000000000E+20
 34
1.0000000000E+20
 15
-1.0000000000E+20
 25
-1.0000000000E+20
 35
-1.0000000000E+20
146
0.0
 13
0.0
 23
0.0
 33
0.0
 16
1.0
 26
0.0
 36
0.0
 17
0.0
 27
1.0
 37
0.0
 76
     0
330
1B
  0
LAYOUT
  5
26
102
{ACAD_REACTORS
330
1A
102
}
330
1A
100
AcDbPlotSettings
  1

  2
none_device
  4

  6

 40
0.0
 41
0.0
 42
0.0
 43
0.0
 44
0.0
 45
0.0
 46
0.0
 47
0.0
 48
0.0
 49
0.0
140
0.0
141
0.0
142
1.0
143
1.0
 70
   688
 72
     1
 73
     0
 74
     5
  7

 75
    16
147
1.0
148
0.0
149
0.0
100
AcDbLayout
  1
Layout2
 70
     1
 71
     2
 10
0.0
 20
0.0
 11
0.0
 21
0.0
 12
0.0
 22
0.0
 32
0.0
 14
0.0
 24
0.0
 34
0.0
 15
0.0
 25
0.0
 35
0.0
146
0.0
 13
0.0
 23
0.0
 33
0.0
 16
1.0
 26
0.0
 36
0.0
 17
0.0
 27
1.0
 37
0.0
 76
     0
330
23
  0
LAYOUT
  5
22
102
{ACAD_REACTORS
330
1A
102
}
330
1A
100
AcDbPlotSettings
  1

  2
none_device
  4
Letter_(8.50_x_11.00_Inches)
  6

 40
6.35
 41
6.35
 42
6.35000508
 43
6.35000508
 44
215.9
 45
279.4
 46
0.0
 47
0.0
 48
0.0
 49
0.0
140
0.0
141
0.0
142
1.0
143
1.0
 70
  1712
 72
     1
 73
     0
 74
     0
  7

 75
     0
147
1.0
148
0.0
149
0.0
100
AcDbLayout
  1
Model
 70
     1
 71
     0
 10
0.0
 20
0.0
 11
420.0
 21
297.0
 12
0.0
 22
0.0
 32
0.0
 14
0.0
 24
0.0
 34
0.0
 15
420.0
 25
297.0
 35
0.0
146
0.0
 13
0.0
 23
0.0
 33
0.0
 16
1.0
 26
0.0
 36
0.0
 17
0.0
 27
1.0
 37
0.0
 76
     0
330
1F
331
29
  0
MLINESTYLE
  5
18
102
{ACAD_REACTORS
330
17
102
}
330
17
100
AcDbMlineStyle
  2
Standard
 70
     0
  3

 62
   256
 51
90.0
 52
90.0
 71
     2
 49
0.5
 62
   256
  6
BYLAYER
 49
-0.5
 62
   256
  6
BYLAYER
  0
ACDBPLACEHOLDER
  5
F
102
{ACAD_REACTORS
330
E
102
}
330
E
  0
SCALE
  5
48
102
{ACAD_REACTORS
330
47
102
}
330
47
100
AcDbScale
 70
     0
300
1:1
140
1.0
141
1.0
290
     1
  0
SCALE
  5
49
102
{ACAD_REACTORS
330
47
102
}
330
47
100
AcDbScale
 70
     0
300
1:2
140
1.0
141
2.0
290
     0
  0
SCALE
  5
4A
102
{ACAD_REACTORS
330
47
102
}
330
47
100
AcDbScale
 70
     0
300
1:4
140
1.0
141
4.0
290
     0
  0
SCALE
  5
4B
102
{ACAD_REACTORS
330
47
102
}
330
47
100
AcDbScale
 70
     0
300
1:5
140
1.0
141
5.0
290
     0
  0
SCALE
  5
4C
102
{ACAD_REACTORS
330
47
102
}
330
47
100
AcDbScale
 70
     0
300
1:8
140
1.0
141
8.0
290
     0
  0
SCALE
  5
4D
102
{ACAD_REACTORS
330
47
102
}
330
47
100
AcDbScale
 70
     0
300
1:10
140
1.0
141
10.0
290
     0
  0
SCALE
  5
4E
102
{ACAD_REACTORS
330
47
102
}
330
47
100
AcDbScale
 70
     0
300
1:16
140
1.0
141
16.0
290
     0
  0
SCALE
  5
4F
102
{ACAD_REACTORS
330
47
102
}
330
47
100
AcDbScale
 70
     0
300
1:20
140
1.0
141
20.0
290
     0
  0
SCALE
  5
50
102
{ACAD_REACTORS
330
47
102
}
330
47
100
AcDbScale
 70
     0
300
1:30
140
1.0
141
30.0
290
     0
  0
SCALE
  5
51
102
{ACAD_REACTORS
330
47
102
}
330
47
100
AcDbScale
 70
     0
300
1:40
140
1.0
141
40.0
290
     0
  0
SCALE
  5
52
102
{ACAD_REACTORS
330
47
102
}
330
47
100
AcDbScale
 70
     0
300
1:50
140
1.0
141
50.0
290
     0
  0
SCALE
  5
53
102
{ACAD_REACTORS
330
47
102
}
330
47
100
AcDbScale
 70
     0
300
1:100
140
1.0
141
100.0
290
     0
  0
SCALE
  5
54
102
{ACAD_REACTORS
330
47
102
}
330
47
100
AcDbScale
 70
     0
300
2:1
140
2.0
141
1.0
290
     0
  0
SCALE
  5
55
102
{ACAD_REACTORS
330
47
102
}
330
47
100
AcDbScale
 70
     0
300
4:1
140
4.0
141
1.0
290
     0
  0
SCALE
  5
56
102
{ACAD_REACTORS
330
47
102
}
330
47
100
AcDbScale
 70
     0
300
8:1
140
8.0
141
1.0
290
     0
  0
SCALE
  5
57
102
{ACAD_REACTORS
330
47
102
}
330
47
100
AcDbScale
 70
     0
300
10:1
140
10.0
141
1.0
290
     0
  0
SCALE
  5
58
102
{ACAD_REACTORS
330
47
102
}
330
47
100
AcDbScale
 70
     0
300
100:1
140
100.0
141
1.0
290
     0
  0
SCALE
  5
59
102
{ACAD_REACTORS
330
47
102
}
330
47
100
AcDbScale
 70
     0
300
1/128" = 1'-0"
140
0.0078125
141
12.0
290
     0
  0
SCALE
  5
5A
102
{ACAD_REACTORS
330
47
102
}
330
47
100
AcDbScale
 70
     0
300
1/64" = 1'-0"
140
0.015625
141
12.0
290
     0
  0
SCALE
  5
5B
102
{ACAD_REACTORS
330
47
102
}
330
47
100
AcDbScale
 70
     0
300
1/32" = 1'-0"
140
0.03125
141
12.0
290
     0
  0
SCALE
  5
5C
102
{ACAD_REACTORS
330
47
102
}
330
47
100
AcDbScale
 70
     0
300
1/16" = 1'-0"
140
0.0625
141
12.0
290
     0
  0
SCALE
  5
5D
102
{ACAD_REACTORS
330
47
102
}
330
47
100
AcDbScale
 70
     0
300
3/32" = 1'-0"
140
0.09375
141
12.0
290
     0
  0
SCALE
  5
5E
102
{ACAD_REACTORS
330
47
102
}
330
47
100
AcDbScale
 70
     0
300
1/8" = 1'-0"
140
0.125
141
12.0
290
     0
  0
SCALE
  5
5F
102
{ACAD_REACTORS
330
47
102
}
330
47
100
AcDbScale
 70
     0
300
3/16" = 1'-0"
140
0.1875
141
12.0
290
     0
  0
SCALE
  5
60
102
{ACAD_REACTORS
330
47
102
}
330
47
100
AcDbScale
 70
     0
300
1/4" = 1'-0"
140
0.25
141
12.0
290
     0
  0
SCALE
  5
61
102
{ACAD_REACTORS
330
47
102
}
330
47
100
AcDbScale
 70
     0
300
3/8" = 1'-0"
140
0.375
141
12.0
290
     0
  0
SCALE
  5
62
102
{ACAD_REACTORS
330
47
102
}
330
47
100
AcDbScale
 70
     0
300
1/2" = 1'-0"
140
0.5
141
12.0
290
     0
  0
SCALE
  5
63
102
{ACAD_REACTORS
330
47
102
}
330
47
100
AcDbScale
 70
     0
300
3/4" = 1'-0"
140
0.75
141
12.0
290
     0
  0
SCALE
  5
64
102
{ACAD_REACTORS
330
47
102
}
330
47
100
AcDbScale
 70
     0
300
1" = 1'-0"
140
1.0
141
12.0
290
     0
  0
SCALE
  5
65
102
{ACAD_REACTORS
330
47
102
}
330
47
100
AcDbScale
 70
     0
300
1-1/2" = 1'-0"
140
1.5
141
12.0
290
     0
  0
SCALE
  5
66
102
{ACAD_REACTORS
330
47
102
}
330
47
100
AcDbScale
 70
     0
300
3" = 1'-0"
140
3.0
141
12.0
290
     0
  0
SCALE
  5
67
102
{ACAD_REACTORS
330
47
102
}
330
47
100
AcDbScale
 70
     0
300
6" = 1'-0"
140
6.0
141
12.0
290
     0
  0
SCALE
  5
68
102
{ACAD_REACTORS
330
47
102
}
330
47
100
AcDbScale
 70
     0
300
1'-0" = 1'-0"
140
12.0
141
12.0
290
     0
  0
ENDSEC
  0
EOF
