  0
SECTION
  2
HEADER
  9
$LIMMIN
 10
0.000000
 20
0.000000
  9
$LIMMAX
 10
3363.600000
 20
2378.400000
  9
$EXTMIN
 10
0.000000
 20
0.000000
  9
$EXTMAX
 10
3363.600000
 20
2378.400000
  9
$ANGBASE
 50
0.0
  9
$ANGDIR
 70
0
  9
$DIMRND
 40
0.100000
  9
$DIMSE1
 70
0
  9
$DIMSE2
 70
0
  9
$DIMTXT
 40
3.500000
  9
$LTSCALE
 40
1.000000
  9
$LUPREC
 70
5
  9
$AUPREC
 70
5
  9
$PDMODE
 70
2
  9
$PDSIZE
 40
16.818000
  0
ENDSEC
  0
SECTION
  2
TABLES
  0
TABLE
  2
VPORT
  70
1
  0
VPORT
  2
*ACTIVE
 70
0
  10
0.0
 20
0.0
 11
1.0
 21
1.0
 12
594.0
 22
420.0
 13
0.0
 23
0.0
 14
10.0
 24
10.0
 15
10.0
 25
10.0
 16
0.0
 26
0.0
 36
1.0
 17
594.0
 27
420.0
 37
100.0
 40
1000.0
 41
1.0
 42
50.0
 43
0.0
 44
0.0
 50
0.0
 51
0.0
 71
0
 72
2000
 73
1
 74
3
 75
0
 76
0
 77
0
 78
1
  0
ENDTAB
  0
TABLE
  2
LTYPE
 70
4
  0
LTYPE
  2
CONTINUOUS
 70
0
  3
Solid line
 72
65
 73
0
 40
0.0
  0
LTYPE
  2
DASHED
 70
0
  3
Dashed line
 72
65
 73
2
 40
6.000000
 49
3.000000
 49
-3.000000
  0
LTYPE
  2
CENTER
 70
0
  3
Chain line
 72
65
 73
4
 40
24.000000
 49
15.000000
 49
-3.000000
 49
3.000000
 49
-3.000000
  0
LTYPE
  2
RANDOM
 70
0
  3
Random line
 72
65
 73
4
 40
22.500000
 49
6.000000
 49
-3.000000
 49
4.500000
 49
-9.000000
  0
ENDTAB
  0
TABLE
  2
STYLE
 70
9
  0
STYLE
  2
STANDARD
 40
0
 41
1.0
 50
0.0
 71
0
 42
0
  3
simplex
  4

 70
0
  0
ENDTAB
  0
TABLE
  2
LAYER
 70
2
  0
LAYER
  2
0
 70
0
 62
7
  6
CONTINUOUS
  0
LAYER
  2
0
 62
1
  6
CONTINUOUS
 70
0
  0
ENDTAB
  0
ENDSEC
  0
SECTION
  2
BLOCKS
  0
ENDSEC
  0
SECTION
  2
ENTITIES
  0
LINE
  8
0
  6
CONTINUOUS
 62
1
 10
1027.149334
 20
1291.226580
 11
1436.149552
 21
1276.078431
  0
LINE
  8
0
  6
CONTINUOUS
 62
1
 10
1027.149334
 20
908.146971
 11
1436.149552
 21
923.295120
  0
ARC
  8
0
  6
CONTINUOUS
 62
1
 10
1026.224043
 20
1266.243709
 40
25.000000
 50
87.878905
 51
180.000000
  0
ARC
  8
0
  6
CONTINUOUS
 62
1
 10
1435.224260
 20
1251.095560
 40
25.000000
 50
0.000000
 51
87.878905
  0
ARC
  8
0
  6
CONTINUOUS
 62
1
 10
1435.224260
 20
948.277991
 40
25.000000
 50
272.121095
 51
0.000000
  0
ARC
  8
0
  6
CONTINUOUS
 62
1
 10
1026.224043
 20
933.129842
 40
25.000000
 50
180.000000
 51
272.121095
  0
LINE
  8
0
  6
CONTINUOUS
 62
1
 10
952.026636
 20
1365.190576
 11
1619.224173
 21
1365.190576
  0
LINE
  8
0
  6
CONTINUOUS
 62
1
 10
952.026636
 20
831.189838
 11
952.026636
 21
1365.190576
  0
LINE
  8
0
  6
CONTINUOUS
 62
1
 10
1001.224043
 20
933.129842
 11
1001.224043
 21
1266.243709
  0
LINE
  8
0
  6
CONTINUOUS
 62
1
 10
1460.224260
 20
1251.095560
 11
1460.224260
 21
948.277991
  0
LINE
  8
0
  6
CONTINUOUS
 62
1
 10
1619.224173
 20
831.189838
 11
1619.224173
 21
1365.190576
  0
LINE
  8
0
  6
CONTINUOUS
 62
1
 10
952.026636
 20
831.189838
 11
1619.224173
 21
831.189838
  0
LINE
  8
0
  6
CONTINUOUS
 62
1
 10
1509.224260
 20
1365.190576
 11
1509.224260
 21
831.189838
  0
LINE
  8
0
  6
CONTINUOUS
 62
1
 10
1513.224173
 20
831.189838
 11
1513.224173
 21
1365.190576
  0
LINE
  8
0
  6
CONTINUOUS
 62
1
 10
952.224173
 20
1240.190576
 11
947.147140
 21
1240.190576
  0
LINE
  8
0
  6
CONTINUOUS
 62
1
 10
952.224173
 20
1252.883158
 11
947.147140
 21
1240.190576
  0
LINE
  8
0
  6
CONTINUOUS
 62
1
 10
952.224173
 20
1265.190576
 11
947.147140
 21
1265.190576
  0
LINE
  8
0
  6
CONTINUOUS
 62
1
 10
952.224173
 20
1277.883158
 11
947.147140
 21
1265.190576
  0
LINE
  8
0
  6
CONTINUOUS
 62
1
 10
952.224173
 20
1290.190576
 11
947.147140
 21
1290.190576
  0
LINE
  8
0
  6
CONTINUOUS
 62
1
 10
952.224173
 20
1302.883158
 11
947.147140
 21
1290.190576
  0
LINE
  8
0
  6
CONTINUOUS
 62
1
 10
952.224173
 20
1315.190576
 11
947.147140
 21
1315.190576
  0
LINE
  8
0
  6
CONTINUOUS
 62
1
 10
952.224173
 20
1327.883158
 11
947.147140
 21
1315.190576
  0
LINE
  8
0
  6
CONTINUOUS
 62
1
 10
1619.224173
 20
1240.190576
 11
1624.301206
 21
1240.190576
  0
LINE
  8
0
  6
CONTINUOUS
 62
1
 10
1619.224173
 20
1252.883158
 11
1624.301206
 21
1240.190576
  0
LINE
  8
0
  6
CONTINUOUS
 62
1
 10
1619.224173
 20
1265.190576
 11
1624.301206
 21
1265.190576
  0
LINE
  8
0
  6
CONTINUOUS
 62
1
 10
1619.224173
 20
1277.883158
 11
1624.301206
 21
1265.190576
  0
LINE
  8
0
  6
CONTINUOUS
 62
1
 10
1619.224173
 20
1290.190576
 11
1624.301206
 21
1290.190576
  0
LINE
  8
0
  6
CONTINUOUS
 62
1
 10
1619.224173
 20
1302.883158
 11
1624.301206
 21
1290.190576
  0
LINE
  8
0
  6
CONTINUOUS
 62
1
 10
1619.224173
 20
1315.190576
 11
1624.301206
 21
1315.190576
  0
LINE
  8
0
  6
CONTINUOUS
 62
1
 10
1619.224173
 20
1327.883158
 11
1624.301206
 21
1315.190576
  0
LINE
  8
0
  6
CONTINUOUS
 62
1
 10
1474.724260
 20
1250.689838
 11
1474.724260
 21
945.689838
  0
LINE
  8
0
  6
CONTINUOUS
 62
1
 10
1494.724260
 20
1250.689838
 11
1494.724260
 21
945.689838
  0
ARC
  8
0
  6
CONTINUOUS
 62
1
 10
1484.724260
 20
1250.689838
 40
10.000000
 50
0.000000
 51
180.000000
  0
ARC
  8
0
  6
CONTINUOUS
 62
1
 10
1484.724260
 20
945.689838
 40
10.000000
 50
180.000000
 51
0.000000
  0
CIRCLE
  8
0
  6
CONTINUOUS
 62
1
 10
1063.223597
 20
1171.188065
 40
1.500015
  0
CIRCLE
  8
0
  6
CONTINUOUS
 62
1
 10
1113.224741
 20
1171.188065
 40
1.500015
  0
LINE
  8
0
  6
CONTINUOUS
 62
1
 10
1064.723643
 20
1171.188065
 11
1064.723597
 21
1183.688065
  0
ARC
  8
0
  6
CONTINUOUS
 62
1
 10
1067.723597
 20
1183.688065
 40
3.000000
 50
89.999924
 51
180.000000
  0
LINE
  8
0
  6
CONTINUOUS
 62
1
 10
1067.723597
 20
1186.688065
 11
1108.724696
 21
1186.688065
  0
LINE
  8
0
  6
CONTINUOUS
 62
1
 10
1111.724696
 20
1171.185273
 11
1111.724696
 21
1183.688065
  0
ARC
  8
0
  6
CONTINUOUS
 62
1
 10
1108.724696
 20
1183.688065
 40
3.000000
 50
0.000000
 51
90.000000
  0
LINE
  8
0
  6
CONTINUOUS
 62
1
 10
1061.723597
 20
1171.127823
 11
1061.723597
 21
1183.688065
  0
ARC
  8
0
  6
CONTINUOUS
 62
1
 10
1067.723597
 20
1183.688065
 40
6.000000
 50
90.000000
 51
180.000000
  0
LINE
  8
0
  6
CONTINUOUS
 62
1
 10
1114.724741
 20
1171.188065
 11
1114.724741
 21
1183.688065
  0
LINE
  8
0
  6
CONTINUOUS
 62
1
 10
1067.723597
 20
1189.688065
 11
1108.724741
 21
1189.688065
  0
ARC
  8
0
  6
CONTINUOUS
 62
1
 10
1108.724741
 20
1183.688065
 40
6.000000
 50
0.000061
 51
90.000000
  0
CIRCLE
  8
0
  6
CONTINUOUS
 62
1
 10
1163.223597
 20
1171.188065
 40
1.500015
  0
CIRCLE
  8
0
  6
CONTINUOUS
 62
7
 10
1213.224741
 20
1171.188065
 40
1.500015
  0
LINE
  8
0
  6
CONTINUOUS
 62
1
 10
1164.723643
 20
1171.188065
 11
1164.723597
 21
1183.688065
  0
ARC
  8
0
  6
CONTINUOUS
 62
1
 10
1167.723597
 20
1183.688065
 40
3.000000
 50
89.999924
 51
180.000000
  0
LINE
  8
0
  6
CONTINUOUS
 62
1
 10
1167.723597
 20
1186.688065
 11
1208.724696
 21
1186.688065
  0
LINE
  8
0
  6
CONTINUOUS
 62
1
 10
1211.724696
 20
1171.185273
 11
1211.724696
 21
1183.688065
  0
ARC
  8
0
  6
CONTINUOUS
 62
1
 10
1208.724696
 20
1183.688065
 40
3.000000
 50
0.000000
 51
90.000000
  0
LINE
  8
0
  6
CONTINUOUS
 62
1
 10
1161.723597
 20
1171.127823
 11
1161.723597
 21
1183.688065
  0
ARC
  8
0
  6
CONTINUOUS
 62
1
 10
1167.723597
 20
1183.688065
 40
6.000000
 50
90.000000
 51
180.000000
  0
LINE
  8
0
  6
CONTINUOUS
 62
1
 10
1214.724741
 20
1171.188065
 11
1214.724741
 21
1183.688065
  0
LINE
  8
0
  6
CONTINUOUS
 62
1
 10
1167.723597
 20
1189.688065
 11
1208.724741
 21
1189.688065
  0
ARC
  8
0
  6
CONTINUOUS
 62
1
 10
1208.724741
 20
1183.688065
 40
6.000000
 50
0.000061
 51
90.000000
  0
CIRCLE
  8
0
  6
CONTINUOUS
 62
1
 10
1263.223597
 20
1171.188065
 40
1.500015
  0
CIRCLE
  8
0
  6
CONTINUOUS
 62
1
 10
1313.224741
 20
1171.188065
 40
1.500015
  0
LINE
  8
0
  6
CONTINUOUS
 62
1
 10
1264.723643
 20
1171.188065
 11
1264.723597
 21
1183.688065
  0
ARC
  8
0
  6
CONTINUOUS
 62
1
 10
1267.723597
 20
1183.688065
 40
3.000000
 50
89.999924
 51
180.000000
  0
LINE
  8
0
  6
CONTINUOUS
 62
1
 10
1267.723597
 20
1186.688065
 11
1308.724696
 21
1186.688065
  0
LINE
  8
0
  6
CONTINUOUS
 62
1
 10
1311.724696
 20
1171.185273
 11
1311.724696
 21
1183.688065
  0
ARC
  8
0
  6
CONTINUOUS
 62
1
 10
1308.724696
 20
1183.688065
 40
3.000000
 50
0.000000
 51
90.000000
  0
LINE
  8
0
  6
CONTINUOUS
 62
1
 10
1261.723597
 20
1171.127823
 11
1261.723597
 21
1183.688065
  0
ARC
  8
0
  6
CONTINUOUS
 62
1
 10
1267.723597
 20
1183.688065
 40
6.000000
 50
90.000000
 51
180.000000
  0
LINE
  8
0
  6
CONTINUOUS
 62
1
 10
1314.724741
 20
1171.188065
 11
1314.724741
 21
1183.688065
  0
LINE
  8
0
  6
CONTINUOUS
 62
1
 10
1267.723597
 20
1189.688065
 11
1308.724741
 21
1189.688065
  0
ARC
  8
0
  6
CONTINUOUS
 62
1
 10
1308.724741
 20
1183.688065
 40
6.000000
 50
0.000061
 51
90.000000
  0
CIRCLE
  8
0
  6
CONTINUOUS
 62
1
 10
1363.223597
 20
1171.188065
 40
1.500015
  0
CIRCLE
  8
0
  6
CONTINUOUS
 62
1
 10
1413.224741
 20
1171.188065
 40
1.500015
  0
LINE
  8
0
  6
CONTINUOUS
 62
1
 10
1364.723643
 20
1171.188065
 11
1364.723597
 21
1183.688065
  0
ARC
  8
0
  6
CONTINUOUS
 62
1
 10
1367.723597
 20
1183.688065
 40
3.000000
 50
89.999924
 51
180.000000
  0
LINE
  8
0
  6
CONTINUOUS
 62
1
 10
1367.723597
 20
1186.688065
 11
1408.724696
 21
1186.688065
  0
LINE
  8
0
  6
CONTINUOUS
 62
1
 10
1411.724696
 20
1171.185273
 11
1411.724696
 21
1183.688065
  0
ARC
  8
0
  6
CONTINUOUS
 62
1
 10
1408.724696
 20
1183.688065
 40
3.000000
 50
0.000000
 51
90.000000
  0
LINE
  8
0
  6
CONTINUOUS
 62
1
 10
1361.723597
 20
1171.127823
 11
1361.723597
 21
1183.688065
  0
ARC
  8
0
  6
CONTINUOUS
 62
1
 10
1367.723597
 20
1183.688065
 40
6.000000
 50
90.000000
 51
180.000000
  0
LINE
  8
0
  6
CONTINUOUS
 62
1
 10
1414.724741
 20
1171.188065
 11
1414.724741
 21
1183.688065
  0
LINE
  8
0
  6
CONTINUOUS
 62
1
 10
1367.723597
 20
1189.688065
 11
1408.724741
 21
1189.688065
  0
ARC
  8
0
  6
CONTINUOUS
 62
1
 10
1408.724741
 20
1183.688065
 40
6.000000
 50
0.000061
 51
90.000000
  0
CIRCLE
  8
0
  6
CONTINUOUS
 62
1
 10
1363.223597
 20
1051.188035
 40
1.500015
  0
CIRCLE
  8
0
  6
CONTINUOUS
 62
1
 10
1413.224741
 20
1051.188035
 40
1.500015
  0
LINE
  8
0
  6
CONTINUOUS
 62
1
 10
1364.723643
 20
1051.188035
 11
1364.723597
 21
1063.688035
  0
ARC
  8
0
  6
CONTINUOUS
 62
1
 10
1367.723597
 20
1063.688035
 40
3.000000
 50
89.999924
 51
180.000000
  0
LINE
  8
0
  6
CONTINUOUS
 62
1
 10
1367.723597
 20
1066.688035
 11
1408.724696
 21
1066.688035
  0
LINE
  8
0
  6
CONTINUOUS
 62
1
 10
1411.724696
 20
1051.185242
 11
1411.724696
 21
1063.688035
  0
ARC
  8
0
  6
CONTINUOUS
 62
1
 10
1408.724696
 20
1063.688035
 40
3.000000
 50
0.000000
 51
90.000000
  0
LINE
  8
0
  6
CONTINUOUS
 62
1
 10
1361.723597
 20
1051.127793
 11
1361.723597
 21
1063.688035
  0
ARC
  8
0
  6
CONTINUOUS
 62
1
 10
1367.723597
 20
1063.688035
 40
6.000000
 50
90.000000
 51
180.000000
  0
LINE
  8
0
  6
CONTINUOUS
 62
1
 10
1414.724741
 20
1051.188035
 11
1414.724741
 21
1063.688035
  0
LINE
  8
0
  6
CONTINUOUS
 62
1
 10
1367.723597
 20
1069.688035
 11
1408.724741
 21
1069.688035
  0
ARC
  8
0
  6
CONTINUOUS
 62
1
 10
1408.724741
 20
1063.688035
 40
6.000000
 50
0.000061
 51
90.000000
  0
CIRCLE
  8
0
  6
CONTINUOUS
 62
1
 10
1263.223597
 20
1051.188035
 40
1.500015
  0
CIRCLE
  8
0
  6
CONTINUOUS
 62
1
 10
1313.224741
 20
1051.188035
 40
1.500015
  0
LINE
  8
0
  6
CONTINUOUS
 62
1
 10
1264.723643
 20
1051.188035
 11
1264.723597
 21
1063.688035
  0
ARC
  8
0
  6
CONTINUOUS
 62
1
 10
1267.723597
 20
1063.688035
 40
3.000000
 50
89.999924
 51
180.000000
  0
LINE
  8
0
  6
CONTINUOUS
 62
1
 10
1267.723597
 20
1066.688035
 11
1308.724696
 21
1066.688035
  0
LINE
  8
0
  6
CONTINUOUS
 62
1
 10
1311.724696
 20
1051.185242
 11
1311.724696
 21
1063.688035
  0
ARC
  8
0
  6
CONTINUOUS
 62
1
 10
1308.724696
 20
1063.688035
 40
3.000000
 50
0.000000
 51
90.000000
  0
LINE
  8
0
  6
CONTINUOUS
 62
1
 10
1261.723597
 20
1051.127793
 11
1261.723597
 21
1063.688035
  0
ARC
  8
0
  6
CONTINUOUS
 62
1
 10
1267.723597
 20
1063.688035
 40
6.000000
 50
90.000000
 51
180.000000
  0
LINE
  8
0
  6
CONTINUOUS
 62
1
 10
1314.724741
 20
1051.188035
 11
1314.724741
 21
1063.688035
  0
LINE
  8
0
  6
CONTINUOUS
 62
1
 10
1267.723597
 20
1069.688035
 11
1308.724741
 21
1069.688035
  0
ARC
  8
0
  6
CONTINUOUS
 62
1
 10
1308.724741
 20
1063.688035
 40
6.000000
 50
0.000061
 51
90.000000
  0
CIRCLE
  8
0
  6
CONTINUOUS
 62
1
 10
1163.223597
 20
1051.188035
 40
1.500015
  0
CIRCLE
  8
0
  6
CONTINUOUS
 62
1
 10
1213.224741
 20
1051.188035
 40
1.500015
  0
LINE
  8
0
  6
CONTINUOUS
 62
1
 10
1164.723643
 20
1051.188035
 11
1164.723597
 21
1063.688035
  0
ARC
  8
0
  6
CONTINUOUS
 62
1
 10
1167.723597
 20
1063.688035
 40
3.000000
 50
89.999924
 51
180.000000
  0
LINE
  8
0
  6
CONTINUOUS
 62
1
 10
1167.723597
 20
1066.688035
 11
1208.724696
 21
1066.688035
  0
LINE
  8
0
  6
CONTINUOUS
 62
1
 10
1211.724696
 20
1051.185242
 11
1211.724696
 21
1063.688035
  0
ARC
  8
0
  6
CONTINUOUS
 62
1
 10
1208.724696
 20
1063.688035
 40
3.000000
 50
0.000000
 51
90.000000
  0
LINE
  8
0
  6
CONTINUOUS
 62
1
 10
1161.723597
 20
1051.127793
 11
1161.723597
 21
1063.688035
  0
ARC
  8
0
  6
CONTINUOUS
 62
1
 10
1167.723597
 20
1063.688035
 40
6.000000
 50
90.000000
 51
180.000000
  0
LINE
  8
0
  6
CONTINUOUS
 62
1
 10
1214.724741
 20
1051.188035
 11
1214.724741
 21
1063.688035
  0
LINE
  8
0
  6
CONTINUOUS
 62
1
 10
1167.723597
 20
1069.688035
 11
1208.724741
 21
1069.688035
  0
ARC
  8
0
  6
CONTINUOUS
 62
1
 10
1208.724741
 20
1063.688035
 40
6.000000
 50
0.000061
 51
90.000000
  0
CIRCLE
  8
0
  6
CONTINUOUS
 62
1
 10
1063.223597
 20
1051.188035
 40
1.500015
  0
CIRCLE
  8
0
  6
CONTINUOUS
 62
1
 10
1113.224741
 20
1051.188035
 40
1.500015
  0
LINE
  8
0
  6
CONTINUOUS
 62
1
 10
1064.723643
 20
1051.188035
 11
1064.723597
 21
1063.688035
  0
ARC
  8
0
  6
CONTINUOUS
 62
1
 10
1067.723597
 20
1063.688035
 40
3.000000
 50
89.999924
 51
180.000000
  0
LINE
  8
0
  6
CONTINUOUS
 62
1
 10
1067.723597
 20
1066.688035
 11
1108.724696
 21
1066.688035
  0
LINE
  8
0
  6
CONTINUOUS
 62
1
 10
1111.724696
 20
1051.185242
 11
1111.724696
 21
1063.688035
  0
ARC
  8
0
  6
CONTINUOUS
 62
1
 10
1108.724696
 20
1063.688035
 40
3.000000
 50
0.000000
 51
90.000000
  0
LINE
  8
0
  6
CONTINUOUS
 62
1
 10
1061.723597
 20
1051.127793
 11
1061.723597
 21
1063.688035
  0
ARC
  8
0
  6
CONTINUOUS
 62
1
 10
1067.723597
 20
1063.688035
 40
6.000000
 50
90.000000
 51
180.000000
  0
LINE
  8
0
  6
CONTINUOUS
 62
1
 10
1114.724741
 20
1051.188035
 11
1114.724741
 21
1063.688035
  0
LINE
  8
0
  6
CONTINUOUS
 62
1
 10
1067.723597
 20
1069.688035
 11
1108.724741
 21
1069.688035
  0
ARC
  8
0
  6
CONTINUOUS
 62
1
 10
1108.724741
 20
1063.688035
 40
6.000000
 50
0.000061
 51
90.000000
  0
CIRCLE
  8
0
  6
CONTINUOUS
 62
1
 10
1063.223597
 20
931.188035
 40
1.500015
  0
CIRCLE
  8
0
  6
CONTINUOUS
 62
1
 10
1113.224741
 20
931.188035
 40
1.500015
  0
LINE
  8
0
  6
CONTINUOUS
 62
1
 10
1064.723643
 20
931.188035
 11
1064.723597
 21
943.688035
  0
ARC
  8
0
  6
CONTINUOUS
 62
1
 10
1067.723597
 20
943.688035
 40
3.000000
 50
89.999924
 51
180.000000
  0
LINE
  8
0
  6
CONTINUOUS
 62
1
 10
1067.723597
 20
946.688035
 11
1108.724696
 21
946.688035
  0
LINE
  8
0
  6
CONTINUOUS
 62
1
 10
1111.724696
 20
931.185242
 11
1111.724696
 21
943.688035
  0
ARC
  8
0
  6
CONTINUOUS
 62
1
 10
1108.724696
 20
943.688035
 40
3.000000
 50
0.000000
 51
90.000000
  0
LINE
  8
0
  6
CONTINUOUS
 62
1
 10
1061.723597
 20
931.127793
 11
1061.723597
 21
943.688035
  0
ARC
  8
0
  6
CONTINUOUS
 62
1
 10
1067.723597
 20
943.688035
 40
6.000000
 50
90.000000
 51
180.000000
  0
LINE
  8
0
  6
CONTINUOUS
 62
1
 10
1114.724741
 20
931.188035
 11
1114.724741
 21
943.688035
  0
LINE
  8
0
  6
CONTINUOUS
 62
1
 10
1067.723597
 20
949.688035
 11
1108.724741
 21
949.688035
  0
ARC
  8
0
  6
CONTINUOUS
 62
1
 10
1108.724741
 20
943.688035
 40
6.000000
 50
0.000061
 51
90.000000
  0
CIRCLE
  8
0
  6
CONTINUOUS
 62
1
 10
1163.223597
 20
931.188035
 40
1.500015
  0
CIRCLE
  8
0
  6
CONTINUOUS
 62
1
 10
1213.224741
 20
931.188035
 40
1.500015
  0
LINE
  8
0
  6
CONTINUOUS
 62
1
 10
1164.723643
 20
931.188035
 11
1164.723597
 21
943.688035
  0
ARC
  8
0
  6
CONTINUOUS
 62
1
 10
1167.723597
 20
943.688035
 40
3.000000
 50
89.999924
 51
180.000000
  0
LINE
  8
0
  6
CONTINUOUS
 62
1
 10
1167.723597
 20
946.688035
 11
1208.724696
 21
946.688035
  0
LINE
  8
0
  6
CONTINUOUS
 62
1
 10
1211.724696
 20
931.185242
 11
1211.724696
 21
943.688035
  0
ARC
  8
0
  6
CONTINUOUS
 62
1
 10
1208.724696
 20
943.688035
 40
3.000000
 50
0.000000
 51
90.000000
  0
LINE
  8
0
  6
CONTINUOUS
 62
1
 10
1161.723597
 20
931.127793
 11
1161.723597
 21
943.688035
  0
ARC
  8
0
  6
CONTINUOUS
 62
1
 10
1167.723597
 20
943.688035
 40
6.000000
 50
90.000000
 51
180.000000
  0
LINE
  8
0
  6
CONTINUOUS
 62
1
 10
1214.724741
 20
931.188035
 11
1214.724741
 21
943.688035
  0
LINE
  8
0
  6
CONTINUOUS
 62
1
 10
1167.723597
 20
949.688035
 11
1208.724741
 21
949.688035
  0
ARC
  8
0
  6
CONTINUOUS
 62
1
 10
1208.724741
 20
943.688035
 40
6.000000
 50
0.000061
 51
90.000000
  0
CIRCLE
  8
0
  6
CONTINUOUS
 62
1
 10
1263.223597
 20
931.188035
 40
1.500015
  0
CIRCLE
  8
0
  6
CONTINUOUS
 62
1
 10
1313.224741
 20
931.188035
 40
1.500015
  0
LINE
  8
0
  6
CONTINUOUS
 62
1
 10
1264.723643
 20
931.188035
 11
1264.723597
 21
943.688035
  0
ARC
  8
0
  6
CONTINUOUS
 62
1
 10
1267.723597
 20
943.688035
 40
3.000000
 50
89.999924
 51
180.000000
  0
LINE
  8
0
  6
CONTINUOUS
 62
1
 10
1267.723597
 20
946.688035
 11
1308.724696
 21
946.688035
  0
LINE
  8
0
  6
CONTINUOUS
 62
1
 10
1311.724696
 20
931.185242
 11
1311.724696
 21
943.688035
  0
ARC
  8
0
  6
CONTINUOUS
 62
1
 10
1308.724696
 20
943.688035
 40
3.000000
 50
0.000000
 51
90.000000
  0
LINE
  8
0
  6
CONTINUOUS
 62
1
 10
1261.723597
 20
931.127793
 11
1261.723597
 21
943.688035
  0
ARC
  8
0
  6
CONTINUOUS
 62
1
 10
1267.723597
 20
943.688035
 40
6.000000
 50
90.000000
 51
180.000000
  0
LINE
  8
0
  6
CONTINUOUS
 62
1
 10
1314.724741
 20
931.188035
 11
1314.724741
 21
943.688035
  0
LINE
  8
0
  6
CONTINUOUS
 62
1
 10
1267.723597
 20
949.688035
 11
1308.724741
 21
949.688035
  0
ARC
  8
0
  6
CONTINUOUS
 62
1
 10
1308.724741
 20
943.688035
 40
6.000000
 50
0.000061
 51
90.000000
  0
CIRCLE
  8
0
  6
CONTINUOUS
 62
1
 10
1363.223597
 20
931.188035
 40
1.500015
  0
CIRCLE
  8
0
  6
CONTINUOUS
 62
1
 10
1413.224741
 20
931.188035
 40
1.500015
  0
LINE
  8
0
  6
CONTINUOUS
 62
1
 10
1364.723643
 20
931.188035
 11
1364.723597
 21
943.688035
  0
ARC
  8
0
  6
CONTINUOUS
 62
1
 10
1367.723597
 20
943.688035
 40
3.000000
 50
89.999924
 51
180.000000
  0
LINE
  8
0
  6
CONTINUOUS
 62
1
 10
1367.723597
 20
946.688035
 11
1408.724696
 21
946.688035
  0
LINE
  8
0
  6
CONTINUOUS
 62
1
 10
1411.724696
 20
931.185242
 11
1411.724696
 21
943.688035
  0
ARC
  8
0
  6
CONTINUOUS
 62
1
 10
1408.724696
 20
943.688035
 40
3.000000
 50
0.000000
 51
90.000000
  0
LINE
  8
0
  6
CONTINUOUS
 62
1
 10
1361.723597
 20
931.127793
 11
1361.723597
 21
943.688035
  0
ARC
  8
0
  6
CONTINUOUS
 62
1
 10
1367.723597
 20
943.688035
 40
6.000000
 50
90.000000
 51
180.000000
  0
LINE
  8
0
  6
CONTINUOUS
 62
1
 10
1414.724741
 20
931.188035
 11
1414.724741
 21
943.688035
  0
LINE
  8
0
  6
CONTINUOUS
 62
1
 10
1367.723597
 20
949.688035
 11
1408.724741
 21
949.688035
  0
ARC
  8
0
  6
CONTINUOUS
 62
1
 10
1408.724741
 20
943.688035
 40
6.000000
 50
0.000061
 51
90.000000
  0
LINE
  8
0
  6
CONTINUOUS
 62
1
 10
1460.224260
 20
1169.688065
 11
1001.224043
 21
1169.688065
  0
LINE
  8
0
  6
CONTINUOUS
 62
1
 10
1460.224260
 20
1163.688065
 11
1001.224043
 21
1163.688065
  0
LINE
  8
0
  6
CONTINUOUS
 62
1
 10
1460.224260
 20
1043.688035
 11
1001.224043
 21
1043.688035
  0
LINE
  8
0
  6
CONTINUOUS
 62
1
 10
1460.224260
 20
1049.688035
 11
1001.224043
 21
1049.688035
  0
LINE
  8
0
  6
CONTINUOUS
 62
1
 10
1451.939927
 20
929.688035
 11
1001.224043
 21
929.688035
  0
LINE
  8
0
  6
CONTINUOUS
 62
1
 10
1439.733589
 20
923.688035
 11
1002.712952
 21
923.688035
  0
LINE
  8
0
  6
CONTINUOUS
 62
7
 10
1225.224188
 20
1171.190526
 11
1215.224188
 21
1171.190526
  0
LINE
  8
0
  6
CONTINUOUS
 62
7
 10
1225.224188
 20
1161.190526
 11
1215.224188
 21
1161.190526
  0
LINE
  8
0
  6
CONTINUOUS
 62
7
 10
1225.224188
 20
1171.190526
 11
1225.224188
 21
1169.688065
  0
LINE
  8
0
  6
CONTINUOUS
 62
7
 10
1215.224188
 20
1171.190526
 11
1215.224188
 21
1169.688065
  0
LINE
  8
0
  6
CONTINUOUS
 62
7
 10
1237.224188
 20
1171.190526
 11
1227.224188
 21
1171.190526
  0
LINE
  8
0
  6
CONTINUOUS
 62
7
 10
1237.224188
 20
1161.190526
 11
1227.224188
 21
1161.190526
  0
LINE
  8
0
  6
CONTINUOUS
 62
7
 10
1237.224188
 20
1171.190526
 11
1237.224188
 21
1169.688065
  0
LINE
  8
0
  6
CONTINUOUS
 62
7
 10
1227.224188
 20
1171.190526
 11
1227.224188
 21
1169.688065
  0
LINE
  8
0
  6
CONTINUOUS
 62
7
 10
1249.224188
 20
1171.190526
 11
1239.224188
 21
1171.190526
  0
LINE
  8
0
  6
CONTINUOUS
 62
7
 10
1249.224188
 20
1161.190526
 11
1239.224188
 21
1161.190526
  0
LINE
  8
0
  6
CONTINUOUS
 62
7
 10
1249.224188
 20
1171.190526
 11
1249.224188
 21
1169.688065
  0
LINE
  8
0
  6
CONTINUOUS
 62
7
 10
1239.224188
 20
1171.190526
 11
1239.224188
 21
1169.688065
  0
LINE
  8
0
  6
CONTINUOUS
 62
7
 10
1261.224188
 20
1171.190526
 11
1251.224188
 21
1171.190526
  0
LINE
  8
0
  6
CONTINUOUS
 62
7
 10
1261.224188
 20
1161.190526
 11
1251.224188
 21
1161.190526
  0
LINE
  8
0
  6
CONTINUOUS
 62
7
 10
1261.224188
 20
1171.190526
 11
1261.224188
 21
1169.688065
  0
LINE
  8
0
  6
CONTINUOUS
 62
7
 10
1251.224188
 20
1171.190526
 11
1251.224188
 21
1169.688065
  0
LINE
  8
0
  6
CONTINUOUS
 62
7
 10
1285.224188
 20
1159.190526
 11
1275.224188
 21
1159.190526
  0
LINE
  8
0
  6
CONTINUOUS
 62
7
 10
1285.224188
 20
1149.190526
 11
1275.224188
 21
1149.190526
  0
LINE
  8
0
  6
CONTINUOUS
 62
7
 10
1285.224188
 20
1159.190526
 11
1285.224188
 21
1149.190526
  0
LINE
  8
0
  6
CONTINUOUS
 62
7
 10
1275.224188
 20
1159.190526
 11
1275.224188
 21
1149.190526
  0
LINE
  8
0
  6
CONTINUOUS
 62
7
 10
1273.224188
 20
1159.190526
 11
1263.224188
 21
1159.190526
  0
LINE
  8
0
  6
CONTINUOUS
 62
7
 10
1273.224188
 20
1149.190526
 11
1263.224188
 21
1149.190526
  0
LINE
  8
0
  6
CONTINUOUS
 62
7
 10
1273.224188
 20
1159.190526
 11
1273.224188
 21
1149.190526
  0
LINE
  8
0
  6
CONTINUOUS
 62
7
 10
1263.224188
 20
1159.190526
 11
1263.224188
 21
1149.190526
  0
LINE
  8
0
  6
CONTINUOUS
 62
7
 10
1261.224188
 20
1159.190526
 11
1251.224188
 21
1159.190526
  0
LINE
  8
0
  6
CONTINUOUS
 62
7
 10
1261.224188
 20
1149.190526
 11
1251.224188
 21
1149.190526
  0
LINE
  8
0
  6
CONTINUOUS
 62
7
 10
1261.224188
 20
1159.190526
 11
1261.224188
 21
1149.190526
  0
LINE
  8
0
  6
CONTINUOUS
 62
7
 10
1251.224188
 20
1159.190526
 11
1251.224188
 21
1149.190526
  0
LINE
  8
0
  6
CONTINUOUS
 62
7
 10
1249.224188
 20
1159.190526
 11
1239.224188
 21
1159.190526
  0
LINE
  8
0
  6
CONTINUOUS
 62
7
 10
1249.224188
 20
1149.190526
 11
1239.224188
 21
1149.190526
  0
LINE
  8
0
  6
CONTINUOUS
 62
7
 10
1249.224188
 20
1159.190526
 11
1249.224188
 21
1149.190526
  0
LINE
  8
0
  6
CONTINUOUS
 62
7
 10
1239.224188
 20
1159.190526
 11
1239.224188
 21
1149.190526
  0
LINE
  8
0
  6
CONTINUOUS
 62
7
 10
1237.224188
 20
1159.190526
 11
1227.224188
 21
1159.190526
  0
LINE
  8
0
  6
CONTINUOUS
 62
7
 10
1237.224188
 20
1149.190526
 11
1227.224188
 21
1149.190526
  0
LINE
  8
0
  6
CONTINUOUS
 62
7
 10
1237.224188
 20
1159.190526
 11
1237.224188
 21
1149.190526
  0
LINE
  8
0
  6
CONTINUOUS
 62
7
 10
1227.224188
 20
1159.190526
 11
1227.224188
 21
1149.190526
  0
LINE
  8
0
  6
CONTINUOUS
 62
7
 10
1225.224188
 20
1159.190526
 11
1215.224188
 21
1159.190526
  0
LINE
  8
0
  6
CONTINUOUS
 62
7
 10
1225.224188
 20
1149.190526
 11
1215.224188
 21
1149.190526
  0
LINE
  8
0
  6
CONTINUOUS
 62
7
 10
1225.224188
 20
1159.190526
 11
1225.224188
 21
1149.190526
  0
LINE
  8
0
  6
CONTINUOUS
 62
7
 10
1215.224188
 20
1159.190526
 11
1215.224188
 21
1149.190526
  0
LINE
  8
0
  6
CONTINUOUS
 62
7
 10
1213.224188
 20
1159.190526
 11
1203.224188
 21
1159.190526
  0
LINE
  8
0
  6
CONTINUOUS
 62
7
 10
1213.224188
 20
1149.190526
 11
1203.224188
 21
1149.190526
  0
LINE
  8
0
  6
CONTINUOUS
 62
7
 10
1213.224188
 20
1159.190526
 11
1213.224188
 21
1149.190526
  0
LINE
  8
0
  6
CONTINUOUS
 62
7
 10
1203.224188
 20
1159.190526
 11
1203.224188
 21
1149.190526
  0
LINE
  8
0
  6
CONTINUOUS
 62
7
 10
1201.224188
 20
1159.190526
 11
1191.224188
 21
1159.190526
  0
LINE
  8
0
  6
CONTINUOUS
 62
7
 10
1201.224188
 20
1149.190526
 11
1191.224188
 21
1149.190526
  0
LINE
  8
0
  6
CONTINUOUS
 62
7
 10
1201.224188
 20
1159.190526
 11
1201.224188
 21
1149.190526
  0
LINE
  8
0
  6
CONTINUOUS
 62
7
 10
1191.224188
 20
1159.190526
 11
1191.224188
 21
1149.190526
  0
LINE
  8
0
  6
CONTINUOUS
 62
7
 10
1189.224188
 20
1147.190526
 11
1179.224188
 21
1147.190526
  0
LINE
  8
0
  6
CONTINUOUS
 62
7
 10
1189.224188
 20
1137.190526
 11
1179.224188
 21
1137.190526
  0
LINE
  8
0
  6
CONTINUOUS
 62
7
 10
1189.224188
 20
1147.190526
 11
1189.224188
 21
1137.190526
  0
LINE
  8
0
  6
CONTINUOUS
 62
7
 10
1179.224188
 20
1147.190526
 11
1179.224188
 21
1137.190526
  0
LINE
  8
0
  6
CONTINUOUS
 62
7
 10
1201.224188
 20
1147.190526
 11
1191.224188
 21
1147.190526
  0
LINE
  8
0
  6
CONTINUOUS
 62
7
 10
1201.224188
 20
1137.190526
 11
1191.224188
 21
1137.190526
  0
LINE
  8
0
  6
CONTINUOUS
 62
7
 10
1201.224188
 20
1147.190526
 11
1201.224188
 21
1137.190526
  0
LINE
  8
0
  6
CONTINUOUS
 62
7
 10
1191.224188
 20
1147.190526
 11
1191.224188
 21
1137.190526
  0
LINE
  8
0
  6
CONTINUOUS
 62
7
 10
1213.224188
 20
1147.190526
 11
1203.224188
 21
1147.190526
  0
LINE
  8
0
  6
CONTINUOUS
 62
7
 10
1213.224188
 20
1137.190526
 11
1203.224188
 21
1137.190526
  0
LINE
  8
0
  6
CONTINUOUS
 62
7
 10
1213.224188
 20
1147.190526
 11
1213.224188
 21
1137.190526
  0
LINE
  8
0
  6
CONTINUOUS
 62
7
 10
1203.224188
 20
1147.190526
 11
1203.224188
 21
1137.190526
  0
LINE
  8
0
  6
CONTINUOUS
 62
7
 10
1225.224188
 20
1147.190526
 11
1215.224188
 21
1147.190526
  0
LINE
  8
0
  6
CONTINUOUS
 62
7
 10
1225.224188
 20
1137.190526
 11
1215.224188
 21
1137.190526
  0
LINE
  8
0
  6
CONTINUOUS
 62
7
 10
1225.224188
 20
1147.190526
 11
1225.224188
 21
1137.190526
  0
LINE
  8
0
  6
CONTINUOUS
 62
7
 10
1215.224188
 20
1147.190526
 11
1215.224188
 21
1137.190526
  0
LINE
  8
0
  6
CONTINUOUS
 62
7
 10
1237.224188
 20
1147.190526
 11
1227.224188
 21
1147.190526
  0
LINE
  8
0
  6
CONTINUOUS
 62
7
 10
1237.224188
 20
1137.190526
 11
1227.224188
 21
1137.190526
  0
LINE
  8
0
  6
CONTINUOUS
 62
7
 10
1237.224188
 20
1147.190526
 11
1237.224188
 21
1137.190526
  0
LINE
  8
0
  6
CONTINUOUS
 62
7
 10
1227.224188
 20
1147.190526
 11
1227.224188
 21
1137.190526
  0
LINE
  8
0
  6
CONTINUOUS
 62
7
 10
1249.224188
 20
1147.190526
 11
1239.224188
 21
1147.190526
  0
LINE
  8
0
  6
CONTINUOUS
 62
7
 10
1249.224188
 20
1137.190526
 11
1239.224188
 21
1137.190526
  0
LINE
  8
0
  6
CONTINUOUS
 62
7
 10
1249.224188
 20
1147.190526
 11
1249.224188
 21
1137.190526
  0
LINE
  8
0
  6
CONTINUOUS
 62
7
 10
1239.224188
 20
1147.190526
 11
1239.224188
 21
1137.190526
  0
LINE
  8
0
  6
CONTINUOUS
 62
7
 10
1261.224188
 20
1147.190526
 11
1251.224188
 21
1147.190526
  0
LINE
  8
0
  6
CONTINUOUS
 62
7
 10
1261.224188
 20
1137.190526
 11
1251.224188
 21
1137.190526
  0
LINE
  8
0
  6
CONTINUOUS
 62
7
 10
1261.224188
 20
1147.190526
 11
1261.224188
 21
1137.190526
  0
LINE
  8
0
  6
CONTINUOUS
 62
7
 10
1251.224188
 20
1147.190526
 11
1251.224188
 21
1137.190526
  0
LINE
  8
0
  6
CONTINUOUS
 62
7
 10
1273.224188
 20
1147.190526
 11
1263.224188
 21
1147.190526
  0
LINE
  8
0
  6
CONTINUOUS
 62
7
 10
1273.224188
 20
1137.190526
 11
1263.224188
 21
1137.190526
  0
LINE
  8
0
  6
CONTINUOUS
 62
7
 10
1273.224188
 20
1147.190526
 11
1273.224188
 21
1137.190526
  0
LINE
  8
0
  6
CONTINUOUS
 62
7
 10
1263.224188
 20
1147.190526
 11
1263.224188
 21
1137.190526
  0
LINE
  8
0
  6
CONTINUOUS
 62
7
 10
1285.224188
 20
1147.190526
 11
1275.224188
 21
1147.190526
  0
LINE
  8
0
  6
CONTINUOUS
 62
7
 10
1285.224188
 20
1137.190526
 11
1275.224188
 21
1137.190526
  0
LINE
  8
0
  6
CONTINUOUS
 62
7
 10
1285.224188
 20
1147.190526
 11
1285.224188
 21
1137.190526
  0
LINE
  8
0
  6
CONTINUOUS
 62
7
 10
1275.224188
 20
1147.190526
 11
1275.224188
 21
1137.190526
  0
LINE
  8
0
  6
CONTINUOUS
 62
7
 10
1297.224188
 20
1147.190526
 11
1287.224188
 21
1147.190526
  0
LINE
  8
0
  6
CONTINUOUS
 62
7
 10
1297.224188
 20
1137.190526
 11
1287.224188
 21
1137.190526
  0
LINE
  8
0
  6
CONTINUOUS
 62
7
 10
1297.224188
 20
1147.190526
 11
1297.224188
 21
1137.190526
  0
LINE
  8
0
  6
CONTINUOUS
 62
7
 10
1287.224188
 20
1147.190526
 11
1287.224188
 21
1137.190526
  0
LINE
  8
0
  6
CONTINUOUS
 62
7
 10
1297.224188
 20
1135.190526
 11
1287.224188
 21
1135.190526
  0
LINE
  8
0
  6
CONTINUOUS
 62
7
 10
1297.224188
 20
1125.190526
 11
1287.224188
 21
1125.190526
  0
LINE
  8
0
  6
CONTINUOUS
 62
7
 10
1297.224188
 20
1135.190526
 11
1297.224188
 21
1125.190526
  0
LINE
  8
0
  6
CONTINUOUS
 62
7
 10
1287.224188
 20
1135.190526
 11
1287.224188
 21
1125.190526
  0
LINE
  8
0
  6
CONTINUOUS
 62
7
 10
1285.224188
 20
1135.190526
 11
1275.224188
 21
1135.190526
  0
LINE
  8
0
  6
CONTINUOUS
 62
7
 10
1285.224188
 20
1125.190526
 11
1275.224188
 21
1125.190526
  0
LINE
  8
0
  6
CONTINUOUS
 62
7
 10
1285.224188
 20
1135.190526
 11
1285.224188
 21
1125.190526
  0
LINE
  8
0
  6
CONTINUOUS
 62
7
 10
1275.224188
 20
1135.190526
 11
1275.224188
 21
1125.190526
  0
LINE
  8
0
  6
CONTINUOUS
 62
7
 10
1273.224188
 20
1135.190526
 11
1263.224188
 21
1135.190526
  0
LINE
  8
0
  6
CONTINUOUS
 62
7
 10
1273.224188
 20
1125.190526
 11
1263.224188
 21
1125.190526
  0
LINE
  8
0
  6
CONTINUOUS
 62
7
 10
1273.224188
 20
1135.190526
 11
1273.224188
 21
1125.190526
  0
LINE
  8
0
  6
CONTINUOUS
 62
7
 10
1263.224188
 20
1135.190526
 11
1263.224188
 21
1125.190526
  0
LINE
  8
0
  6
CONTINUOUS
 62
7
 10
1261.224188
 20
1135.190526
 11
1251.224188
 21
1135.190526
  0
LINE
  8
0
  6
CONTINUOUS
 62
7
 10
1261.224188
 20
1125.190526
 11
1251.224188
 21
1125.190526
  0
LINE
  8
0
  6
CONTINUOUS
 62
7
 10
1261.224188
 20
1135.190526
 11
1261.224188
 21
1125.190526
  0
LINE
  8
0
  6
CONTINUOUS
 62
7
 10
1251.224188
 20
1135.190526
 11
1251.224188
 21
1125.190526
  0
LINE
  8
0
  6
CONTINUOUS
 62
7
 10
1249.224188
 20
1135.190526
 11
1239.224188
 21
1135.190526
  0
LINE
  8
0
  6
CONTINUOUS
 62
7
 10
1249.224188
 20
1125.190526
 11
1239.224188
 21
1125.190526
  0
LINE
  8
0
  6
CONTINUOUS
 62
7
 10
1249.224188
 20
1135.190526
 11
1249.224188
 21
1125.190526
  0
LINE
  8
0
  6
CONTINUOUS
 62
7
 10
1239.224188
 20
1135.190526
 11
1239.224188
 21
1125.190526
  0
LINE
  8
0
  6
CONTINUOUS
 62
7
 10
1237.224188
 20
1135.190526
 11
1227.224188
 21
1135.190526
  0
LINE
  8
0
  6
CONTINUOUS
 62
7
 10
1237.224188
 20
1125.190526
 11
1227.224188
 21
1125.190526
  0
LINE
  8
0
  6
CONTINUOUS
 62
7
 10
1237.224188
 20
1135.190526
 11
1237.224188
 21
1125.190526
  0
LINE
  8
0
  6
CONTINUOUS
 62
7
 10
1227.224188
 20
1135.190526
 11
1227.224188
 21
1125.190526
  0
LINE
  8
0
  6
CONTINUOUS
 62
7
 10
1225.224188
 20
1135.190526
 11
1215.224188
 21
1135.190526
  0
LINE
  8
0
  6
CONTINUOUS
 62
7
 10
1225.224188
 20
1125.190526
 11
1215.224188
 21
1125.190526
  0
LINE
  8
0
  6
CONTINUOUS
 62
7
 10
1225.224188
 20
1135.190526
 11
1225.224188
 21
1125.190526
  0
LINE
  8
0
  6
CONTINUOUS
 62
7
 10
1215.224188
 20
1135.190526
 11
1215.224188
 21
1125.190526
  0
LINE
  8
0
  6
CONTINUOUS
 62
7
 10
1213.224188
 20
1135.190526
 11
1203.224188
 21
1135.190526
  0
LINE
  8
0
  6
CONTINUOUS
 62
7
 10
1213.224188
 20
1125.190526
 11
1203.224188
 21
1125.190526
  0
LINE
  8
0
  6
CONTINUOUS
 62
7
 10
1213.224188
 20
1135.190526
 11
1213.224188
 21
1125.190526
  0
LINE
  8
0
  6
CONTINUOUS
 62
7
 10
1203.224188
 20
1135.190526
 11
1203.224188
 21
1125.190526
  0
LINE
  8
0
  6
CONTINUOUS
 62
7
 10
1201.224188
 20
1135.190526
 11
1191.224188
 21
1135.190526
  0
LINE
  8
0
  6
CONTINUOUS
 62
7
 10
1201.224188
 20
1125.190526
 11
1191.224188
 21
1125.190526
  0
LINE
  8
0
  6
CONTINUOUS
 62
7
 10
1201.224188
 20
1135.190526
 11
1201.224188
 21
1125.190526
  0
LINE
  8
0
  6
CONTINUOUS
 62
7
 10
1191.224188
 20
1135.190526
 11
1191.224188
 21
1125.190526
  0
LINE
  8
0
  6
CONTINUOUS
 62
7
 10
1189.224188
 20
1135.190526
 11
1179.224188
 21
1135.190526
  0
LINE
  8
0
  6
CONTINUOUS
 62
7
 10
1189.224188
 20
1125.190526
 11
1179.224188
 21
1125.190526
  0
LINE
  8
0
  6
CONTINUOUS
 62
7
 10
1189.224188
 20
1135.190526
 11
1189.224188
 21
1125.190526
  0
LINE
  8
0
  6
CONTINUOUS
 62
7
 10
1179.224188
 20
1135.190526
 11
1179.224188
 21
1125.190526
  0
LINE
  8
0
  6
CONTINUOUS
 62
7
 10
1177.224188
 20
1123.190526
 11
1167.224188
 21
1123.190526
  0
LINE
  8
0
  6
CONTINUOUS
 62
7
 10
1177.224188
 20
1113.190526
 11
1167.224188
 21
1113.190526
  0
LINE
  8
0
  6
CONTINUOUS
 62
7
 10
1177.224188
 20
1123.190526
 11
1177.224188
 21
1113.190526
  0
LINE
  8
0
  6
CONTINUOUS
 62
7
 10
1167.224188
 20
1123.190526
 11
1167.224188
 21
1113.190526
  0
LINE
  8
0
  6
CONTINUOUS
 62
7
 10
1189.224188
 20
1123.190526
 11
1179.224188
 21
1123.190526
  0
LINE
  8
0
  6
CONTINUOUS
 62
7
 10
1189.224188
 20
1113.190526
 11
1179.224188
 21
1113.190526
  0
LINE
  8
0
  6
CONTINUOUS
 62
7
 10
1189.224188
 20
1123.190526
 11
1189.224188
 21
1113.190526
  0
LINE
  8
0
  6
CONTINUOUS
 62
7
 10
1179.224188
 20
1123.190526
 11
1179.224188
 21
1113.190526
  0
LINE
  8
0
  6
CONTINUOUS
 62
7
 10
1201.224188
 20
1123.190526
 11
1191.224188
 21
1123.190526
  0
LINE
  8
0
  6
CONTINUOUS
 62
7
 10
1201.224188
 20
1113.190526
 11
1191.224188
 21
1113.190526
  0
LINE
  8
0
  6
CONTINUOUS
 62
7
 10
1201.224188
 20
1123.190526
 11
1201.224188
 21
1113.190526
  0
LINE
  8
0
  6
CONTINUOUS
 62
7
 10
1191.224188
 20
1123.190526
 11
1191.224188
 21
1113.190526
  0
LINE
  8
0
  6
CONTINUOUS
 62
7
 10
1213.224188
 20
1123.190526
 11
1203.224188
 21
1123.190526
  0
LINE
  8
0
  6
CONTINUOUS
 62
7
 10
1213.224188
 20
1113.190526
 11
1203.224188
 21
1113.190526
  0
LINE
  8
0
  6
CONTINUOUS
 62
7
 10
1213.224188
 20
1123.190526
 11
1213.224188
 21
1113.190526
  0
LINE
  8
0
  6
CONTINUOUS
 62
7
 10
1203.224188
 20
1123.190526
 11
1203.224188
 21
1113.190526
  0
LINE
  8
0
  6
CONTINUOUS
 62
7
 10
1225.224188
 20
1123.190526
 11
1215.224188
 21
1123.190526
  0
LINE
  8
0
  6
CONTINUOUS
 62
7
 10
1225.224188
 20
1113.190526
 11
1215.224188
 21
1113.190526
  0
LINE
  8
0
  6
CONTINUOUS
 62
7
 10
1225.224188
 20
1123.190526
 11
1225.224188
 21
1113.190526
  0
LINE
  8
0
  6
CONTINUOUS
 62
7
 10
1215.224188
 20
1123.190526
 11
1215.224188
 21
1113.190526
  0
LINE
  8
0
  6
CONTINUOUS
 62
7
 10
1237.224188
 20
1123.190526
 11
1227.224188
 21
1123.190526
  0
LINE
  8
0
  6
CONTINUOUS
 62
7
 10
1237.224188
 20
1113.190526
 11
1227.224188
 21
1113.190526
  0
LINE
  8
0
  6
CONTINUOUS
 62
7
 10
1237.224188
 20
1123.190526
 11
1237.224188
 21
1113.190526
  0
LINE
  8
0
  6
CONTINUOUS
 62
7
 10
1227.224188
 20
1123.190526
 11
1227.224188
 21
1113.190526
  0
LINE
  8
0
  6
CONTINUOUS
 62
7
 10
1249.224188
 20
1123.190526
 11
1239.224188
 21
1123.190526
  0
LINE
  8
0
  6
CONTINUOUS
 62
7
 10
1249.224188
 20
1113.190526
 11
1239.224188
 21
1113.190526
  0
LINE
  8
0
  6
CONTINUOUS
 62
7
 10
1249.224188
 20
1123.190526
 11
1249.224188
 21
1113.190526
  0
LINE
  8
0
  6
CONTINUOUS
 62
7
 10
1239.224188
 20
1123.190526
 11
1239.224188
 21
1113.190526
  0
LINE
  8
0
  6
CONTINUOUS
 62
7
 10
1261.224188
 20
1123.190526
 11
1251.224188
 21
1123.190526
  0
LINE
  8
0
  6
CONTINUOUS
 62
7
 10
1261.224188
 20
1113.190526
 11
1251.224188
 21
1113.190526
  0
LINE
  8
0
  6
CONTINUOUS
 62
7
 10
1261.224188
 20
1123.190526
 11
1261.224188
 21
1113.190526
  0
LINE
  8
0
  6
CONTINUOUS
 62
7
 10
1251.224188
 20
1123.190526
 11
1251.224188
 21
1113.190526
  0
LINE
  8
0
  6
CONTINUOUS
 62
7
 10
1273.224188
 20
1123.190526
 11
1263.224188
 21
1123.190526
  0
LINE
  8
0
  6
CONTINUOUS
 62
7
 10
1273.224188
 20
1113.190526
 11
1263.224188
 21
1113.190526
  0
LINE
  8
0
  6
CONTINUOUS
 62
7
 10
1273.224188
 20
1123.190526
 11
1273.224188
 21
1113.190526
  0
LINE
  8
0
  6
CONTINUOUS
 62
7
 10
1263.224188
 20
1123.190526
 11
1263.224188
 21
1113.190526
  0
LINE
  8
0
  6
CONTINUOUS
 62
7
 10
1285.224188
 20
1123.190526
 11
1275.224188
 21
1123.190526
  0
LINE
  8
0
  6
CONTINUOUS
 62
7
 10
1285.224188
 20
1113.190526
 11
1275.224188
 21
1113.190526
  0
LINE
  8
0
  6
CONTINUOUS
 62
7
 10
1285.224188
 20
1123.190526
 11
1285.224188
 21
1113.190526
  0
LINE
  8
0
  6
CONTINUOUS
 62
7
 10
1275.224188
 20
1123.190526
 11
1275.224188
 21
1113.190526
  0
LINE
  8
0
  6
CONTINUOUS
 62
7
 10
1297.224188
 20
1123.190526
 11
1287.224188
 21
1123.190526
  0
LINE
  8
0
  6
CONTINUOUS
 62
7
 10
1297.224188
 20
1113.190526
 11
1287.224188
 21
1113.190526
  0
LINE
  8
0
  6
CONTINUOUS
 62
7
 10
1297.224188
 20
1123.190526
 11
1297.224188
 21
1113.190526
  0
LINE
  8
0
  6
CONTINUOUS
 62
7
 10
1287.224188
 20
1123.190526
 11
1287.224188
 21
1113.190526
  0
LINE
  8
0
  6
CONTINUOUS
 62
7
 10
1309.224188
 20
1123.190526
 11
1299.224188
 21
1123.190526
  0
LINE
  8
0
  6
CONTINUOUS
 62
7
 10
1309.224188
 20
1113.190526
 11
1299.224188
 21
1113.190526
  0
LINE
  8
0
  6
CONTINUOUS
 62
7
 10
1309.224188
 20
1123.190526
 11
1309.224188
 21
1113.190526
  0
LINE
  8
0
  6
CONTINUOUS
 62
7
 10
1299.224188
 20
1123.190526
 11
1299.224188
 21
1113.190526
  0
LINE
  8
0
  6
CONTINUOUS
 62
7
 10
1309.224188
 20
1111.190526
 11
1299.224188
 21
1111.190526
  0
LINE
  8
0
  6
CONTINUOUS
 62
7
 10
1309.224188
 20
1101.190526
 11
1299.224188
 21
1101.190526
  0
LINE
  8
0
  6
CONTINUOUS
 62
7
 10
1309.224188
 20
1111.190526
 11
1309.224188
 21
1101.190526
  0
LINE
  8
0
  6
CONTINUOUS
 62
7
 10
1299.224188
 20
1111.190526
 11
1299.224188
 21
1101.190526
  0
LINE
  8
0
  6
CONTINUOUS
 62
7
 10
1297.224188
 20
1111.190526
 11
1287.224188
 21
1111.190526
  0
LINE
  8
0
  6
CONTINUOUS
 62
7
 10
1297.224188
 20
1101.190526
 11
1287.224188
 21
1101.190526
  0
LINE
  8
0
  6
CONTINUOUS
 62
7
 10
1297.224188
 20
1111.190526
 11
1297.224188
 21
1101.190526
  0
LINE
  8
0
  6
CONTINUOUS
 62
7
 10
1287.224188
 20
1111.190526
 11
1287.224188
 21
1101.190526
  0
LINE
  8
0
  6
CONTINUOUS
 62
7
 10
1285.224188
 20
1111.190526
 11
1275.224188
 21
1111.190526
  0
LINE
  8
0
  6
CONTINUOUS
 62
7
 10
1285.224188
 20
1101.190526
 11
1275.224188
 21
1101.190526
  0
LINE
  8
0
  6
CONTINUOUS
 62
7
 10
1285.224188
 20
1111.190526
 11
1285.224188
 21
1101.190526
  0
LINE
  8
0
  6
CONTINUOUS
 62
7
 10
1275.224188
 20
1111.190526
 11
1275.224188
 21
1101.190526
  0
LINE
  8
0
  6
CONTINUOUS
 62
7
 10
1273.224188
 20
1111.190526
 11
1263.224188
 21
1111.190526
  0
LINE
  8
0
  6
CONTINUOUS
 62
7
 10
1273.224188
 20
1101.190526
 11
1263.224188
 21
1101.190526
  0
LINE
  8
0
  6
CONTINUOUS
 62
7
 10
1273.224188
 20
1111.190526
 11
1273.224188
 21
1101.190526
  0
LINE
  8
0
  6
CONTINUOUS
 62
7
 10
1263.224188
 20
1111.190526
 11
1263.224188
 21
1101.190526
  0
LINE
  8
0
  6
CONTINUOUS
 62
7
 10
1261.224188
 20
1111.190526
 11
1251.224188
 21
1111.190526
  0
LINE
  8
0
  6
CONTINUOUS
 62
7
 10
1261.224188
 20
1101.190526
 11
1251.224188
 21
1101.190526
  0
LINE
  8
0
  6
CONTINUOUS
 62
7
 10
1261.224188
 20
1111.190526
 11
1261.224188
 21
1101.190526
  0
LINE
  8
0
  6
CONTINUOUS
 62
7
 10
1251.224188
 20
1111.190526
 11
1251.224188
 21
1101.190526
  0
LINE
  8
0
  6
CONTINUOUS
 62
7
 10
1249.224188
 20
1111.190526
 11
1239.224188
 21
1111.190526
  0
LINE
  8
0
  6
CONTINUOUS
 62
7
 10
1249.224188
 20
1101.190526
 11
1239.224188
 21
1101.190526
  0
LINE
  8
0
  6
CONTINUOUS
 62
7
 10
1249.224188
 20
1111.190526
 11
1249.224188
 21
1101.190526
  0
LINE
  8
0
  6
CONTINUOUS
 62
7
 10
1239.224188
 20
1111.190526
 11
1239.224188
 21
1101.190526
  0
LINE
  8
0
  6
CONTINUOUS
 62
7
 10
1237.224188
 20
1111.190526
 11
1227.224188
 21
1111.190526
  0
LINE
  8
0
  6
CONTINUOUS
 62
7
 10
1237.224188
 20
1101.190526
 11
1227.224188
 21
1101.190526
  0
LINE
  8
0
  6
CONTINUOUS
 62
7
 10
1237.224188
 20
1111.190526
 11
1237.224188
 21
1101.190526
  0
LINE
  8
0
  6
CONTINUOUS
 62
7
 10
1227.224188
 20
1111.190526
 11
1227.224188
 21
1101.190526
  0
LINE
  8
0
  6
CONTINUOUS
 62
7
 10
1225.224188
 20
1111.190526
 11
1215.224188
 21
1111.190526
  0
LINE
  8
0
  6
CONTINUOUS
 62
7
 10
1225.224188
 20
1101.190526
 11
1215.224188
 21
1101.190526
  0
LINE
  8
0
  6
CONTINUOUS
 62
7
 10
1225.224188
 20
1111.190526
 11
1225.224188
 21
1101.190526
  0
LINE
  8
0
  6
CONTINUOUS
 62
7
 10
1215.224188
 20
1111.190526
 11
1215.224188
 21
1101.190526
  0
LINE
  8
0
  6
CONTINUOUS
 62
7
 10
1213.224188
 20
1111.190526
 11
1203.224188
 21
1111.190526
  0
LINE
  8
0
  6
CONTINUOUS
 62
7
 10
1213.224188
 20
1101.190526
 11
1203.224188
 21
1101.190526
  0
LINE
  8
0
  6
CONTINUOUS
 62
7
 10
1213.224188
 20
1111.190526
 11
1213.224188
 21
1101.190526
  0
LINE
  8
0
  6
CONTINUOUS
 62
7
 10
1203.224188
 20
1111.190526
 11
1203.224188
 21
1101.190526
  0
LINE
  8
0
  6
CONTINUOUS
 62
7
 10
1201.224188
 20
1111.190526
 11
1191.224188
 21
1111.190526
  0
LINE
  8
0
  6
CONTINUOUS
 62
7
 10
1201.224188
 20
1101.190526
 11
1191.224188
 21
1101.190526
  0
LINE
  8
0
  6
CONTINUOUS
 62
7
 10
1201.224188
 20
1111.190526
 11
1201.224188
 21
1101.190526
  0
LINE
  8
0
  6
CONTINUOUS
 62
7
 10
1191.224188
 20
1111.190526
 11
1191.224188
 21
1101.190526
  0
LINE
  8
0
  6
CONTINUOUS
 62
7
 10
1189.224188
 20
1111.190526
 11
1179.224188
 21
1111.190526
  0
LINE
  8
0
  6
CONTINUOUS
 62
7
 10
1189.224188
 20
1101.190526
 11
1179.224188
 21
1101.190526
  0
LINE
  8
0
  6
CONTINUOUS
 62
7
 10
1189.224188
 20
1111.190526
 11
1189.224188
 21
1101.190526
  0
LINE
  8
0
  6
CONTINUOUS
 62
7
 10
1179.224188
 20
1111.190526
 11
1179.224188
 21
1101.190526
  0
LINE
  8
0
  6
CONTINUOUS
 62
7
 10
1177.224188
 20
1111.190526
 11
1167.224188
 21
1111.190526
  0
LINE
  8
0
  6
CONTINUOUS
 62
7
 10
1177.224188
 20
1101.190526
 11
1167.224188
 21
1101.190526
  0
LINE
  8
0
  6
CONTINUOUS
 62
7
 10
1177.224188
 20
1111.190526
 11
1177.224188
 21
1101.190526
  0
LINE
  8
0
  6
CONTINUOUS
 62
7
 10
1167.224188
 20
1111.190526
 11
1167.224188
 21
1101.190526
  0
LINE
  8
0
  6
CENTER
 62
7
 10
1260.724188
 20
1100.190526
 11
1215.724188
 21
1100.190526
  0
LINE
  8
0
  6
CONTINUOUS
 62
7
 10
1225.224188
 20
1029.190526
 11
1215.224188
 21
1029.190526
  0
LINE
  8
0
  6
CONTINUOUS
 62
7
 10
1225.224188
 20
1039.190526
 11
1215.224188
 21
1039.190526
  0
LINE
  8
0
  6
CONTINUOUS
 62
7
 10
1225.224188
 20
1029.190526
 11
1225.224188
 21
1039.190526
  0
LINE
  8
0
  6
CONTINUOUS
 62
7
 10
1215.224188
 20
1029.190526
 11
1215.224188
 21
1039.190526
  0
LINE
  8
0
  6
CONTINUOUS
 62
7
 10
1237.224188
 20
1029.190526
 11
1227.224188
 21
1029.190526
  0
LINE
  8
0
  6
CONTINUOUS
 62
7
 10
1237.224188
 20
1039.190526
 11
1227.224188
 21
1039.190526
  0
LINE
  8
0
  6
CONTINUOUS
 62
7
 10
1237.224188
 20
1029.190526
 11
1237.224188
 21
1039.190526
  0
LINE
  8
0
  6
CONTINUOUS
 62
7
 10
1227.224188
 20
1029.190526
 11
1227.224188
 21
1039.190526
  0
LINE
  8
0
  6
CONTINUOUS
 62
7
 10
1249.224188
 20
1029.190526
 11
1239.224188
 21
1029.190526
  0
LINE
  8
0
  6
CONTINUOUS
 62
7
 10
1249.224188
 20
1039.190526
 11
1239.224188
 21
1039.190526
  0
LINE
  8
0
  6
CONTINUOUS
 62
7
 10
1249.224188
 20
1029.190526
 11
1249.224188
 21
1039.190526
  0
LINE
  8
0
  6
CONTINUOUS
 62
7
 10
1239.224188
 20
1029.190526
 11
1239.224188
 21
1039.190526
  0
LINE
  8
0
  6
CONTINUOUS
 62
7
 10
1261.224188
 20
1029.190526
 11
1251.224188
 21
1029.190526
  0
LINE
  8
0
  6
CONTINUOUS
 62
7
 10
1261.224188
 20
1039.190526
 11
1251.224188
 21
1039.190526
  0
LINE
  8
0
  6
CONTINUOUS
 62
7
 10
1261.224188
 20
1029.190526
 11
1261.224188
 21
1039.190526
  0
LINE
  8
0
  6
CONTINUOUS
 62
7
 10
1251.224188
 20
1029.190526
 11
1251.224188
 21
1039.190526
  0
LINE
  8
0
  6
CONTINUOUS
 62
7
 10
1285.224188
 20
1041.190526
 11
1275.224188
 21
1041.190526
  0
LINE
  8
0
  6
CONTINUOUS
 62
7
 10
1285.224188
 20
1051.190526
 11
1275.224188
 21
1051.190526
  0
LINE
  8
0
  6
CONTINUOUS
 62
7
 10
1285.224188
 20
1041.190526
 11
1285.224188
 21
1043.688035
  0
LINE
  8
0
  6
CONTINUOUS
 62
7
 10
1275.224188
 20
1041.190526
 11
1275.224188
 21
1043.688035
  0
LINE
  8
0
  6
CONTINUOUS
 62
7
 10
1273.224188
 20
1041.190526
 11
1263.224188
 21
1041.190526
  0
LINE
  8
0
  6
CONTINUOUS
 62
7
 10
1273.224188
 20
1051.190526
 11
1264.723643
 21
1051.190526
  0
LINE
  8
0
  6
CONTINUOUS
 62
7
 10
1273.224188
 20
1041.190526
 11
1273.224188
 21
1043.688035
  0
LINE
  8
0
  6
CONTINUOUS
 62
7
 10
1263.224188
 20
1041.190526
 11
1263.224188
 21
1043.688035
  0
LINE
  8
0
  6
CONTINUOUS
 62
7
 10
1261.224188
 20
1041.190526
 11
1251.224188
 21
1041.190526
  0
LINE
  8
0
  6
CONTINUOUS
 62
7
 10
1261.224188
 20
1051.190526
 11
1251.224188
 21
1051.190526
  0
LINE
  8
0
  6
CONTINUOUS
 62
7
 10
1261.224188
 20
1041.190526
 11
1261.224188
 21
1043.688035
  0
LINE
  8
0
  6
CONTINUOUS
 62
7
 10
1251.224188
 20
1041.190526
 11
1251.224188
 21
1043.688035
  0
LINE
  8
0
  6
CONTINUOUS
 62
7
 10
1249.224188
 20
1041.190526
 11
1239.224188
 21
1041.190526
  0
LINE
  8
0
  6
CONTINUOUS
 62
7
 10
1249.224188
 20
1051.190526
 11
1239.224188
 21
1051.190526
  0
LINE
  8
0
  6
CONTINUOUS
 62
7
 10
1249.224188
 20
1041.190526
 11
1249.224188
 21
1043.688035
  0
LINE
  8
0
  6
CONTINUOUS
 62
7
 10
1239.224188
 20
1041.190526
 11
1239.224188
 21
1043.688035
  0
LINE
  8
0
  6
CONTINUOUS
 62
7
 10
1237.224188
 20
1041.190526
 11
1227.224188
 21
1041.190526
  0
LINE
  8
0
  6
CONTINUOUS
 62
7
 10
1237.224188
 20
1051.190526
 11
1227.224188
 21
1051.190526
  0
LINE
  8
0
  6
CONTINUOUS
 62
7
 10
1237.224188
 20
1041.190526
 11
1237.224188
 21
1043.688035
  0
LINE
  8
0
  6
CONTINUOUS
 62
7
 10
1227.224188
 20
1041.190526
 11
1227.224188
 21
1043.688035
  0
LINE
  8
0
  6
CONTINUOUS
 62
7
 10
1225.224188
 20
1041.190526
 11
1215.224188
 21
1041.190526
  0
LINE
  8
0
  6
CONTINUOUS
 62
7
 10
1225.224188
 20
1051.190526
 11
1215.224188
 21
1051.190526
  0
LINE
  8
0
  6
CONTINUOUS
 62
7
 10
1225.224188
 20
1041.190526
 11
1225.224188
 21
1043.688035
  0
LINE
  8
0
  6
CONTINUOUS
 62
7
 10
1215.224188
 20
1041.190526
 11
1215.224188
 21
1043.688035
  0
LINE
  8
0
  6
CONTINUOUS
 62
7
 10
1213.224188
 20
1041.190526
 11
1203.224188
 21
1041.190526
  0
LINE
  8
0
  6
CONTINUOUS
 62
7
 10
1211.724728
 20
1051.190526
 11
1203.224188
 21
1051.190526
  0
LINE
  8
0
  6
CONTINUOUS
 62
7
 10
1213.224188
 20
1041.190526
 11
1213.224188
 21
1043.688035
  0
LINE
  8
0
  6
CONTINUOUS
 62
7
 10
1203.224188
 20
1041.190526
 11
1203.224188
 21
1043.688035
  0
LINE
  8
0
  6
CONTINUOUS
 62
7
 10
1201.224188
 20
1041.190526
 11
1191.224188
 21
1041.190526
  0
LINE
  8
0
  6
CONTINUOUS
 62
7
 10
1201.224188
 20
1051.190526
 11
1191.224188
 21
1051.190526
  0
LINE
  8
0
  6
CONTINUOUS
 62
7
 10
1201.224188
 20
1041.190526
 11
1201.224188
 21
1043.688035
  0
LINE
  8
0
  6
CONTINUOUS
 62
7
 10
1191.224188
 20
1041.190526
 11
1191.224188
 21
1043.688035
  0
LINE
  8
0
  6
CONTINUOUS
 62
7
 10
1189.224188
 20
1053.190526
 11
1179.224188
 21
1053.190526
  0
LINE
  8
0
  6
CONTINUOUS
 62
7
 10
1189.224188
 20
1063.190526
 11
1179.224188
 21
1063.190526
  0
LINE
  8
0
  6
CONTINUOUS
 62
7
 10
1189.224188
 20
1053.190526
 11
1189.224188
 21
1063.190526
  0
LINE
  8
0
  6
CONTINUOUS
 62
7
 10
1179.224188
 20
1053.190526
 11
1179.224188
 21
1063.190526
  0
LINE
  8
0
  6
CONTINUOUS
 62
7
 10
1201.224188
 20
1053.190526
 11
1191.224188
 21
1053.190526
  0
LINE
  8
0
  6
CONTINUOUS
 62
7
 10
1201.224188
 20
1063.190526
 11
1191.224188
 21
1063.190526
  0
LINE
  8
0
  6
CONTINUOUS
 62
7
 10
1201.224188
 20
1053.190526
 11
1201.224188
 21
1063.190526
  0
LINE
  8
0
  6
CONTINUOUS
 62
7
 10
1191.224188
 20
1053.190526
 11
1191.224188
 21
1063.190526
  0
LINE
  8
0
  6
CONTINUOUS
 62
7
 10
1211.724696
 20
1053.190526
 11
1203.224188
 21
1053.190526
  0
LINE
  8
0
  6
CONTINUOUS
 62
7
 10
1211.724696
 20
1063.190526
 11
1203.224188
 21
1063.190526
  0
LINE
  8
0
  6
CONTINUOUS
 62
7
 10
1203.224188
 20
1053.190526
 11
1203.224188
 21
1063.190526
  0
LINE
  8
0
  6
CONTINUOUS
 62
7
 10
1225.224188
 20
1053.190526
 11
1215.224188
 21
1053.190526
  0
LINE
  8
0
  6
CONTINUOUS
 62
7
 10
1225.224188
 20
1063.190526
 11
1215.224188
 21
1063.190526
  0
LINE
  8
0
  6
CONTINUOUS
 62
7
 10
1225.224188
 20
1053.190526
 11
1225.224188
 21
1063.190526
  0
LINE
  8
0
  6
CONTINUOUS
 62
1
 10
1215.224188
 20
1053.190526
 11
1215.224188
 21
1063.190526
  0
LINE
  8
0
  6
CONTINUOUS
 62
7
 10
1237.224188
 20
1053.190526
 11
1227.224188
 21
1053.190526
  0
LINE
  8
0
  6
CONTINUOUS
 62
7
 10
1237.224188
 20
1063.190526
 11
1227.224188
 21
1063.190526
  0
LINE
  8
0
  6
CONTINUOUS
 62
7
 10
1237.224188
 20
1053.190526
 11
1237.224188
 21
1063.190526
  0
LINE
  8
0
  6
CONTINUOUS
 62
7
 10
1227.224188
 20
1053.190526
 11
1227.224188
 21
1063.190526
  0
LINE
  8
0
  6
CONTINUOUS
 62
7
 10
1249.224188
 20
1053.190526
 11
1239.224188
 21
1053.190526
  0
LINE
  8
0
  6
CONTINUOUS
 62
7
 10
1249.224188
 20
1063.190526
 11
1239.224188
 21
1063.190526
  0
LINE
  8
0
  6
CONTINUOUS
 62
7
 10
1249.224188
 20
1053.190526
 11
1249.224188
 21
1063.190526
  0
LINE
  8
0
  6
CONTINUOUS
 62
7
 10
1239.224188
 20
1053.190526
 11
1239.224188
 21
1063.190526
  0
LINE
  8
0
  6
CONTINUOUS
 62
7
 10
1261.224188
 20
1053.190526
 11
1251.224188
 21
1053.190526
  0
LINE
  8
0
  6
CONTINUOUS
 62
7
 10
1261.224188
 20
1063.190526
 11
1251.224188
 21
1063.190526
  0
LINE
  8
0
  6
CONTINUOUS
 62
1
 10
1261.224188
 20
1053.190526
 11
1261.224188
 21
1063.190526
  0
LINE
  8
0
  6
CONTINUOUS
 62
7
 10
1251.224188
 20
1053.190526
 11
1251.224188
 21
1063.190526
  0
LINE
  8
0
  6
CONTINUOUS
 62
7
 10
1273.224188
 20
1053.190526
 11
1264.723635
 21
1053.190526
  0
LINE
  8
0
  6
CONTINUOUS
 62
7
 10
1273.224188
 20
1063.190526
 11
1264.723599
 21
1063.190526
  0
LINE
  8
0
  6
CONTINUOUS
 62
7
 10
1273.224188
 20
1053.190526
 11
1273.224188
 21
1063.190526
  0
LINE
  8
0
  6
CONTINUOUS
 62
7
 10
1285.224188
 20
1053.190526
 11
1275.224188
 21
1053.190526
  0
LINE
  8
0
  6
CONTINUOUS
 62
7
 10
1285.224188
 20
1063.190526
 11
1275.224188
 21
1063.190526
  0
LINE
  8
0
  6
CONTINUOUS
 62
7
 10
1285.224188
 20
1053.190526
 11
1285.224188
 21
1063.190526
  0
LINE
  8
0
  6
CONTINUOUS
 62
7
 10
1275.224188
 20
1053.190526
 11
1275.224188
 21
1063.190526
  0
LINE
  8
0
  6
CONTINUOUS
 62
7
 10
1297.224188
 20
1053.190526
 11
1287.224188
 21
1053.190526
  0
LINE
  8
0
  6
CONTINUOUS
 62
7
 10
1297.224188
 20
1063.190526
 11
1287.224188
 21
1063.190526
  0
LINE
  8
0
  6
CONTINUOUS
 62
7
 10
1297.224188
 20
1053.190526
 11
1297.224188
 21
1063.190526
  0
LINE
  8
0
  6
CONTINUOUS
 62
7
 10
1287.224188
 20
1053.190526
 11
1287.224188
 21
1063.190526
  0
LINE
  8
0
  6
CONTINUOUS
 62
7
 10
1297.224188
 20
1065.190526
 11
1287.224188
 21
1065.190526
  0
LINE
  8
0
  6
CONTINUOUS
 62
7
 10
1297.224188
 20
1075.190526
 11
1287.224188
 21
1075.190526
  0
LINE
  8
0
  6
CONTINUOUS
 62
7
 10
1297.224188
 20
1065.190526
 11
1297.224188
 21
1066.688035
  0
LINE
  8
0
  6
CONTINUOUS
 62
7
 10
1287.224188
 20
1065.190526
 11
1287.224188
 21
1066.688035
  0
LINE
  8
0
  6
CONTINUOUS
 62
7
 10
1285.224188
 20
1065.190526
 11
1275.224188
 21
1065.190526
  0
LINE
  8
0
  6
CONTINUOUS
 62
7
 10
1285.224188
 20
1075.190526
 11
1275.224188
 21
1075.190526
  0
LINE
  8
0
  6
CONTINUOUS
 62
7
 10
1285.224188
 20
1065.190526
 11
1285.224188
 21
1066.688035
  0
LINE
  8
0
  6
CONTINUOUS
 62
7
 10
1275.224188
 20
1065.190526
 11
1275.224188
 21
1066.688035
  0
LINE
  8
0
  6
CONTINUOUS
 62
7
 10
1273.224188
 20
1065.190526
 11
1265.126961
 21
1065.190526
  0
LINE
  8
0
  6
CONTINUOUS
 62
7
 10
1273.224188
 20
1075.190526
 11
1263.224188
 21
1075.190526
  0
LINE
  8
0
  6
CONTINUOUS
 62
7
 10
1273.224188
 20
1065.190526
 11
1273.224188
 21
1066.688035
  0
LINE
  8
0
  6
CONTINUOUS
 62
7
 10
1263.224188
 20
1067.657332
 11
1263.224188
 21
1075.190526
  0
LINE
  8
0
  6
CONTINUOUS
 62
7
 10
1261.224188
 20
1065.190526
 11
1251.224188
 21
1065.190526
  0
LINE
  8
0
  6
CONTINUOUS
 62
7
 10
1261.224188
 20
1075.190526
 11
1251.224188
 21
1075.190526
  0
LINE
  8
0
  6
CONTINUOUS
 62
7
 10
1261.224188
 20
1065.190526
 11
1261.224188
 21
1075.190526
  0
LINE
  8
0
  6
CONTINUOUS
 62
7
 10
1251.224188
 20
1065.190526
 11
1251.224188
 21
1075.190526
  0
LINE
  8
0
  6
CONTINUOUS
 62
7
 10
1249.224188
 20
1065.190526
 11
1239.224188
 21
1065.190526
  0
LINE
  8
0
  6
CONTINUOUS
 62
7
 10
1249.224188
 20
1075.190526
 11
1239.224188
 21
1075.190526
  0
LINE
  8
0
  6
CONTINUOUS
 62
7
 10
1249.224188
 20
1065.190526
 11
1249.224188
 21
1075.190526
  0
LINE
  8
0
  6
CONTINUOUS
 62
7
 10
1239.224188
 20
1065.190526
 11
1239.224188
 21
1075.190526
  0
LINE
  8
0
  6
CONTINUOUS
 62
7
 10
1237.224188
 20
1065.190526
 11
1227.224188
 21
1065.190526
  0
LINE
  8
0
  6
CONTINUOUS
 62
7
 10
1237.224188
 20
1075.190526
 11
1227.224188
 21
1075.190526
  0
LINE
  8
0
  6
CONTINUOUS
 62
7
 10
1237.224188
 20
1065.190526
 11
1237.224188
 21
1075.190526
  0
LINE
  8
0
  6
CONTINUOUS
 62
7
 10
1227.224188
 20
1065.190526
 11
1227.224188
 21
1075.190526
  0
LINE
  8
0
  6
CONTINUOUS
 62
7
 10
1225.224188
 20
1065.190526
 11
1215.224188
 21
1065.190526
  0
LINE
  8
0
  6
CONTINUOUS
 62
7
 10
1225.224188
 20
1075.190526
 11
1215.224188
 21
1075.190526
  0
LINE
  8
0
  6
CONTINUOUS
 62
7
 10
1225.224188
 20
1065.190526
 11
1225.224188
 21
1075.190526
  0
LINE
  8
0
  6
CONTINUOUS
 62
7
 10
1215.224188
 20
1065.190526
 11
1215.224188
 21
1075.190526
  0
LINE
  8
0
  6
CONTINUOUS
 62
7
 10
1211.321331
 20
1065.190526
 11
1203.224188
 21
1065.190526
  0
LINE
  8
0
  6
CONTINUOUS
 62
7
 10
1213.224188
 20
1075.190526
 11
1203.224188
 21
1075.190526
  0
LINE
  8
0
  6
CONTINUOUS
 62
7
 10
1213.224188
 20
1067.657289
 11
1213.224188
 21
1075.190526
  0
LINE
  8
0
  6
CONTINUOUS
 62
7
 10
1203.224188
 20
1065.190526
 11
1203.224188
 21
1066.688035
  0
LINE
  8
0
  6
CONTINUOUS
 62
7
 10
1201.224188
 20
1065.190526
 11
1191.224188
 21
1065.190526
  0
LINE
  8
0
  6
CONTINUOUS
 62
7
 10
1201.224188
 20
1075.190526
 11
1191.224188
 21
1075.190526
  0
LINE
  8
0
  6
CONTINUOUS
 62
7
 10
1201.224188
 20
1065.190526
 11
1201.224188
 21
1066.688035
  0
LINE
  8
0
  6
CONTINUOUS
 62
7
 10
1191.224188
 20
1065.190526
 11
1191.224188
 21
1066.688035
  0
LINE
  8
0
  6
CONTINUOUS
 62
7
 10
1189.224188
 20
1065.190526
 11
1179.224188
 21
1065.190526
  0
LINE
  8
0
  6
CONTINUOUS
 62
7
 10
1189.224188
 20
1075.190526
 11
1179.224188
 21
1075.190526
  0
LINE
  8
0
  6
CONTINUOUS
 62
7
 10
1189.224188
 20
1065.190526
 11
1189.224188
 21
1066.688035
  0
LINE
  8
0
  6
CONTINUOUS
 62
7
 10
1179.224188
 20
1065.190526
 11
1179.224188
 21
1066.688035
  0
LINE
  8
0
  6
CONTINUOUS
 62
7
 10
1177.224188
 20
1077.190526
 11
1167.224188
 21
1077.190526
  0
LINE
  8
0
  6
CONTINUOUS
 62
7
 10
1177.224188
 20
1087.190526
 11
1167.224188
 21
1087.190526
  0
LINE
  8
0
  6
CONTINUOUS
 62
7
 10
1177.224188
 20
1077.190526
 11
1177.224188
 21
1087.190526
  0
LINE
  8
0
  6
CONTINUOUS
 62
7
 10
1167.224188
 20
1077.190526
 11
1167.224188
 21
1087.190526
  0
LINE
  8
0
  6
CONTINUOUS
 62
7
 10
1189.224188
 20
1077.190526
 11
1179.224188
 21
1077.190526
  0
LINE
  8
0
  6
CONTINUOUS
 62
7
 10
1189.224188
 20
1087.190526
 11
1179.224188
 21
1087.190526
  0
LINE
  8
0
  6
CONTINUOUS
 62
7
 10
1189.224188
 20
1077.190526
 11
1189.224188
 21
1087.190526
  0
LINE
  8
0
  6
CONTINUOUS
 62
7
 10
1179.224188
 20
1077.190526
 11
1179.224188
 21
1087.190526
  0
LINE
  8
0
  6
CONTINUOUS
 62
7
 10
1201.224188
 20
1077.190526
 11
1191.224188
 21
1077.190526
  0
LINE
  8
0
  6
CONTINUOUS
 62
7
 10
1201.224188
 20
1087.190526
 11
1191.224188
 21
1087.190526
  0
LINE
  8
0
  6
CONTINUOUS
 62
7
 10
1201.224188
 20
1077.190526
 11
1201.224188
 21
1087.190526
  0
LINE
  8
0
  6
CONTINUOUS
 62
7
 10
1191.224188
 20
1077.190526
 11
1191.224188
 21
1087.190526
  0
LINE
  8
0
  6
CONTINUOUS
 62
7
 10
1213.224188
 20
1077.190526
 11
1203.224188
 21
1077.190526
  0
LINE
  8
0
  6
CONTINUOUS
 62
7
 10
1213.224188
 20
1087.190526
 11
1203.224188
 21
1087.190526
  0
LINE
  8
0
  6
CONTINUOUS
 62
7
 10
1213.224188
 20
1077.190526
 11
1213.224188
 21
1087.190526
  0
LINE
  8
0
  6
CONTINUOUS
 62
7
 10
1203.224188
 20
1077.190526
 11
1203.224188
 21
1087.190526
  0
LINE
  8
0
  6
CONTINUOUS
 62
7
 10
1225.224188
 20
1077.190526
 11
1215.224188
 21
1077.190526
  0
LINE
  8
0
  6
CONTINUOUS
 62
7
 10
1225.224188
 20
1087.190526
 11
1215.224188
 21
1087.190526
  0
LINE
  8
0
  6
CONTINUOUS
 62
7
 10
1225.224188
 20
1077.190526
 11
1225.224188
 21
1087.190526
  0
LINE
  8
0
  6
CONTINUOUS
 62
7
 10
1215.224188
 20
1077.190526
 11
1215.224188
 21
1087.190526
  0
LINE
  8
0
  6
CONTINUOUS
 62
7
 10
1237.224188
 20
1077.190526
 11
1227.224188
 21
1077.190526
  0
LINE
  8
0
  6
CONTINUOUS
 62
7
 10
1237.224188
 20
1087.190526
 11
1227.224188
 21
1087.190526
  0
LINE
  8
0
  6
CONTINUOUS
 62
7
 10
1237.224188
 20
1077.190526
 11
1237.224188
 21
1087.190526
  0
LINE
  8
0
  6
CONTINUOUS
 62
7
 10
1227.224188
 20
1077.190526
 11
1227.224188
 21
1087.190526
  0
LINE
  8
0
  6
CONTINUOUS
 62
7
 10
1249.224188
 20
1077.190526
 11
1239.224188
 21
1077.190526
  0
LINE
  8
0
  6
CONTINUOUS
 62
7
 10
1249.224188
 20
1087.190526
 11
1239.224188
 21
1087.190526
  0
LINE
  8
0
  6
CONTINUOUS
 62
7
 10
1249.224188
 20
1077.190526
 11
1249.224188
 21
1087.190526
  0
LINE
  8
0
  6
CONTINUOUS
 62
7
 10
1239.224188
 20
1077.190526
 11
1239.224188
 21
1087.190526
  0
LINE
  8
0
  6
CONTINUOUS
 62
7
 10
1261.224188
 20
1077.190526
 11
1251.224188
 21
1077.190526
  0
LINE
  8
0
  6
CONTINUOUS
 62
7
 10
1261.224188
 20
1087.190526
 11
1251.224188
 21
1087.190526
  0
LINE
  8
0
  6
CONTINUOUS
 62
7
 10
1261.224188
 20
1077.190526
 11
1261.224188
 21
1087.190526
  0
LINE
  8
0
  6
CONTINUOUS
 62
7
 10
1251.224188
 20
1077.190526
 11
1251.224188
 21
1087.190526
  0
LINE
  8
0
  6
CONTINUOUS
 62
7
 10
1273.224188
 20
1077.190526
 11
1263.224188
 21
1077.190526
  0
LINE
  8
0
  6
CONTINUOUS
 62
7
 10
1273.224188
 20
1087.190526
 11
1263.224188
 21
1087.190526
  0
LINE
  8
0
  6
CONTINUOUS
 62
7
 10
1273.224188
 20
1077.190526
 11
1273.224188
 21
1087.190526
  0
LINE
  8
0
  6
CONTINUOUS
 62
7
 10
1263.224188
 20
1077.190526
 11
1263.224188
 21
1087.190526
  0
LINE
  8
0
  6
CONTINUOUS
 62
7
 10
1285.224188
 20
1077.190526
 11
1275.224188
 21
1077.190526
  0
LINE
  8
0
  6
CONTINUOUS
 62
7
 10
1285.224188
 20
1087.190526
 11
1275.224188
 21
1087.190526
  0
LINE
  8
0
  6
CONTINUOUS
 62
7
 10
1285.224188
 20
1077.190526
 11
1285.224188
 21
1087.190526
  0
LINE
  8
0
  6
CONTINUOUS
 62
7
 10
1275.224188
 20
1077.190526
 11
1275.224188
 21
1087.190526
  0
LINE
  8
0
  6
CONTINUOUS
 62
7
 10
1297.224188
 20
1077.190526
 11
1287.224188
 21
1077.190526
  0
LINE
  8
0
  6
CONTINUOUS
 62
7
 10
1297.224188
 20
1087.190526
 11
1287.224188
 21
1087.190526
  0
LINE
  8
0
  6
CONTINUOUS
 62
7
 10
1297.224188
 20
1077.190526
 11
1297.224188
 21
1087.190526
  0
LINE
  8
0
  6
CONTINUOUS
 62
7
 10
1287.224188
 20
1077.190526
 11
1287.224188
 21
1087.190526
  0
LINE
  8
0
  6
CONTINUOUS
 62
7
 10
1309.224188
 20
1077.190526
 11
1299.224188
 21
1077.190526
  0
LINE
  8
0
  6
CONTINUOUS
 62
7
 10
1309.224188
 20
1087.190526
 11
1299.224188
 21
1087.190526
  0
LINE
  8
0
  6
CONTINUOUS
 62
7
 10
1309.224188
 20
1077.190526
 11
1309.224188
 21
1087.190526
  0
LINE
  8
0
  6
CONTINUOUS
 62
7
 10
1299.224188
 20
1077.190526
 11
1299.224188
 21
1087.190526
  0
LINE
  8
0
  6
CONTINUOUS
 62
7
 10
1309.224188
 20
1089.190526
 11
1299.224188
 21
1089.190526
  0
LINE
  8
0
  6
CONTINUOUS
 62
7
 10
1309.224188
 20
1099.190526
 11
1299.224188
 21
1099.190526
  0
LINE
  8
0
  6
CONTINUOUS
 62
7
 10
1309.224188
 20
1089.190526
 11
1309.224188
 21
1099.190526
  0
LINE
  8
0
  6
CONTINUOUS
 62
7
 10
1299.224188
 20
1089.190526
 11
1299.224188
 21
1099.190526
  0
LINE
  8
0
  6
CONTINUOUS
 62
7
 10
1297.224188
 20
1089.190526
 11
1287.224188
 21
1089.190526
  0
LINE
  8
0
  6
CONTINUOUS
 62
7
 10
1297.224188
 20
1099.190526
 11
1287.224188
 21
1099.190526
  0
LINE
  8
0
  6
CONTINUOUS
 62
7
 10
1297.224188
 20
1089.190526
 11
1297.224188
 21
1099.190526
  0
LINE
  8
0
  6
CONTINUOUS
 62
7
 10
1287.224188
 20
1089.190526
 11
1287.224188
 21
1099.190526
  0
LINE
  8
0
  6
CONTINUOUS
 62
7
 10
1285.224188
 20
1089.190526
 11
1275.224188
 21
1089.190526
  0
LINE
  8
0
  6
CONTINUOUS
 62
7
 10
1285.224188
 20
1099.190526
 11
1275.224188
 21
1099.190526
  0
LINE
  8
0
  6
CONTINUOUS
 62
7
 10
1285.224188
 20
1089.190526
 11
1285.224188
 21
1099.190526
  0
LINE
  8
0
  6
CONTINUOUS
 62
7
 10
1275.224188
 20
1089.190526
 11
1275.224188
 21
1099.190526
  0
LINE
  8
0
  6
CONTINUOUS
 62
7
 10
1273.224188
 20
1089.190526
 11
1263.224188
 21
1089.190526
  0
LINE
  8
0
  6
CONTINUOUS
 62
7
 10
1273.224188
 20
1099.190526
 11
1263.224188
 21
1099.190526
  0
LINE
  8
0
  6
CONTINUOUS
 62
7
 10
1273.224188
 20
1089.190526
 11
1273.224188
 21
1099.190526
  0
LINE
  8
0
  6
CONTINUOUS
 62
7
 10
1263.224188
 20
1089.190526
 11
1263.224188
 21
1099.190526
  0
LINE
  8
0
  6
CONTINUOUS
 62
7
 10
1261.224188
 20
1089.190526
 11
1251.224188
 21
1089.190526
  0
LINE
  8
0
  6
CONTINUOUS
 62
7
 10
1261.224188
 20
1099.190526
 11
1251.224188
 21
1099.190526
  0
LINE
  8
0
  6
CONTINUOUS
 62
7
 10
1261.224188
 20
1089.190526
 11
1261.224188
 21
1099.190526
  0
LINE
  8
0
  6
CONTINUOUS
 62
7
 10
1251.224188
 20
1089.190526
 11
1251.224188
 21
1099.190526
  0
LINE
  8
0
  6
CONTINUOUS
 62
7
 10
1249.224188
 20
1089.190526
 11
1239.224188
 21
1089.190526
  0
LINE
  8
0
  6
CONTINUOUS
 62
7
 10
1249.224188
 20
1099.190526
 11
1239.224188
 21
1099.190526
  0
LINE
  8
0
  6
CONTINUOUS
 62
7
 10
1249.224188
 20
1089.190526
 11
1249.224188
 21
1099.190526
  0
LINE
  8
0
  6
CONTINUOUS
 62
7
 10
1239.224188
 20
1089.190526
 11
1239.224188
 21
1099.190526
  0
LINE
  8
0
  6
CONTINUOUS
 62
7
 10
1237.224188
 20
1089.190526
 11
1227.224188
 21
1089.190526
  0
LINE
  8
0
  6
CONTINUOUS
 62
7
 10
1237.224188
 20
1099.190526
 11
1227.224188
 21
1099.190526
  0
LINE
  8
0
  6
CONTINUOUS
 62
7
 10
1237.224188
 20
1089.190526
 11
1237.224188
 21
1099.190526
  0
LINE
  8
0
  6
CONTINUOUS
 62
7
 10
1227.224188
 20
1089.190526
 11
1227.224188
 21
1099.190526
  0
LINE
  8
0
  6
CONTINUOUS
 62
7
 10
1225.224188
 20
1089.190526
 11
1215.224188
 21
1089.190526
  0
LINE
  8
0
  6
CONTINUOUS
 62
7
 10
1225.224188
 20
1099.190526
 11
1215.224188
 21
1099.190526
  0
LINE
  8
0
  6
CONTINUOUS
 62
7
 10
1225.224188
 20
1089.190526
 11
1225.224188
 21
1099.190526
  0
LINE
  8
0
  6
CONTINUOUS
 62
7
 10
1215.224188
 20
1089.190526
 11
1215.224188
 21
1099.190526
  0
LINE
  8
0
  6
CONTINUOUS
 62
7
 10
1213.224188
 20
1089.190526
 11
1203.224188
 21
1089.190526
  0
LINE
  8
0
  6
CONTINUOUS
 62
7
 10
1213.224188
 20
1099.190526
 11
1203.224188
 21
1099.190526
  0
LINE
  8
0
  6
CONTINUOUS
 62
7
 10
1213.224188
 20
1089.190526
 11
1213.224188
 21
1099.190526
  0
LINE
  8
0
  6
CONTINUOUS
 62
7
 10
1203.224188
 20
1089.190526
 11
1203.224188
 21
1099.190526
  0
LINE
  8
0
  6
CONTINUOUS
 62
7
 10
1201.224188
 20
1089.190526
 11
1191.224188
 21
1089.190526
  0
LINE
  8
0
  6
CONTINUOUS
 62
7
 10
1201.224188
 20
1099.190526
 11
1191.224188
 21
1099.190526
  0
LINE
  8
0
  6
CONTINUOUS
 62
7
 10
1201.224188
 20
1089.190526
 11
1201.224188
 21
1099.190526
  0
LINE
  8
0
  6
CONTINUOUS
 62
7
 10
1191.224188
 20
1089.190526
 11
1191.224188
 21
1099.190526
  0
LINE
  8
0
  6
CONTINUOUS
 62
7
 10
1189.224188
 20
1089.190526
 11
1179.224188
 21
1089.190526
  0
LINE
  8
0
  6
CONTINUOUS
 62
7
 10
1189.224188
 20
1099.190526
 11
1179.224188
 21
1099.190526
  0
LINE
  8
0
  6
CONTINUOUS
 62
7
 10
1189.224188
 20
1089.190526
 11
1189.224188
 21
1099.190526
  0
LINE
  8
0
  6
CONTINUOUS
 62
7
 10
1179.224188
 20
1089.190526
 11
1179.224188
 21
1099.190526
  0
LINE
  8
0
  6
CONTINUOUS
 62
7
 10
1177.224188
 20
1089.190526
 11
1167.224188
 21
1089.190526
  0
LINE
  8
0
  6
CONTINUOUS
 62
7
 10
1177.224188
 20
1099.190526
 11
1167.224188
 21
1099.190526
  0
LINE
  8
0
  6
CONTINUOUS
 62
7
 10
1177.224188
 20
1089.190526
 11
1177.224188
 21
1099.190526
  0
LINE
  8
0
  6
CONTINUOUS
 62
7
 10
1167.224188
 20
1089.190526
 11
1167.224188
 21
1099.190526
  0
LINE
  8
0
  6
CENTER
 62
7
 10
1260.724188
 20
1100.190526
 11
1215.724188
 21
1100.190526
  0
LINE
  8
0
  6
CONTINUOUS
 62
7
 10
1215.224188
 20
1163.688065
 11
1215.224188
 21
1161.190526
  0
LINE
  8
0
  6
CONTINUOUS
 62
7
 10
1225.224188
 20
1163.688065
 11
1225.224188
 21
1161.190526
  0
LINE
  8
0
  6
CONTINUOUS
 62
7
 10
1227.224188
 20
1163.688065
 11
1227.224188
 21
1161.190526
  0
LINE
  8
0
  6
CONTINUOUS
 62
7
 10
1237.224188
 20
1163.688065
 11
1237.224188
 21
1161.190526
  0
LINE
  8
0
  6
CONTINUOUS
 62
7
 10
1239.224188
 20
1163.688065
 11
1239.224188
 21
1161.190526
  0
LINE
  8
0
  6
CONTINUOUS
 62
7
 10
1249.224188
 20
1163.688065
 11
1249.224188
 21
1161.190526
  0
LINE
  8
0
  6
CONTINUOUS
 62
7
 10
1251.224188
 20
1163.688065
 11
1251.224188
 21
1161.190526
  0
LINE
  8
0
  6
CONTINUOUS
 62
7
 10
1261.224188
 20
1163.688065
 11
1261.224188
 21
1161.190526
  0
LINE
  8
0
  6
CONTINUOUS
 62
7
 10
1285.224188
 20
1049.688035
 11
1285.224188
 21
1051.190526
  0
LINE
  8
0
  6
CONTINUOUS
 62
7
 10
1275.224188
 20
1049.688035
 11
1275.224188
 21
1051.190526
  0
LINE
  8
0
  6
CONTINUOUS
 62
7
 10
1273.224188
 20
1049.688035
 11
1273.224188
 21
1051.190526
  0
LINE
  8
0
  6
CONTINUOUS
 62
7
 10
1261.224188
 20
1049.688035
 11
1261.224188
 21
1051.190526
  0
LINE
  8
0
  6
CONTINUOUS
 62
7
 10
1191.224188
 20
1049.688035
 11
1191.224188
 21
1051.190526
  0
LINE
  8
0
  6
CONTINUOUS
 62
7
 10
1201.224188
 20
1049.688035
 11
1201.224188
 21
1051.190526
  0
LINE
  8
0
  6
CONTINUOUS
 62
7
 10
1203.224188
 20
1049.688035
 11
1203.224188
 21
1051.190526
  0
LINE
  8
0
  6
CONTINUOUS
 62
7
 10
1215.224188
 20
1049.688035
 11
1215.224188
 21
1051.190526
  0
LINE
  8
0
  6
CONTINUOUS
 62
7
 10
1225.224188
 20
1049.688035
 11
1225.224188
 21
1051.190526
  0
LINE
  8
0
  6
CONTINUOUS
 62
7
 10
1227.224188
 20
1049.688035
 11
1227.224188
 21
1051.190526
  0
LINE
  8
0
  6
CONTINUOUS
 62
7
 10
1237.224188
 20
1049.688035
 11
1237.224188
 21
1051.190526
  0
LINE
  8
0
  6
CONTINUOUS
 62
7
 10
1239.224188
 20
1049.688035
 11
1239.224188
 21
1051.190526
  0
LINE
  8
0
  6
CONTINUOUS
 62
7
 10
1249.224188
 20
1049.688035
 11
1249.224188
 21
1051.190526
  0
LINE
  8
0
  6
CONTINUOUS
 62
7
 10
1251.224188
 20
1049.688035
 11
1251.224188
 21
1051.190526
  0
LINE
  8
0
  6
CONTINUOUS
 62
7
 10
1297.224188
 20
1069.688035
 11
1297.224188
 21
1075.190526
  0
LINE
  8
0
  6
CONTINUOUS
 62
7
 10
1287.224188
 20
1069.688035
 11
1287.224188
 21
1075.190526
  0
LINE
  8
0
  6
CONTINUOUS
 62
7
 10
1285.224188
 20
1069.688035
 11
1285.224188
 21
1075.190526
  0
LINE
  8
0
  6
CONTINUOUS
 62
7
 10
1275.224188
 20
1069.688035
 11
1275.224188
 21
1075.190526
  0
LINE
  8
0
  6
CONTINUOUS
 62
7
 10
1273.224188
 20
1069.688035
 11
1273.224188
 21
1075.190526
  0
LINE
  8
0
  6
CONTINUOUS
 62
7
 10
1179.224188
 20
1069.688035
 11
1179.224188
 21
1075.190526
  0
LINE
  8
0
  6
CONTINUOUS
 62
7
 10
1189.224188
 20
1069.688035
 11
1189.224188
 21
1075.190526
  0
LINE
  8
0
  6
CONTINUOUS
 62
7
 10
1191.224188
 20
1069.688035
 11
1191.224188
 21
1075.190526
  0
LINE
  8
0
  6
CONTINUOUS
 62
7
 10
1201.224188
 20
1069.688035
 11
1201.224188
 21
1075.190526
  0
LINE
  8
0
  6
CONTINUOUS
 62
7
 10
1203.224188
 20
1069.688035
 11
1203.224188
 21
1075.190526
  0
LINE
  8
0
  6
CONTINUOUS
 62
1
 10
952.026636
 20
831.189838
 11
1618.224173
 21
831.189838
  0
LINE
  8
0
  6
CONTINUOUS
 62
1
 10
1557.393731
 20
816.189838
 11
1572.393731
 21
816.189838
  0
LINE
  8
0
  6
CONTINUOUS
 62
1
 10
1582.393731
 20
801.189838
 11
1547.393731
 21
801.189838
  0
LINE
  8
0
  6
CONTINUOUS
 62
1
 10
1547.393731
 20
806.189838
 11
1547.393731
 21
801.189838
  0
LINE
  8
0
  6
CONTINUOUS
 62
1
 10
1582.393731
 20
806.189838
 11
1582.393731
 21
801.189838
  0
LINE
  8
0
  6
CONTINUOUS
 62
1
 10
1547.393731
 20
806.189838
 11
1582.393731
 21
806.189838
  0
LINE
  8
0
  6
CONTINUOUS
 62
1
 10
1547.393731
 20
806.189838
 11
1557.393731
 21
816.189838
  0
LINE
  8
0
  6
CONTINUOUS
 62
1
 10
1572.393731
 20
816.189838
 11
1582.393731
 21
806.189838
  0
LINE
  8
0
  6
CONTINUOUS
 62
1
 10
1560.893731
 20
831.189838
 11
1560.893731
 21
816.189838
  0
LINE
  8
0
  6
CONTINUOUS
 62
1
 10
1568.893731
 20
831.189838
 11
1568.893731
 21
816.189838
  0
LINE
  8
0
  6
CONTINUOUS
 62
1
 10
998.393762
 20
816.189838
 11
1013.393762
 21
816.189838
  0
LINE
  8
0
  6
CONTINUOUS
 62
1
 10
1023.393762
 20
801.189838
 11
988.393762
 21
801.189838
  0
LINE
  8
0
  6
CONTINUOUS
 62
1
 10
988.393762
 20
806.189838
 11
988.393762
 21
801.189838
  0
LINE
  8
0
  6
CONTINUOUS
 62
1
 10
1023.393762
 20
806.189838
 11
1023.393762
 21
801.189838
  0
LINE
  8
0
  6
CONTINUOUS
 62
1
 10
988.393762
 20
806.189838
 11
1023.393762
 21
806.189838
  0
LINE
  8
0
  6
CONTINUOUS
 62
1
 10
988.393762
 20
806.189838
 11
998.393762
 21
816.189838
  0
LINE
  8
0
  6
CONTINUOUS
 62
1
 10
1013.393762
 20
816.189838
 11
1023.393762
 21
806.189838
  0
LINE
  8
0
  6
CONTINUOUS
 62
1
 10
1001.893762
 20
831.189838
 11
1001.893762
 21
816.189838
  0
LINE
  8
0
  6
CONTINUOUS
 62
1
 10
1009.893762
 20
831.189838
 11
1009.893762
 21
816.189838
  0
LINE
  8
0
  6
CONTINUOUS
 62
1
 10
1610.224173
 20
916.341846
 11
1610.224173
 21
1306.228111
  0
LINE
  8
0
  6
CONTINUOUS
 62
1
 10
1522.224173
 20
909.272100
 11
1522.224173
 21
1313.297857
  0
LINE
  8
0
  6
CONTINUOUS
 62
2
 10
1566.224173
 20
1047.284973
 11
1566.224173
 21
1045.951639
  0
CIRCLE
  8
0
  6
CONTINUOUS
 62
2
 10
1566.224173
 20
1042.284973
 40
5.000000
  0
LINE
  8
0
  6
CONTINUOUS
 62
2
 10
1563.890839
 20
1044.951639
 11
1566.224173
 21
1042.284973
  0
LINE
  8
0
  6
CONTINUOUS
 62
2
 10
1567.890839
 20
1043.951639
 11
1566.224173
 21
1042.284973
  0
LINE
  8
0
  6
CONTINUOUS
 62
2
 10
1566.224173
 20
1038.618306
 11
1566.224173
 21
1037.284973
  0
LINE
  8
0
  6
CONTINUOUS
 62
2
 10
1571.224173
 20
1042.284973
 11
1569.890839
 21
1042.284973
  0
LINE
  8
0
  6
CONTINUOUS
 62
2
 10
1562.557506
 20
1042.284973
 11
1561.224173
 21
1042.284973
  0
TEXT
  8
0
  6
CONTINUOUS
 62
1
 10
1564.545003
 20
1039.468781
 40
1.666667
  1
MIN
 50
0.000000
 41
1.000000
 51
0.000000
  7
STANDARD
  0
ARC
  8
0
  6
CONTINUOUS
 62
1
 10
1556.481553
 20
941.306219
 40
9.165514
 50
337.379944
 51
22.619995
  0
ARC
  8
0
  6
CONTINUOUS
 62
1
 10
1556.481553
 20
941.306209
 40
9.518036
 50
335.149323
 51
24.850708
  0
LINE
  8
0
  6
CONTINUOUS
 62
1
 10
1564.872157
 20
945.192170
 11
1565.170183
 21
945.192170
  0
LINE
  8
0
  6
CONTINUOUS
 62
1
 10
1564.613425
 20
945.051164
 11
1565.231886
 21
945.051164
  0
LINE
  8
0
  6
CONTINUOUS
 62
1
 10
1564.390125
 20
944.910158
 11
1565.290900
 21
944.910158
  0
LINE
  8
0
  6
CONTINUOUS
 62
1
 10
1564.193230
 20
944.769151
 11
1564.829620
 21
944.769151
  0
LINE
  8
0
  6
CONTINUOUS
 62
1
 10
1564.967705
 20
944.769151
 11
1565.347288
 21
944.769151
  0
LINE
  8
0
  6
CONTINUOUS
 62
1
 10
1564.017169
 20
944.628145
 11
1564.602495
 21
944.628145
  0
LINE
  8
0
  6
CONTINUOUS
 62
1
 10
1565.023884
 20
944.628145
 11
1565.401068
 21
944.628145
  0
LINE
  8
0
  6
CONTINUOUS
 62
1
 10
1563.858223
 20
944.487128
 11
1564.404745
 21
944.487128
  0
LINE
  8
0
  6
CONTINUOUS
 62
1
 10
1565.077384
 20
944.487128
 11
1565.452325
 21
944.487128
  0
LINE
  8
0
  6
CONTINUOUS
 62
1
 10
1563.713764
 20
944.346122
 11
1564.229657
 21
944.346122
  0
LINE
  8
0
  6
CONTINUOUS
 62
1
 10
1565.128259
 20
944.346122
 11
1565.501086
 21
944.346122
  0
LINE
  8
0
  6
CONTINUOUS
 62
1
 10
1563.581864
 20
944.205116
 11
1564.072896
 21
944.205116
  0
LINE
  8
0
  6
CONTINUOUS
 62
1
 10
1565.176552
 20
944.205116
 11
1565.547394
 21
944.205116
  0
LINE
  8
0
  6
CONTINUOUS
 62
1
 10
1563.461029
 20
944.064109
 11
1563.931464
 21
944.064109
  0
LINE
  8
0
  6
CONTINUOUS
 62
1
 10
1565.222295
 20
944.064109
 11
1565.591276
 21
944.064109
  0
LINE
  8
0
  6
CONTINUOUS
 62
1
 10
1563.350113
 20
943.923103
 11
1563.803217
 21
943.923103
  0
LINE
  8
0
  6
CONTINUOUS
 62
1
 10
1565.265543
 20
943.923103
 11
1565.632786
 21
943.923103
  0
LINE
  8
0
  6
CONTINUOUS
 62
1
 10
1563.248191
 20
943.782086
 11
1563.686535
 21
943.782086
  0
LINE
  8
0
  6
CONTINUOUS
 62
1
 10
1565.306327
 20
943.782086
 11
1565.671930
 21
943.782086
  0
LINE
  8
0
  6
CONTINUOUS
 62
1
 10
1563.154521
 20
943.641080
 11
1563.580170
 21
943.641080
  0
LINE
  8
0
  6
CONTINUOUS
 62
1
 10
1565.344679
 20
943.641080
 11
1565.708760
 21
943.641080
  0
LINE
  8
0
  6
CONTINUOUS
 62
1
 10
1563.068477
 20
943.500073
 11
1563.483143
 21
943.500073
  0
LINE
  8
0
  6
CONTINUOUS
 62
1
 10
1565.380638
 20
943.500073
 11
1565.743310
 21
943.500073
  0
LINE
  8
0
  6
CONTINUOUS
 62
1
 10
1562.989540
 20
943.359067
 11
1563.394647
 21
943.359067
  0
LINE
  8
0
  6
CONTINUOUS
 62
1
 10
1565.414209
 20
943.359067
 11
1565.775573
 21
943.359067
  0
LINE
  8
0
  6
CONTINUOUS
 62
1
 10
1562.917289
 20
943.218061
 11
1563.314031
 21
943.218061
  0
LINE
  8
0
  6
CONTINUOUS
 62
1
 10
1565.445456
 20
943.218061
 11
1565.805610
 21
943.218061
  0
LINE
  8
0
  6
CONTINUOUS
 62
1
 10
1562.851352
 20
943.077044
 11
1563.240790
 21
943.077044
  0
LINE
  8
0
  6
CONTINUOUS
 62
1
 10
1565.474379
 20
943.077044
 11
1565.833414
 21
943.077044
  0
LINE
  8
0
  6
CONTINUOUS
 62
1
 10
1562.791424
 20
942.936038
 11
1563.174461
 21
942.936038
  0
LINE
  8
0
  6
CONTINUOUS
 62
1
 10
1565.501000
 20
942.936038
 11
1565.859007
 21
942.936038
  0
LINE
  8
0
  6
CONTINUOUS
 62
1
 10
1562.737236
 20
942.795031
 11
1563.114673
 21
942.795031
  0
LINE
  8
0
  6
CONTINUOUS
 62
1
 10
1565.525340
 20
942.795031
 11
1565.882428
 21
942.795031
  0
LINE
  8
0
  6
CONTINUOUS
 62
1
 10
1562.688572
 20
942.654025
 11
1563.061103
 21
942.654025
  0
LINE
  8
0
  6
CONTINUOUS
 62
1
 10
1565.547421
 20
942.654025
 11
1565.903680
 21
942.654025
  0
LINE
  8
0
  6
CONTINUOUS
 62
1
 10
1562.645227
 20
942.513019
 11
1563.013525
 21
942.513019
  0
LINE
  8
0
  6
CONTINUOUS
 62
1
 10
1565.567275
 20
942.513019
 11
1565.922771
 21
942.513019
  0
LINE
  8
0
  6
CONTINUOUS
 62
1
 10
1562.607042
 20
942.372002
 11
1562.971692
 21
942.372002
  0
LINE
  8
0
  6
CONTINUOUS
 62
1
 10
1565.584886
 20
942.372002
 11
1565.939736
 21
942.372002
  0
LINE
  8
0
  6
CONTINUOUS
 62
1
 10
1562.573880
 20
942.230996
 11
1562.935411
 21
942.230996
  0
LINE
  8
0
  6
CONTINUOUS
 62
1
 10
1565.600297
 20
942.230996
 11
1565.954555
 21
942.230996
  0
LINE
  8
0
  6
CONTINUOUS
 62
1
 10
1562.545607
 20
942.089989
 11
1562.904540
 21
942.089989
  0
LINE
  8
0
  6
CONTINUOUS
 62
1
 10
1565.613497
 20
942.089989
 11
1565.967261
 21
942.089989
  0
LINE
  8
0
  6
CONTINUOUS
 62
1
 10
1562.522155
 20
941.948983
 11
1562.878947
 21
941.948983
  0
LINE
  8
0
  6
CONTINUOUS
 62
1
 10
1565.624497
 20
941.948983
 11
1565.977863
 21
941.948983
  0
LINE
  8
0
  6
CONTINUOUS
 62
1
 10
1562.503430
 20
941.807977
 11
1562.858533
 21
941.807977
  0
LINE
  8
0
  6
CONTINUOUS
 62
1
 10
1565.633324
 20
941.807977
 11
1565.986351
 21
941.807977
  0
LINE
  8
0
  6
CONTINUOUS
 62
1
 10
1562.489370
 20
941.666960
 11
1562.843219
 21
941.666960
  0
LINE
  8
0
  6
CONTINUOUS
 62
1
 10
1565.639962
 20
941.666960
 11
1565.992752
 21
941.666960
  0
LINE
  8
0
  6
CONTINUOUS
 62
1
 10
1562.479940
 20
941.525953
 11
1562.832951
 21
941.525953
  0
LINE
  8
0
  6
CONTINUOUS
 62
1
 10
1565.644432
 20
941.525953
 11
1565.997055
 21
941.525953
  0
LINE
  8
0
  6
CONTINUOUS
 62
1
 10
1562.475099
 20
941.384947
 11
1562.827679
 21
941.384947
  0
LINE
  8
0
  6
CONTINUOUS
 62
1
 10
1565.646734
 20
941.384947
 11
1565.999266
 21
941.384947
  0
LINE
  8
0
  6
CONTINUOUS
 62
1
 10
1562.474835
 20
941.243941
 11
1562.827383
 21
941.243941
  0
LINE
  8
0
  6
CONTINUOUS
 62
1
 10
1565.646858
 20
941.243941
 11
1565.999379
 21
941.243941
  0
LINE
  8
0
  6
CONTINUOUS
 62
1
 10
1562.479133
 20
941.102935
 11
1562.832079
 21
941.102935
  0
LINE
  8
0
  6
CONTINUOUS
 62
1
 10
1565.644814
 20
941.102935
 11
1565.997421
 21
941.102935
  0
LINE
  8
0
  6
CONTINUOUS
 62
1
 10
1562.488030
 20
940.961918
 11
1562.841767
 21
940.961918
  0
LINE
  8
0
  6
CONTINUOUS
 62
1
 10
1565.640597
 20
940.961918
 11
1565.993360
 21
940.961918
  0
LINE
  8
0
  6
CONTINUOUS
 62
1
 10
1562.501553
 20
940.820911
 11
1562.856484
 21
940.820911
  0
LINE
  8
0
  6
CONTINUOUS
 62
1
 10
1565.634212
 20
940.820911
 11
1565.987212
 21
940.820911
  0
LINE
  8
0
  6
CONTINUOUS
 62
1
 10
1562.519729
 20
940.679905
 11
1562.876300
 21
940.679905
  0
LINE
  8
0
  6
CONTINUOUS
 62
1
 10
1565.625638
 20
940.679905
 11
1565.978965
 21
940.679905
  0
LINE
  8
0
  6
CONTINUOUS
 62
1
 10
1562.542627
 20
940.538899
 11
1562.901286
 21
940.538899
  0
LINE
  8
0
  6
CONTINUOUS
 62
1
 10
1565.614896
 20
940.538899
 11
1565.968611
 21
940.538899
  0
LINE
  8
0
  6
CONTINUOUS
 62
1
 10
1562.570324
 20
940.397893
 11
1562.931532
 21
940.397893
  0
LINE
  8
0
  6
CONTINUOUS
 62
1
 10
1565.601948
 20
940.397893
 11
1565.956148
 21
940.397893
  0
LINE
  8
0
  6
CONTINUOUS
 62
1
 10
1562.602910
 20
940.256875
 11
1562.967163
 21
940.256875
  0
LINE
  8
0
  6
CONTINUOUS
 62
1
 10
1565.586806
 20
940.256875
 11
1565.941565
 21
940.256875
  0
LINE
  8
0
  6
CONTINUOUS
 62
1
 10
1562.640505
 20
940.115869
 11
1563.008351
 21
940.115869
  0
LINE
  8
0
  6
CONTINUOUS
 62
1
 10
1565.569448
 20
940.115869
 11
1565.924858
 21
940.115869
  0
LINE
  8
0
  6
CONTINUOUS
 62
1
 10
1562.683241
 20
939.974863
 11
1563.055250
 21
939.974863
  0
LINE
  8
0
  6
CONTINUOUS
 62
1
 10
1565.549858
 20
939.974863
 11
1565.906020
 21
939.974863
  0
LINE
  8
0
  6
CONTINUOUS
 62
1
 10
1562.731271
 20
939.833857
 11
1563.108100
 21
939.833857
  0
LINE
  8
0
  6
CONTINUOUS
 62
1
 10
1565.528035
 20
939.833857
 11
1565.885020
 21
939.833857
  0
LINE
  8
0
  6
CONTINUOUS
 62
1
 10
1562.784814
 20
939.692850
 11
1563.167140
 21
939.692850
  0
LINE
  8
0
  6
CONTINUOUS
 62
1
 10
1565.503947
 20
939.692850
 11
1565.861853
 21
939.692850
  0
LINE
  8
0
  6
CONTINUOUS
 62
1
 10
1562.844048
 20
939.551833
 11
1563.232694
 21
939.551833
  0
LINE
  8
0
  6
CONTINUOUS
 62
1
 10
1565.477595
 20
939.551833
 11
1565.836518
 21
939.551833
  0
LINE
  8
0
  6
CONTINUOUS
 62
1
 10
1562.909279
 20
939.410827
 11
1563.305118
 21
939.410827
  0
LINE
  8
0
  6
CONTINUOUS
 62
1
 10
1565.448941
 20
939.410827
 11
1565.808961
 21
939.410827
  0
LINE
  8
0
  6
CONTINUOUS
 62
1
 10
1562.980772
 20
939.269821
 11
1563.384830
 21
939.269821
  0
LINE
  8
0
  6
CONTINUOUS
 62
1
 10
1565.417974
 20
939.269821
 11
1565.779198
 21
939.269821
  0
LINE
  8
0
  6
CONTINUOUS
 62
1
 10
1563.058903
 20
939.128815
 11
1563.472385
 21
939.128815
  0
LINE
  8
0
  6
CONTINUOUS
 62
1
 10
1565.384667
 20
939.128815
 11
1565.747188
 21
939.128815
  0
LINE
  8
0
  6
CONTINUOUS
 62
1
 10
1563.144101
 20
938.987808
 11
1563.568384
 21
938.987808
  0
LINE
  8
0
  6
CONTINUOUS
 62
1
 10
1565.348993
 20
938.987808
 11
1565.712907
 21
938.987808
  0
LINE
  8
0
  6
CONTINUOUS
 62
1
 10
1563.236858
 20
938.846791
 11
1563.673615
 21
938.846791
  0
LINE
  8
0
  6
CONTINUOUS
 62
1
 10
1565.310937
 20
938.846791
 11
1565.676346
 21
938.846791
  0
LINE
  8
0
  6
CONTINUOUS
 62
1
 10
1563.337774
 20
938.705785
 11
1563.789033
 21
938.705785
  0
LINE
  8
0
  6
CONTINUOUS
 62
1
 10
1565.270438
 20
938.705785
 11
1565.637466
 21
938.705785
  0
LINE
  8
0
  6
CONTINUOUS
 62
1
 10
1563.447593
 20
938.564779
 11
1563.915854
 21
938.564779
  0
LINE
  8
0
  6
CONTINUOUS
 62
1
 10
1565.227475
 20
938.564779
 11
1565.596236
 21
938.564779
  0
LINE
  8
0
  6
CONTINUOUS
 62
1
 10
1563.567212
 20
938.423772
 11
1564.055650
 21
938.423772
  0
LINE
  8
0
  6
CONTINUOUS
 62
1
 10
1565.182028
 20
938.423772
 11
1565.552639
 21
938.423772
  0
LINE
  8
0
  6
CONTINUOUS
 62
1
 10
1563.697756
 20
938.282766
 11
1564.210492
 21
938.282766
  0
LINE
  8
0
  6
CONTINUOUS
 62
1
 10
1565.134025
 20
938.282766
 11
1565.506615
 21
938.282766
  0
LINE
  8
0
  6
CONTINUOUS
 62
1
 10
1563.840655
 20
938.141749
 11
1564.383256
 21
938.141749
  0
LINE
  8
0
  6
CONTINUOUS
 62
1
 10
1565.083462
 20
938.141749
 11
1565.458150
 21
938.141749
  0
LINE
  8
0
  6
CONTINUOUS
 62
1
 10
1563.997793
 20
938.000743
 11
1564.578058
 21
938.000743
  0
LINE
  8
0
  6
CONTINUOUS
 62
1
 10
1565.030274
 20
938.000743
 11
1565.407189
 21
938.000743
  0
LINE
  8
0
  6
CONTINUOUS
 62
1
 10
1564.171687
 20
937.859737
 11
1564.801288
 21
937.859737
  0
LINE
  8
0
  6
CONTINUOUS
 62
1
 10
1564.974407
 20
937.859737
 11
1565.353689
 21
937.859737
  0
LINE
  8
0
  6
CONTINUOUS
 62
1
 10
1564.365914
 20
937.718730
 11
1565.297613
 21
937.718730
  0
LINE
  8
0
  6
CONTINUOUS
 62
1
 10
1564.585755
 20
937.577724
 11
1565.238906
 21
937.577724
  0
LINE
  8
0
  6
CONTINUOUS
 62
1
 10
1564.839700
 20
937.436707
 11
1565.177525
 21
937.436707
  0
ARC
  8
0
  6
CONTINUOUS
 62
1
 10
1566.822179
 20
941.306209
 40
3.995269
 50
118.072868
 51
241.927307
  0
ARC
  8
0
  6
CONTINUOUS
 62
1
 10
1566.822163
 20
941.306209
 40
4.347785
 50
113.072655
 51
246.927307
  0
LINE
  8
0
  6
CONTINUOUS
 62
1
 10
1571.287410
 20
943.333205
 11
1567.057157
 21
943.597596
  0
LINE
  8
0
  6
CONTINUOUS
 62
1
 10
1571.137039
 20
939.269821
 11
1571.287410
 21
939.269821
  0
LINE
  8
0
  6
CONTINUOUS
 62
1
 10
1568.880901
 20
939.128815
 11
1571.287410
 21
939.128815
  0
LINE
  8
0
  6
CONTINUOUS
 62
1
 10
1567.057157
 20
938.987808
 11
1571.287410
 21
938.987808
  0
LINE
  8
0
  6
CONTINUOUS
 62
1
 10
1567.057157
 20
938.846791
 11
1571.287410
 21
938.846791
  0
LINE
  8
0
  6
CONTINUOUS
 62
1
 10
1567.057157
 20
938.705785
 11
1571.287410
 21
938.705785
  0
LINE
  8
0
  6
CONTINUOUS
 62
1
 10
1568.617613
 20
938.564779
 11
1571.287410
 21
938.564779
  0
LINE
  8
0
  6
CONTINUOUS
 62
1
 10
1570.873745
 20
938.423772
 11
1571.287410
 21
938.423772
  0
LINE
  8
0
  6
CONTINUOUS
 62
1
 10
1570.008967
 20
941.666960
 11
1571.287410
 21
941.666960
  0
LINE
  8
0
  6
CONTINUOUS
 62
1
 10
1567.752834
 20
941.525953
 11
1571.287410
 21
941.525953
  0
LINE
  8
0
  6
CONTINUOUS
 62
1
 10
1567.057157
 20
941.384947
 11
1571.287410
 21
941.384947
  0
LINE
  8
0
  6
CONTINUOUS
 62
1
 10
1567.057157
 20
941.243941
 11
1571.287410
 21
941.243941
  0
LINE
  8
0
  6
CONTINUOUS
 62
1
 10
1567.489546
 20
941.102935
 11
1571.287410
 21
941.102935
  0
LINE
  8
0
  6
CONTINUOUS
 62
1
 10
1569.745679
 20
940.961918
 11
1571.287410
 21
940.961918
  0
LINE
  8
0
  6
CONTINUOUS
 62
1
 10
1571.137039
 20
944.205116
 11
1571.287410
 21
944.205116
  0
LINE
  8
0
  6
CONTINUOUS
 62
1
 10
1568.880901
 20
944.064109
 11
1571.287410
 21
944.064109
  0
LINE
  8
0
  6
CONTINUOUS
 62
1
 10
1567.057157
 20
943.923103
 11
1571.287410
 21
943.923103
  0
LINE
  8
0
  6
CONTINUOUS
 62
1
 10
1567.057157
 20
943.782086
 11
1571.287410
 21
943.782086
  0
LINE
  8
0
  6
CONTINUOUS
 62
1
 10
1567.057157
 20
943.641080
 11
1571.287410
 21
943.641080
  0
LINE
  8
0
  6
CONTINUOUS
 62
1
 10
1568.617613
 20
943.500073
 11
1571.287410
 21
943.500073
  0
LINE
  8
0
  6
CONTINUOUS
 62
1
 10
1570.873745
 20
943.359067
 11
1571.287410
 21
943.359067
  0
LINE
  8
0
  6
CONTINUOUS
 62
1
 10
1571.287410
 20
940.865557
 11
1567.057157
 21
941.129948
  0
LINE
  8
0
  6
CONTINUOUS
 62
1
 10
1567.057157
 20
941.482469
 11
1571.287410
 21
941.746860
  0
LINE
  8
0
  6
CONTINUOUS
 62
1
 10
1567.057157
 20
941.129948
 11
1567.057157
 21
941.482469
  0
LINE
  8
0
  6
CONTINUOUS
 62
1
 10
1571.287410
 20
938.397910
 11
1567.057157
 21
938.662301
  0
LINE
  8
0
  6
CONTINUOUS
 62
1
 10
1567.057157
 20
939.014822
 11
1571.287410
 21
939.279213
  0
LINE
  8
0
  6
CONTINUOUS
 62
1
 10
1567.057157
 20
938.662301
 11
1567.057157
 21
939.014822
  0
LINE
  8
0
  6
CONTINUOUS
 62
1
 10
1571.287410
 20
944.214507
 11
1571.287410
 21
943.333205
  0
LINE
  8
0
  6
CONTINUOUS
 62
1
 10
1571.287410
 20
940.865557
 11
1571.287410
 21
941.746860
  0
LINE
  8
0
  6
CONTINUOUS
 62
1
 10
1571.287410
 20
938.397910
 11
1571.287410
 21
939.279213
  0
LINE
  8
0
  6
CONTINUOUS
 62
1
 10
1567.057157
 20
943.950117
 11
1571.287410
 21
944.214507
  0
LINE
  8
0
  6
CONTINUOUS
 62
1
 10
1567.057157
 20
943.950117
 11
1567.057157
 21
943.597596
  0
LINE
  8
0
  6
CONTINUOUS
 62
1
 10
1577.724251
 20
1077.784973
 11
1577.724251
 21
1105.784973
  0
LINE
  8
0
  6
CONTINUOUS
 62
1
 10
1554.724260
 20
1077.784973
 11
1577.724251
 21
1077.784973
  0
LINE
  8
0
  6
CONTINUOUS
 62
1
 10
1554.724260
 20
1077.784973
 11
1554.724260
 21
1105.784973
  0
LINE
  8
0
  6
CONTINUOUS
 62
1
 10
1554.724260
 20
1105.784973
 11
1577.724251
 21
1105.784973
  0
ARC
  8
0
  6
CONTINUOUS
 62
2
 10
1566.143459
 20
1068.718216
 40
1.862832
 50
51.486725
 51
118.120522
  0
LINE
  8
0
  6
CONTINUOUS
 62
2
 10
1565.203701
 20
1069.310897
 11
1566.871135
 21
1069.805145
  0
LINE
  8
0
  6
CONTINUOUS
 62
2
 10
1565.265453
 20
1070.361160
 11
1564.030315
 21
1070.546493
  0
LINE
  8
0
  6
CONTINUOUS
 62
2
 10
1561.436519
 20
1070.793609
 11
1562.548145
 21
1070.917175
  0
LINE
  8
0
  6
CONTINUOUS
 62
2
 10
1562.548145
 20
1070.917175
 11
1565.821270
 21
1071.534973
  0
LINE
  8
0
  6
CONTINUOUS
 62
2
 10
1561.498279
 20
1069.434463
 11
1562.424633
 21
1069.372680
  0
ARC
  8
0
  6
CONTINUOUS
 62
2
 10
1563.910816
 20
1073.689193
 40
4.565188
 50
251.001328
 51
286.451599
  0
ARC
  8
0
  6
CONTINUOUS
 62
2
 10
1566.969341
 20
1070.128036
 40
0.337500
 50
253.084137
 51
8.139585
  0
LINE
  8
0
  6
CONTINUOUS
 62
2
 10
1568.106281
 20
1070.422943
 11
1567.303440
 21
1070.175827
  0
LINE
  8
0
  6
CONTINUOUS
 62
2
 10
1565.821270
 20
1071.534973
 11
1569.848064
 21
1070.824096
  0
LINE
  8
0
  6
CONTINUOUS
 62
2
 10
1566.496853
 20
1069.694198
 11
1566.328457
 21
1070.027572
  0
LINE
  8
0
  6
CONTINUOUS
 62
2
 10
1566.416759
 20
1070.206741
 11
1567.074932
 21
1070.331451
  0
ARC
  8
0
  6
CONTINUOUS
 62
2
 10
1566.440029
 20
1070.083923
 40
0.125002
 50
100.728523
 51
206.799759
  0
ARC
  8
0
  6
CONTINUOUS
 62
2
 10
1566.143459
 20
1064.650711
 40
1.862832
 50
241.879456
 51
308.513245
  0
LINE
  8
0
  6
CONTINUOUS
 62
2
 10
1565.203701
 20
1064.058029
 11
1566.871135
 21
1063.563797
  0
LINE
  8
0
  6
CONTINUOUS
 62
2
 10
1565.265453
 20
1063.007782
 11
1564.030315
 21
1062.822433
  0
LINE
  8
0
  6
CONTINUOUS
 62
2
 10
1561.436519
 20
1062.575317
 11
1562.548145
 21
1062.451751
  0
LINE
  8
0
  6
CONTINUOUS
 62
2
 10
1562.548145
 20
1062.451751
 11
1565.821270
 21
1061.833954
  0
LINE
  8
0
  6
CONTINUOUS
 62
2
 10
1561.498279
 20
1063.934463
 11
1562.424633
 21
1063.996246
  0
ARC
  8
0
  6
CONTINUOUS
 62
2
 10
1563.910816
 20
1059.679733
 40
4.565188
 50
73.548386
 51
108.998672
  0
ARC
  8
0
  6
CONTINUOUS
 62
2
 10
1566.969341
 20
1063.240890
 40
0.337500
 50
351.860413
 51
106.915863
  0
LINE
  8
0
  6
CONTINUOUS
 62
2
 10
1568.106281
 20
1062.945984
 11
1567.303440
 21
1063.193115
  0
LINE
  8
0
  6
CONTINUOUS
 62
2
 10
1565.821270
 20
1061.833954
 11
1569.848064
 21
1062.544830
  0
LINE
  8
0
  6
CONTINUOUS
 62
2
 10
1566.496853
 20
1063.674728
 11
1566.328457
 21
1063.341369
  0
LINE
  8
0
  6
CONTINUOUS
 62
2
 10
1566.416759
 20
1063.162185
 11
1567.074932
 21
1063.037475
  0
ARC
  8
0
  6
CONTINUOUS
 62
2
 10
1566.440029
 20
1063.285003
 40
0.125002
 50
153.200241
 51
259.271484
  0
LINE
  8
0
  6
CONTINUOUS
 62
2
 10
1569.545902
 20
1070.256775
 11
1568.106281
 21
1070.422943
  0
LINE
  8
0
  6
CONTINUOUS
 62
2
 10
1569.545902
 20
1063.112167
 11
1568.106281
 21
1062.945984
  0
ARC
  8
0
  6
CONTINUOUS
 62
2
 10
1569.826336
 20
1070.701004
 40
0.124998
 50
330.954498
 51
79.988701
  0
LINE
  8
0
  6
CONTINUOUS
 62
2
 10
1569.935611
 20
1070.640319
 11
1569.793125
 21
1070.383743
  0
ARC
  8
0
  6
CONTINUOUS
 62
2
 10
1569.574566
 20
1070.505127
 40
0.250001
 50
263.416321
 51
330.954834
  0
ARC
  8
0
  6
CONTINUOUS
 62
2
 10
1569.826336
 20
1062.667923
 40
0.124998
 50
280.011292
 51
29.045502
  0
LINE
  8
0
  6
CONTINUOUS
 62
2
 10
1569.935611
 20
1062.728622
 11
1569.793125
 21
1062.985183
  0
ARC
  8
0
  6
CONTINUOUS
 62
2
 10
1569.574566
 20
1062.863815
 40
0.250001
 50
29.045143
 51
96.583641
  0
LINE
  8
0
  6
CONTINUOUS
 62
1
 10
1551.224243
 20
1134.785686
 11
1551.224243
 21
1165.785686
  0
LINE
  8
0
  6
CONTINUOUS
 62
1
 10
1581.224102
 20
1134.785686
 11
1581.224102
 21
1165.785686
  0
LINE
  8
0
  6
CONTINUOUS
 62
1
 10
1553.224243
 20
1167.785686
 11
1579.224102
 21
1167.785686
  0
LINE
  8
0
  6
CONTINUOUS
 62
1
 10
1553.224243
 20
1132.785686
 11
1579.224102
 21
1132.785686
  0
LINE
  8
0
  6
CONTINUOUS
 62
1
 10
1581.224102
 20
1122.784973
 11
1581.224102
 21
1060.784973
  0
LINE
  8
0
  6
CONTINUOUS
 62
1
 10
1551.224243
 20
1060.784973
 11
1551.224243
 21
1122.784973
  0
LINE
  8
0
  6
CONTINUOUS
 62
1
 10
1551.224243
 20
1245.785686
 11
1551.224243
 21
1260.470454
  0
LINE
  8
0
  6
CONTINUOUS
 62
1
 10
1581.224102
 20
1258.051809
 11
1581.224102
 21
1245.785686
  0
LINE
  8
0
  6
CONTINUOUS
 62
1
 10
1579.224102
 20
1243.785686
 11
1553.224243
 21
1243.785686
  0
LINE
  8
0
  6
CONTINUOUS
 62
1
 10
1579.224102
 20
1050.284973
 11
1553.224243
 21
1050.284973
  0
LINE
  8
0
  6
CONTINUOUS
 62
1
 10
1579.224102
 20
1034.284973
 11
1553.224243
 21
1034.284973
  0
LINE
  8
0
  6
CONTINUOUS
 62
1
 10
1581.224102
 20
1048.284973
 11
1581.224102
 21
1036.284973
  0
LINE
  8
0
  6
CONTINUOUS
 62
1
 10
1551.224243
 20
1048.284973
 11
1551.224243
 21
1036.284973
  0
LINE
  8
0
  6
CONTINUOUS
 62
1
 10
1553.224243
 20
1124.784973
 11
1579.224102
 21
1124.784973
  0
LINE
  8
0
  6
CONTINUOUS
 62
1
 10
1553.224243
 20
1058.784973
 11
1579.224102
 21
1058.784973
  0
LINE
  8
0
  6
CONTINUOUS
 62
2
 10
1566.224173
 20
1243.785686
 11
1566.224173
 21
1237.285686
  0
CIRCLE
  8
0
  6
CONTINUOUS
 62
1
 10
1566.224173
 20
925.306208
 40
6.500000
  0
ARC
  8
0
  6
CONTINUOUS
 62
1
 10
1579.224102
 20
1245.785686
 40
2.000000
 50
270.000000
 51
0.000000
  0
ARC
  8
0
  6
CONTINUOUS
 62
1
 10
1553.224243
 20
1245.785686
 40
2.000000
 50
180.000000
 51
270.000000
  0
ARC
  8
0
  6
CONTINUOUS
 62
1
 10
1553.224243
 20
1165.785686
 40
2.000000
 50
90.000000
 51
180.000000
  0
ARC
  8
0
  6
CONTINUOUS
 62
1
 10
1579.224102
 20
1165.785686
 40
2.000000
 50
0.000000
 51
90.000000
  0
ARC
  8
0
  6
CONTINUOUS
 62
1
 10
1579.224102
 20
1134.785686
 40
2.000000
 50
270.000000
 51
0.000000
  0
ARC
  8
0
  6
CONTINUOUS
 62
1
 10
1553.224243
 20
1134.785686
 40
2.000000
 50
180.000000
 51
270.000000
  0
ARC
  8
0
  6
CONTINUOUS
 62
1
 10
1553.224243
 20
1122.784973
 40
2.000000
 50
90.000000
 51
180.000000
  0
ARC
  8
0
  6
CONTINUOUS
 62
1
 10
1579.224102
 20
1122.784973
 40
2.000000
 50
0.000000
 51
90.000000
  0
ARC
  8
0
  6
CONTINUOUS
 62
1
 10
1579.224102
 20
1060.784973
 40
2.000000
 50
270.000000
 51
0.000000
  0
ARC
  8
0
  6
CONTINUOUS
 62
1
 10
1553.224243
 20
1060.784973
 40
2.000000
 50
180.000000
 51
270.000000
  0
ARC
  8
0
  6
CONTINUOUS
 62
1
 10
1553.224243
 20
1048.284973
 40
2.000000
 50
90.000000
 51
180.000000
  0
ARC
  8
0
  6
CONTINUOUS
 62
1
 10
1579.224102
 20
1048.284973
 40
2.000000
 50
0.000000
 51
90.000000
  0
ARC
  8
0
  6
CONTINUOUS
 62
1
 10
1579.224102
 20
1036.284973
 40
2.000000
 50
270.000000
 51
0.000000
  0
ARC
  8
0
  6
CONTINUOUS
 62
1
 10
1553.224243
 20
1036.284973
 40
2.000000
 50
180.000000
 51
270.000000
  0
LINE
  8
0
  6
CONTINUOUS
 62
2
 10
1566.224173
 20
1034.284973
 11
1566.224173
 21
1027.784973
  0
LINE
  8
0
  6
CONTINUOUS
 62
2
 10
1566.424173
 20
1237.285686
 11
1566.424173
 21
1243.785686
  0
LINE
  8
0
  6
CONTINUOUS
 62
2
 10
1566.024173
 20
1237.285686
 11
1566.024173
 21
1243.785686
  0
LINE
  8
0
  6
CONTINUOUS
 62
2
 10
1566.424173
 20
1027.784973
 11
1566.424173
 21
1034.284973
  0
LINE
  8
0
  6
CONTINUOUS
 62
2
 10
1566.024173
 20
1027.784973
 11
1566.024173
 21
1034.284973
  0
LINE
  8
0
  6
CONTINUOUS
 62
1
 10
1562.099173
 20
1154.785686
 11
1570.349173
 21
1154.785686
  0
LINE
  8
0
  6
CONTINUOUS
 62
1
 10
1562.099173
 20
1155.160686
 11
1570.349173
 21
1155.160686
  0
ARC
  8
0
  6
CONTINUOUS
 62
1
 10
1564.905813
 20
1157.879436
 40
2.068363
 50
309.597870
 51
50.402130
  0
ARC
  8
0
  6
CONTINUOUS
 62
1
 10
1567.542532
 20
1161.066936
 40
2.068363
 50
129.597870
 51
230.402115
  0
ARC
  8
0
  6
CONTINUOUS
 62
1
 10
1567.542532
 20
1161.066936
 40
2.443359
 50
129.597748
 51
230.401993
  0
ARC
  8
0
  6
CONTINUOUS
 62
1
 10
1564.905813
 20
1157.879436
 40
1.693367
 50
309.597687
 51
50.401947
  0
ARC
  8
0
  6
CONTINUOUS
 62
1
 10
1562.655813
 20
1157.879436
 40
2.068363
 50
309.597870
 51
50.402130
  0
ARC
  8
0
  6
CONTINUOUS
 62
1
 10
1565.292532
 20
1161.066936
 40
2.068363
 50
129.597870
 51
230.402115
  0
ARC
  8
0
  6
CONTINUOUS
 62
1
 10
1565.292532
 20
1161.066936
 40
2.443359
 50
129.597748
 51
230.401993
  0
ARC
  8
0
  6
CONTINUOUS
 62
1
 10
1562.655813
 20
1157.879436
 40
1.693367
 50
309.597687
 51
50.401947
  0
ARC
  8
0
  6
CONTINUOUS
 62
1
 10
1567.155813
 20
1157.879436
 40
2.068363
 50
309.597870
 51
50.402130
  0
ARC
  8
0
  6
CONTINUOUS
 62
1
 10
1569.792532
 20
1161.066936
 40
2.068363
 50
129.597870
 51
230.402115
  0
ARC
  8
0
  6
CONTINUOUS
 62
1
 10
1569.792532
 20
1161.066936
 40
2.443359
 50
129.597748
 51
230.401993
  0
ARC
  8
0
  6
CONTINUOUS
 62
1
 10
1567.155813
 20
1157.879436
 40
1.693367
 50
309.597687
 51
50.401947
  0
ARC
  8
0
  6
CONTINUOUS
 62
1
 10
1565.292532
 20
1161.066936
 40
2.143363
 50
129.597870
 51
230.402115
  0
ARC
  8
0
  6
CONTINUOUS
 62
1
 10
1565.292532
 20
1161.066936
 40
2.218363
 50
129.597870
 51
230.402115
  0
ARC
  8
0
  6
CONTINUOUS
 62
1
 10
1565.292532
 20
1161.066936
 40
2.293363
 50
129.597870
 51
230.402115
  0
ARC
  8
0
  6
CONTINUOUS
 62
1
 10
1565.292532
 20
1161.066936
 40
2.368363
 50
129.597870
 51
230.402115
  0
ARC
  8
0
  6
CONTINUOUS
 62
1
 10
1562.655813
 20
1157.879436
 40
1.993363
 50
309.597870
 51
50.402130
  0
ARC
  8
0
  6
CONTINUOUS
 62
1
 10
1562.655813
 20
1157.879436
 40
1.918363
 50
309.597870
 51
50.402130
  0
ARC
  8
0
  6
CONTINUOUS
 62
1
 10
1562.655813
 20
1157.879436
 40
1.843363
 50
309.597870
 51
50.402130
  0
ARC
  8
0
  6
CONTINUOUS
 62
1
 10
1562.655813
 20
1157.879436
 40
1.768363
 50
309.597870
 51
50.402130
  0
ARC
  8
0
  6
CONTINUOUS
 62
1
 10
1567.542532
 20
1161.066936
 40
2.143363
 50
129.597870
 51
230.402115
  0
ARC
  8
0
  6
CONTINUOUS
 62
1
 10
1567.542532
 20
1161.066936
 40
2.218363
 50
129.597870
 51
230.402115
  0
ARC
  8
0
  6
CONTINUOUS
 62
1
 10
1567.542532
 20
1161.066936
 40
2.293363
 50
129.597870
 51
230.402115
  0
ARC
  8
0
  6
CONTINUOUS
 62
1
 10
1567.542532
 20
1161.066936
 40
2.368363
 50
129.597870
 51
230.402115
  0
ARC
  8
0
  6
CONTINUOUS
 62
1
 10
1564.905813
 20
1157.879436
 40
1.993363
 50
309.597870
 51
50.402130
  0
ARC
  8
0
  6
CONTINUOUS
 62
1
 10
1564.905813
 20
1157.879436
 40
1.918363
 50
309.597870
 51
50.402130
  0
ARC
  8
0
  6
CONTINUOUS
 62
1
 10
1564.905813
 20
1157.879436
 40
1.843363
 50
309.597870
 51
50.402130
  0
ARC
  8
0
  6
CONTINUOUS
 62
1
 10
1564.905813
 20
1157.879436
 40
1.768363
 50
309.597870
 51
50.402130
  0
ARC
  8
0
  6
CONTINUOUS
 62
1
 10
1567.155813
 20
1157.879436
 40
1.993363
 50
309.597870
 51
50.402130
  0
ARC
  8
0
  6
CONTINUOUS
 62
1
 10
1567.155813
 20
1157.879436
 40
1.918363
 50
309.597870
 51
50.402130
  0
ARC
  8
0
  6
CONTINUOUS
 62
1
 10
1567.155813
 20
1157.879436
 40
1.843363
 50
309.597870
 51
50.402130
  0
ARC
  8
0
  6
CONTINUOUS
 62
1
 10
1567.155813
 20
1157.879436
 40
1.768363
 50
309.597870
 51
50.402130
  0
ARC
  8
0
  6
CONTINUOUS
 62
1
 10
1569.792532
 20
1161.066936
 40
2.143363
 50
129.597870
 51
230.402115
  0
ARC
  8
0
  6
CONTINUOUS
 62
1
 10
1569.792532
 20
1161.066936
 40
2.218363
 50
129.597870
 51
230.402115
  0
ARC
  8
0
  6
CONTINUOUS
 62
1
 10
1569.792532
 20
1161.066936
 40
2.293363
 50
129.597870
 51
230.402115
  0
ARC
  8
0
  6
CONTINUOUS
 62
1
 10
1569.792532
 20
1161.066936
 40
2.368363
 50
129.597870
 51
230.402115
  0
LINE
  8
0
  6
CONTINUOUS
 62
1
 10
1570.349173
 20
1154.860686
 11
1562.099173
 21
1154.860686
  0
LINE
  8
0
  6
CONTINUOUS
 62
1
 10
1562.099173
 20
1154.935686
 11
1570.349173
 21
1154.935686
  0
LINE
  8
0
  6
CONTINUOUS
 62
1
 10
1570.349173
 20
1155.010686
 11
1562.099173
 21
1155.010686
  0
LINE
  8
0
  6
CONTINUOUS
 62
1
 10
1562.099173
 20
1155.085686
 11
1570.349173
 21
1155.085686
  0
LINE
  8
0
  6
CONTINUOUS
 62
1
 10
1563.735150
 20
1162.949637
 11
1563.974167
 21
1162.660686
  0
LINE
  8
0
  6
CONTINUOUS
 62
1
 10
1565.985150
 20
1162.949637
 11
1566.224167
 21
1162.660686
  0
LINE
  8
0
  6
CONTINUOUS
 62
1
 10
1568.235150
 20
1162.949637
 11
1568.474167
 21
1162.660686
  0
LINE
  8
0
  6
CONTINUOUS
 62
1
 10
1563.735153
 20
1156.574630
 11
1563.974178
 21
1156.285685
  0
LINE
  8
0
  6
CONTINUOUS
 62
1
 10
1565.985153
 20
1156.574630
 11
1566.224178
 21
1156.285685
  0
LINE
  8
0
  6
CONTINUOUS
 62
1
 10
1568.235153
 20
1156.574630
 11
1568.474178
 21
1156.285685
  0
LINE
  8
0
  6
CONTINUOUS
 62
1
 10
1562.099173
 20
1155.160686
 11
1562.099173
 21
1154.785686
  0
LINE
  8
0
  6
CONTINUOUS
 62
1
 10
1570.349173
 20
1155.160686
 11
1570.349173
 21
1154.785686
  0
ARC
  8
0
  6
CONTINUOUS
 62
1
 10
1564.905813
 20
1116.202061
 40
2.068363
 50
309.597870
 51
50.402130
  0
ARC
  8
0
  6
CONTINUOUS
 62
1
 10
1567.542532
 20
1119.389561
 40
2.068363
 50
129.597870
 51
230.402115
  0
ARC
  8
0
  6
CONTINUOUS
 62
1
 10
1567.542532
 20
1119.389561
 40
2.443359
 50
129.597748
 51
230.401993
  0
ARC
  8
0
  6
CONTINUOUS
 62
1
 10
1564.905813
 20
1116.202061
 40
1.693367
 50
309.597687
 51
50.401947
  0
ARC
  8
0
  6
CONTINUOUS
 62
1
 10
1562.655813
 20
1116.202061
 40
2.068363
 50
309.597870
 51
50.402130
  0
ARC
  8
0
  6
CONTINUOUS
 62
1
 10
1565.292532
 20
1119.389561
 40
2.068363
 50
129.597870
 51
230.402115
  0
ARC
  8
0
  6
CONTINUOUS
 62
1
 10
1565.292532
 20
1119.389561
 40
2.443359
 50
129.597748
 51
230.401993
  0
ARC
  8
0
  6
CONTINUOUS
 62
1
 10
1562.655813
 20
1116.202061
 40
1.693367
 50
309.597687
 51
50.401947
  0
ARC
  8
0
  6
CONTINUOUS
 62
1
 10
1567.155813
 20
1116.202061
 40
2.068363
 50
309.597870
 51
50.402130
  0
ARC
  8
0
  6
CONTINUOUS
 62
1
 10
1569.792532
 20
1119.389561
 40
2.068363
 50
129.597870
 51
230.402115
  0
ARC
  8
0
  6
CONTINUOUS
 62
1
 10
1569.792532
 20
1119.389561
 40
2.443359
 50
129.597748
 51
230.401993
  0
ARC
  8
0
  6
CONTINUOUS
 62
1
 10
1567.155813
 20
1116.202061
 40
1.693367
 50
309.597687
 51
50.401947
  0
ARC
  8
0
  6
CONTINUOUS
 62
1
 10
1565.292532
 20
1119.389561
 40
2.143363
 50
129.597870
 51
230.402115
  0
ARC
  8
0
  6
CONTINUOUS
 62
1
 10
1565.292532
 20
1119.389561
 40
2.218363
 50
129.597870
 51
230.402115
  0
ARC
  8
0
  6
CONTINUOUS
 62
1
 10
1565.292532
 20
1119.389561
 40
2.293363
 50
129.597870
 51
230.402115
  0
ARC
  8
0
  6
CONTINUOUS
 62
1
 10
1565.292532
 20
1119.389561
 40
2.368363
 50
129.597870
 51
230.402115
  0
ARC
  8
0
  6
CONTINUOUS
 62
1
 10
1562.655813
 20
1116.202061
 40
1.993363
 50
309.597870
 51
50.402130
  0
ARC
  8
0
  6
CONTINUOUS
 62
1
 10
1562.655813
 20
1116.202061
 40
1.918363
 50
309.597870
 51
50.402130
  0
ARC
  8
0
  6
CONTINUOUS
 62
1
 10
1562.655813
 20
1116.202061
 40
1.843363
 50
309.597870
 51
50.402130
  0
ARC
  8
0
  6
CONTINUOUS
 62
1
 10
1562.655813
 20
1116.202061
 40
1.768363
 50
309.597870
 51
50.402130
  0
ARC
  8
0
  6
CONTINUOUS
 62
1
 10
1567.542532
 20
1119.389561
 40
2.143363
 50
129.597870
 51
230.402115
  0
ARC
  8
0
  6
CONTINUOUS
 62
1
 10
1567.542532
 20
1119.389561
 40
2.218363
 50
129.597870
 51
230.402115
  0
ARC
  8
0
  6
CONTINUOUS
 62
1
 10
1567.542532
 20
1119.389561
 40
2.293363
 50
129.597870
 51
230.402115
  0
ARC
  8
0
  6
CONTINUOUS
 62
1
 10
1567.542532
 20
1119.389561
 40
2.368363
 50
129.597870
 51
230.402115
  0
ARC
  8
0
  6
CONTINUOUS
 62
1
 10
1564.905813
 20
1116.202061
 40
1.993363
 50
309.597870
 51
50.402130
  0
ARC
  8
0
  6
CONTINUOUS
 62
1
 10
1564.905813
 20
1116.202061
 40
1.918363
 50
309.597870
 51
50.402130
  0
ARC
  8
0
  6
CONTINUOUS
 62
1
 10
1564.905813
 20
1116.202061
 40
1.843363
 50
309.597870
 51
50.402130
  0
ARC
  8
0
  6
CONTINUOUS
 62
1
 10
1564.905813
 20
1116.202061
 40
1.768363
 50
309.597870
 51
50.402130
  0
ARC
  8
0
  6
CONTINUOUS
 62
1
 10
1567.155813
 20
1116.202061
 40
1.993363
 50
309.597870
 51
50.402130
  0
ARC
  8
0
  6
CONTINUOUS
 62
1
 10
1567.155813
 20
1116.202061
 40
1.918363
 50
309.597870
 51
50.402130
  0
ARC
  8
0
  6
CONTINUOUS
 62
1
 10
1567.155813
 20
1116.202061
 40
1.843363
 50
309.597870
 51
50.402130
  0
ARC
  8
0
  6
CONTINUOUS
 62
1
 10
1567.155813
 20
1116.202061
 40
1.768363
 50
309.597870
 51
50.402130
  0
ARC
  8
0
  6
CONTINUOUS
 62
1
 10
1569.792532
 20
1119.389561
 40
2.143363
 50
129.597870
 51
230.402115
  0
ARC
  8
0
  6
CONTINUOUS
 62
1
 10
1569.792532
 20
1119.389561
 40
2.218363
 50
129.597870
 51
230.402115
  0
ARC
  8
0
  6
CONTINUOUS
 62
1
 10
1569.792532
 20
1119.389561
 40
2.293363
 50
129.597870
 51
230.402115
  0
ARC
  8
0
  6
CONTINUOUS
 62
1
 10
1569.792532
 20
1119.389561
 40
2.368363
 50
129.597870
 51
230.402115
  0
LINE
  8
0
  6
CONTINUOUS
 62
1
 10
1563.735150
 20
1121.272263
 11
1563.974167
 21
1120.983311
  0
LINE
  8
0
  6
CONTINUOUS
 62
1
 10
1565.985150
 20
1121.272263
 11
1566.224167
 21
1120.983311
  0
LINE
  8
0
  6
CONTINUOUS
 62
1
 10
1568.235150
 20
1121.272263
 11
1568.474167
 21
1120.983311
  0
LINE
  8
0
  6
CONTINUOUS
 62
1
 10
1563.735153
 20
1114.897256
 11
1563.974178
 21
1114.608311
  0
LINE
  8
0
  6
CONTINUOUS
 62
1
 10
1565.985153
 20
1114.897256
 11
1566.224178
 21
1114.608311
  0
LINE
  8
0
  6
CONTINUOUS
 62
1
 10
1568.235153
 20
1114.897256
 11
1568.474178
 21
1114.608311
  0
ARC
  8
0
  6
CONTINUOUS
 62
1
 10
1565.608938
 20
1065.869331
 40
0.965236
 50
309.597870
 51
50.402130
  0
ARC
  8
0
  6
CONTINUOUS
 62
1
 10
1566.839407
 20
1067.356831
 40
0.965236
 50
129.597870
 51
230.402115
  0
ARC
  8
0
  6
CONTINUOUS
 62
1
 10
1566.839407
 20
1067.356831
 40
1.140234
 50
129.597748
 51
230.401993
  0
ARC
  8
0
  6
CONTINUOUS
 62
1
 10
1565.608938
 20
1065.869331
 40
0.790238
 50
309.597687
 51
50.401947
  0
ARC
  8
0
  6
CONTINUOUS
 62
1
 10
1564.558938
 20
1065.869331
 40
0.965236
 50
309.597870
 51
50.402130
  0
ARC
  8
0
  6
CONTINUOUS
 62
1
 10
1565.789407
 20
1067.356831
 40
0.965236
 50
129.597870
 51
230.402115
  0
ARC
  8
0
  6
CONTINUOUS
 62
1
 10
1565.789407
 20
1067.356831
 40
1.140234
 50
129.597748
 51
230.401993
  0
ARC
  8
0
  6
CONTINUOUS
 62
1
 10
1564.558938
 20
1065.869331
 40
0.790238
 50
309.597687
 51
50.401947
  0
ARC
  8
0
  6
CONTINUOUS
 62
1
 10
1566.658938
 20
1065.869331
 40
0.965236
 50
309.597870
 51
50.402130
  0
ARC
  8
0
  6
CONTINUOUS
 62
1
 10
1567.889407
 20
1067.356831
 40
0.965236
 50
129.597870
 51
230.402115
  0
ARC
  8
0
  6
CONTINUOUS
 62
1
 10
1567.889407
 20
1067.356831
 40
1.140234
 50
129.597748
 51
230.401993
  0
ARC
  8
0
  6
CONTINUOUS
 62
1
 10
1566.658938
 20
1065.869331
 40
0.790238
 50
309.597687
 51
50.401947
  0
ARC
  8
0
  6
CONTINUOUS
 62
1
 10
1565.789407
 20
1067.356831
 40
1.000236
 50
129.597870
 51
230.402115
  0
ARC
  8
0
  6
CONTINUOUS
 62
1
 10
1565.789407
 20
1067.356831
 40
1.035236
 50
129.597870
 51
230.402115
  0
ARC
  8
0
  6
CONTINUOUS
 62
1
 10
1565.789407
 20
1067.356831
 40
1.070236
 50
129.597870
 51
230.402115
  0
ARC
  8
0
  6
CONTINUOUS
 62
1
 10
1565.789407
 20
1067.356831
 40
1.105236
 50
129.597870
 51
230.402115
  0
ARC
  8
0
  6
CONTINUOUS
 62
1
 10
1564.558938
 20
1065.869331
 40
0.930236
 50
309.597870
 51
50.402130
  0
ARC
  8
0
  6
CONTINUOUS
 62
1
 10
1564.558938
 20
1065.869331
 40
0.895236
 50
309.597870
 51
50.402130
  0
ARC
  8
0
  6
CONTINUOUS
 62
1
 10
1564.558938
 20
1065.869331
 40
0.860236
 50
309.597870
 51
50.402130
  0
ARC
  8
0
  6
CONTINUOUS
 62
1
 10
1564.558938
 20
1065.869331
 40
0.825236
 50
309.597870
 51
50.402130
  0
ARC
  8
0
  6
CONTINUOUS
 62
1
 10
1566.839407
 20
1067.356831
 40
1.000236
 50
129.597870
 51
230.402115
  0
ARC
  8
0
  6
CONTINUOUS
 62
1
 10
1566.839407
 20
1067.356831
 40
1.035236
 50
129.597870
 51
230.402115
  0
ARC
  8
0
  6
CONTINUOUS
 62
1
 10
1566.839407
 20
1067.356831
 40
1.070236
 50
129.597870
 51
230.402115
  0
ARC
  8
0
  6
CONTINUOUS
 62
1
 10
1566.839407
 20
1067.356831
 40
1.105236
 50
129.597870
 51
230.402115
  0
ARC
  8
0
  6
CONTINUOUS
 62
1
 10
1565.608938
 20
1065.869331
 40
0.930236
 50
309.597870
 51
50.402130
  0
ARC
  8
0
  6
CONTINUOUS
 62
1
 10
1565.608938
 20
1065.869331
 40
0.895236
 50
309.597870
 51
50.402130
  0
ARC
  8
0
  6
CONTINUOUS
 62
1
 10
1565.608938
 20
1065.869331
 40
0.860236
 50
309.597870
 51
50.402130
  0
ARC
  8
0
  6
CONTINUOUS
 62
1
 10
1565.608938
 20
1065.869331
 40
0.825236
 50
309.597870
 51
50.402130
  0
ARC
  8
0
  6
CONTINUOUS
 62
1
 10
1566.658938
 20
1065.869331
 40
0.930236
 50
309.597870
 51
50.402130
  0
ARC
  8
0
  6
CONTINUOUS
 62
1
 10
1566.658938
 20
1065.869331
 40
0.895236
 50
309.597870
 51
50.402130
  0
ARC
  8
0
  6
CONTINUOUS
 62
1
 10
1566.658938
 20
1065.869331
 40
0.860236
 50
309.597870
 51
50.402130
  0
ARC
  8
0
  6
CONTINUOUS
 62
1
 10
1566.658938
 20
1065.869331
 40
0.825236
 50
309.597870
 51
50.402130
  0
ARC
  8
0
  6
CONTINUOUS
 62
1
 10
1567.889407
 20
1067.356831
 40
1.000236
 50
129.597870
 51
230.402115
  0
ARC
  8
0
  6
CONTINUOUS
 62
1
 10
1567.889407
 20
1067.356831
 40
1.035236
 50
129.597870
 51
230.402115
  0
ARC
  8
0
  6
CONTINUOUS
 62
1
 10
1567.889407
 20
1067.356831
 40
1.070236
 50
129.597870
 51
230.402115
  0
ARC
  8
0
  6
CONTINUOUS
 62
1
 10
1567.889407
 20
1067.356831
 40
1.105236
 50
129.597870
 51
230.402115
  0
LINE
  8
0
  6
CONTINUOUS
 62
1
 10
1565.062629
 20
1068.235426
 11
1565.174170
 21
1068.100581
  0
LINE
  8
0
  6
CONTINUOUS
 62
1
 10
1566.112629
 20
1068.235426
 11
1566.224170
 21
1068.100581
  0
LINE
  8
0
  6
CONTINUOUS
 62
1
 10
1567.162629
 20
1068.235426
 11
1567.274170
 21
1068.100581
  0
LINE
  8
0
  6
CONTINUOUS
 62
1
 10
1565.062630
 20
1065.260422
 11
1565.174175
 21
1065.125581
  0
LINE
  8
0
  6
CONTINUOUS
 62
1
 10
1566.112630
 20
1065.260422
 11
1566.224175
 21
1065.125581
  0
LINE
  8
0
  6
CONTINUOUS
 62
1
 10
1567.162630
 20
1065.260422
 11
1567.274175
 21
1065.125581
  0
LINE
  8
0
  6
CONTINUOUS
 62
1
 10
1551.224243
 20
1275.785686
 11
1551.224243
 21
1306.785686
  0
LINE
  8
0
  6
CONTINUOUS
 62
1
 10
1581.224102
 20
1275.785686
 11
1581.224102
 21
1306.785686
  0
LINE
  8
0
  6
CONTINUOUS
 62
1
 10
1551.224243
 20
1275.519562
 11
1551.224243
 21
1309.470454
  0
LINE
  8
0
  6
CONTINUOUS
 62
1
 10
1581.224102
 20
1273.100917
 11
1581.224102
 21
1307.051809
  0
LINE
  8
0
  6
CONTINUOUS
 62
1
 10
1582.224102
 20
1307.051809
 11
1582.224102
 21
1273.100917
  0
LINE
  8
0
  6
CONTINUOUS
 62
1
 10
1550.224243
 20
1309.470454
 11
1550.224243
 21
1275.519562
  0
CIRCLE
  8
0
  6
CONTINUOUS
 62
1
 10
1566.224173
 20
1300.285669
 40
5.625000
  0
CIRCLE
  8
0
  6
CONTINUOUS
 62
1
 10
1566.224173
 20
1300.285669
 40
5.250000
  0
LINE
  8
0
  6
CONTINUOUS
 62
1
 10
1560.980765
 20
1300.548151
 11
1566.486700
 21
1302.685678
  0
LINE
  8
0
  6
CONTINUOUS
 62
1
 10
1571.467627
 20
1300.023142
 11
1565.961691
 21
1297.885660
  0
LINE
  8
0
  6
CONTINUOUS
 62
1
 10
1571.467627
 20
1300.548151
 11
1566.486700
 21
1298.614466
  0
LINE
  8
0
  6
CONTINUOUS
 62
1
 10
1566.486700
 20
1298.614466
 11
1566.486700
 21
1302.685678
  0
LINE
  8
0
  6
CONTINUOUS
 62
1
 10
1560.980765
 20
1300.023142
 11
1565.961691
 21
1301.956827
  0
LINE
  8
0
  6
CONTINUOUS
 62
1
 10
1565.961691
 20
1297.885660
 11
1565.961691
 21
1301.956827
  0
LINE
  8
0
  6
CONTINUOUS
 62
1
 10
1566.059191
 20
1302.099268
 11
1560.976598
 21
1300.126114
  0
LINE
  8
0
  6
CONTINUOUS
 62
1
 10
1560.974469
 20
1300.229877
 11
1566.156691
 21
1302.241709
  0
LINE
  8
0
  6
CONTINUOUS
 62
1
 10
1566.254191
 20
1302.384149
 11
1560.974399
 21
1300.334439
  0
LINE
  8
0
  6
CONTINUOUS
 62
1
 10
1560.976436
 20
1300.439819
 11
1566.351691
 21
1302.526590
  0
LINE
  8
0
  6
CONTINUOUS
 62
1
 10
1566.059191
 20
1302.099268
 11
1566.059191
 21
1298.028100
  0
LINE
  8
0
  6
CONTINUOUS
 62
1
 10
1566.156691
 20
1298.170541
 11
1566.156691
 21
1302.241709
  0
LINE
  8
0
  6
CONTINUOUS
 62
1
 10
1566.254191
 20
1302.384149
 11
1566.254191
 21
1298.312981
  0
LINE
  8
0
  6
CONTINUOUS
 62
1
 10
1566.351691
 20
1298.455421
 11
1566.351691
 21
1302.526590
  0
LINE
  8
0
  6
CONTINUOUS
 62
1
 10
1566.059191
 20
1298.028100
 11
1571.471846
 21
1300.129369
  0
LINE
  8
0
  6
CONTINUOUS
 62
1
 10
1571.473926
 20
1300.234766
 11
1566.156691
 21
1298.170541
  0
LINE
  8
0
  6
CONTINUOUS
 62
1
 10
1566.254191
 20
1298.312981
 11
1571.473898
 21
1300.339345
  0
LINE
  8
0
  6
CONTINUOUS
 62
1
 10
1571.471811
 20
1300.443124
 11
1566.351691
 21
1298.455421
  0
CIRCLE
  8
0
  6
CONTINUOUS
 62
1
 10
1566.224173
 20
1300.285669
 40
5.325000
  0
CIRCLE
  8
0
  6
CONTINUOUS
 62
1
 10
1566.224173
 20
1300.285669
 40
5.400000
  0
CIRCLE
  8
0
  6
CONTINUOUS
 62
1
 10
1566.224173
 20
1300.285669
 40
5.475000
  0
CIRCLE
  8
0
  6
CONTINUOUS
 62
1
 10
1566.224173
 20
1300.285669
 40
5.550000
  0
LINE
  8
0
  6
CONTINUOUS
 62
1
 10
1527.687300
 20
1270.776362
 11
1605.687300
 21
1263.706617
  0
LINE
  8
0
  6
CONTINUOUS
 62
1
 10
1527.687300
 20
951.793594
 11
1605.687300
 21
958.863341
  0
LINE
  8
0
  6
CONTINUOUS
 62
1
 10
1582.224102
 20
1165.785686
 11
1582.224102
 21
1134.785686
  0
ARC
  8
0
  6
CONTINUOUS
 62
1
 10
1579.224102
 20
1165.785686
 40
3.000000
 50
0.000000
 51
90.000000
  0
LINE
  8
0
  6
CONTINUOUS
 62
1
 10
1579.224102
 20
1168.785686
 11
1553.224243
 21
1168.785686
  0
ARC
  8
0
  6
CONTINUOUS
 62
1
 10
1553.224243
 20
1165.785686
 40
3.000000
 50
90.000000
 51
180.000000
  0
LINE
  8
0
  6
CONTINUOUS
 62
1
 10
1550.224243
 20
1165.785686
 11
1550.224243
 21
1134.785686
  0
ARC
  8
0
  6
CONTINUOUS
 62
1
 10
1553.224243
 20
1134.785686
 40
3.000000
 50
180.000000
 51
270.000000
  0
LINE
  8
0
  6
CONTINUOUS
 62
1
 10
1579.224102
 20
1131.785686
 11
1553.224243
 21
1131.785686
  0
ARC
  8
0
  6
CONTINUOUS
 62
1
 10
1579.224102
 20
1134.785686
 40
3.000000
 50
270.000000
 51
0.000000
  0
LINE
  8
0
  6
CONTINUOUS
 62
1
 10
1582.224102
 20
1060.784973
 11
1582.224102
 21
1122.784973
  0
ARC
  8
0
  6
CONTINUOUS
 62
1
 10
1579.224102
 20
1122.784973
 40
3.000000
 50
0.000000
 51
90.000000
  0
LINE
  8
0
  6
CONTINUOUS
 62
1
 10
1579.224102
 20
1125.784973
 11
1553.224243
 21
1125.784973
  0
ARC
  8
0
  6
CONTINUOUS
 62
1
 10
1553.224243
 20
1122.784973
 40
3.000000
 50
90.000000
 51
180.000000
  0
LINE
  8
0
  6
CONTINUOUS
 62
1
 10
1550.224243
 20
1122.784973
 11
1550.224243
 21
1060.784973
  0
LINE
  8
0
  6
CONTINUOUS
 62
1
 10
1582.224102
 20
1245.785686
 11
1582.224102
 21
1258.051809
  0
LINE
  8
0
  6
CONTINUOUS
 62
1
 10
1550.224243
 20
1260.470454
 11
1550.224243
 21
1245.785686
  0
LINE
  8
0
  6
CONTINUOUS
 62
1
 10
1553.224243
 20
1242.785686
 11
1579.224102
 21
1242.785686
  0
ARC
  8
0
  6
CONTINUOUS
 62
1
 10
1579.224102
 20
1245.785686
 40
3.000000
 50
270.000000
 51
0.000000
  0
ARC
  8
0
  6
CONTINUOUS
 62
1
 10
1553.224243
 20
1245.785686
 40
3.000000
 50
180.000000
 51
270.000000
  0
ARC
  8
0
  6
CONTINUOUS
 62
1
 10
1579.224102
 20
1060.784973
 40
3.000000
 50
270.000000
 51
0.000000
  0
LINE
  8
0
  6
CONTINUOUS
 62
1
 10
1579.224102
 20
1057.784973
 11
1553.224243
 21
1057.784973
  0
ARC
  8
0
  6
CONTINUOUS
 62
1
 10
1553.224243
 20
1060.784973
 40
3.000000
 50
180.000000
 51
270.000000
  0
ARC
  8
0
  6
CONTINUOUS
 62
1
 10
1553.224243
 20
1048.284973
 40
3.000000
 50
90.000000
 51
180.000000
  0
LINE
  8
0
  6
CONTINUOUS
 62
1
 10
1553.224243
 20
1051.284973
 11
1579.224102
 21
1051.284973
  0
ARC
  8
0
  6
CONTINUOUS
 62
1
 10
1579.224102
 20
1048.284973
 40
3.000000
 50
0.000000
 51
90.000000
  0
LINE
  8
0
  6
CONTINUOUS
 62
1
 10
1582.224102
 20
1036.284973
 11
1582.224102
 21
1048.284973
  0
ARC
  8
0
  6
CONTINUOUS
 62
1
 10
1579.224102
 20
1036.284973
 40
3.000000
 50
270.000000
 51
0.000000
  0
LINE
  8
0
  6
CONTINUOUS
 62
1
 10
1553.224243
 20
1033.284973
 11
1579.224102
 21
1033.284973
  0
ARC
  8
0
  6
CONTINUOUS
 62
1
 10
1553.224243
 20
1036.284973
 40
3.000000
 50
180.000000
 51
270.000000
  0
LINE
  8
0
  6
CONTINUOUS
 62
1
 10
1550.224243
 20
1036.284973
 11
1550.224243
 21
1048.284973
  0
LINE
  8
0
  6
CONTINUOUS
 62
1
 10
1579.501978
 20
914.029779
 11
1553.502120
 21
911.611134
  0
LINE
  8
0
  6
CONTINUOUS
 62
1
 10
1553.409494
 20
912.606835
 11
1579.409353
 21
915.025480
  0
LINE
  8
0
  6
CONTINUOUS
 62
1
 10
1527.687300
 20
904.293594
 11
1605.687300
 21
911.363341
  0
LINE
  8
0
  6
CONTINUOUS
 62
1
 10
1527.687300
 20
1318.276362
 11
1605.687300
 21
1311.206616
  0
LINE
  8
0
  6
CONTINUOUS
 62
1
 10
1552.946367
 20
1272.532459
 11
1578.946226
 21
1270.113814
  0
LINE
  8
0
  6
CONTINUOUS
 62
1
 10
1579.038851
 20
1271.109515
 11
1553.038993
 21
1273.528160
  0
ARC
  8
0
  6
CONTINUOUS
 62
1
 10
1579.224102
 20
1273.100917
 40
3.000000
 50
264.685336
 51
0.000000
  0
ARC
  8
0
  6
CONTINUOUS
 62
1
 10
1553.224243
 20
1275.519562
 40
3.000000
 50
180.000000
 51
264.685336
  0
ARC
  8
0
  6
CONTINUOUS
 62
1
 10
1579.224102
 20
1273.100917
 40
2.000000
 50
264.685336
 51
0.000000
  0
ARC
  8
0
  6
CONTINUOUS
 62
1
 10
1553.224243
 20
1275.519562
 40
2.000000
 50
180.000000
 51
264.685336
  0
LINE
  8
0
  6
CONTINUOUS
 62
1
 10
1553.502120
 20
1312.457557
 11
1579.501978
 21
1310.038912
  0
LINE
  8
0
  6
CONTINUOUS
 62
1
 10
1579.409353
 20
1309.043211
 11
1553.409494
 21
1311.461856
  0
ARC
  8
0
  6
CONTINUOUS
 62
1
 10
1579.224102
 20
1307.051809
 40
2.000000
 50
0.000000
 51
84.685336
  0
ARC
  8
0
  6
CONTINUOUS
 62
1
 10
1553.224243
 20
1309.470454
 40
2.000000
 50
84.685336
 51
180.000000
  0
ARC
  8
0
  6
CONTINUOUS
 62
1
 10
1579.224102
 20
1307.051809
 40
3.000000
 50
0.000000
 51
84.685336
  0
ARC
  8
0
  6
CONTINUOUS
 62
1
 10
1553.224243
 20
1309.470454
 40
3.000000
 50
84.685336
 51
180.000000
  0
ARC
  8
0
  6
CONTINUOUS
 62
1
 10
1605.224173
 20
916.341846
 40
5.000000
 50
275.314664
 51
0.000000
  0
ARC
  8
0
  6
CONTINUOUS
 62
1
 10
1527.224173
 20
909.272100
 40
5.000000
 50
180.000000
 51
275.314664
  0
ARC
  8
0
  6
CONTINUOUS
 62
1
 10
1605.224173
 20
1306.228111
 40
5.000000
 50
0.000000
 51
84.685336
  0
ARC
  8
0
  6
CONTINUOUS
 62
1
 10
1527.224173
 20
1313.297857
 40
5.000000
 50
84.685336
 51
180.000000
  0
ARC
  8
0
  6
CONTINUOUS
 62
1
 10
1605.224173
 20
1258.728112
 40
5.000000
 50
0.000000
 51
84.685336
  0
ARC
  8
0
  6
CONTINUOUS
 62
1
 10
1527.224173
 20
1265.797857
 40
5.000000
 50
84.685336
 51
180.000000
  0
ARC
  8
0
  6
CONTINUOUS
 62
1
 10
1605.224173
 20
963.841846
 40
5.000000
 50
275.314664
 51
0.000000
  0
ARC
  8
0
  6
CONTINUOUS
 62
1
 10
1527.224173
 20
956.772100
 40
5.000000
 50
180.000000
 51
275.314664
  0
CIRCLE
  8
0
  6
CONTINUOUS
 62
1
 10
1566.224173
 20
1283.785686
 40
5.000000
  0
CIRCLE
  8
0
  6
CONTINUOUS
 62
1
 10
1566.224173
 20
1142.785686
 40
5.000000
  0
LINE
  8
0
  6
CONTINUOUS
 62
1
 10
1553.502120
 20
1263.457557
 11
1579.501978
 21
1261.038912
  0
LINE
  8
0
  6
CONTINUOUS
 62
1
 10
1579.409353
 20
1260.043211
 11
1553.409494
 21
1262.461856
  0
ARC
  8
0
  6
CONTINUOUS
 62
1
 10
1579.224102
 20
1258.051809
 40
2.000000
 50
0.000000
 51
84.685336
  0
ARC
  8
0
  6
CONTINUOUS
 62
1
 10
1553.224243
 20
1260.470454
 40
2.000000
 50
84.685336
 51
180.000000
  0
ARC
  8
0
  6
CONTINUOUS
 62
1
 10
1579.224102
 20
1258.051809
 40
3.000000
 50
0.000000
 51
84.685336
  0
ARC
  8
0
  6
CONTINUOUS
 62
1
 10
1553.224243
 20
1260.470454
 40
3.000000
 50
84.685336
 51
180.000000
  0
LINE
  8
0
  6
CENTER
 62
4
 10
1522.224173
 20
1272.784572
 11
1522.224173
 21
1269.784572
  0
LINE
  8
0
  6
CONTINUOUS
 62
1
 10
1582.224102
 20
948.431982
 11
1582.224102
 21
917.016882
  0
LINE
  8
0
  6
CONTINUOUS
 62
1
 10
1550.224243
 20
946.075413
 11
1550.224243
 21
914.598237
  0
LINE
  8
0
  6
CONTINUOUS
 62
1
 10
1578.953299
 20
951.419735
 11
1552.953440
 21
949.063165
  0
LINE
  8
0
  6
CONTINUOUS
 62
1
 10
1581.224102
 20
917.016882
 11
1581.224102
 21
948.431982
  0
LINE
  8
0
  6
CONTINUOUS
 62
1
 10
1553.043708
 20
948.067248
 11
1579.043567
 21
950.423817
  0
LINE
  8
0
  6
CONTINUOUS
 62
1
 10
1551.224243
 20
914.598237
 11
1551.224243
 21
946.075413
  0
ARC
  8
0
  6
CONTINUOUS
 62
1
 10
1579.224102
 20
948.431982
 40
2.000000
 50
0.000000
 51
95.179011
  0
ARC
  8
0
  6
CONTINUOUS
 62
1
 10
1579.224102
 20
917.016882
 40
2.000000
 50
275.314664
 51
0.000000
  0
ARC
  8
0
  6
CONTINUOUS
 62
1
 10
1553.224243
 20
914.598237
 40
2.000000
 50
180.000000
 51
275.314664
  0
ARC
  8
0
  6
CONTINUOUS
 62
1
 10
1553.224243
 20
946.075413
 40
2.000000
 50
95.179011
 51
180.000000
  0
ARC
  8
0
  6
CONTINUOUS
 62
1
 10
1579.224102
 20
948.431982
 40
3.000000
 50
0.000000
 51
95.179011
  0
ARC
  8
0
  6
CONTINUOUS
 62
1
 10
1579.224102
 20
917.016882
 40
3.000000
 50
275.314664
 51
0.000000
  0
ARC
  8
0
  6
CONTINUOUS
 62
1
 10
1553.224243
 20
914.598237
 40
3.000000
 50
180.000000
 51
275.314664
  0
ARC
  8
0
  6
CONTINUOUS
 62
1
 10
1553.224243
 20
946.075413
 40
3.000000
 50
95.179011
 51
180.000000
  0
ARC
  8
0
  6
CONTINUOUS
 62
1
 10
1574.224102
 20
1256.946967
 40
0.857143
 50
0.000000
 51
180.000000
  0
LINE
  8
0
  6
CONTINUOUS
 62
1
 10
1573.366959
 20
1256.946967
 11
1573.366959
 21
1250.048145
  0
LINE
  8
0
  6
CONTINUOUS
 62
1
 10
1575.081245
 20
1256.946967
 11
1575.081245
 21
1250.048145
  0
LINE
  8
0
  6
CONTINUOUS
 62
1
 10
1575.081245
 20
1252.661252
 11
1573.366959
 21
1252.661252
  0
ARC
  8
0
  6
CONTINUOUS
 62
1
 10
1574.224102
 20
1249.089824
 40
1.285710
 50
131.810501
 51
48.189453
  0
LINE
  8
0
  6
CONTINUOUS
 62
1
 10
1575.438100
 20
1249.513216
 11
1575.438100
 21
1248.666449
  0
LINE
  8
0
  6
CONTINUOUS
 62
1
 10
1575.323816
 20
1249.755927
 11
1575.323816
 21
1248.423738
  0
LINE
  8
0
  6
CONTINUOUS
 62
1
 10
1575.209532
 20
1249.915647
 11
1575.209532
 21
1248.264001
  0
LINE
  8
0
  6
CONTINUOUS
 62
1
 10
1575.095248
 20
1250.035433
 11
1575.095248
 21
1248.144232
  0
LINE
  8
0
  6
CONTINUOUS
 62
1
 10
1574.980956
 20
1252.661252
 11
1574.980956
 21
1248.050500
  0
LINE
  8
0
  6
CONTINUOUS
 62
1
 10
1574.866672
 20
1252.661252
 11
1574.866672
 21
1247.976211
  0
LINE
  8
0
  6
CONTINUOUS
 62
1
 10
1574.752388
 20
1252.661252
 11
1574.752388
 21
1247.917670
  0
LINE
  8
0
  6
CONTINUOUS
 62
1
 10
1574.638104
 20
1252.661252
 11
1574.638104
 21
1247.872591
  0
LINE
  8
0
  6
CONTINUOUS
 62
1
 10
1574.523820
 20
1252.661252
 11
1574.523820
 21
1247.839545
  0
LINE
  8
0
  6
CONTINUOUS
 62
1
 10
1574.409527
 20
1252.661252
 11
1574.409527
 21
1247.817555
  0
LINE
  8
0
  6
CONTINUOUS
 62
1
 10
1574.295243
 20
1252.661252
 11
1574.295243
 21
1247.806097
  0
LINE
  8
0
  6
CONTINUOUS
 62
1
 10
1574.180959
 20
1252.661252
 11
1574.180959
 21
1247.804842
  0
LINE
  8
0
  6
CONTINUOUS
 62
1
 10
1574.066675
 20
1252.661252
 11
1574.066675
 21
1247.813805
  0
LINE
  8
0
  6
CONTINUOUS
 62
1
 10
1573.952391
 20
1252.661252
 11
1573.952391
 21
1247.833162
  0
LINE
  8
0
  6
CONTINUOUS
 62
1
 10
1573.838098
 20
1252.661252
 11
1573.838098
 21
1247.863436
  0
LINE
  8
0
  6
CONTINUOUS
 62
1
 10
1573.723814
 20
1252.661252
 11
1573.723814
 21
1247.905445
  0
LINE
  8
0
  6
CONTINUOUS
 62
1
 10
1573.609530
 20
1252.661252
 11
1573.609530
 21
1247.960516
  0
LINE
  8
0
  6
CONTINUOUS
 62
1
 10
1573.495246
 20
1252.661252
 11
1573.495246
 21
1248.030672
  0
LINE
  8
0
  6
CONTINUOUS
 62
1
 10
1573.380963
 20
1252.661252
 11
1573.380963
 21
1248.119173
  0
LINE
  8
0
  6
CONTINUOUS
 62
1
 10
1573.266670
 20
1249.947961
 11
1573.266670
 21
1248.231704
  0
LINE
  8
0
  6
CONTINUOUS
 62
1
 10
1573.152386
 20
1249.800099
 11
1573.152386
 21
1248.379566
  0
LINE
  8
0
  6
CONTINUOUS
 62
1
 10
1573.038102
 20
1249.586266
 11
1573.038102
 21
1248.593399
  0
TEXT
  8
0
  6
CONTINUOUS
 62
1
 10
1574.774726
 20
1255.208162
 40
2.857143
  1
%%d
 50
0.000000
 41
1.000000
 51
0.000000
  7
STANDARD
  0
TEXT
  8
0
  6
CONTINUOUS
 62
1
 10
1577.060441
 20
1255.208162
 40
2.857143
  1
C
 50
0.000000
 41
1.000000
 51
0.000000
  7
STANDARD
  0
CIRCLE
  8
0
  6
CONTINUOUS
 62
1
 10
1561.474243
 20
1248.535686
 40
2.125000
  0
CIRCLE
  8
0
  6
CONTINUOUS
 62
1
 10
1561.474243
 20
1248.535686
 40
1.500000
  0
LINE
  8
0
  6
CONTINUOUS
 62
1
 10
1563.586495
 20
1248.768123
 11
1563.586495
 21
1248.303248
  0
LINE
  8
0
  6
CONTINUOUS
 62
1
 10
1563.486496
 20
1249.218684
 11
1563.486496
 21
1247.852702
  0
LINE
  8
0
  6
CONTINUOUS
 62
1
 10
1563.386490
 20
1249.462474
 11
1563.386490
 21
1247.608912
  0
LINE
  8
0
  6
CONTINUOUS
 62
1
 10
1563.286492
 20
1249.645366
 11
1563.286492
 21
1247.426005
  0
LINE
  8
0
  6
CONTINUOUS
 62
1
 10
1563.186493
 20
1249.794185
 11
1563.186493
 21
1247.277186
  0
LINE
  8
0
  6
CONTINUOUS
 62
1
 10
1563.086495
 20
1249.919978
 11
1563.086495
 21
1247.151393
  0
LINE
  8
0
  6
CONTINUOUS
 62
1
 10
1562.986496
 20
1250.028575
 11
1562.986496
 21
1247.042796
  0
LINE
  8
0
  6
CONTINUOUS
 62
1
 10
1562.886490
 20
1250.123500
 11
1562.886490
 21
1249.041209
  0
LINE
  8
0
  6
CONTINUOUS
 62
1
 10
1562.886490
 20
1248.030162
 11
1562.886490
 21
1246.947871
  0
LINE
  8
0
  6
CONTINUOUS
 62
1
 10
1562.786492
 20
1250.207103
 11
1562.786492
 21
1249.262324
  0
LINE
  8
0
  6
CONTINUOUS
 62
1
 10
1562.786492
 20
1247.809047
 11
1562.786492
 21
1246.864268
  0
LINE
  8
0
  6
CONTINUOUS
 62
1
 10
1562.686493
 20
1250.280986
 11
1562.686493
 21
1249.419124
  0
LINE
  8
0
  6
CONTINUOUS
 62
1
 10
1562.686493
 20
1247.652263
 11
1562.686493
 21
1246.790385
  0
LINE
  8
0
  6
CONTINUOUS
 62
1
 10
1562.586495
 20
1250.346354
 11
1562.586495
 21
1249.542125
  0
LINE
  8
0
  6
CONTINUOUS
 62
1
 10
1562.586495
 20
1247.529262
 11
1562.586495
 21
1246.725017
  0
LINE
  8
0
  6
CONTINUOUS
 62
1
 10
1562.486496
 20
1250.404109
 11
1562.486496
 21
1249.642650
  0
LINE
  8
0
  6
CONTINUOUS
 62
1
 10
1562.486496
 20
1247.428737
 11
1562.486496
 21
1246.667277
  0
LINE
  8
0
  6
CONTINUOUS
 62
1
 10
1562.386490
 20
1250.454905
 11
1562.386490
 21
1249.726405
  0
LINE
  8
0
  6
CONTINUOUS
 62
1
 10
1562.386490
 20
1247.344966
 11
1562.386490
 21
1246.616466
  0
LINE
  8
0
  6
CONTINUOUS
 62
1
 10
1562.286492
 20
1250.499324
 11
1562.286492
 21
1249.796733
  0
LINE
  8
0
  6
CONTINUOUS
 62
1
 10
1562.286492
 20
1247.274638
 11
1562.286492
 21
1246.572047
  0
LINE
  8
0
  6
CONTINUOUS
 62
1
 10
1562.186493
 20
1250.537761
 11
1562.186493
 21
1249.855800
  0
LINE
  8
0
  6
CONTINUOUS
 62
1
 10
1562.186493
 20
1247.215571
 11
1562.186493
 21
1246.533610
  0
LINE
  8
0
  6
CONTINUOUS
 62
1
 10
1562.086495
 20
1250.570582
 11
1562.086495
 21
1249.905040
  0
LINE
  8
0
  6
CONTINUOUS
 62
1
 10
1562.086495
 20
1247.166331
 11
1562.086495
 21
1246.500804
  0
LINE
  8
0
  6
CONTINUOUS
 62
1
 10
1561.986496
 20
1250.598018
 11
1561.986496
 21
1249.945506
  0
LINE
  8
0
  6
CONTINUOUS
 62
1
 10
1561.986496
 20
1247.125865
 11
1561.986496
 21
1246.473353
  0
LINE
  8
0
  6
CONTINUOUS
 62
1
 10
1561.886490
 20
1250.620311
 11
1561.886490
 21
1249.977931
  0
LINE
  8
0
  6
CONTINUOUS
 62
1
 10
1561.886490
 20
1247.093440
 11
1561.886490
 21
1246.451060
  0
LINE
  8
0
  6
CONTINUOUS
 62
1
 10
1561.786492
 20
1250.637629
 11
1561.786492
 21
1250.002833
  0
LINE
  8
0
  6
CONTINUOUS
 62
1
 10
1561.786492
 20
1247.068553
 11
1561.786492
 21
1246.433757
  0
LINE
  8
0
  6
CONTINUOUS
 62
1
 10
1561.686493
 20
1250.650065
 11
1561.686493
 21
1250.020595
  0
LINE
  8
0
  6
CONTINUOUS
 62
1
 10
1561.686493
 20
1247.050776
 11
1561.686493
 21
1246.421306
  0
LINE
  8
0
  6
CONTINUOUS
 62
1
 10
1561.586495
 20
1250.657725
 11
1561.586495
 21
1250.031489
  0
LINE
  8
0
  6
CONTINUOUS
 62
1
 10
1561.586495
 20
1247.039897
 11
1561.586495
 21
1246.413646
  0
LINE
  8
0
  6
CONTINUOUS
 62
1
 10
1561.486496
 20
1250.660655
 11
1561.486496
 21
1250.035640
  0
LINE
  8
0
  6
CONTINUOUS
 62
1
 10
1561.486496
 20
1247.035731
 11
1561.486496
 21
1246.410716
  0
LINE
  8
0
  6
CONTINUOUS
 62
1
 10
1561.386490
 20
1250.658870
 11
1561.386490
 21
1250.033122
  0
LINE
  8
0
  6
CONTINUOUS
 62
1
 10
1561.386490
 20
1247.038264
 11
1561.386490
 21
1246.412501
  0
LINE
  8
0
  6
CONTINUOUS
 62
1
 10
1561.286492
 20
1250.652385
 11
1561.286492
 21
1250.023890
  0
LINE
  8
0
  6
CONTINUOUS
 62
1
 10
1561.286492
 20
1247.047481
 11
1561.286492
 21
1246.419002
  0
LINE
  8
0
  6
CONTINUOUS
 62
1
 10
1561.186493
 20
1250.641108
 11
1561.186493
 21
1250.007823
  0
LINE
  8
0
  6
CONTINUOUS
 62
1
 10
1561.186493
 20
1247.063548
 11
1561.186493
 21
1246.430263
  0
LINE
  8
0
  6
CONTINUOUS
 62
1
 10
1561.086495
 20
1250.625010
 11
1561.086495
 21
1249.984706
  0
LINE
  8
0
  6
CONTINUOUS
 62
1
 10
1561.086495
 20
1247.086665
 11
1561.086495
 21
1246.446361
  0
LINE
  8
0
  6
CONTINUOUS
 62
1
 10
1560.986496
 20
1250.603953
 11
1560.986496
 21
1249.954173
  0
LINE
  8
0
  6
CONTINUOUS
 62
1
 10
1560.986496
 20
1247.117198
 11
1560.986496
 21
1246.467418
  0
LINE
  8
0
  6
CONTINUOUS
 62
1
 10
1560.886490
 20
1250.577785
 11
1560.886490
 21
1249.915736
  0
LINE
  8
0
  6
CONTINUOUS
 62
1
 10
1560.886490
 20
1247.155635
 11
1560.886490
 21
1246.493587
  0
LINE
  8
0
  6
CONTINUOUS
 62
1
 10
1560.786492
 20
1250.546321
 11
1560.786492
 21
1249.868724
  0
LINE
  8
0
  6
CONTINUOUS
 62
1
 10
1560.786492
 20
1247.202647
 11
1560.786492
 21
1246.525050
  0
LINE
  8
0
  6
CONTINUOUS
 62
1
 10
1560.686493
 20
1250.509288
 11
1560.686493
 21
1249.812190
  0
LINE
  8
0
  6
CONTINUOUS
 62
1
 10
1560.686493
 20
1247.259181
 11
1560.686493
 21
1246.562098
  0
LINE
  8
0
  6
CONTINUOUS
 62
1
 10
1560.586495
 20
1250.466365
 11
1560.586495
 21
1249.744777
  0
LINE
  8
0
  6
CONTINUOUS
 62
1
 10
1560.586495
 20
1247.326594
 11
1560.586495
 21
1246.605006
  0
LINE
  8
0
  6
CONTINUOUS
 62
1
 10
1560.486496
 20
1250.417170
 11
1560.486496
 21
1249.664561
  0
LINE
  8
0
  6
CONTINUOUS
 62
1
 10
1560.486496
 20
1247.406810
 11
1560.486496
 21
1246.654201
  0
LINE
  8
0
  6
CONTINUOUS
 62
1
 10
1560.386490
 20
1250.361186
 11
1560.386490
 21
1249.568553
  0
LINE
  8
0
  6
CONTINUOUS
 62
1
 10
1560.386490
 20
1247.502833
 11
1560.386490
 21
1246.710185
  0
LINE
  8
0
  6
CONTINUOUS
 62
1
 10
1560.286492
 20
1250.297755
 11
1560.286492
 21
1249.451793
  0
LINE
  8
0
  6
CONTINUOUS
 62
1
 10
1560.286492
 20
1247.619578
 11
1560.286492
 21
1246.773616
  0
LINE
  8
0
  6
CONTINUOUS
 62
1
 10
1560.186493
 20
1250.226054
 11
1560.186493
 21
1249.304912
  0
LINE
  8
0
  6
CONTINUOUS
 62
1
 10
1560.186493
 20
1247.766475
 11
1560.186493
 21
1246.845332
  0
LINE
  8
0
  6
CONTINUOUS
 62
1
 10
1560.086495
 20
1250.144969
 11
1560.086495
 21
1249.105021
  0
LINE
  8
0
  6
CONTINUOUS
 62
1
 10
1560.086495
 20
1247.966350
 11
1560.086495
 21
1246.926402
  0
LINE
  8
0
  6
CONTINUOUS
 62
1
 10
1559.986496
 20
1250.053004
 11
1559.986496
 21
1248.727000
  0
LINE
  8
0
  6
CONTINUOUS
 62
1
 10
1559.986496
 20
1248.344371
 11
1559.986496
 21
1247.018382
  0
LINE
  8
0
  6
CONTINUOUS
 62
1
 10
1559.886490
 20
1249.948024
 11
1559.886490
 21
1247.123363
  0
LINE
  8
0
  6
CONTINUOUS
 62
1
 10
1559.786492
 20
1249.826854
 11
1559.786492
 21
1247.244517
  0
LINE
  8
0
  6
CONTINUOUS
 62
1
 10
1559.686493
 20
1249.684413
 11
1559.686493
 21
1247.386958
  0
LINE
  8
0
  6
CONTINUOUS
 62
1
 10
1559.586495
 20
1249.511409
 11
1559.586495
 21
1247.559962
  0
LINE
  8
0
  6
CONTINUOUS
 62
1
 10
1559.486496
 20
1249.286998
 11
1559.486496
 21
1247.784373
  0
LINE
  8
0
  6
CONTINUOUS
 62
1
 10
1559.386490
 20
1248.931834
 11
1559.386490
 21
1248.139552
  0
LINE
  8
0
  6
CONTINUOUS
 62
1
 10
1562.974243
 20
1256.035686
 11
1553.474243
 21
1246.535686
  0
LINE
  8
0
  6
CONTINUOUS
 62
1
 10
1553.474243
 20
1247.535686
 11
1562.974243
 21
1257.035686
  0
LINE
  8
0
  6
CONTINUOUS
 62
1
 10
1562.974243
 20
1257.035686
 11
1562.974243
 21
1256.035686
  0
LINE
  8
0
  6
CONTINUOUS
 62
1
 10
1553.474243
 20
1247.535686
 11
1553.474243
 21
1246.535686
  0
LINE
  8
0
  6
CONTINUOUS
 62
1
 10
1562.886490
 20
1256.947932
 11
1562.886490
 21
1255.947932
  0
LINE
  8
0
  6
CONTINUOUS
 62
1
 10
1562.786492
 20
1256.847941
 11
1562.786492
 21
1255.847941
  0
LINE
  8
0
  6
CONTINUOUS
 62
1
 10
1562.686493
 20
1256.747935
 11
1562.686493
 21
1255.747935
  0
LINE
  8
0
  6
CONTINUOUS
 62
1
 10
1562.586495
 20
1256.647944
 11
1562.586495
 21
1255.647944
  0
LINE
  8
0
  6
CONTINUOUS
 62
1
 10
1562.486496
 20
1256.547938
 11
1562.486496
 21
1255.547938
  0
LINE
  8
0
  6
CONTINUOUS
 62
1
 10
1562.386490
 20
1256.447932
 11
1562.386490
 21
1255.447932
  0
LINE
  8
0
  6
CONTINUOUS
 62
1
 10
1562.286492
 20
1256.347941
 11
1562.286492
 21
1255.347941
  0
LINE
  8
0
  6
CONTINUOUS
 62
1
 10
1562.186493
 20
1256.247935
 11
1562.186493
 21
1255.247935
  0
LINE
  8
0
  6
CONTINUOUS
 62
1
 10
1562.086495
 20
1256.147944
 11
1562.086495
 21
1255.147944
  0
LINE
  8
0
  6
CONTINUOUS
 62
1
 10
1561.986496
 20
1256.047938
 11
1561.986496
 21
1255.047938
  0
LINE
  8
0
  6
CONTINUOUS
 62
1
 10
1561.886490
 20
1255.947932
 11
1561.886490
 21
1254.947932
  0
LINE
  8
0
  6
CONTINUOUS
 62
1
 10
1561.786492
 20
1255.847941
 11
1561.786492
 21
1254.847941
  0
LINE
  8
0
  6
CONTINUOUS
 62
1
 10
1561.686493
 20
1255.747935
 11
1561.686493
 21
1254.747935
  0
LINE
  8
0
  6
CONTINUOUS
 62
1
 10
1561.586495
 20
1255.647944
 11
1561.586495
 21
1254.647944
  0
LINE
  8
0
  6
CONTINUOUS
 62
1
 10
1561.486496
 20
1255.547938
 11
1561.486496
 21
1254.547938
  0
LINE
  8
0
  6
CONTINUOUS
 62
1
 10
1561.386490
 20
1255.447932
 11
1561.386490
 21
1254.447932
  0
LINE
  8
0
  6
CONTINUOUS
 62
1
 10
1561.286492
 20
1255.347941
 11
1561.286492
 21
1254.347941
  0
LINE
  8
0
  6
CONTINUOUS
 62
1
 10
1561.186493
 20
1255.247935
 11
1561.186493
 21
1254.247935
  0
LINE
  8
0
  6
CONTINUOUS
 62
1
 10
1561.086495
 20
1255.147944
 11
1561.086495
 21
1254.147944
  0
LINE
  8
0
  6
CONTINUOUS
 62
1
 10
1560.986496
 20
1255.047938
 11
1560.986496
 21
1254.047938
  0
LINE
  8
0
  6
CONTINUOUS
 62
1
 10
1560.886490
 20
1254.947932
 11
1560.886490
 21
1253.947932
  0
LINE
  8
0
  6
CONTINUOUS
 62
1
 10
1560.786492
 20
1254.847941
 11
1560.786492
 21
1253.847941
  0
LINE
  8
0
  6
CONTINUOUS
 62
1
 10
1560.686493
 20
1254.747935
 11
1560.686493
 21
1253.747935
  0
LINE
  8
0
  6
CONTINUOUS
 62
1
 10
1560.586495
 20
1254.647944
 11
1560.586495
 21
1253.647944
  0
LINE
  8
0
  6
CONTINUOUS
 62
1
 10
1560.486496
 20
1254.547938
 11
1560.486496
 21
1253.547938
  0
LINE
  8
0
  6
CONTINUOUS
 62
1
 10
1560.386490
 20
1254.447932
 11
1560.386490
 21
1253.447932
  0
LINE
  8
0
  6
CONTINUOUS
 62
1
 10
1560.286492
 20
1254.347941
 11
1560.286492
 21
1253.347941
  0
LINE
  8
0
  6
CONTINUOUS
 62
1
 10
1560.186493
 20
1254.247935
 11
1560.186493
 21
1253.247935
  0
LINE
  8
0
  6
CONTINUOUS
 62
1
 10
1560.086495
 20
1254.147944
 11
1560.086495
 21
1253.147944
  0
LINE
  8
0
  6
CONTINUOUS
 62
1
 10
1559.986496
 20
1254.047938
 11
1559.986496
 21
1253.047938
  0
LINE
  8
0
  6
CONTINUOUS
 62
1
 10
1559.886490
 20
1253.947932
 11
1559.886490
 21
1252.947932
  0
LINE
  8
0
  6
CONTINUOUS
 62
1
 10
1559.786492
 20
1253.847941
 11
1559.786492
 21
1252.847941
  0
LINE
  8
0
  6
CONTINUOUS
 62
1
 10
1559.686493
 20
1253.747935
 11
1559.686493
 21
1252.747935
  0
LINE
  8
0
  6
CONTINUOUS
 62
1
 10
1559.586495
 20
1253.647944
 11
1559.586495
 21
1252.647944
  0
LINE
  8
0
  6
CONTINUOUS
 62
1
 10
1559.486496
 20
1253.547938
 11
1559.486496
 21
1252.547938
  0
LINE
  8
0
  6
CONTINUOUS
 62
1
 10
1559.386490
 20
1253.447932
 11
1559.386490
 21
1252.447932
  0
LINE
  8
0
  6
CONTINUOUS
 62
1
 10
1559.286492
 20
1253.347941
 11
1559.286492
 21
1252.347941
  0
LINE
  8
0
  6
CONTINUOUS
 62
1
 10
1559.186493
 20
1253.247935
 11
1559.186493
 21
1252.247935
  0
LINE
  8
0
  6
CONTINUOUS
 62
1
 10
1559.086495
 20
1253.147944
 11
1559.086495
 21
1252.147944
  0
LINE
  8
0
  6
CONTINUOUS
 62
1
 10
1558.986496
 20
1253.047938
 11
1558.986496
 21
1252.047938
  0
LINE
  8
0
  6
CONTINUOUS
 62
1
 10
1558.886490
 20
1252.947932
 11
1558.886490
 21
1251.947932
  0
LINE
  8
0
  6
CONTINUOUS
 62
1
 10
1558.786492
 20
1252.847941
 11
1558.786492
 21
1251.847941
  0
LINE
  8
0
  6
CONTINUOUS
 62
1
 10
1558.686493
 20
1252.747935
 11
1558.686493
 21
1251.747935
  0
LINE
  8
0
  6
CONTINUOUS
 62
1
 10
1558.586495
 20
1252.647944
 11
1558.586495
 21
1251.647944
  0
LINE
  8
0
  6
CONTINUOUS
 62
1
 10
1558.486496
 20
1252.547938
 11
1558.486496
 21
1251.547938
  0
LINE
  8
0
  6
CONTINUOUS
 62
1
 10
1558.386490
 20
1252.447932
 11
1558.386490
 21
1251.447932
  0
LINE
  8
0
  6
CONTINUOUS
 62
1
 10
1558.286492
 20
1252.347941
 11
1558.286492
 21
1251.347941
  0
LINE
  8
0
  6
CONTINUOUS
 62
1
 10
1558.186493
 20
1252.247935
 11
1558.186493
 21
1251.247935
  0
LINE
  8
0
  6
CONTINUOUS
 62
1
 10
1558.086495
 20
1252.147944
 11
1558.086495
 21
1251.147944
  0
LINE
  8
0
  6
CONTINUOUS
 62
1
 10
1557.986496
 20
1252.047938
 11
1557.986496
 21
1251.047938
  0
LINE
  8
0
  6
CONTINUOUS
 62
1
 10
1557.886490
 20
1251.947932
 11
1557.886490
 21
1250.947932
  0
LINE
  8
0
  6
CONTINUOUS
 62
1
 10
1557.786492
 20
1251.847941
 11
1557.786492
 21
1250.847941
  0
LINE
  8
0
  6
CONTINUOUS
 62
1
 10
1557.686493
 20
1251.747935
 11
1557.686493
 21
1250.747935
  0
LINE
  8
0
  6
CONTINUOUS
 62
1
 10
1557.586495
 20
1251.647944
 11
1557.586495
 21
1250.647944
  0
LINE
  8
0
  6
CONTINUOUS
 62
1
 10
1557.486496
 20
1251.547938
 11
1557.486496
 21
1250.547938
  0
LINE
  8
0
  6
CONTINUOUS
 62
1
 10
1557.386490
 20
1251.447932
 11
1557.386490
 21
1250.447932
  0
LINE
  8
0
  6
CONTINUOUS
 62
1
 10
1557.286492
 20
1251.347941
 11
1557.286492
 21
1250.347941
  0
LINE
  8
0
  6
CONTINUOUS
 62
1
 10
1557.186493
 20
1251.247935
 11
1557.186493
 21
1250.247935
  0
LINE
  8
0
  6
CONTINUOUS
 62
1
 10
1557.086495
 20
1251.147944
 11
1557.086495
 21
1250.147944
  0
LINE
  8
0
  6
CONTINUOUS
 62
1
 10
1556.986496
 20
1251.047938
 11
1556.986496
 21
1250.047938
  0
LINE
  8
0
  6
CONTINUOUS
 62
1
 10
1556.886490
 20
1250.947932
 11
1556.886490
 21
1249.947932
  0
LINE
  8
0
  6
CONTINUOUS
 62
1
 10
1556.786492
 20
1250.847941
 11
1556.786492
 21
1249.847941
  0
LINE
  8
0
  6
CONTINUOUS
 62
1
 10
1556.686493
 20
1250.747935
 11
1556.686493
 21
1249.747935
  0
LINE
  8
0
  6
CONTINUOUS
 62
1
 10
1556.586495
 20
1250.647944
 11
1556.586495
 21
1249.647944
  0
LINE
  8
0
  6
CONTINUOUS
 62
1
 10
1556.486496
 20
1250.547938
 11
1556.486496
 21
1249.547938
  0
LINE
  8
0
  6
CONTINUOUS
 62
1
 10
1556.386490
 20
1250.447932
 11
1556.386490
 21
1249.447932
  0
LINE
  8
0
  6
CONTINUOUS
 62
1
 10
1556.286492
 20
1250.347941
 11
1556.286492
 21
1249.347941
  0
LINE
  8
0
  6
CONTINUOUS
 62
1
 10
1556.186493
 20
1250.247935
 11
1556.186493
 21
1249.247935
  0
LINE
  8
0
  6
CONTINUOUS
 62
1
 10
1556.086495
 20
1250.147944
 11
1556.086495
 21
1249.147944
  0
LINE
  8
0
  6
CONTINUOUS
 62
1
 10
1555.986496
 20
1250.047938
 11
1555.986496
 21
1249.047938
  0
LINE
  8
0
  6
CONTINUOUS
 62
1
 10
1555.886490
 20
1249.947932
 11
1555.886490
 21
1248.947932
  0
LINE
  8
0
  6
CONTINUOUS
 62
1
 10
1555.786492
 20
1249.847941
 11
1555.786492
 21
1248.847941
  0
LINE
  8
0
  6
CONTINUOUS
 62
1
 10
1555.686493
 20
1249.747935
 11
1555.686493
 21
1248.747935
  0
LINE
  8
0
  6
CONTINUOUS
 62
1
 10
1555.586495
 20
1249.647944
 11
1555.586495
 21
1248.647944
  0
LINE
  8
0
  6
CONTINUOUS
 62
1
 10
1555.486496
 20
1249.547938
 11
1555.486496
 21
1248.547938
  0
LINE
  8
0
  6
CONTINUOUS
 62
1
 10
1555.386490
 20
1249.447932
 11
1555.386490
 21
1248.447932
  0
LINE
  8
0
  6
CONTINUOUS
 62
1
 10
1555.286492
 20
1249.347941
 11
1555.286492
 21
1248.347941
  0
LINE
  8
0
  6
CONTINUOUS
 62
1
 10
1555.186493
 20
1249.247935
 11
1555.186493
 21
1248.247935
  0
LINE
  8
0
  6
CONTINUOUS
 62
1
 10
1555.086495
 20
1249.147944
 11
1555.086495
 21
1248.147944
  0
LINE
  8
0
  6
CONTINUOUS
 62
1
 10
1554.986496
 20
1249.047938
 11
1554.986496
 21
1248.047938
  0
LINE
  8
0
  6
CONTINUOUS
 62
1
 10
1554.886490
 20
1248.947932
 11
1554.886490
 21
1247.947932
  0
LINE
  8
0
  6
CONTINUOUS
 62
1
 10
1554.786492
 20
1248.847941
 11
1554.786492
 21
1247.847941
  0
LINE
  8
0
  6
CONTINUOUS
 62
1
 10
1554.686493
 20
1248.747935
 11
1554.686493
 21
1247.747935
  0
LINE
  8
0
  6
CONTINUOUS
 62
1
 10
1554.586495
 20
1248.647944
 11
1554.586495
 21
1247.647944
  0
LINE
  8
0
  6
CONTINUOUS
 62
1
 10
1554.486496
 20
1248.547938
 11
1554.486496
 21
1247.547938
  0
LINE
  8
0
  6
CONTINUOUS
 62
1
 10
1554.386490
 20
1248.447932
 11
1554.386490
 21
1247.447932
  0
LINE
  8
0
  6
CONTINUOUS
 62
1
 10
1554.286492
 20
1248.347941
 11
1554.286492
 21
1247.347941
  0
LINE
  8
0
  6
CONTINUOUS
 62
1
 10
1554.186493
 20
1248.247935
 11
1554.186493
 21
1247.247935
  0
LINE
  8
0
  6
CONTINUOUS
 62
1
 10
1554.086495
 20
1248.147944
 11
1554.086495
 21
1247.147944
  0
LINE
  8
0
  6
CONTINUOUS
 62
1
 10
1553.986496
 20
1248.047938
 11
1553.986496
 21
1247.047938
  0
LINE
  8
0
  6
CONTINUOUS
 62
1
 10
1553.886490
 20
1247.947932
 11
1553.886490
 21
1246.947932
  0
LINE
  8
0
  6
CONTINUOUS
 62
1
 10
1553.786492
 20
1247.847941
 11
1553.786492
 21
1246.847941
  0
LINE
  8
0
  6
CONTINUOUS
 62
1
 10
1553.686493
 20
1247.747935
 11
1553.686493
 21
1246.747935
  0
LINE
  8
0
  6
CONTINUOUS
 62
1
 10
1553.586495
 20
1247.647944
 11
1553.586495
 21
1246.647944
  0
LINE
  8
0
  6
CONTINUOUS
 62
1
 10
1553.486496
 20
1247.547938
 11
1553.486496
 21
1246.547938
  0
LINE
  8
0
  6
CONTINUOUS
 62
1
 10
1555.974243
 20
1256.285686
 11
1555.349243
 21
1256.285686
  0
LINE
  8
0
  6
CONTINUOUS
 62
1
 10
1555.349243
 20
1256.285686
 11
1555.349243
 21
1252.285686
  0
LINE
  8
0
  6
CONTINUOUS
 62
1
 10
1555.974243
 20
1256.285686
 11
1555.974243
 21
1252.285686
  0
LINE
  8
0
  6
CONTINUOUS
 62
1
 10
1555.974243
 20
1252.285686
 11
1555.349243
 21
1252.285686
  0
LINE
  8
0
  6
CONTINUOUS
 62
1
 10
1555.886490
 20
1256.285686
 11
1555.886490
 21
1252.285686
  0
LINE
  8
0
  6
CONTINUOUS
 62
1
 10
1555.786492
 20
1256.285686
 11
1555.786492
 21
1252.285686
  0
LINE
  8
0
  6
CONTINUOUS
 62
1
 10
1555.686493
 20
1256.285686
 11
1555.686493
 21
1252.285686
  0
LINE
  8
0
  6
CONTINUOUS
 62
1
 10
1555.586495
 20
1256.285686
 11
1555.586495
 21
1252.285686
  0
LINE
  8
0
  6
CONTINUOUS
 62
1
 10
1555.486496
 20
1256.285686
 11
1555.486496
 21
1252.285686
  0
LINE
  8
0
  6
CONTINUOUS
 62
1
 10
1555.386490
 20
1256.285686
 11
1555.386490
 21
1252.285686
  0
ARC
  8
0
  6
CONTINUOUS
 62
2
 10
1566.224173
 20
998.284973
 40
47.018776
 50
40.000092
 51
68.051061
  0
LINE
  8
0
  6
CONTINUOUS
 62
2
 10
1602.242596
 20
1028.508117
 11
1600.265468
 21
1031.439163
  0
LINE
  8
0
  6
CONTINUOUS
 62
2
 10
1600.265468
 20
1031.439163
 11
1599.709262
 21
1030.936035
  0
LINE
  8
0
  6
CONTINUOUS
 62
2
 10
1599.709262
 20
1030.936035
 11
1601.236339
 21
1029.620529
  0
LINE
  8
0
  6
CONTINUOUS
 62
2
 10
1601.236339
 20
1029.620529
 11
1600.080066
 21
1031.271454
  0
LINE
  8
0
  6
CONTINUOUS
 62
2
 10
1600.080066
 20
1031.271454
 11
1599.523860
 21
1030.768326
  0
LINE
  8
0
  6
CONTINUOUS
 62
2
 10
1599.523860
 20
1030.768326
 11
1602.242596
 21
1028.508117
  0
ARC
  8
0
  6
CONTINUOUS
 62
2
 10
1566.224173
 20
998.284973
 40
47.018776
 50
111.948939
 51
121.699424
  0
LINE
  8
0
  6
CONTINUOUS
 62
2
 10
1541.517541
 20
1038.289318
 11
1544.808631
 21
1039.581586
  0
LINE
  8
0
  6
CONTINUOUS
 62
2
 10
1544.808631
 20
1039.581586
 11
1544.438522
 21
1040.233947
  0
LINE
  8
0
  6
CONTINUOUS
 62
2
 10
1544.438522
 20
1040.233947
 11
1542.822263
 21
1039.029536
  0
LINE
  8
0
  6
CONTINUOUS
 62
2
 10
1542.822263
 20
1039.029536
 11
1544.685261
 21
1039.799040
  0
LINE
  8
0
  6
CONTINUOUS
 62
2
 10
1544.685261
 20
1039.799040
 11
1544.315152
 21
1040.451400
  0
LINE
  8
0
  6
CONTINUOUS
 62
2
 10
1544.315152
 20
1040.451400
 11
1541.517541
 21
1038.289318
  0
LINE
  8
0
  6
CONTINUOUS
 62
2
 10
1536.589689
 20
1042.072416
 11
1538.267030
 21
1043.161694
  0
LINE
  8
0
  6
CONTINUOUS
 62
2
 10
1546.323136
 20
1027.093804
 11
1548.000477
 21
1028.183082
  0
LINE
  8
0
  6
CONTINUOUS
 62
2
 10
1548.000477
 20
1028.183082
 11
1538.267030
 21
1043.161694
  0
LINE
  8
0
  6
CONTINUOUS
 62
2
 10
1546.323136
 20
1027.093804
 11
1536.589689
 21
1042.072416
  0
LINE
  8
0
  6
CONTINUOUS
 62
2
 10
1547.891549
 20
1028.350816
 11
1546.214208
 21
1027.261538
  0
LINE
  8
0
  6
CONTINUOUS
 62
2
 10
1546.105280
 20
1027.429272
 11
1547.782621
 21
1028.518550
  0
LINE
  8
0
  6
CONTINUOUS
 62
2
 10
1547.673694
 20
1028.686284
 11
1545.996353
 21
1027.597006
  0
LINE
  8
0
  6
CONTINUOUS
 62
2
 10
1545.887425
 20
1027.764740
 11
1547.564766
 21
1028.854018
  0
LINE
  8
0
  6
CONTINUOUS
 62
2
 10
1547.455838
 20
1029.021752
 11
1545.778497
 21
1027.932474
  0
LINE
  8
0
  6
CONTINUOUS
 62
2
 10
1545.669569
 20
1028.100208
 11
1547.346910
 21
1029.189486
  0
LINE
  8
0
  6
CONTINUOUS
 62
2
 10
1547.237982
 20
1029.357220
 11
1545.560641
 21
1028.267942
  0
LINE
  8
0
  6
CONTINUOUS
 62
2
 10
1545.451714
 20
1028.435677
 11
1547.129055
 21
1029.524955
  0
LINE
  8
0
  6
CONTINUOUS
 62
2
 10
1547.020127
 20
1029.692689
 11
1545.342786
 21
1028.603411
  0
LINE
  8
0
  6
CONTINUOUS
 62
2
 10
1545.233858
 20
1028.771145
 11
1546.911199
 21
1029.860423
  0
LINE
  8
0
  6
CONTINUOUS
 62
2
 10
1546.802271
 20
1030.028157
 11
1545.124930
 21
1028.938879
  0
LINE
  8
0
  6
CONTINUOUS
 62
2
 10
1545.016002
 20
1029.106613
 11
1546.693343
 21
1030.195891
  0
LINE
  8
0
  6
CONTINUOUS
 62
2
 10
1546.584416
 20
1030.363625
 11
1544.907075
 21
1029.274347
  0
LINE
  8
0
  6
CONTINUOUS
 62
2
 10
1544.798147
 20
1029.442081
 11
1546.475488
 21
1030.531359
  0
LINE
  8
0
  6
CONTINUOUS
 62
2
 10
1546.366560
 20
1030.699093
 11
1544.689219
 21
1029.609815
  0
LINE
  8
0
  6
CONTINUOUS
 62
2
 10
1544.580291
 20
1029.777549
 11
1546.257632
 21
1030.866828
  0
LINE
  8
0
  6
CONTINUOUS
 62
2
 10
1546.148704
 20
1031.034562
 11
1544.471363
 21
1029.945284
  0
LINE
  8
0
  6
CONTINUOUS
 62
2
 10
1544.362435
 20
1030.113018
 11
1546.039777
 21
1031.202296
  0
LINE
  8
0
  6
CONTINUOUS
 62
2
 10
1545.930849
 20
1031.370030
 11
1544.253508
 21
1030.280752
  0
LINE
  8
0
  6
CONTINUOUS
 62
2
 10
1544.144580
 20
1030.448486
 11
1545.821921
 21
1031.537764
  0
LINE
  8
0
  6
CONTINUOUS
 62
2
 10
1545.712993
 20
1031.705498
 11
1544.035652
 21
1030.616220
  0
LINE
  8
0
  6
CONTINUOUS
 62
2
 10
1543.926724
 20
1030.783954
 11
1545.604065
 21
1031.873232
  0
LINE
  8
0
  6
CONTINUOUS
 62
2
 10
1545.495138
 20
1032.040966
 11
1543.817796
 21
1030.951688
  0
LINE
  8
0
  6
CONTINUOUS
 62
2
 10
1543.708869
 20
1031.119422
 11
1545.386210
 21
1032.208700
  0
LINE
  8
0
  6
CONTINUOUS
 62
2
 10
1545.277282
 20
1032.376435
 11
1543.599941
 21
1031.287156
  0
LINE
  8
0
  6
CONTINUOUS
 62
2
 10
1543.491013
 20
1031.454891
 11
1545.168354
 21
1032.544169
  0
LINE
  8
0
  6
CONTINUOUS
 62
2
 10
1545.059426
 20
1032.711903
 11
1543.382085
 21
1031.622625
  0
LINE
  8
0
  6
CONTINUOUS
 62
2
 10
1543.273157
 20
1031.790359
 11
1544.950499
 21
1032.879637
  0
LINE
  8
0
  6
CONTINUOUS
 62
2
 10
1544.841571
 20
1033.047371
 11
1543.164230
 21
1031.958093
  0
LINE
  8
0
  6
CONTINUOUS
 62
2
 10
1543.055302
 20
1032.125827
 11
1544.732643
 21
1033.215105
  0
LINE
  8
0
  6
CONTINUOUS
 62
2
 10
1544.623715
 20
1033.382839
 11
1542.946374
 21
1032.293561
  0
LINE
  8
0
  6
CONTINUOUS
 62
2
 10
1542.837446
 20
1032.461295
 11
1544.514787
 21
1033.550573
  0
LINE
  8
0
  6
CONTINUOUS
 62
2
 10
1544.405859
 20
1033.718307
 11
1542.728518
 21
1032.629029
  0
LINE
  8
0
  6
CONTINUOUS
 62
2
 10
1542.619591
 20
1032.796764
 11
1544.296932
 21
1033.886042
  0
LINE
  8
0
  6
CONTINUOUS
 62
2
 10
1544.188004
 20
1034.053776
 11
1542.510663
 21
1032.964498
  0
LINE
  8
0
  6
CONTINUOUS
 62
2
 10
1542.401735
 20
1033.132232
 11
1544.079076
 21
1034.221510
  0
LINE
  8
0
  6
CONTINUOUS
 62
2
 10
1543.970148
 20
1034.389244
 11
1542.292807
 21
1033.299966
  0
LINE
  8
0
  6
CONTINUOUS
 62
2
 10
1542.183879
 20
1033.467700
 11
1543.861220
 21
1034.556978
  0
LINE
  8
0
  6
CONTINUOUS
 62
2
 10
1543.752293
 20
1034.724712
 11
1542.074952
 21
1033.635434
  0
LINE
  8
0
  6
CONTINUOUS
 62
2
 10
1541.966024
 20
1033.803168
 11
1543.643365
 21
1034.892446
  0
LINE
  8
0
  6
CONTINUOUS
 62
2
 10
1543.534437
 20
1035.060180
 11
1541.857096
 21
1033.970902
  0
LINE
  8
0
  6
CONTINUOUS
 62
2
 10
1541.748168
 20
1034.138636
 11
1543.425509
 21
1035.227914
  0
LINE
  8
0
  6
CONTINUOUS
 62
2
 10
1543.316581
 20
1035.395649
 11
1541.639240
 21
1034.306371
  0
LINE
  8
0
  6
CONTINUOUS
 62
2
 10
1541.530312
 20
1034.474105
 11
1543.207654
 21
1035.563383
  0
LINE
  8
0
  6
CONTINUOUS
 62
2
 10
1543.098726
 20
1035.731117
 11
1541.421385
 21
1034.641839
  0
LINE
  8
0
  6
CONTINUOUS
 62
2
 10
1541.312457
 20
1034.809573
 11
1542.989798
 21
1035.898851
  0
LINE
  8
0
  6
CONTINUOUS
 62
2
 10
1542.880870
 20
1036.066585
 11
1541.203529
 21
1034.977307
  0
LINE
  8
0
  6
CONTINUOUS
 62
2
 10
1541.094601
 20
1035.145041
 11
1542.771942
 21
1036.234319
  0
LINE
  8
0
  6
CONTINUOUS
 62
2
 10
1542.663015
 20
1036.402053
 11
1540.985673
 21
1035.312775
  0
LINE
  8
0
  6
CONTINUOUS
 62
2
 10
1540.876746
 20
1035.480509
 11
1542.554087
 21
1036.569787
  0
LINE
  8
0
  6
CONTINUOUS
 62
2
 10
1542.445159
 20
1036.737521
 11
1540.767818
 21
1035.648243
  0
LINE
  8
0
  6
CONTINUOUS
 62
2
 10
1540.658890
 20
1035.815978
 11
1542.336231
 21
1036.905256
  0
LINE
  8
0
  6
CONTINUOUS
 62
2
 10
1542.227303
 20
1037.072990
 11
1540.549962
 21
1035.983712
  0
LINE
  8
0
  6
CONTINUOUS
 62
2
 10
1540.441034
 20
1036.151446
 11
1542.118376
 21
1037.240724
  0
LINE
  8
0
  6
CONTINUOUS
 62
2
 10
1542.009448
 20
1037.408458
 11
1540.332107
 21
1036.319180
  0
LINE
  8
0
  6
CONTINUOUS
 62
2
 10
1540.223179
 20
1036.486914
 11
1541.900520
 21
1037.576192
  0
LINE
  8
0
  6
CONTINUOUS
 62
2
 10
1541.791592
 20
1037.743926
 11
1540.114251
 21
1036.654648
  0
LINE
  8
0
  6
CONTINUOUS
 62
2
 10
1540.005323
 20
1036.822382
 11
1541.682664
 21
1037.911660
  0
LINE
  8
0
  6
CONTINUOUS
 62
2
 10
1541.573736
 20
1038.079394
 11
1539.896395
 21
1036.990116
  0
LINE
  8
0
  6
CONTINUOUS
 62
2
 10
1539.787468
 20
1037.157850
 11
1541.464809
 21
1038.247129
  0
LINE
  8
0
  6
CONTINUOUS
 62
2
 10
1541.355881
 20
1038.414863
 11
1539.678540
 21
1037.325585
  0
LINE
  8
0
  6
CONTINUOUS
 62
2
 10
1539.569612
 20
1037.493319
 11
1541.246953
 21
1038.582597
  0
LINE
  8
0
  6
CONTINUOUS
 62
2
 10
1541.138025
 20
1038.750331
 11
1539.460684
 21
1037.661053
  0
LINE
  8
0
  6
CONTINUOUS
 62
2
 10
1539.351756
 20
1037.828787
 11
1541.029097
 21
1038.918065
  0
LINE
  8
0
  6
CONTINUOUS
 62
2
 10
1540.920170
 20
1039.085799
 11
1539.242829
 21
1037.996521
  0
LINE
  8
0
  6
CONTINUOUS
 62
2
 10
1539.133901
 20
1038.164255
 11
1540.811242
 21
1039.253533
  0
LINE
  8
0
  6
CONTINUOUS
 62
2
 10
1540.702314
 20
1039.421267
 11
1539.024973
 21
1038.331989
  0
LINE
  8
0
  6
CONTINUOUS
 62
2
 10
1538.916045
 20
1038.499723
 11
1540.593386
 21
1039.589001
  0
LINE
  8
0
  6
CONTINUOUS
 62
2
 10
1540.484458
 20
1039.756736
 11
1538.807117
 21
1038.667457
  0
LINE
  8
0
  6
CONTINUOUS
 62
2
 10
1538.698190
 20
1038.835192
 11
1540.375531
 21
1039.924470
  0
LINE
  8
0
  6
CONTINUOUS
 62
2
 10
1540.266603
 20
1040.092204
 11
1538.589262
 21
1039.002926
  0
LINE
  8
0
  6
CONTINUOUS
 62
2
 10
1538.480334
 20
1039.170660
 11
1540.157675
 21
1040.259938
  0
LINE
  8
0
  6
CONTINUOUS
 62
2
 10
1540.048747
 20
1040.427672
 11
1538.371406
 21
1039.338394
  0
LINE
  8
0
  6
CONTINUOUS
 62
2
 10
1538.262478
 20
1039.506128
 11
1539.939819
 21
1040.595406
  0
LINE
  8
0
  6
CONTINUOUS
 62
2
 10
1539.830892
 20
1040.763140
 11
1538.153550
 21
1039.673862
  0
LINE
  8
0
  6
CONTINUOUS
 62
2
 10
1538.044623
 20
1039.841596
 11
1539.721964
 21
1040.930874
  0
LINE
  8
0
  6
CONTINUOUS
 62
2
 10
1539.613036
 20
1041.098608
 11
1537.935695
 21
1040.009330
  0
LINE
  8
0
  6
CONTINUOUS
 62
2
 10
1537.826767
 20
1040.177065
 11
1539.504108
 21
1041.266343
  0
LINE
  8
0
  6
CONTINUOUS
 62
2
 10
1539.395180
 20
1041.434077
 11
1537.717839
 21
1040.344799
  0
LINE
  8
0
  6
CONTINUOUS
 62
2
 10
1537.608911
 20
1040.512533
 11
1539.286253
 21
1041.601811
  0
LINE
  8
0
  6
CONTINUOUS
 62
2
 10
1539.177325
 20
1041.769545
 11
1537.499984
 21
1040.680267
  0
LINE
  8
0
  6
CONTINUOUS
 62
2
 10
1537.391056
 20
1040.848001
 11
1539.068397
 21
1041.937279
  0
LINE
  8
0
  6
CONTINUOUS
 62
2
 10
1538.959469
 20
1042.105013
 11
1537.282128
 21
1041.015735
  0
LINE
  8
0
  6
CONTINUOUS
 62
2
 10
1537.173200
 20
1041.183469
 11
1538.850541
 21
1042.272747
  0
LINE
  8
0
  6
CONTINUOUS
 62
2
 10
1538.741614
 20
1042.440481
 11
1537.064272
 21
1041.351203
  0
LINE
  8
0
  6
CONTINUOUS
 62
2
 10
1536.955345
 20
1041.518937
 11
1538.632686
 21
1042.608215
  0
LINE
  8
0
  6
CONTINUOUS
 62
2
 10
1538.523758
 20
1042.775950
 11
1536.846417
 21
1041.686672
  0
LINE
  8
0
  6
CONTINUOUS
 62
2
 10
1536.737489
 20
1041.854406
 11
1538.414830
 21
1042.943684
  0
LINE
  8
0
  6
CONTINUOUS
 62
2
 10
1538.305902
 20
1043.111418
 11
1536.628561
 21
1042.022140
  0
CIRCLE
  8
0
  6
CONTINUOUS
 62
1
 10
1579.747910
 20
1027.286844
 40
1.428587
  0
CIRCLE
  8
0
  6
CONTINUOUS
 62
1
 10
1590.737562
 20
1018.854216
 40
1.428587
  0
CIRCLE
  8
0
  6
CONTINUOUS
 62
1
 10
1597.133786
 20
1006.567232
 40
1.428587
  0
CIRCLE
  8
0
  6
CONTINUOUS
 62
1
 10
1597.738016
 20
992.728204
 40
1.428587
  0
CIRCLE
  8
0
  6
CONTINUOUS
 62
1
 10
1592.437068
 20
979.930569
 40
1.428587
  0
CIRCLE
  8
0
  6
CONTINUOUS
 62
1
 10
1582.224227
 20
970.572149
 40
1.428587
  0
CIRCLE
  8
0
  6
CONTINUOUS
 62
1
 10
1569.013208
 20
966.406747
 40
1.428587
  0
CIRCLE
  8
0
  6
CONTINUOUS
 62
1
 10
1555.279603
 20
968.214803
 40
1.428587
  0
CIRCLE
  8
0
  6
CONTINUOUS
 62
1
 10
1543.596792
 20
975.657519
 40
1.428587
  0
CIRCLE
  8
0
  6
CONTINUOUS
 62
1
 10
1536.153997
 20
987.340362
 40
1.428587
  0
CIRCLE
  8
0
  6
CONTINUOUS
 62
1
 10
1534.345938
 20
1001.073905
 40
1.428587
  0
CIRCLE
  8
0
  6
CONTINUOUS
 62
1
 10
1538.511361
 20
1014.284974
 40
1.428587
  0
CIRCLE
  8
0
  6
CONTINUOUS
 62
1
 10
1548.795814
 20
1025.122470
 40
1.428587
  0
CIRCLE
  8
0
  6
CONTINUOUS
 62
1
 10
1582.224227
 20
970.572149
 40
1.428587
  0
CIRCLE
  8
0
  6
CONTINUOUS
 62
1
 10
1590.737562
 20
1018.854216
 40
1.428587
  0
CIRCLE
  8
0
  6
CONTINUOUS
 62
1
 10
1597.738016
 20
992.728204
 40
1.428585
  0
CIRCLE
  8
0
  6
CONTINUOUS
 62
1
 10
1555.279603
 20
968.214803
 40
1.428554
  0
CIRCLE
  8
0
  6
CONTINUOUS
 62
1
 10
1536.153997
 20
987.340362
 40
1.428554
  0
CIRCLE
  8
0
  6
CONTINUOUS
 62
1
 10
1538.511361
 20
1014.284974
 40
1.428587
  0
CIRCLE
  8
0
  6
CONTINUOUS
 62
1
 10
1548.795814
 20
1025.122470
 40
1.428579
  0
TEXT
  8
0
  6
CONTINUOUS
 62
1
 10
1582.933600
 20
1026.135556
 40
3.000000
  1
10
 50
0.000000
 41
1.000000
 51
0.000000
  7
STANDARD
  0
TEXT
  8
0
  6
CONTINUOUS
 62
1
 10
1595.363716
 20
1018.790953
 40
3.000000
  1
20
 50
0.000000
 41
1.000000
 51
0.000000
  7
STANDARD
  0
TEXT
  8
0
  6
CONTINUOUS
 62
1
 10
1600.184199
 20
1005.157004
 40
3.000000
  1
30
 50
0.000000
 41
1.000000
 51
0.000000
  7
STANDARD
  0
TEXT
  8
0
  6
CONTINUOUS
 62
1
 10
1601.349031
 20
990.605281
 40
3.000000
  1
40
 50
0.000000
 41
1.000000
 51
0.000000
  7
STANDARD
  0
TEXT
  8
0
  6
CONTINUOUS
 62
1
 10
1595.049141
 20
972.966295
 40
3.000000
  1
50
 50
0.000000
 41
1.000000
 51
0.000000
  7
STANDARD
  0
TEXT
  8
0
  6
CONTINUOUS
 62
1
 10
1584.266139
 20
964.170370
 40
3.000000
  1
60
 50
0.000000
 41
1.000000
 51
0.000000
  7
STANDARD
  0
TEXT
  8
0
  6
CONTINUOUS
 62
1
 10
1566.870128
 20
959.324787
 40
3.000000
  1
70
 50
0.000000
 41
1.000000
 51
0.000000
  7
STANDARD
  0
TEXT
  8
0
  6
CONTINUOUS
 62
1
 10
1547.865849
 20
961.575963
 40
3.000000
  1
80
 50
0.000000
 41
1.000000
 51
0.000000
  7
STANDARD
  0
TEXT
  8
0
  6
CONTINUOUS
 62
1
 10
1536.015558
 20
968.354938
 40
3.000000
  1
90
 50
0.000000
 41
1.000000
 51
0.000000
  7
STANDARD
  0
TEXT
  8
0
  6
CONTINUOUS
 62
1
 10
1523.763373
 20
985.274854
 40
3.000000
  1
100
 50
0.000000
 41
1.000000
 51
0.000000
  7
STANDARD
  0
TEXT
  8
0
  6
CONTINUOUS
 62
1
 10
1522.872543
 20
999.095100
 40
3.000000
  1
110
 50
0.000000
 41
1.000000
 51
0.000000
  7
STANDARD
  0
TEXT
  8
0
  6
CONTINUOUS
 62
1
 10
1525.034760
 20
1013.672136
 40
3.000000
  1
120
 50
0.000000
 41
1.000000
 51
0.000000
  7
STANDARD
  0
TEXT
  8
0
  6
CONTINUOUS
 62
1
 10
1535.962901
 20
1025.062945
 40
3.000000
  1
MAN
 50
0.000000
 41
1.000000
 51
0.000000
  7
STANDARD
  0
CIRCLE
  8
0
  6
CONTINUOUS
 62
1
 10
1597.133786
 20
1006.567232
 40
1.428587
  0
CIRCLE
  8
0
  6
CONTINUOUS
 62
1
 10
1592.437068
 20
979.930569
 40
1.428587
  0
CIRCLE
  8
0
  6
CONTINUOUS
 62
1
 10
1569.013208
 20
966.406747
 40
1.428587
  0
CIRCLE
  8
0
  6
CONTINUOUS
 62
1
 10
1543.596792
 20
975.657519
 40
1.428587
  0
CIRCLE
  8
0
  6
CONTINUOUS
 62
1
 10
1534.345938
 20
1001.073905
 40
1.428587
  0
CIRCLE
  8
0
  6
CONTINUOUS
 62
1
 10
1579.747910
 20
1027.286844
 40
1.428587
  0
CIRCLE
  8
0
  6
CONTINUOUS
 62
1
 10
1585.704541
 20
1023.672278
 40
0.714287
  0
CIRCLE
  8
0
  6
CONTINUOUS
 62
1
 10
1594.608521
 20
1013.060926
 40
0.714287
  0
CIRCLE
  8
0
  6
CONTINUOUS
 62
1
 10
1598.193716
 20
999.680790
 40
0.714287
  0
CIRCLE
  8
0
  6
CONTINUOUS
 62
1
 10
1595.788317
 20
986.039100
 40
0.714287
  0
CIRCLE
  8
0
  6
CONTINUOUS
 62
1
 10
1587.843057
 20
974.692096
 40
0.714287
  0
CIRCLE
  8
0
  6
CONTINUOUS
 62
1
 10
1575.846755
 20
967.766029
 40
0.714287
  0
CIRCLE
  8
0
  6
CONTINUOUS
 62
1
 10
1562.047332
 20
966.558738
 40
0.714287
  0
CIRCLE
  8
0
  6
CONTINUOUS
 62
1
 10
1549.030583
 20
971.296448
 40
0.714287
  0
CIRCLE
  8
0
  6
CONTINUOUS
 62
1
 10
1539.235645
 20
981.091388
 40
0.714287
  0
CIRCLE
  8
0
  6
CONTINUOUS
 62
1
 10
1534.497937
 20
994.108138
 40
0.714287
  0
CIRCLE
  8
0
  6
CONTINUOUS
 62
1
 10
1535.705231
 20
1007.907561
 40
0.714287
  0
CIRCLE
  8
0
  6
CONTINUOUS
 62
1
 10
1578.470090
 20
1178.221560
 40
1.428587
  0
CIRCLE
  8
0
  6
CONTINUOUS
 62
1
 10
1553.978351
 20
1178.221521
 40
1.428587
  0
CIRCLE
  8
0
  6
CONTINUOUS
 62
1
 10
1536.660047
 20
1195.539768
 40
1.428587
  0
TEXT
  8
0
  6
CONTINUOUS
 62
1
 10
1579.875200
 20
1173.954691
 40
3.000000
  1
150
 50
0.000000
 41
1.000000
 51
0.000000
  7
STANDARD
  0
TEXT
  8
0
  6
CONTINUOUS
 62
1
 10
1545.861034
 20
1173.754633
 40
3.000000
  1
200
 50
0.000000
 41
1.000000
 51
0.000000
  7
STANDARD
  0
TEXT
  8
0
  6
CONTINUOUS
 62
1
 10
1526.371124
 20
1192.083583
 40
3.000000
  1
250
 50
0.000000
 41
1.000000
 51
0.000000
  7
STANDARD
  0
CIRCLE
  8
0
  6
CONTINUOUS
 62
1
 10
1595.788319
 20
1220.031552
 40
0.714287
  0
CIRCLE
  8
0
  6
CONTINUOUS
 62
1
 10
1595.788338
 20
1195.539863
 40
1.428587
  0
CIRCLE
  8
0
  6
CONTINUOUS
 62
1
 10
1597.340011
 20
1215.255934
 40
0.714287
  0
CIRCLE
  8
0
  6
CONTINUOUS
 62
1
 10
1598.125528
 20
1210.296373
 40
0.714287
  0
CIRCLE
  8
0
  6
CONTINUOUS
 62
1
 10
1598.125527
 20
1205.274991
 40
0.714287
  0
CIRCLE
  8
0
  6
CONTINUOUS
 62
1
 10
1597.340010
 20
1200.315431
 40
0.714287
  0
CIRCLE
  8
0
  6
CONTINUOUS
 62
1
 10
1593.508656
 20
1191.065729
 40
0.714287
  0
CIRCLE
  8
0
  6
CONTINUOUS
 62
1
 10
1590.557162
 20
1187.003346
 40
0.714287
  0
CIRCLE
  8
0
  6
CONTINUOUS
 62
1
 10
1587.006508
 20
1183.452693
 40
0.714287
  0
CIRCLE
  8
0
  6
CONTINUOUS
 62
1
 10
1582.944124
 20
1180.501199
 40
0.714287
  0
CIRCLE
  8
0
  6
CONTINUOUS
 62
1
 10
1573.694421
 20
1176.669847
 40
0.714287
  0
CIRCLE
  8
0
  6
CONTINUOUS
 62
1
 10
1568.734861
 20
1175.884331
 40
0.714287
  0
CIRCLE
  8
0
  6
CONTINUOUS
 62
1
 10
1563.713479
 20
1175.884331
 40
0.714287
  0
CIRCLE
  8
0
  6
CONTINUOUS
 62
1
 10
1558.753918
 20
1176.669849
 40
0.714287
  0
CIRCLE
  8
0
  6
CONTINUOUS
 62
1
 10
1549.504216
 20
1180.501202
 40
0.714287
  0
CIRCLE
  8
0
  6
CONTINUOUS
 62
1
 10
1545.441833
 20
1183.452697
 40
0.714287
  0
CIRCLE
  8
0
  6
CONTINUOUS
 62
1
 10
1541.891180
 20
1187.003350
 40
0.714287
  0
CIRCLE
  8
0
  6
CONTINUOUS
 62
1
 10
1538.939686
 20
1191.065734
 40
0.714287
  0
CIRCLE
  8
0
  6
CONTINUOUS
 62
1
 10
1535.108335
 20
1200.315437
 40
0.714287
  0
CIRCLE
  8
0
  6
CONTINUOUS
 62
1
 10
1534.322818
 20
1205.274998
 40
0.714287
  0
CIRCLE
  8
0
  6
CONTINUOUS
 62
1
 10
1578.470090
 20
1178.221560
 40
1.428587
  0
CIRCLE
  8
0
  6
CONTINUOUS
 62
1
 10
1553.978351
 20
1178.221521
 40
1.428587
  0
CIRCLE
  8
0
  6
CONTINUOUS
 62
1
 10
1536.660047
 20
1195.539768
 40
1.428587
  0
TEXT
  8
0
  6
CONTINUOUS
 62
1
 10
1599.146938
 20
1192.083583
 40
3.000000
  1
100
 50
0.000000
 41
1.000000
 51
0.000000
  7
STANDARD
  0
ARC
  8
0
  6
CONTINUOUS
 62
1
 10
1566.224173
 20
998.284973
 40
28.500000
 50
58.452233
 51
89.497404
  0
LINE
  8
0
  6
CONTINUOUS
 62
1
 10
1551.200266
 20
1022.417460
 11
1545.528952
 21
998.515840
  0
LINE
  8
0
  6
CONTINUOUS
 62
1
 10
1545.528952
 20
998.054105
 11
1551.200266
 21
974.152485
  0
LINE
  8
0
  6
CONTINUOUS
 62
1
 10
1581.248079
 20
1022.417460
 11
1586.919393
 21
998.515840
  0
LINE
  8
0
  6
CONTINUOUS
 62
1
 10
1586.919393
 20
998.054105
 11
1581.248079
 21
974.152485
  0
ARC
  8
0
  6
CONTINUOUS
 62
1
 10
1566.224173
 20
998.284973
 40
28.500000
 50
238.452233
 51
301.547767
  0
ARC
  8
0
  6
CONTINUOUS
 62
1
 10
1637.449173
 20
998.284973
 40
61.225000
 50
156.706520
 51
203.293480
  0
ARC
  8
0
  6
CONTINUOUS
 62
1
 10
1494.999173
 20
998.284973
 40
61.225000
 50
336.706520
 51
23.293480
  0
ARC
  8
0
  6
CONTINUOUS
 62
1
 10
1566.224173
 20
998.284973
 40
28.500000
 50
90.502596
 51
121.547767
  0
ARC
  8
0
  6
CONTINUOUS
 62
1
 10
1566.224173
 20
998.284973
 40
23.500000
 50
57.813415
 51
86.342201
  0
ARC
  8
0
  6
CONTINUOUS
 62
1
 10
1566.224173
 20
1021.784973
 40
1.500000
 50
181.828899
 51
358.171101
  0
ARC
  8
0
  6
CONTINUOUS
 62
1
 10
1566.224173
 20
1026.784973
 40
0.250000
 50
180.251298
 51
359.748702
  0
ARC
  8
0
  6
CONTINUOUS
 62
1
 10
1566.224173
 20
998.284973
 40
23.500000
 50
93.657799
 51
122.186584
  0
ARC
  8
0
  6
CONTINUOUS
 62
1
 10
1566.224173
 20
998.284973
 40
23.500000
 50
237.813415
 51
302.186585
  0
LINE
  8
0
  6
CONTINUOUS
 62
1
 10
1564.724937
 20
1021.737100
 11
1565.974175
 21
1026.783876
  0
LINE
  8
0
  6
CONTINUOUS
 62
1
 10
1566.474170
 20
1026.783876
 11
1567.723409
 21
1021.737100
  0
ARC
  8
0
  6
CONTINUOUS
 62
1
 10
1585.946408
 20
998.284973
 40
1.000000
 50
346.651856
 51
13.348144
  0
ARC
  8
0
  6
CONTINUOUS
 62
1
 10
1546.501938
 20
998.284973
 40
1.000000
 50
166.651856
 51
193.348144
  0
ARC
  8
0
  6
CONTINUOUS
 62
1
 10
1578.209431
 20
1017.327126
 40
1.000000
 50
0.000000
 51
57.813415
  0
ARC
  8
0
  6
CONTINUOUS
 62
1
 10
1578.209431
 20
979.242820
 40
1.000000
 50
0.000000
 51
17.819597
  0
ARC
  8
0
  6
CONTINUOUS
 62
1
 10
1554.238915
 20
1017.327126
 40
1.000000
 50
122.186572
 51
197.819610
  0
ARC
  8
0
  6
CONTINUOUS
 62
1
 10
1578.209431
 20
1017.327126
 40
1.000000
 50
342.180403
 51
0.000000
  0
ARC
  8
0
  6
CONTINUOUS
 62
1
 10
1578.209431
 20
979.242820
 40
1.000000
 50
302.186585
 51
0.000000
  0
ARC
  8
0
  6
CONTINUOUS
 62
1
 10
1554.238915
 20
979.242820
 40
1.000000
 50
162.180340
 51
237.813402
  0
ARC
  8
0
  6
CONTINUOUS
 62
1
 10
1551.443512
 20
1022.359743
 40
0.250000
 50
121.547767
 51
166.651856
  0
ARC
  8
0
  6
CONTINUOUS
 62
1
 10
1581.004833
 20
1022.359743
 40
0.250000
 50
13.348144
 51
58.452233
  0
ARC
  8
0
  6
CONTINUOUS
 62
1
 10
1581.004833
 20
974.210202
 40
0.250000
 50
301.547767
 51
346.651856
  0
ARC
  8
0
  6
CONTINUOUS
 62
1
 10
1551.443512
 20
974.210202
 40
0.250000
 50
193.348144
 51
238.452233
  0
ARC
  8
0
  6
CONTINUOUS
 62
1
 10
1566.224173
 20
1207.785686
 40
28.500000
 50
58.452233
 51
89.497404
  0
LINE
  8
0
  6
CONTINUOUS
 62
1
 10
1551.200266
 20
1231.918173
 11
1545.528952
 21
1208.016553
  0
LINE
  8
0
  6
CONTINUOUS
 62
1
 10
1545.528952
 20
1207.554818
 11
1551.200266
 21
1183.653198
  0
LINE
  8
0
  6
CONTINUOUS
 62
1
 10
1581.248079
 20
1231.918173
 11
1586.919393
 21
1208.016553
  0
LINE
  8
0
  6
CONTINUOUS
 62
1
 10
1586.919393
 20
1207.554818
 11
1581.248079
 21
1183.653198
  0
ARC
  8
0
  6
CONTINUOUS
 62
1
 10
1566.224173
 20
1207.785686
 40
28.500000
 50
238.452233
 51
301.547767
  0
ARC
  8
0
  6
CONTINUOUS
 62
1
 10
1637.449173
 20
1207.785686
 40
61.225000
 50
156.706520
 51
203.293480
  0
ARC
  8
0
  6
CONTINUOUS
 62
1
 10
1494.999173
 20
1207.785686
 40
61.225000
 50
336.706520
 51
23.293480
  0
ARC
  8
0
  6
CONTINUOUS
 62
1
 10
1566.224173
 20
1207.785686
 40
28.500000
 50
90.502596
 51
121.547767
  0
ARC
  8
0
  6
CONTINUOUS
 62
1
 10
1566.224173
 20
1207.785686
 40
23.500000
 50
57.813415
 51
86.342201
  0
ARC
  8
0
  6
CONTINUOUS
 62
1
 10
1566.224173
 20
1231.285686
 40
1.500000
 50
181.828899
 51
358.171101
  0
ARC
  8
0
  6
CONTINUOUS
 62
1
 10
1566.224173
 20
1236.285686
 40
0.250000
 50
180.251298
 51
359.748702
  0
ARC
  8
0
  6
CONTINUOUS
 62
1
 10
1566.224173
 20
1207.785686
 40
23.500000
 50
93.657799
 51
122.186584
  0
ARC
  8
0
  6
CONTINUOUS
 62
1
 10
1566.224173
 20
1207.785686
 40
23.500000
 50
237.813415
 51
302.186585
  0
LINE
  8
0
  6
CONTINUOUS
 62
1
 10
1564.724937
 20
1231.237813
 11
1565.974175
 21
1236.284589
  0
LINE
  8
0
  6
CONTINUOUS
 62
1
 10
1566.474170
 20
1236.284589
 11
1567.723409
 21
1231.237813
  0
ARC
  8
0
  6
CONTINUOUS
 62
1
 10
1585.946408
 20
1207.785686
 40
1.000000
 50
346.651856
 51
13.348144
  0
ARC
  8
0
  6
CONTINUOUS
 62
1
 10
1546.501938
 20
1207.785686
 40
1.000000
 50
166.651856
 51
193.348144
  0
ARC
  8
0
  6
CONTINUOUS
 62
1
 10
1578.209431
 20
1226.827839
 40
1.000000
 50
0.000000
 51
57.813415
  0
ARC
  8
0
  6
CONTINUOUS
 62
1
 10
1578.209431
 20
1188.743533
 40
1.000000
 50
0.000000
 51
17.819597
  0
ARC
  8
0
  6
CONTINUOUS
 62
1
 10
1554.238915
 20
1226.827839
 40
1.000000
 50
122.186572
 51
197.819610
  0
ARC
  8
0
  6
CONTINUOUS
 62
1
 10
1578.209431
 20
1226.827839
 40
1.000000
 50
342.180403
 51
0.000000
  0
ARC
  8
0
  6
CONTINUOUS
 62
1
 10
1578.209431
 20
1188.743533
 40
1.000000
 50
302.186585
 51
0.000000
  0
ARC
  8
0
  6
CONTINUOUS
 62
1
 10
1554.238915
 20
1188.743533
 40
1.000000
 50
162.180340
 51
237.813402
  0
ARC
  8
0
  6
CONTINUOUS
 62
1
 10
1551.443512
 20
1231.860456
 40
0.250000
 50
121.547767
 51
166.651856
  0
ARC
  8
0
  6
CONTINUOUS
 62
1
 10
1581.004833
 20
1231.860456
 40
0.250000
 50
13.348144
 51
58.452233
  0
ARC
  8
0
  6
CONTINUOUS
 62
1
 10
1581.004833
 20
1183.710915
 40
0.250000
 50
301.547767
 51
346.651856
  0
ARC
  8
0
  6
CONTINUOUS
 62
1
 10
1551.443512
 20
1183.710915
 40
0.250000
 50
193.348144
 51
238.452233
  0
ENDSEC
  0
EOF
