  0
SECTION
  2
HEADER
  9
$LIMMIN
 10
0.000000
 20
0.000000
  9
$LIMMAX
 10
3363.600000
 20
2378.400000
  9
$EXTMIN
 10
0.000000
 20
0.000000
  9
$EXTMAX
 10
3363.600000
 20
2378.400000
  9
$ANGBASE
 50
0.0
  9
$ANGDIR
 70
0
  9
$DIMRND
 40
0.100000
  9
$DIMSE1
 70
0
  9
$DIMSE2
 70
0
  9
$DIMTXT
 40
3.500000
  9
$LTSCALE
 40
1.000000
  9
$LUPREC
 70
5
  9
$AUPREC
 70
5
  9
$PDMODE
 70
2
  9
$PDSIZE
 40
16.818000
  0
ENDSEC
  0
SECTION
  2
TABLES
  0
TABLE
  2
VPORT
  70
1
  0
VPORT
  2
*ACTIVE
 70
0
  10
0.0
 20
0.0
 11
1.0
 21
1.0
 12
594.0
 22
420.0
 13
0.0
 23
0.0
 14
10.0
 24
10.0
 15
10.0
 25
10.0
 16
0.0
 26
0.0
 36
1.0
 17
594.0
 27
420.0
 37
100.0
 40
1000.0
 41
1.0
 42
50.0
 43
0.0
 44
0.0
 50
0.0
 51
0.0
 71
0
 72
2000
 73
1
 74
3
 75
0
 76
0
 77
0
 78
1
  0
ENDTAB
  0
TABLE
  2
LTYPE
 70
4
  0
LTYPE
  2
CONTINUOUS
 70
0
  3
Solid line
 72
65
 73
0
 40
0.0
  0
LTYPE
  2
DASHED
 70
0
  3
Dashed line
 72
65
 73
2
 40
6.000000
 49
3.000000
 49
-3.000000
  0
LTYPE
  2
CENTER
 70
0
  3
Chain line
 72
65
 73
4
 40
24.000000
 49
15.000000
 49
-3.000000
 49
3.000000
 49
-3.000000
  0
LTYPE
  2
RANDOM
 70
0
  3
Random line
 72
65
 73
4
 40
22.500000
 49
6.000000
 49
-3.000000
 49
4.500000
 49
-9.000000
  0
ENDTAB
  0
TABLE
  2
STYLE
 70
9
  0
STYLE
  2
STANDARD
 40
0
 41
1.0
 50
0.0
 71
0
 42
0
  3
simplex
  4

 70
0
  0
ENDTAB
  0
TABLE
  2
LAYER
 70
2
  0
LAYER
  2
0
 70
0
 62
7
  6
CONTINUOUS
  0
LAYER
  2
0
 62
1
  6
CONTINUOUS
 70
0
  0
ENDTAB
  0
ENDSEC
  0
SECTION
  2
BLOCKS
  0
ENDSEC
  0
SECTION
  2
ENTITIES
  0
LINE
  8
0
  6
CONTINUOUS
 62
1
 10
1591.962863
 20
887.607203
 11
1550.462863
 21
887.607203
  0
LINE
  8
0
  6
CONTINUOUS
 62
1
 10
1580.432087
 20
857.607203
 11
1562.195560
 21
857.607203
  0
LINE
  8
0
  6
CONTINUOUS
 62
1
 10
1590.884283
 20
877.607203
 11
1551.541443
 21
877.607203
  0
LINE
  8
0
  6
CONTINUOUS
 62
1
 10
1570.962863
 20
887.107203
 11
1569.712863
 21
857.607203
  0
LINE
  8
0
  6
CONTINUOUS
 62
1
 10
1571.462863
 20
887.107203
 11
1572.712863
 21
857.607203
  0
LINE
  8
0
  6
CONTINUOUS
 62
1
 10
1563.662863
 20
887.607203
 11
1563.662863
 21
889.607203
  0
LINE
  8
0
  6
CONTINUOUS
 62
1
 10
1578.762863
 20
887.607203
 11
1578.762863
 21
889.607203
  0
LINE
  8
0
  6
CONTINUOUS
 62
1
 10
1563.662863
 20
889.607203
 11
1578.762863
 21
889.607203
  0
LINE
  8
0
  6
CONTINUOUS
 62
1
 10
1570.962863
 20
887.107203
 11
1571.462863
 21
887.107203
  0
LINE
  8
0
  6
CONTINUOUS
 62
1
 10
1586.212863
 20
887.607203
 11
1586.212863
 21
877.607203
  0
LINE
  8
0
  6
CONTINUOUS
 62
1
 10
1581.402229
 20
858.364668
 11
1586.212863
 21
877.607203
  0
LINE
  8
0
  6
CONTINUOUS
 62
1
 10
1556.212863
 20
887.607203
 11
1556.212863
 21
877.607203
  0
LINE
  8
0
  6
CONTINUOUS
 62
1
 10
1561.023497
 20
858.364668
 11
1556.212863
 21
877.607203
  0
ARC
  8
0
  6
CONTINUOUS
 62
1
 10
1561.993639
 20
858.607203
 40
1.000000
 50
194.036243
 51
270.000000
  0
ARC
  8
0
  6
CONTINUOUS
 62
1
 10
1580.432087
 20
858.607203
 40
1.000000
 50
270.000000
 51
345.963757
  0
LINE
  8
0
  6
CONTINUOUS
 62
1
 10
1591.962863
 20
887.607203
 11
1591.884245
 21
878.598477
  0
LINE
  8
0
  6
CONTINUOUS
 62
1
 10
1550.462863
 20
887.607203
 11
1550.541481
 21
878.598477
  0
ARC
  8
0
  6
CONTINUOUS
 62
1
 10
1551.541443
 20
878.607203
 40
1.000000
 50
180.500000
 51
270.000000
  0
ARC
  8
0
  6
CONTINUOUS
 62
1
 10
1590.884283
 20
878.607203
 40
1.000000
 50
270.000000
 51
359.500000
  0
LINE
  8
0
  6
CONTINUOUS
 62
1
 10
1072.401991
 20
1509.407329
 11
1072.401991
 21
1484.407329
  0
LINE
  8
0
  6
CONTINUOUS
 62
1
 10
1097.401991
 20
1484.407329
 11
1097.401991
 21
1509.407329
  0
LINE
  8
0
  6
CONTINUOUS
 62
1
 10
1072.401991
 20
1509.407329
 11
1097.401991
 21
1509.407329
  0
LINE
  8
0
  6
CONTINUOUS
 62
1
 10
1509.484674
 20
1509.407329
 11
1509.484674
 21
1484.407329
  0
LINE
  8
0
  6
CONTINUOUS
 62
1
 10
1484.484674
 20
1484.407329
 11
1484.484674
 21
1509.407329
  0
LINE
  8
0
  6
CONTINUOUS
 62
1
 10
1509.484674
 20
1509.407329
 11
1484.484674
 21
1509.407329
  0
LINE
  8
0
  6
CONTINUOUS
 62
1
 10
957.212863
 20
924.407390
 11
957.212863
 21
1394.407390
  0
LINE
  8
0
  6
CONTINUOUS
 62
1
 10
957.015265
 20
1395.307323
 11
957.015265
 21
1419.407329
  0
LINE
  8
0
  6
CONTINUOUS
 62
1
 10
1624.015280
 20
1419.407329
 11
1624.015280
 21
1395.307323
  0
LINE
  8
0
  6
CONTINUOUS
 62
1
 10
1624.212863
 20
1394.407390
 11
1624.212863
 21
924.407390
  0
LINE
  8
0
  6
CONTINUOUS
 62
1
 10
1514.212951
 20
889.607203
 11
957.212951
 21
889.607203
  0
LINE
  8
0
  6
CONTINUOUS
 62
1
 10
1514.212951
 20
889.607203
 11
1514.212951
 21
916.607203
  0
LINE
  8
0
  6
CONTINUOUS
 62
1
 10
957.212951
 20
916.607203
 11
1514.212951
 21
916.607203
  0
LINE
  8
0
  6
CONTINUOUS
 62
1
 10
1624.212863
 20
923.407390
 11
1624.212863
 21
889.607203
  0
LINE
  8
0
  6
CONTINUOUS
 62
1
 10
1518.212863
 20
924.407390
 11
1518.212863
 21
889.607203
  0
LINE
  8
0
  6
CONTINUOUS
 62
1
 10
957.212951
 20
916.607203
 11
957.212951
 21
889.607203
  0
LINE
  8
0
  6
CONTINUOUS
 62
1
 10
1624.212863
 20
924.407390
 11
957.212863
 21
924.407390
  0
LINE
  8
0
  6
CONTINUOUS
 62
1
 10
1518.212863
 20
889.607203
 11
1624.212863
 21
889.607203
  0
LINE
  8
0
  6
CONTINUOUS
 62
1
 10
957.015265
 20
1419.407329
 11
1624.015280
 21
1419.407329
  0
LINE
  8
0
  6
CONTINUOUS
 62
1
 10
1624.015280
 20
1395.307323
 11
957.212863
 21
1394.407390
  0
LINE
  8
0
  6
CONTINUOUS
 62
1
 10
1479.712951
 20
889.607203
 11
1479.712951
 21
854.607203
  0
LINE
  8
0
  6
CONTINUOUS
 62
1
 10
1499.712951
 20
889.607203
 11
1499.712951
 21
854.607203
  0
LINE
  8
0
  6
CONTINUOUS
 62
1
 10
957.212863
 20
1234.407390
 11
952.212863
 21
1234.407390
  0
LINE
  8
0
  6
CONTINUOUS
 62
1
 10
952.212863
 20
1284.407390
 11
957.212863
 21
1284.407390
  0
LINE
  8
0
  6
CONTINUOUS
 62
1
 10
952.212863
 20
1284.407390
 11
952.212863
 21
1234.407390
  0
LINE
  8
0
  6
CONTINUOUS
 62
1
 10
957.212863
 20
1289.407390
 11
952.212863
 21
1284.407390
  0
LINE
  8
0
  6
CONTINUOUS
 62
1
 10
952.212863
 20
1234.407390
 11
957.212863
 21
1229.407390
  0
LINE
  8
0
  6
CONTINUOUS
 62
1
 10
957.212863
 20
1134.407390
 11
952.212863
 21
1134.407390
  0
LINE
  8
0
  6
CONTINUOUS
 62
1
 10
952.212863
 20
1184.407390
 11
957.212863
 21
1184.407390
  0
LINE
  8
0
  6
CONTINUOUS
 62
1
 10
952.212863
 20
1184.407390
 11
952.212863
 21
1134.407390
  0
LINE
  8
0
  6
CONTINUOUS
 62
1
 10
957.212863
 20
1189.407390
 11
952.212863
 21
1184.407390
  0
LINE
  8
0
  6
CONTINUOUS
 62
1
 10
952.212863
 20
1134.407390
 11
957.212863
 21
1129.407390
  0
LINE
  8
0
  6
CONTINUOUS
 62
1
 10
957.212863
 20
1034.407390
 11
952.212863
 21
1034.407390
  0
LINE
  8
0
  6
CONTINUOUS
 62
1
 10
952.212863
 20
1084.407390
 11
957.212863
 21
1084.407390
  0
LINE
  8
0
  6
CONTINUOUS
 62
1
 10
952.212863
 20
1084.407390
 11
952.212863
 21
1034.407390
  0
LINE
  8
0
  6
CONTINUOUS
 62
1
 10
957.212863
 20
1089.407390
 11
952.212863
 21
1084.407390
  0
LINE
  8
0
  6
CONTINUOUS
 62
1
 10
952.212863
 20
1034.407390
 11
957.212863
 21
1029.407390
  0
LINE
  8
0
  6
CONTINUOUS
 62
1
 10
1624.212863
 20
1234.407390
 11
1629.212863
 21
1234.407390
  0
LINE
  8
0
  6
CONTINUOUS
 62
1
 10
1629.212863
 20
1284.407390
 11
1624.212863
 21
1284.407390
  0
LINE
  8
0
  6
CONTINUOUS
 62
1
 10
1629.212863
 20
1284.407390
 11
1629.212863
 21
1234.407390
  0
LINE
  8
0
  6
CONTINUOUS
 62
1
 10
1624.212863
 20
1289.407390
 11
1629.212863
 21
1284.407390
  0
LINE
  8
0
  6
CONTINUOUS
 62
1
 10
1629.212863
 20
1234.407390
 11
1624.212863
 21
1229.407390
  0
LINE
  8
0
  6
CONTINUOUS
 62
1
 10
1624.212863
 20
1134.407390
 11
1629.212863
 21
1134.407390
  0
LINE
  8
0
  6
CONTINUOUS
 62
1
 10
1629.212863
 20
1184.407390
 11
1624.212863
 21
1184.407390
  0
LINE
  8
0
  6
CONTINUOUS
 62
1
 10
1629.212863
 20
1184.407390
 11
1629.212863
 21
1134.407390
  0
LINE
  8
0
  6
CONTINUOUS
 62
1
 10
1624.212863
 20
1189.407390
 11
1629.212863
 21
1184.407390
  0
LINE
  8
0
  6
CONTINUOUS
 62
1
 10
1629.212863
 20
1134.407390
 11
1624.212863
 21
1129.407390
  0
LINE
  8
0
  6
CONTINUOUS
 62
1
 10
1624.212863
 20
1034.407390
 11
1629.212863
 21
1034.407390
  0
LINE
  8
0
  6
CONTINUOUS
 62
1
 10
1629.212863
 20
1084.407390
 11
1624.212863
 21
1084.407390
  0
LINE
  8
0
  6
CONTINUOUS
 62
1
 10
1629.212863
 20
1084.407390
 11
1629.212863
 21
1034.407390
  0
LINE
  8
0
  6
CONTINUOUS
 62
1
 10
1624.212863
 20
1089.407390
 11
1629.212863
 21
1084.407390
  0
LINE
  8
0
  6
CONTINUOUS
 62
1
 10
1629.212863
 20
1034.407390
 11
1624.212863
 21
1029.407390
  0
LINE
  8
0
  6
CENTER
 62
1
 10
1559.212863
 20
1365.023378
 11
1559.212863
 21
1478.952506
  0
ARC
  8
0
  6
CONTINUOUS
 62
1
 10
1489.712951
 20
854.607203
 40
10.000000
 50
180.000000
 51
0.000000
  0
LINE
  8
0
  6
CONTINUOUS
 62
1
 10
1017.637043
 20
1484.407329
 11
1564.249621
 21
1484.407329
  0
LINE
  8
0
  6
CONTINUOUS
 62
1
 10
957.015265
 20
1419.407329
 11
1017.637043
 21
1484.407329
  0
LINE
  8
0
  6
CONTINUOUS
 62
1
 10
1623.725333
 20
1420.069011
 11
1564.249621
 21
1484.407329
  0
ENDSEC
  0
EOF
