  0
SECTION
  2
HEADER
  9
$ACADVER
  1
AC1015
  9
$ACADMAINTVER
 70
     6
  9
$DWGCODEPAGE
  3
ANSI_1252
  9
$INSBASE
 10
0.0
 20
0.0
 30
0.0
  9
$EXTMIN
 10
0.0
 20
0.0
 30
0.0
  9
$EXTMAX
 10
1000.0
 20
1000.0
 30
0.0
  9
$LIMMIN
 10
0.0
 20
0.0
  9
$LIMMAX
 10
1000.0
 20
1000.0
  9
$ORTHOMODE
 70
     0
  9
$REGENMODE
 70
     1
  9
$FILLMODE
 70
     1
  9
$QTEXTMODE
 70
     0
  9
$MIRRTEXT
 70
     1
  9
$LTSCALE
 40
1.0
  9
$ATTMODE
 70
     1
  9
$TEXTSIZE
 40
3.5
  9
$TRACEWID
 40
1.0
  9
$TEXTSTYLE
  7
Standard
  9
$CLAYER
  8
0
  9
$CELTYPE
  6
ByLayer
  9
$CECOLOR
 62
   256
  9
$CELTSCALE
 40
1.0
  9
$DISPSILH
 70
     0
  9
$DIMSCALE
 40
1.0
  9
$DIMASZ
 40
3.302
  9
$DIMEXO
 40
1.0
  9
$DIMDLI
 40
3.75
  9
$DIMRND
 40
0.0
  9
$DIMDLE
 40
0.0
  9
$DIMEXE
 40
1.0
  9
$DIMTP
 40
0.0
  9
$DIMTM
 40
0.0
  9
$DIMTXT
 40
3.5
  9
$DIMCEN
 40
2.5
  9
$DIMTSZ
 40
0.0
  9
$DIMTOL
 70
     0
  9
$DIMLIM
 70
     0
  9
$DIMTIH
 70
     1
  9
$DIMTOH
 70
     1
  9
$DIMSE1
 70
     0
  9
$DIMSE2
 70
     0
  9
$DIMTAD
 70
     1
  9
$DIMZIN
 70
     0
  9
$DIMBLK
  1

  9
$DIMASO
 70
     1
  9
$DIMSHO
 70
     1
  9
$DIMPOST
  1

  9
$DIMAPOST
  1

  9
$DIMALT
 70
     0
  9
$DIMALTD
 70
     3
  9
$DIMALTF
 40
0.0393700787
  9
$DIMLFAC
 40
1.0
  9
$DIMTOFL
 70
     1
  9
$DIMTVP
 40
0.0
  9
$DIMTIX
 70
     0
  9
$DIMSOXD
 70
     0
  9
$DIMSAH
 70
     0
  9
$DIMBLK1
  1

  9
$DIMBLK2
  1

  9
$DIMSTYLE
  2
ISO-25
  9
$DIMCLRD
 70
     0
  9
$DIMCLRE
 70
     0
  9
$DIMCLRT
 70
     0
  9
$DIMTFAC
 40
1.0
  9
$DIMGAP
 40
1.524
  9
$DIMJUST
 70
     0
  9
$DIMSD1
 70
     0
  9
$DIMSD2
 70
     0
  9
$DIMTOLJ
 70
     0
  9
$DIMTZIN
 70
     0
  9
$DIMALTZ
 70
     0
  9
$DIMALTTZ
 70
     0
  9
$DIMUPT
 70
     0
  9
$DIMDEC
 70
     3
  9
$DIMTDEC
 70
     3
  9
$DIMALTU
 70
     2
  9
$DIMALTTD
 70
     3
  9
$DIMTXSTY
  7
Standard
  9
$DIMAUNIT
 70
     0
  9
$DIMADEC
 70
     2
  9
$DIMALTRND
 40
0.0
  9
$DIMAZIN
 70
     0
  9
$DIMDSEP
 70
    44
  9
$DIMATFIT
 70
     3
  9
$DIMFRAC
 70
     0
  9
$DIMLDRBLK
  1

  9
$DIMLUNIT
 70
     2
  9
$DIMLWD
 70
    -2
  9
$DIMLWE
 70
    -2
  9
$DIMTMOVE
 70
     0
  9
$LUNITS
 70
     2
  9
$LUPREC
 70
     1
  9
$SKETCHINC
 40
1.0
  9
$FILLETRAD
 40
10.0
  9
$AUNITS
 70
     0
  9
$AUPREC
 70
     1
  9
$MENU
  1
.
  9
$ELEVATION
 40
0.0
  9
$PELEVATION
 40
0.0
  9
$THICKNESS
 40
0.0
  9
$LIMCHECK
 70
     0
  9
$CHAMFERA
 40
10.0
  9
$CHAMFERB
 40
10.0
  9
$CHAMFERC
 40
20.0
  9
$CHAMFERD
 40
0.0
  9
$SKPOLY
 70
     0
  9
$TDCREATE
 40
2457423.654336632
  9
$TDUCREATE
 40
2457423.654336632
  9
$TDUPDATE
 40
2457423.654336991
  9
$TDUUPDATE
 40
2457423.654336991
  9
$TDINDWG
 40
0.0000000116
  9
$TDUSRTIMER
 40
0.0000000116
  9
$USRTIMER
 70
     1
  9
$ANGBASE
 50
0.0
  9
$ANGDIR
 70
     0
  9
$PDMODE
 70
     0
  9
$PDSIZE
 40
-1.0
  9
$PLINEWID
 40
0.0
  9
$SPLFRAME
 70
     0
  9
$SPLINETYPE
 70
     6
  9
$SPLINESEGS
 70
     8
  9
$HANDSEED
  5
203
  9
$SURFTAB1
 70
     6
  9
$SURFTAB2
 70
     6
  9
$SURFTYPE
 70
     6
  9
$SURFU
 70
     6
  9
$SURFV
 70
     6
  9
$UCSBASE
  2

  9
$UCSNAME
  2

  9
$UCSORG
 10
0.0
 20
0.0
 30
0.0
  9
$UCSXDIR
 10
1.0
 20
0.0
 30
0.0
  9
$UCSYDIR
 10
0.0
 20
1.0
 30
0.0
  9
$UCSORTHOREF
  2

  9
$UCSORTHOVIEW
 70
     0
  9
$UCSORGTOP
 10
0.0
 20
0.0
 30
0.0
  9
$UCSORGBOTTOM
 10
0.0
 20
0.0
 30
0.0
  9
$UCSORGLEFT
 10
0.0
 20
0.0
 30
0.0
  9
$UCSORGRIGHT
 10
0.0
 20
0.0
 30
0.0
  9
$UCSORGFRONT
 10
0.0
 20
0.0
 30
0.0
  9
$UCSORGBACK
 10
0.0
 20
0.0
 30
0.0
  9
$PUCSBASE
  2

  9
$PUCSNAME
  2

  9
$PUCSORG
 10
0.0
 20
0.0
 30
0.0
  9
$PUCSXDIR
 10
1.0
 20
0.0
 30
0.0
  9
$PUCSYDIR
 10
0.0
 20
1.0
 30
0.0
  9
$PUCSORTHOREF
  2

  9
$PUCSORTHOVIEW
 70
     0
  9
$PUCSORGTOP
 10
0.0
 20
0.0
 30
0.0
  9
$PUCSORGBOTTOM
 10
0.0
 20
0.0
 30
0.0
  9
$PUCSORGLEFT
 10
0.0
 20
0.0
 30
0.0
  9
$PUCSORGRIGHT
 10
0.0
 20
0.0
 30
0.0
  9
$PUCSORGFRONT
 10
0.0
 20
0.0
 30
0.0
  9
$PUCSORGBACK
 10
0.0
 20
0.0
 30
0.0
  9
$USERI1
 70
     0
  9
$USERI2
 70
     0
  9
$USERI3
 70
     0
  9
$USERI4
 70
     0
  9
$USERI5
 70
     0
  9
$USERR1
 40
0.0
  9
$USERR2
 40
0.0
  9
$USERR3
 40
0.0
  9
$USERR4
 40
0.0
  9
$USERR5
 40
0.0
  9
$WORLDVIEW
 70
     1
  9
$SHADEDGE
 70
     3
  9
$SHADEDIF
 70
    70
  9
$TILEMODE
 70
     1
  9
$MAXACTVP
 70
    64
  9
$PINSBASE
 10
0.0
 20
0.0
 30
0.0
  9
$PLIMCHECK
 70
     0
  9
$PEXTMIN
 10
1.0000000000E+20
 20
1.0000000000E+20
 30
1.0000000000E+20
  9
$PEXTMAX
 10
-1.0000000000E+20
 20
-1.0000000000E+20
 30
-1.0000000000E+20
  9
$PLIMMIN
 10
0.0
 20
0.0
  9
$PLIMMAX
 10
420.0
 20
297.0
  9
$UNITMODE
 70
     0
  9
$VISRETAIN
 70
     1
  9
$PLINEGEN
 70
     0
  9
$PSLTSCALE
 70
     1
  9
$TREEDEPTH
 70
  3020
  9
$CMLSTYLE
  2
Standard
  9
$CMLJUST
 70
     0
  9
$CMLSCALE
 40
20.0
  9
$PROXYGRAPHICS
 70
     1
  9
$MEASUREMENT
 70
     1
  9
$CELWEIGHT
370
    -1
  9
$ENDCAPS
280
     0
  9
$JOINSTYLE
280
     0
  9
$LWDISPLAY
290
     1
  9
$INSUNITS
 70
     4
  9
$HYPERLINKBASE
  1

  9
$STYLESHEET
  1

  9
$XEDIT
290
     1
  9
$CEPSNTYPE
380
     0
  9
$PSTYLEMODE
290
     1
  9
$FINGERPRINTGUID
  2
{9A612360-5A66-4494-8AD9-2CD374B5343A}
  9
$VERSIONGUID
  2
{FAEB1C32-E019-11D5-929B-00C0DF256EC4}
  9
$EXTNAMES
290
     1
  9
$PSVPSCALE
 40
0.0
  9
$OLESTARTUP
290
     0
  0
ENDSEC
  0
SECTION
  2
CLASSES
  0
CLASS
  1
ACDBDICTIONARYWDFLT
  2
AcDbDictionaryWithDefault
  3
ObjectDBX Classes
 90
        0
280
     0
281
     0
  0
CLASS
  1
VISUALSTYLE
  2
AcDbVisualStyle
  3
ObjectDBX Classes
 90
     4095
280
     0
281
     0
  0
CLASS
  1
MATERIAL
  2
AcDbMaterial
  3
ObjectDBX Classes
 90
     1153
280
     0
281
     0
  0
CLASS
  1
ACDBPLACEHOLDER
  2
AcDbPlaceHolder
  3
ObjectDBX Classes
 90
        0
280
     0
281
     0
  0
CLASS
  1
LAYOUT
  2
AcDbLayout
  3
ObjectDBX Classes
 90
        0
280
     0
281
     0
  0
ENDSEC
  0
SECTION
  2
TABLES
  0
TABLE
  2
VPORT
  5
8
330
0
100
AcDbSymbolTable
 70
     1
  0
VPORT
  5
29
330
8
100
AcDbSymbolTableRecord
100
AcDbViewportTableRecord
  2
*Active
 70
     0
 10
0.0
 20
0.0
 11
1.0
 21
1.0
 12
500.0
 22
500.0
 13
0.0
 23
0.0
 14
10.0
 24
10.0
 15
10.0
 25
10.0
 16
0.0
 26
0.0
 36
1.0
 17
0.0
 27
0.0
 37
0.0
 40
1000.0
 41
1.0
 42
50.0
 43
0.0
 44
0.0
 50
0.0
 51
0.0
 71
     0
 72
  2000
 73
     1
 74
     3
 75
     0
 76
     0
 77
     0
 78
     0
281
     0
 65
     1
110
0.0
120
0.0
130
0.0
111
1.0
121
0.0
131
0.0
112
0.0
122
1.0
132
0.0
 79
     0
146
0.0
  0
ENDTAB
  0
TABLE
  2
LTYPE
  5
5
330
0
100
AcDbSymbolTable
 70
     6
  0
LTYPE
  5
14
330
5
100
AcDbSymbolTableRecord
100
AcDbLinetypeTableRecord
  2
ByBlock
 70
     0
  3

 72
    65
 73
     0
 40
0.0
  0
LTYPE
  5
15
330
5
100
AcDbSymbolTableRecord
100
AcDbLinetypeTableRecord
  2
ByLayer
 70
     0
  3

 72
    65
 73
     0
 40
0.0
  0
LTYPE
  5
16
330
5
100
AcDbSymbolTableRecord
100
AcDbLinetypeTableRecord
  2
Continuous
 70
     0
  3
Solid line
 72
    65
 73
     0
 40
0.0
  0
LTYPE
  5
3F
330
5
100
AcDbSymbolTableRecord
100
AcDbLinetypeTableRecord
  2
HIDDEN
 70
     0
  3
Hidden __ __ __ __ __ __ __ __ __ __ __ __ __ __
 72
    65
 73
     2
 40
1.905
 49
1.27
 74
     0
 49
-0.635
 74
     0
  0
LTYPE
  5
40
330
5
100
AcDbSymbolTableRecord
100
AcDbLinetypeTableRecord
  2
PHANTOM
 70
     0
  3
Phantom ______  __  __  ______  __  __  ______
 72
    65
 73
     6
 40
12.7
 49
6.35
 74
     0
 49
-1.27
 74
     0
 49
1.27
 74
     0
 49
-1.27
 74
     0
 49
1.27
 74
     0
 49
-1.27
 74
     0
  0
LTYPE
  5
41
330
5
100
AcDbSymbolTableRecord
100
AcDbLinetypeTableRecord
  2
CENTER
 70
     0
  3
Center ____ _ ____ _ ____ _ ____ _ ____ _ ____
 72
    65
 73
     4
 40
10.16
 49
6.35
 74
     0
 49
-1.27
 74
     0
 49
1.27
 74
     0
 49
-1.27
 74
     0
  0
LTYPE
  5
42
330
5
100
AcDbSymbolTableRecord
100
AcDbLinetypeTableRecord
  2
CENTERX2
 70
     0
  3
Center (2x) ________  __  ________  __  _____
 72
    65
 73
     4
 40
20.32
 49
12.7
 74
     0
 49
-2.54
 74
     0
 49
2.54
 74
     0
 49
-2.54
 74
     0
  0
LTYPE
  5
43
330
5
100
AcDbSymbolTableRecord
100
AcDbLinetypeTableRecord
  2
DOT2
 70
     0
  3
Dot (.5x) ........................................
 72
    65
 73
     2
 40
0.635
 49
0.0
 74
     0
 49
-0.635
 74
     0
  0
ENDTAB
  0
TABLE
  2
LAYER
  5
2
330
0
100
AcDbSymbolTable
 70
     1
  0
LAYER
  5
10
330
2
100
AcDbSymbolTableRecord
100
AcDbLayerTableRecord
  2
0
 70
     0
 62
     7
  6
Continuous
370
    -3
390
F
  0
ENDTAB
  0
TABLE
  2
STYLE
  5
3
330
0
100
AcDbSymbolTable
 70
     1
  0
STYLE
  5
11
330
3
100
AcDbSymbolTableRecord
100
AcDbTextStyleTableRecord
  2
Standard
 70
     0
 40
0.0
 41
1.0
 50
0.0
 71
     0
 42
3.5
  3
txt
  4

  0
ENDTAB
  0
TABLE
  2
VIEW
  5
6
330
0
100
AcDbSymbolTable
 70
     0
  0
ENDTAB
  0
TABLE
  2
UCS
  5
7
330
0
100
AcDbSymbolTable
 70
     0
  0
ENDTAB
  0
TABLE
  2
APPID
  5
9
330
0
100
AcDbSymbolTable
 70
     1
  0
APPID
  5
12
330
9
100
AcDbSymbolTableRecord
100
AcDbRegAppTableRecord
  2
ACAD
 70
     0
  0
ENDTAB
  0
TABLE
  2
DIMSTYLE
  5
A
330
0
100
AcDbSymbolTable
 70
     1
100
AcDbDimStyleTable
  0
DIMSTYLE
105
27
330
A
100
AcDbSymbolTableRecord
100
AcDbDimStyleTableRecord
  2
ISO-25
 70
     0
 41
2.5
 42
0.625
 43
3.75
 44
1.25
 73
     0
 74
     0
 77
     1
 78
     8
140
2.5
141
2.5
143
0.0393700787
147
0.625
171
     3
172
     1
178
     0
271
     2
272
     2
274
     3
278
    44
283
     0
284
     8
340
11
  0
ENDTAB
  0
TABLE
  2
BLOCK_RECORD
  5
1
330
0
100
AcDbSymbolTable
 70
     1
  0
BLOCK_RECORD
  5
1F
330
1
100
AcDbSymbolTableRecord
100
AcDbBlockTableRecord
  2
*Model_Space
340
22
  0
BLOCK_RECORD
  5
1B
330
1
100
AcDbSymbolTableRecord
100
AcDbBlockTableRecord
  2
*Paper_Space
340
1E
  0
BLOCK_RECORD
  5
23
330
1
100
AcDbSymbolTableRecord
100
AcDbBlockTableRecord
  2
*Paper_Space0
340
26
  0
ENDTAB
  0
ENDSEC
  0
SECTION
  2
BLOCKS
  0
BLOCK
  5
20
330
1F
100
AcDbEntity
  8
0
100
AcDbBlockBegin
  2
*Model_Space
 70
     0
 10
0.0
 20
0.0
 30
0.0
  3
*Model_Space
  1

  0
ENDBLK
  5
21
330
1F
100
AcDbEntity
  8
0
100
AcDbBlockEnd
  0
BLOCK
  5
1C
330
1B
100
AcDbEntity
 67
     1
  8
0
100
AcDbBlockBegin
  2
*Paper_Space
 70
     0
 10
0.0
 20
0.0
 30
0.0
  3
*Paper_Space
  1

  0
ENDBLK
  5
1D
330
1B
100
AcDbEntity
 67
     1
  8
0
100
AcDbBlockEnd
  0
BLOCK
  5
24
330
23
100
AcDbEntity
  8
0
100
AcDbBlockBegin
  2
*Paper_Space0
 70
     0
 10
0.0
 20
0.0
 30
0.0
  3
*Paper_Space0
  1

  0
ENDBLK
  5
25
330
23
100
AcDbEntity
  8
0
100
AcDbBlockEnd
  0
ENDSEC
  0
SECTION
  2
ENTITIES
  0
LINE
  5
44
330
1F
100
AcDbEntity
  8
0
  6
Continuous
 62
     7
370
    15
100
AcDbLine
 10
491.1871729831
 20
539.6876237826
 30
0.0
 11
491.1871580819
 21
539.6876237826
 31
0.0
  0
ARC
  5
45
330
1F
100
AcDbEntity
  8
0
  6
Continuous
 62
     7
370
    15
100
AcDbCircle
 10
475.684138711
 20
32.5615562542
 30
0.0
 40
5.000000000000038
100
AcDbArc
 50
179.9993448898
 51
269.9995965809
  0
ARC
  5
46
330
1F
100
AcDbEntity
  8
0
  6
Continuous
 62
     7
370
    15
100
AcDbCircle
 10
506.6841387089
 20
32.5613379834
 30
0.0
 40
4.999999999999978
100
AcDbArc
 50
269.9995965809
 51
359.9993448935
  0
LINE
  5
47
330
1F
100
AcDbEntity
  8
0
  6
Continuous
 62
     7
370
    15
100
AcDbLine
 10
475.6841091851
 20
27.5615579919
 30
0.0
 11
506.6840975026
 21
27.5613195733
 31
0.0
  0
SPLINE
  5
48
330
1F
100
AcDbEntity
  8
0
  6
Continuous
 62
     7
370
    15
100
AcDbSpline
210
0.0
220
0.0
230
1.0
 70
     8
 71
     3
 72
    16
 73
    12
 74
     0
 42
0.00000001
 43
0.00000001
 12
1.0
 22
0.0
 32
0.0
 13
1.0
 23
0.0
 33
0.0
 40
0.0
 40
0.0
 40
0.0
 40
0.0
 40
0.1619130525104611
 40
0.2246345552369483
 40
0.3272042413280755
 40
0.4297041345345617
 40
0.5412902658636096
 40
0.6650063315944886
 40
0.7740839895288111
 40
0.8848788847517559
 40
1.0
 40
1.0
 40
1.0
 40
1.0
 10
475.6850181559327
 20
204.4281191663082
 30
0.0
 10
475.3015239428073
 20
204.4195371309559
 30
0.0
 10
474.7694726309106
 20
204.4076306066547
 30
0.0
 10
474.0392938318134
 20
204.3307863363738
 30
0.0
 10
473.4723989802667
 20
204.2440647268956
 30
0.0
 10
472.8581912528086
 20
204.1009762153945
 30
0.0
 10
472.2598312740817
 20
203.8944470026733
 30
0.0
 10
471.6796389090481
 20
203.5826965465747
 30
0.0
 10
471.1536923512293
 20
203.094165492225
 30
0.0
 10
470.7643043467635
 20
202.4466671123732
 30
0.0
 10
470.7137792679156
 20
201.9379995260967
 30
0.0
 10
470.6880329588655
 20
201.6787953213986
 30
0.0
  0
SPLINE
  5
49
330
1F
100
AcDbEntity
  8
0
  6
Continuous
 62
     7
370
    15
100
AcDbSpline
210
0.0
220
0.0
230
1.0
 70
     8
 71
     3
 72
    17
 73
    13
 74
     0
 42
0.00000001
 43
0.00000001
 12
1.0
 22
0.0
 32
0.0
 13
1.0
 23
0.0
 33
0.0
 40
0.0
 40
0.0
 40
0.0
 40
0.0
 40
0.0022627335633002
 40
0.12665005209046
 40
0.2457795770204412
 40
0.3685559847805715
 40
0.5006976034568493
 40
0.6177032538433163
 40
0.7161711092875116
 40
0.8024349178567983
 40
0.9037049940308054
 40
0.9999999999999999
 40
0.9999999999999999
 40
0.9999999999999999
 40
0.9999999999999999
 10
511.6823343971971
 20
201.6816563443478
 30
0.0
 10
511.6832164520762
 20
201.6866221627406
 30
0.0
 10
511.7325869560597
 20
201.9645696720336
 30
0.0
 10
511.5492636822058
 20
202.5264916403041
 30
0.0
 10
511.1353711701481
 20
203.2083964540346
 30
0.0
 10
510.5270296673711
 20
203.6903844542851
 30
0.0
 10
509.8975429806571
 20
203.9803527004638
 30
0.0
 10
509.2592743217267
 20
204.1669037457242
 30
0.0
 10
508.6501555131987
 20
204.2858246935095
 30
0.0
 10
508.029759523213
 20
204.3665875890463
 30
0.0
 10
507.378865882701
 20
204.4181391004604
 30
0.0
 10
506.9123872665631
 20
204.4247085439446
 30
0.0
 10
506.6850213745836
 20
204.4279105500516
 30
0.0
  0
LINE
  5
4A
330
1F
100
AcDbEntity
  8
0
  6
Continuous
 62
     7
370
    15
100
AcDbLine
 10
506.6850511769
 20
204.4279105501
 30
0.0
 11
475.6850479583
 21
204.4281191663
 31
0.0
  0
LINE
  5
4B
330
1F
100
AcDbEntity
  8
0
  6
Continuous
 62
     7
370
    15
100
AcDbLine
 10
476.7353712062
 20
533.0225429968
 30
0.0
 11
476.7354010085
 21
537.8076411323
 31
0.0
  0
LINE
  5
4C
330
1F
100
AcDbEntity
  8
0
  6
Continuous
 62
     7
370
    15
100
AcDbLine
 10
476.733970497
 20
327.4086541967
 30
0.0
 11
476.733970497
 21
327.8752989606
 31
0.0
  0
LINE
  5
4D
330
1F
100
AcDbEntity
  8
0
  6
Continuous
 62
     7
370
    15
100
AcDbLine
 10
475.6339667777
 20
327.8758950071
 30
0.0
 11
475.6339667777
 21
327.4086541967
 31
0.0
  0
LINE
  5
4E
330
1F
100
AcDbEntity
  8
0
  6
Continuous
 62
     7
370
    15
100
AcDbLine
 10
475.6353972892
 20
537.8082222776
 30
0.0
 11
475.6353674868
 21
531.6030434803
 31
0.0
  0
LINE
  5
4F
330
1F
100
AcDbEntity
  8
0
  6
Continuous
 62
     7
370
    15
100
AcDbLine
 10
484.2339633445
 20
327.408594592
 30
0.0
 11
484.2339782456
 21
327.8752691583
 31
0.0
  0
LINE
  5
50
330
1F
100
AcDbEntity
  8
0
  6
Continuous
 62
     7
370
    15
100
AcDbLine
 10
483.1339745263
 20
327.8758354024
 30
0.0
 11
483.1339745263
 21
327.408594592
 31
0.0
  0
LINE
  5
51
330
1F
100
AcDbEntity
  8
0
  6
Continuous
 62
     7
370
    15
100
AcDbLine
 10
491.7339710931
 20
327.4085349874
 30
0.0
 11
491.7339710931
 21
327.8752095537
 31
0.0
  0
LINE
  5
52
330
1F
100
AcDbEntity
  8
0
  6
Continuous
 62
     7
370
    15
100
AcDbLine
 10
490.6339673737
 20
327.8757757978
 30
0.0
 11
490.6339673737
 21
327.4085647897
 31
0.0
  0
LINE
  5
53
330
1F
100
AcDbEntity
  8
0
  6
Continuous
 62
     7
370
    15
100
AcDbLine
 10
499.2339639405
 20
327.4084753827
 30
0.0
 11
499.2339788417
 21
327.875149949
 31
0.0
  0
LINE
  5
54
330
1F
100
AcDbEntity
  8
0
  6
Continuous
 62
     7
370
    15
100
AcDbLine
 10
498.1339751223
 20
327.8757459955
 30
0.0
 11
498.1339751223
 21
327.4085051851
 31
0.0
  0
LINE
  5
55
330
1F
100
AcDbEntity
  8
0
  6
Continuous
 62
     7
370
    15
100
AcDbLine
 10
506.7339716891
 20
327.4084455804
 30
0.0
 11
506.7339716891
 21
327.8750903444
 31
0.0
  0
LINE
  5
56
330
1F
100
AcDbEntity
  8
0
  6
Continuous
 62
     7
370
    15
100
AcDbLine
 10
505.6339679698
 20
327.8756863908
 30
0.0
 11
505.6339679698
 21
327.4084455804
 31
0.0
  0
LINE
  5
57
330
1F
100
AcDbEntity
  8
0
  6
Continuous
 62
     7
370
    15
100
AcDbLine
 10
505.6353984813
 20
537.8080136613
 30
0.0
 11
505.6353686789
 21
533.0263874964
 31
0.0
  0
LINE
  5
58
330
1F
100
AcDbEntity
  8
0
  6
Continuous
 62
     7
370
    15
100
AcDbLine
 10
472.1284686068
 20
327.8714842634
 30
0.0
 11
475.6339667777
 21
327.871454461
 31
0.0
  0
LINE
  5
59
330
1F
100
AcDbEntity
  8
0
  6
Continuous
 62
     7
370
    15
100
AcDbLine
 10
476.733970497
 20
327.871454461
 30
0.0
 11
483.1339745263
 21
327.8713948564
 31
0.0
  0
LINE
  5
5A
330
1F
100
AcDbEntity
  8
0
  6
Continuous
 62
     7
370
    15
100
AcDbLine
 10
484.2339782456
 20
327.8713948564
 30
0.0
 11
490.6339673737
 21
327.8713650541
 31
0.0
  0
LINE
  5
5B
330
1F
100
AcDbEntity
  8
0
  6
Continuous
 62
     7
370
    15
100
AcDbLine
 10
491.7339710931
 20
327.8713352517
 30
0.0
 11
498.1339751223
 21
327.8713054494
 31
0.0
  0
LINE
  5
5C
330
1F
100
AcDbEntity
  8
0
  6
Continuous
 62
     7
370
    15
100
AcDbLine
 10
499.2339788417
 20
327.8713054494
 30
0.0
 11
505.6339679698
 21
327.8712458448
 31
0.0
  0
LINE
  5
5D
330
1F
100
AcDbEntity
  8
0
  6
Continuous
 62
     7
370
    15
100
AcDbLine
 10
506.7339716891
 20
327.8712458448
 30
0.0
 11
510.2425171474
 21
327.8712160425
 31
0.0
  0
LINE
  5
5E
330
1F
100
AcDbEntity
  8
0
  6
Continuous
 62
     7
370
    15
100
AcDbLine
 10
491.13503382
 20
324.8855299787
 30
0.0
 11
491.2349908093
 21
324.8855299787
 31
0.0
  0
LINE
  5
5F
330
1F
100
AcDbEntity
  8
0
  6
Continuous
 62
     7
370
    15
100
AcDbLine
 10
491.13503382
 20
325.0759072141
 30
0.0
 11
491.2349908093
 21
325.0759072141
 31
0.0
  0
LINE
  5
60
330
1F
100
AcDbEntity
  8
0
  6
Continuous
 62
     7
370
    15
100
AcDbLine
 10
491.13503382
 20
324.1239912347
 30
0.0
 11
491.2349908093
 21
324.1239912347
 31
0.0
  0
LINE
  5
61
330
1F
100
AcDbEntity
  8
0
  6
Continuous
 62
     7
370
    15
100
AcDbLine
 10
491.13503382
 20
325.4566616849
 30
0.0
 11
491.2349908093
 21
325.4566616849
 31
0.0
  0
LINE
  5
62
330
1F
100
AcDbEntity
  8
0
  6
Continuous
 62
     7
370
    15
100
AcDbLine
 10
491.2350057105
 20
326.5566654043
 30
0.0
 11
491.13503382
 21
326.5566654043
 31
0.0
  0
LINE
  5
63
330
1F
100
AcDbEntity
  8
0
  6
Continuous
 62
     7
370
    15
100
AcDbLine
 10
491.1350040177
 20
322.7913505868
 30
0.0
 11
491.2349908093
 21
322.7913505868
 31
0.0
  0
LINE
  5
64
330
1F
100
AcDbEntity
  8
0
  6
Continuous
 62
     7
370
    15
100
AcDbLine
 10
491.1350189189
 20
323.1721050577
 30
0.0
 11
491.2349908093
 21
323.1721050577
 31
0.0
  0
LINE
  5
65
330
1F
100
AcDbEntity
  8
0
  6
Continuous
 62
     7
370
    15
100
AcDbLine
 10
491.1350040177
 20
322.9817278222
 30
0.0
 11
491.2349908093
 21
322.9817278222
 31
0.0
  0
LINE
  5
66
330
1F
100
AcDbEntity
  8
0
  6
Continuous
 62
     7
370
    15
100
AcDbLine
 10
491.13503382
 20
324.5047457055
 30
0.0
 11
491.2349908093
 21
324.5047457055
 31
0.0
  0
LINE
  5
67
330
1F
100
AcDbEntity
  8
0
  6
Continuous
 62
     7
370
    15
100
AcDbLine
 10
491.13503382
 20
325.2662844495
 30
0.0
 11
491.2349908093
 21
325.2662844495
 31
0.0
  0
LINE
  5
68
330
1F
100
AcDbEntity
  8
0
  6
Continuous
 62
     7
370
    15
100
AcDbLine
 10
491.1350189189
 20
323.5528595285
 30
0.0
 11
491.2349908093
 21
323.5528595285
 31
0.0
  0
LINE
  5
69
330
1F
100
AcDbEntity
  8
0
  6
Continuous
 62
     7
370
    15
100
AcDbLine
 10
491.1350189189
 20
323.3624822931
 30
0.0
 11
491.2349908093
 21
323.3624822931
 31
0.0
  0
LINE
  5
6A
330
1F
100
AcDbEntity
  8
0
  6
Continuous
 62
     7
370
    15
100
AcDbLine
 10
491.1339758376
 20
322.6009733514
 30
0.0
 11
491.2339328269
 21
322.6009733514
 31
0.0
  0
LINE
  5
6B
330
1F
100
AcDbEntity
  8
0
  6
Continuous
 62
     7
370
    15
100
AcDbLine
 10
491.1350189189
 20
323.7432367639
 30
0.0
 11
491.2349908093
 21
323.7432367639
 31
0.0
  0
LINE
  5
6C
330
1F
100
AcDbEntity
  8
0
  6
Continuous
 62
     7
370
    15
100
AcDbLine
 10
491.13503382
 20
324.3143684701
 30
0.0
 11
491.2349908093
 21
324.3143684701
 31
0.0
  0
LINE
  5
6D
330
1F
100
AcDbEntity
  8
0
  6
Continuous
 62
     7
370
    15
100
AcDbLine
 10
491.13503382
 20
324.6951527433
 30
0.0
 11
491.2349908093
 21
324.695122941
 31
0.0
  0
LINE
  5
6E
330
1F
100
AcDbEntity
  8
0
  6
Continuous
 62
     7
370
    15
100
AcDbLine
 10
491.1350189189
 20
323.9336139993
 30
0.0
 11
491.2349908093
 21
323.9336139993
 31
0.0
  0
LINE
  5
6F
330
1F
100
AcDbEntity
  8
0
  6
Continuous
 62
     7
370
    15
100
AcDbLine
 10
483.1849513987
 20
204.428089364
 30
0.0
 11
483.1854729394
 21
316.5400452451
 31
0.0
  0
LINE
  5
70
330
1F
100
AcDbEntity
  8
0
  6
Continuous
 62
     7
370
    15
100
AcDbLine
 10
477.3854790667
 20
316.5400750474
 30
0.0
 11
477.3849575261
 21
204.4281191663
 31
0.0
  0
ARC
  5
71
330
1F
100
AcDbEntity
  8
0
  6
Continuous
 62
     7
370
    15
100
AcDbCircle
 10
480.2854597406
 20
321.0423837612
 30
0.0
 40
2.900000000000024
100
AcDbArc
 50
359.9993448887
 51
179.9993448946
  0
LWPOLYLINE
  5
72
330
1F
100
AcDbEntity
  8
0
  6
Continuous
 62
     7
370
    15
100
AcDbPolyline
 90
        9
 70
   128
 43
0.0
 10
477.3854641656
 20
321.0424012975
 10
477.3854641656
 20
320.961100562
 10
477.3854790667
 20
320.7193739251
 10
477.3854790667
 20
320.3238077001
 10
477.3854790667
 20
319.7850711183
 10
477.3854790667
 20
319.1178269224
 10
477.3854790667
 20
318.3401353196
 10
477.3854790667
 20
317.4730367498
 10
477.3854790667
 20
316.5400750474
  0
LWPOLYLINE
  5
73
330
1F
100
AcDbEntity
  8
0
  6
Continuous
 62
     7
370
    15
100
AcDbPolyline
 90
        9
 70
   128
 43
0.0
 10
483.1854729394
 20
316.5400452451
 10
483.1854878405
 20
317.4730069475
 10
483.1854878405
 20
318.340075715
 10
483.1854878405
 20
319.11779712
 10
483.1854878405
 20
319.785041316
 10
483.1854729394
 20
320.3237480954
 10
483.1854729394
 20
320.7193441228
 10
483.1854729394
 20
320.9610707597
 10
483.1854580382
 20
321.0423714952
  0
LINE
  5
74
330
1F
100
AcDbEntity
  8
0
  6
Continuous
 62
     7
370
    15
100
AcDbLine
 10
477.3854641656
 20
321.0415072278
 30
0.0
 11
477.3838995436
 21
316.7262203531
 31
0.0
  0
LINE
  5
75
330
1F
100
AcDbEntity
  8
0
  6
Continuous
 62
     7
370
    15
100
AcDbLine
 10
504.984947894
 20
204.4279403524
 30
0.0
 11
504.9854843358
 21
316.5398962335
 31
0.0
  0
LINE
  5
76
330
1F
100
AcDbEntity
  8
0
  6
Continuous
 62
     7
370
    15
100
AcDbLine
 10
499.185475562
 20
316.5399260358
 30
0.0
 11
499.1849540213
 21
204.4279701547
 31
0.0
  0
ARC
  5
77
330
1F
100
AcDbEntity
  8
0
  6
Continuous
 62
     7
370
    15
100
AcDbCircle
 10
502.0854597392
 20
321.0422302676
 30
0.0
 40
2.90000000000002
100
AcDbArc
 50
359.9993448887
 51
179.9993448946
  0
LWPOLYLINE
  5
78
330
1F
100
AcDbEntity
  8
0
  6
Continuous
 62
     7
370
    15
100
AcDbPolyline
 90
        9
 70
   128
 43
0.0
 10
499.1854606608
 20
321.0422522859
 10
499.1854606608
 20
320.9609515504
 10
499.185475562
 20
320.7192249135
 10
499.185475562
 20
320.3236586885
 10
499.1854904631
 20
319.7849221067
 10
499.1854904631
 20
319.1176779107
 10
499.1854904631
 20
318.3399565057
 10
499.1854904631
 20
317.4728877382
 10
499.185475562
 20
316.5399260358
  0
LWPOLYLINE
  5
79
330
1F
100
AcDbEntity
  8
0
  6
Continuous
 62
     7
370
    15
100
AcDbPolyline
 90
        9
 70
   128
 43
0.0
 10
504.9854843358
 20
316.5398962335
 10
504.9854843358
 20
317.4728281335
 10
504.9854843358
 20
318.3399267034
 10
504.9854843358
 20
319.1176481084
 10
504.9854843358
 20
319.7848923044
 10
504.9854843358
 20
320.3235990838
 10
504.9854694346
 20
320.7191951112
 10
504.9854694346
 20
320.9608919458
 10
504.9854545335
 20
321.0422224836
  0
LINE
  5
7A
330
1F
100
AcDbEntity
  8
0
  6
Continuous
 62
     7
370
    15
100
AcDbLine
 10
499.1854606608
 20
321.0413582162
 30
0.0
 11
499.1838960389
 21
316.7260713414
 31
0.0
  0
LINE
  5
7B
330
1F
100
AcDbEntity
  8
0
  6
Continuous
 62
     7
370
    15
100
AcDbLine
 10
471.1854337195
 20
319.6844584779
 30
0.0
 11
477.3849724272
 21
319.6843988733
 31
0.0
  0
LINE
  5
7C
330
1F
100
AcDbEntity
  8
0
  6
Continuous
 62
     7
370
    15
100
AcDbLine
 10
483.1854878405
 20
319.6843690709
 30
0.0
 11
491.1339311341
 21
319.6843094663
 31
0.0
  0
LINE
  5
7D
330
1F
100
AcDbEntity
  8
0
  6
Continuous
 62
     7
370
    15
100
AcDbLine
 10
491.2339328269
 20
319.6843094663
 30
0.0
 11
499.1849689225
 21
319.6842498617
 31
0.0
  0
LINE
  5
7E
330
1F
100
AcDbEntity
  8
0
  6
Continuous
 62
     7
370
    15
100
AcDbLine
 10
504.9854843358
 20
319.6842200593
 30
0.0
 11
511.1854328254
 21
319.6841604547
 31
0.0
  0
LINE
  5
7F
330
1F
100
AcDbEntity
  8
0
  6
Continuous
 62
     7
370
    15
100
AcDbLine
 10
491.13503382
 20
327.4085349874
 30
0.0
 11
471.7281638125
 21
327.408683999
 31
0.0
  0
LINE
  5
80
330
1F
100
AcDbEntity
  8
0
  6
Continuous
 62
     7
370
    15
100
AcDbLine
 10
471.1854635218
 20
322.6086921529
 30
0.0
 11
477.8447924594
 21
322.6086325483
 31
0.0
  0
LINE
  5
81
330
1F
100
AcDbEntity
  8
0
  6
Continuous
 62
     7
370
    15
100
AcDbLine
 10
482.7261446456
 20
322.6086027459
 30
0.0
 11
491.1349891165
 21
322.6085431413
 31
0.0
  0
LINE
  5
82
330
1F
100
AcDbEntity
  8
0
  6
Continuous
 62
     7
370
    15
100
AcDbLine
 10
491.2349908093
 20
322.6085431413
 30
0.0
 11
499.6447889546
 21
322.6084835367
 31
0.0
  0
LINE
  5
83
330
1F
100
AcDbEntity
  8
0
  6
Continuous
 62
     7
370
    15
100
AcDbLine
 10
504.5261411408
 20
322.6084537343
 30
0.0
 11
511.1854477266
 21
322.6083941297
 31
0.0
  0
LINE
  5
84
330
1F
100
AcDbEntity
  8
0
  6
Continuous
 62
     7
370
    15
100
AcDbLine
 10
510.6428070406
 20
327.4084157781
 30
0.0
 11
491.2350355128
 21
327.4085349874
 31
0.0
  0
LINE
  5
85
330
1F
100
AcDbEntity
  8
0
  6
Continuous
 62
     7
370
    15
100
AcDbLine
 10
511.1853583196
 20
309.701693757
 30
0.0
 11
506.7338077763
 21
309.7017235593
 31
0.0
  0
LINE
  5
86
330
1F
100
AcDbEntity
  8
0
  6
Continuous
 62
     7
370
    15
100
AcDbLine
 10
505.6338189582
 20
309.7017235593
 30
0.0
 11
504.9854545335
 21
309.7017235593
 31
0.0
  0
LINE
  5
87
330
1F
100
AcDbEntity
  8
0
  6
Continuous
 62
     7
370
    15
100
AcDbLine
 10
498.1338112096
 20
309.701783164
 30
0.0
 11
491.7338071803
 21
309.7018427686
 31
0.0
  0
LINE
  5
88
330
1F
100
AcDbEntity
  8
0
  6
Continuous
 62
     7
370
    15
100
AcDbLine
 10
490.6338183621
 20
309.7018427686
 30
0.0
 11
484.2338143328
 21
309.7018725709
 31
0.0
  0
LINE
  5
89
330
1F
100
AcDbEntity
  8
0
  6
Continuous
 62
     7
370
    15
100
AcDbLine
 10
477.3854492644
 20
309.7019321756
 30
0.0
 11
476.7338065842
 21
309.7019321756
 31
0.0
  0
LINE
  5
8A
330
1F
100
AcDbEntity
  8
0
  6
Continuous
 62
     7
370
    15
100
AcDbLine
 10
475.6338177661
 20
309.7019321756
 30
0.0
 11
471.1853741149
 21
309.7019619779
 31
0.0
  0
LINE
  5
8B
330
1F
100
AcDbEntity
  8
0
  6
Continuous
 62
     7
370
    15
100
AcDbLine
 10
471.1853294114
 20
304.9019701318
 30
0.0
 11
477.3854194621
 21
304.9019403295
 31
0.0
  0
LINE
  5
8C
330
1F
100
AcDbEntity
  8
0
  6
Continuous
 62
     7
370
    15
100
AcDbLine
 10
483.1854282359
 20
304.9018807248
 30
0.0
 11
499.1854308585
 21
304.9017913179
 31
0.0
  0
LINE
  5
8D
330
1F
100
AcDbEntity
  8
0
  6
Continuous
 62
     7
370
    15
100
AcDbLine
 10
504.9854247311
 20
304.9017317132
 30
0.0
 11
511.1853285173
 21
304.9017019109
 31
0.0
  0
LINE
  5
8E
330
1F
100
AcDbEntity
  8
0
  6
Continuous
 62
     7
370
    15
100
AcDbLine
 10
475.6338028649
 20
308.2765467004
 30
0.0
 11
475.6338028649
 21
307.0769138173
 31
0.0
  0
LINE
  5
8F
330
1F
100
AcDbEntity
  8
0
  6
Continuous
 62
     7
370
    15
100
AcDbLine
 10
476.7337916831
 20
307.0769138173
 30
0.0
 11
476.7338065842
 21
308.2765168981
 31
0.0
  0
LINE
  5
90
330
1F
100
AcDbEntity
  8
0
  6
Continuous
 62
     7
370
    15
100
AcDbLine
 10
484.2337994317
 20
307.0768542127
 30
0.0
 11
484.2337994317
 21
308.2764870958
 31
0.0
  0
LINE
  5
91
330
1F
100
AcDbEntity
  8
0
  6
Continuous
 62
     7
370
    15
100
AcDbLine
 10
490.633803461
 20
308.2764274911
 30
0.0
 11
490.6337885598
 21
307.0768244104
 31
0.0
  0
LINE
  5
92
330
1F
100
AcDbEntity
  8
0
  6
Continuous
 62
     7
370
    15
100
AcDbLine
 10
491.7337922791
 20
307.0768244104
 30
0.0
 11
491.7338071803
 21
308.2764274911
 31
0.0
  0
LINE
  5
93
330
1F
100
AcDbEntity
  8
0
  6
Continuous
 62
     7
370
    15
100
AcDbLine
 10
498.1337963084
 20
308.2763678865
 30
0.0
 11
498.1337963084
 21
307.0767648057
 31
0.0
  0
LINE
  5
94
330
1F
100
AcDbEntity
  8
0
  6
Continuous
 62
     7
370
    15
100
AcDbLine
 10
505.633804057
 20
308.2763380842
 30
0.0
 11
505.6337891558
 21
307.0767052011
 31
0.0
  0
LINE
  5
95
330
1F
100
AcDbEntity
  8
0
  6
Continuous
 62
     7
370
    15
100
AcDbLine
 10
506.7337928752
 20
307.0767052011
 30
0.0
 11
506.7338077763
 21
308.2763082818
 31
0.0
  0
LINE
  5
96
330
1F
100
AcDbEntity
  8
0
  6
Continuous
 62
     7
370
    15
100
AcDbLine
 10
475.6339816788
 20
309.3763716058
 30
0.0
 11
471.1853592137
 21
309.3764014081
 31
0.0
  0
LINE
  5
97
330
1F
100
AcDbEntity
  8
0
  6
Continuous
 62
     7
370
    15
100
AcDbLine
 10
471.1853592137
 20
308.2763976888
 30
0.0
 11
475.6338028649
 21
308.2763678865
 31
0.0
  0
LINE
  5
98
330
1F
100
AcDbEntity
  8
0
  6
Continuous
 62
     7
370
    15
100
AcDbLine
 10
477.3854492644
 20
309.3763418035
 30
0.0
 11
476.7336277703
 21
309.3763418035
 31
0.0
  0
LINE
  5
99
330
1F
100
AcDbEntity
  8
0
  6
Continuous
 62
     7
370
    15
100
AcDbLine
 10
476.7338065842
 20
308.2763380842
 30
0.0
 11
477.3854343632
 21
308.2763380842
 31
0.0
  0
LINE
  5
9A
330
1F
100
AcDbEntity
  8
0
  6
Continuous
 62
     7
370
    15
100
AcDbLine
 10
490.6339822749
 20
309.3762523965
 30
0.0
 11
484.2336355189
 21
309.3763120012
 31
0.0
  0
LINE
  5
9B
330
1F
100
AcDbEntity
  8
0
  6
Continuous
 62
     7
370
    15
100
AcDbLine
 10
484.2337994317
 20
308.2763082818
 30
0.0
 11
490.633803461
 21
308.2762486772
 31
0.0
  0
LINE
  5
9C
330
1F
100
AcDbEntity
  8
0
  6
Continuous
 62
     7
370
    15
100
AcDbLine
 10
498.1339900235
 20
309.3761927919
 30
0.0
 11
491.7336283664
 21
309.3762523965
 31
0.0
  0
LINE
  5
9D
330
1F
100
AcDbEntity
  8
0
  6
Continuous
 62
     7
370
    15
100
AcDbLine
 10
491.7338071803
 20
308.2762486772
 30
0.0
 11
498.1337963084
 21
308.2761890725
 31
0.0
  0
LINE
  5
9E
330
1F
100
AcDbEntity
  8
0
  6
Continuous
 62
     7
370
    15
100
AcDbLine
 10
505.6339828709
 20
309.3761629896
 30
0.0
 11
504.9854396323
 21
309.3761629896
 31
0.0
  0
LINE
  5
9F
330
1F
100
AcDbEntity
  8
0
  6
Continuous
 62
     7
370
    15
100
AcDbLine
 10
504.9854396323
 20
308.2761592702
 30
0.0
 11
505.633804057
 21
308.2761592702
 31
0.0
  0
LINE
  5
A0
330
1F
100
AcDbEntity
  8
0
  6
Continuous
 62
     7
370
    15
100
AcDbLine
 10
511.1853583196
 20
309.3761033849
 30
0.0
 11
506.7336289624
 21
309.3761331872
 31
0.0
  0
LINE
  5
A1
330
1F
100
AcDbEntity
  8
0
  6
Continuous
 62
     7
370
    15
100
AcDbLine
 10
506.7338077763
 20
308.2761294679
 30
0.0
 11
511.1853508691
 21
308.2760996656
 31
0.0
  0
LINE
  5
A2
330
1F
100
AcDbEntity
  8
0
  6
Continuous
 62
     7
370
    15
100
AcDbLine
 10
475.6338475684
 20
315.7741255597
 30
0.0
 11
475.6338177661
 21
309.3763716058
 31
0.0
  0
LINE
  5
A3
330
1F
100
AcDbEntity
  8
0
  6
Continuous
 62
     7
370
    15
100
AcDbLine
 10
476.7338065842
 20
309.3763418035
 30
0.0
 11
476.7338512877
 21
315.7741255597
 31
0.0
  0
LINE
  5
A4
330
1F
100
AcDbEntity
  8
0
  6
Continuous
 62
     7
370
    15
100
AcDbLine
 10
484.2338143328
 20
309.3763120012
 30
0.0
 11
484.2338590363
 21
315.7740659551
 31
0.0
  0
LINE
  5
A5
330
1F
100
AcDbEntity
  8
0
  6
Continuous
 62
     7
370
    15
100
AcDbLine
 10
490.6338481644
 20
315.7740063505
 30
0.0
 11
490.6338183621
 21
309.3762523965
 31
0.0
  0
LINE
  5
A6
330
1F
100
AcDbEntity
  8
0
  6
Continuous
 62
     7
370
    15
100
AcDbLine
 10
491.7338071803
 20
309.3762523965
 30
0.0
 11
491.7338518838
 21
315.7740063505
 31
0.0
  0
LINE
  5
A7
330
1F
100
AcDbEntity
  8
0
  6
Continuous
 62
     7
370
    15
100
AcDbLine
 10
498.133855913
 20
315.7739765481
 30
0.0
 11
498.1338112096
 21
309.3761927919
 31
0.0
  0
LINE
  5
A8
330
1F
100
AcDbEntity
  8
0
  6
Continuous
 62
     7
370
    15
100
AcDbLine
 10
505.6338487605
 20
315.7739169435
 30
0.0
 11
505.633804057
 21
309.3761629896
 31
0.0
  0
LINE
  5
A9
330
1F
100
AcDbEntity
  8
0
  6
Continuous
 62
     7
370
    15
100
AcDbLine
 10
506.7338077763
 20
309.3761331872
 30
0.0
 11
506.7338524798
 21
315.7738871412
 31
0.0
  0
LINE
  5
AA
330
1F
100
AcDbEntity
  8
0
  6
Continuous
 62
     7
370
    15
100
AcDbLine
 10
475.6340412835
 20
316.8739504651
 30
0.0
 11
471.1854188184
 21
316.8739802675
 31
0.0
  0
LINE
  5
AB
330
1F
100
AcDbEntity
  8
0
  6
Continuous
 62
     7
370
    15
100
AcDbLine
 10
471.1854039172
 20
315.7739765481
 30
0.0
 11
475.6338475684
 21
315.7739467458
 31
0.0
  0
LINE
  5
AC
330
1F
100
AcDbEntity
  8
0
  6
Continuous
 62
     7
370
    15
100
AcDbLine
 10
477.3839442471
 20
316.8739206628
 30
0.0
 11
476.7336873749
 21
316.8739206628
 31
0.0
  0
LINE
  5
AD
330
1F
100
AcDbEntity
  8
0
  6
Continuous
 62
     7
370
    15
100
AcDbLine
 10
476.7338512877
 20
315.7739467458
 30
0.0
 11
477.3854790667
 21
315.7739169435
 31
0.0
  0
LINE
  5
AE
330
1F
100
AcDbEntity
  8
0
  6
Continuous
 62
     7
370
    15
100
AcDbLine
 10
490.6340418795
 20
316.8738312558
 30
0.0
 11
484.2336802224
 21
316.8738908605
 31
0.0
  0
LINE
  5
AF
330
1F
100
AcDbEntity
  8
0
  6
Continuous
 62
     7
370
    15
100
AcDbLine
 10
484.2338590363
 20
315.7738871412
 30
0.0
 11
490.6338481644
 21
315.7738275365
 31
0.0
  0
LINE
  5
B0
330
1F
100
AcDbEntity
  8
0
  6
Continuous
 62
     7
370
    15
100
AcDbLine
 10
498.134034727
 20
316.8737716512
 30
0.0
 11
491.733687971
 21
316.8738312558
 31
0.0
  0
LINE
  5
B1
330
1F
100
AcDbEntity
  8
0
  6
Continuous
 62
     7
370
    15
100
AcDbLine
 10
491.7338518838
 20
315.7738275365
 30
0.0
 11
498.133855913
 21
315.7737977342
 31
0.0
  0
LINE
  5
B2
330
1F
100
AcDbEntity
  8
0
  6
Continuous
 62
     7
370
    15
100
AcDbLine
 10
505.6340424756
 20
316.8737418489
 30
0.0
 11
504.9854843358
 21
316.8737418489
 31
0.0
  0
LINE
  5
B3
330
1F
100
AcDbEntity
  8
0
  6
Continuous
 62
     7
370
    15
100
AcDbLine
 10
504.9854694346
 20
315.7737381295
 30
0.0
 11
505.6338487605
 21
315.7737381295
 31
0.0
  0
LINE
  5
B4
330
1F
100
AcDbEntity
  8
0
  6
Continuous
 62
     7
370
    15
100
AcDbLine
 10
511.1854104737
 20
316.8736822442
 30
0.0
 11
506.733688567
 21
316.8737120466
 31
0.0
  0
LINE
  5
B5
330
1F
100
AcDbEntity
  8
0
  6
Continuous
 62
     7
370
    15
100
AcDbLine
 10
506.7338524798
 20
315.7737381295
 30
0.0
 11
511.1854030231
 21
315.7736785249
 31
0.0
  0
LINE
  5
B6
330
1F
100
AcDbEntity
  8
0
  6
Continuous
 62
     7
370
    15
100
AcDbLine
 10
475.6338773707
 20
319.6844286756
 30
0.0
 11
475.6338624696
 21
316.8739504651
 31
0.0
  0
LINE
  5
B7
330
1F
100
AcDbEntity
  8
0
  6
Continuous
 62
     7
370
    15
100
AcDbLine
 10
476.7338661889
 20
316.8739206628
 30
0.0
 11
476.73388109
 21
319.6844286756
 31
0.0
  0
LINE
  5
B8
330
1F
100
AcDbEntity
  8
0
  6
Continuous
 62
     7
370
    15
100
AcDbLine
 10
484.2338590363
 20
316.8738908605
 30
0.0
 11
484.2338888386
 21
319.6843690709
 31
0.0
  0
LINE
  5
B9
330
1F
100
AcDbEntity
  8
0
  6
Continuous
 62
     7
370
    15
100
AcDbLine
 10
490.6338779668
 20
319.6843094663
 30
0.0
 11
490.6338630656
 21
316.8738312558
 31
0.0
  0
LINE
  5
BA
330
1F
100
AcDbEntity
  8
0
  6
Continuous
 62
     7
370
    15
100
AcDbLine
 10
491.7338667849
 20
316.8738312558
 30
0.0
 11
491.7338816861
 21
319.6843094663
 31
0.0
  0
LINE
  5
BB
330
1F
100
AcDbEntity
  8
0
  6
Continuous
 62
     7
370
    15
100
AcDbLine
 10
498.1338857154
 20
319.684279664
 30
0.0
 11
498.133855913
 21
316.8737716512
 31
0.0
  0
LINE
  5
BC
330
1F
100
AcDbEntity
  8
0
  6
Continuous
 62
     7
370
    15
100
AcDbLine
 10
505.6338785628
 20
319.6842200593
 30
0.0
 11
505.6338636616
 21
316.8737418489
 31
0.0
  0
LINE
  5
BD
330
1F
100
AcDbEntity
  8
0
  6
Continuous
 62
     7
370
    15
100
AcDbLine
 10
506.733867381
 20
316.8737120466
 30
0.0
 11
506.7338822821
 21
319.6842200593
 31
0.0
  0
LINE
  5
BE
330
1F
100
AcDbEntity
  8
0
  6
Continuous
 62
     7
370
    15
100
AcDbLine
 10
475.6339369754
 20
327.871454461
 30
0.0
 11
475.6339369754
 21
327.4086541967
 31
0.0
  0
LINE
  5
BF
330
1F
100
AcDbEntity
  8
0
  6
Continuous
 62
     7
370
    15
100
AcDbLine
 10
483.1339298228
 20
327.8713948564
 30
0.0
 11
483.1339298228
 21
327.408594592
 31
0.0
  0
LINE
  5
C0
330
1F
100
AcDbEntity
  8
0
  6
Continuous
 62
     7
370
    15
100
AcDbLine
 10
490.6339375714
 20
327.8713650541
 30
0.0
 11
490.6339375714
 21
327.4085647897
 31
0.0
  0
LINE
  5
C1
330
1F
100
AcDbEntity
  8
0
  6
Continuous
 62
     7
370
    15
100
AcDbLine
 10
498.1339304188
 20
327.8713054494
 30
0.0
 11
498.1339304188
 21
327.4085051851
 31
0.0
  0
LINE
  5
C2
330
1F
100
AcDbEntity
  8
0
  6
Continuous
 62
     7
370
    15
100
AcDbLine
 10
505.6339381675
 20
327.8712458448
 30
0.0
 11
505.6339381675
 21
327.4084455804
 31
0.0
  0
LINE
  5
C3
330
1F
100
AcDbEntity
  8
0
  6
Continuous
 62
     7
370
    15
100
AcDbLine
 10
291.183951352
 20
111.993087037
 30
0.0
 11
291.1832957009
 21
111.993087037
 31
0.0
  0
LINE
  5
C4
330
1F
100
AcDbEntity
  8
0
  6
Continuous
 62
     7
370
    15
100
AcDbLine
 10
291.1817459801
 20
54.1572697
 30
0.0
 11
470.6842182616
 21
54.1632897691
 31
0.0
  0
LINE
  5
C5
330
1F
100
AcDbEntity
  8
0
  6
Continuous
 62
     7
370
    15
100
AcDbLine
 10
511.6843088011
 20
54.1646606759
 30
0.0
 11
691.1817519406
 21
54.1706211404
 31
0.0
  0
ARC
  5
C6
330
1F
100
AcDbEntity
  8
0
  6
Continuous
 62
     7
370
    15
100
AcDbCircle
 10
509.1835362363
 20
303.6874982505
 30
0.0
 40
1.000000000000061
100
AcDbArc
 50
89.9995965809
 51
179.9995965809
  0
LINE
  5
C7
330
1F
100
AcDbEntity
  8
0
  6
Continuous
 62
     7
370
    15
100
AcDbLine
 10
508.1835342983
 20
303.6874956922
 30
0.0
 11
508.183504496
 21
299.6875173883
 31
0.0
  0
LINE
  5
C8
330
1F
100
AcDbEntity
  8
0
  6
Continuous
 62
     7
370
    15
100
AcDbLine
 10
291.1834745148
 20
54.1890389756
 30
0.0
 11
470.6842182616
 21
54.1877872781
 31
0.0
  0
LINE
  5
C9
330
1F
100
AcDbEntity
  8
0
  6
Continuous
 62
     7
370
    15
100
AcDbLine
 10
511.6843088011
 20
54.1874892549
 30
0.0
 11
691.1834581236
 21
54.1862375573
 31
0.0
  0
LINE
  5
CA
330
1F
100
AcDbEntity
  8
0
  6
Continuous
 62
     7
370
    15
100
AcDbLine
 10
681.189726148
 20
907.18628238
 30
0.0
 11
681.1898118297
 21
907.18628238
 31
0.0
  0
LINE
  5
CB
330
1F
100
AcDbEntity
  8
0
  6
Continuous
 62
     7
370
    15
100
AcDbLine
 10
681.1899645666
 20
926.1862761812
 30
0.0
 11
681.1898788849
 21
926.1862761812
 31
0.0
  0
LINE
  5
CC
330
1F
100
AcDbEntity
  8
0
  6
Continuous
 62
     7
370
    15
100
AcDbLine
 10
301.1897234658
 20
907.1889645891
 30
0.0
 11
301.1898128728
 21
907.1889645891
 31
0.0
  0
LINE
  5
CD
330
1F
100
AcDbEntity
  8
0
  6
Continuous
 62
     7
370
    15
100
AcDbLine
 10
301.1899618844
 20
926.1889583902
 30
0.0
 11
301.1898724774
 21
926.1889583902
 31
0.0
  0
LINE
  5
CE
330
1F
100
AcDbEntity
  8
0
  6
Continuous
 62
     7
370
    15
100
AcDbLine
 10
641.1887398402
 20
811.6865731315
 30
0.0
 11
641.1887305269
 21
811.6865731315
 31
0.0
  0
LWPOLYLINE
  5
CF
330
1F
100
AcDbEntity
  8
0
  6
Continuous
 62
     7
370
    15
100
AcDbPolyline
 90
        9
 70
   128
 43
0.0
 10
337.1870546082
 20
801.6887135343
 10
337.1870546082
 20
801.4965630607
 10
337.1870844105
 20
800.9275026159
 10
337.1870844105
 20
800.0034071044
 10
337.1870844105
 20
798.7597710923
 10
337.1870844105
 20
797.2444124059
 10
337.1870844105
 20
795.5155498819
 10
337.1870844105
 20
793.6396128969
 10
337.1870546082
 20
791.6887081699
  0
LWPOLYLINE
  5
D0
330
1F
100
AcDbEntity
  8
0
  6
Continuous
 62
     7
370
    15
100
AcDbPolyline
 90
        9
 70
   128
 43
0.0
 10
345.1910643319
 20
791.6886485652
 10
345.1910643319
 20
793.6395532922
 10
345.1910941342
 20
795.5154902772
 10
345.1910941342
 20
797.2443528013
 10
345.1910941342
 20
798.7597263889
 10
345.1910941342
 20
800.0033474998
 10
345.1910643319
 20
800.9274430112
 10
345.1910643319
 20
801.496503456
 10
345.1910345296
 20
801.6886539296
  0
LINE
  5
D1
330
1F
100
AcDbEntity
  8
0
  6
Continuous
 62
     7
370
    15
100
AcDbLine
 10
337.1870546082
 20
791.6887081699
 30
0.0
 11
337.1869353989
 21
774.6887035207
 31
0.0
  0
LINE
  5
D2
330
1F
100
AcDbEntity
  8
0
  6
Continuous
 62
     7
370
    15
100
AcDbLine
 10
345.1909451226
 20
774.6886588172
 30
0.0
 11
345.1910643319
 21
791.6886485652
 31
0.0
  0
ARC
  5
D3
330
1F
100
AcDbEntity
  8
0
  6
Continuous
 62
     7
370
    15
100
AcDbCircle
 10
351.1889470712
 20
774.6886106988
 30
0.0
 40
5.998000000162408
100
AcDbArc
 50
179.9993448916
 51
269.9995965809
  0
ARC
  5
D4
330
1F
100
AcDbEntity
  8
0
  6
Continuous
 62
     7
370
    15
100
AcDbCircle
 10
351.1889470718
 20
774.6886106988
 30
0.0
 40
14.00199999983763
100
AcDbArc
 50
179.9993448916
 51
269.9995965809
  0
LINE
  5
D5
330
1F
100
AcDbEntity
  8
0
  6
Continuous
 62
     7
370
    15
100
AcDbLine
 10
351.1888413171
 20
760.6866038875
 30
0.0
 11
631.1888484463
 21
760.6846369342
 31
0.0
  0
LINE
  5
D6
330
1F
100
AcDbEntity
  8
0
  6
Continuous
 62
     7
370
    15
100
AcDbLine
 10
631.1889048496
 20
768.6886466579
 30
0.0
 11
351.1889009217
 21
768.6906136112
 31
0.0
  0
ARC
  5
D7
330
1F
100
AcDbEntity
  8
0
  6
Continuous
 62
     7
370
    15
100
AcDbCircle
 10
631.1889470529
 20
774.6866392212
 30
0.0
 40
5.998000000162481
100
AcDbArc
 50
269.9995965809
 51
359.9993448916
  0
ARC
  5
D8
330
1F
100
AcDbEntity
  8
0
  6
Continuous
 62
     7
370
    15
100
AcDbCircle
 10
631.1889470535
 20
774.6866392212
 30
0.0
 40
14.0019999998376
100
AcDbArc
 50
269.9995965809
 51
359.9993448916
  0
LWPOLYLINE
  5
D9
330
1F
100
AcDbEntity
  8
0
  6
Continuous
 62
     7
370
    15
100
AcDbPolyline
 90
        9
 70
   128
 43
0.0
 10
645.1910669396
 20
791.6865475015
 10
645.1910790468
 20
793.6374373273
 10
645.1910864974
 20
795.5133743123
 10
645.1910902227
 20
797.2422368364
 10
645.1910902227
 20
798.757610424
 10
645.191085566
 20
800.0012315349
 10
645.1910762528
 20
800.9253419475
 10
645.1910632143
 20
801.4943874912
 10
645.1910473818
 20
801.6865379648
  0
LWPOLYLINE
  5
DA
330
1F
100
AcDbEntity
  8
0
  6
Continuous
 62
     7
370
    15
100
AcDbPolyline
 90
        9
 70
   128
 43
0.0
 10
637.1870469714
 20
801.6865975694
 10
637.1870632695
 20
801.4944470958
 10
637.187076308
 20
800.925386651
 10
637.1870851556
 20
800.0012911395
 10
637.1870902779
 20
798.7576700286
 10
637.1870907435
 20
797.242296441
 10
637.1870870183
 20
795.513433917
 10
637.1870786363
 20
793.637496932
 10
637.1870665292
 20
791.686592205
  0
LINE
  5
DB
330
1F
100
AcDbEntity
  8
0
  6
Continuous
 62
     7
370
    15
100
AcDbLine
 10
645.190946799
 20
774.6865428523
 30
0.0
 11
645.1910669396
 21
791.6865475015
 31
0.0
  0
LINE
  5
DC
330
1F
100
AcDbEntity
  8
0
  6
Continuous
 62
     7
370
    15
100
AcDbLine
 10
637.1870665292
 20
791.686592205
 30
0.0
 11
637.1869468542
 21
774.686602457
 31
0.0
  0
LINE
  5
DD
330
1F
100
AcDbEntity
  8
0
  6
Continuous
 62
     7
370
    15
100
AcDbLine
 10
341.1890892724
 20
805.6906736926
 30
0.0
 11
341.1887614468
 21
805.6906736926
 31
0.0
  0
LINE
  5
DE
330
1F
100
AcDbEntity
  8
0
  6
Continuous
 62
     7
370
    15
100
AcDbLine
 10
641.1890788416
 20
805.6885726289
 30
0.0
 11
641.1887724364
 21
805.6885726289
 31
0.0
  0
LINE
  5
DF
330
1F
100
AcDbEntity
  8
0
  6
Continuous
 62
     7
370
    15
100
AcDbLine
 10
471.8305198888
 20
327.5462813215
 30
0.0
 11
475.6339369754
 21
327.7469105558
 31
0.0
  0
LINE
  5
E0
330
1F
100
AcDbEntity
  8
0
  6
Continuous
 62
     7
370
    15
100
AcDbLine
 10
476.733970497
 20
327.8049356775
 30
0.0
 11
477.9948024491
 21
327.871454461
 31
0.0
  0
CIRCLE
  5
E1
330
1F
100
AcDbEntity
  8
0
  6
Continuous
 62
     7
370
    15
100
AcDbCircle
 10
491.1870138254
 20
520.6876249674
 30
0.0
 40
19.00000000000009
  0
ARC
  5
E2
330
1F
100
AcDbEntity
  8
0
  6
Continuous
 62
     7
370
    15
100
AcDbCircle
 10
491.1870055031
 20
520.6876249675
 30
0.0
 40
19.00000000000004
100
AcDbArc
 50
179.9993448916
 51
269.9995422159
  0
ARC
  5
E3
330
1F
100
AcDbEntity
  8
0
  6
Continuous
 62
     7
370
    15
100
AcDbCircle
 10
491.1870055031
 20
520.6876249675
 30
0.0
 40
19.00000000000005
100
AcDbArc
 50
89.9995422159
 51
179.9993448916
  0
LINE
  5
E4
330
1F
100
AcDbEntity
  8
0
  6
Continuous
 62
     7
370
    15
100
AcDbLine
 10
329.488697503
 20
785.388765438
 30
0.0
 11
329.4887273053
 21
785.388765438
 31
0.0
  0
SPLINE
  5
E5
330
1F
100
AcDbEntity
  8
0
  6
Continuous
 62
     7
370
    15
100
AcDbSpline
210
0.0
220
0.0
230
1.0
 70
     8
 71
     3
 72
    12
 73
     8
 74
     0
 42
0.00000001
 43
0.00000001
 12
1.0
 22
0.0
 32
0.0
 13
1.0
 23
0.0
 33
0.0
 40
0.0
 40
0.0
 40
0.0
 40
0.0
 40
0.209680894866815
 40
0.4420429597190659
 40
0.6744324334213079
 40
0.9068151363552731
 40
1.0
 40
1.0
 40
1.0
 40
1.0
 10
327.1887032727006
 20
786.8817127780254
 30
0.0
 10
327.2130469211099
 20
786.7774257290047
 30
0.0
 10
327.2643674689357
 20
786.5575709070437
 30
0.0
 10
327.6853017861378
 20
786.2216048287701
 30
0.0
 10
328.3370645406414
 20
785.8747035449636
 30
0.0
 10
328.9865272776275
 20
785.596304964183
 30
0.0
 10
329.3769728706375
 20
785.4349491519488
 30
0.0
 10
329.4887273052934
 20
785.3887654380138
 30
0.0
  0
LINE
  5
E6
330
1F
100
AcDbEntity
  8
0
  6
Continuous
 62
     7
370
    15
100
AcDbLine
 10
327.1887032727
 20
786.881712778
 30
0.0
 11
327.9887168149
 21
786.8816978769
 31
0.0
  0
SPLINE
  5
E7
330
1F
100
AcDbEntity
  8
0
  6
Continuous
 62
     7
370
    15
100
AcDbSpline
210
0.0
220
0.0
230
1.0
 70
     8
 71
     3
 72
    11
 73
     7
 74
     0
 42
0.00000001
 43
0.00000001
 12
1.0
 22
0.0
 32
0.0
 13
1.0
 23
0.0
 33
0.0
 40
0.0
 40
0.0
 40
0.0
 40
0.0
 40
0.2543297671601404
 40
0.5088632401663091
 40
0.7634174146069591
 40
0.9999999999999999
 40
0.9999999999999999
 40
0.9999999999999999
 40
0.9999999999999999
 10
327.9887168148759
 20
786.8816978768642
 30
0.0
 10
328.0120645458422
 20
786.7551185661009
 30
0.0
 10
328.0587787081782
 20
786.5018585606667
 30
0.0
 10
328.4176980169761
 20
786.1218879812537
 30
0.0
 10
328.9168955955546
 20
785.7506883762344
 30
0.0
 10
329.3028038964912
 20
785.506427095628
 30
0.0
 10
329.488697502971
 20
785.3887654380138
 30
0.0
  0
SPLINE
  5
E8
330
1F
100
AcDbEntity
  8
0
  6
Continuous
 62
     7
370
    15
100
AcDbSpline
210
0.0
220
0.0
230
1.0
 70
     8
 71
     3
 72
    12
 73
     8
 74
     0
 42
0.00000001
 43
0.00000001
 12
1.0
 22
0.0
 32
0.0
 13
1.0
 23
0.0
 33
0.0
 40
0.0
 40
0.0
 40
0.0
 40
0.0
 40
0.209680512684383
 40
0.4420452491263021
 40
0.6744284676212553
 40
0.906814654018901
 40
1.0
 40
1.0
 40
1.0
 40
1.0
 10
329.4851212242845
 20
275.9887702302273
 30
0.0
 10
329.2327894457517
 20
275.8844909300126
 30
0.0
 10
328.7008274504478
 20
275.664650904576
 30
0.0
 10
327.9794542748031
 20
275.3286545212451
 30
0.0
 10
327.4360774595414
 20
274.9817931496922
 30
0.0
 10
327.2074684313089
 20
274.7033930232015
 30
0.0
 10
327.190075430406
 20
274.5420363339715
 30
0.0
 10
327.1850971916917
 20
274.4958526925381
 30
0.0
  0
LINE
  5
E9
330
1F
100
AcDbEntity
  8
0
  6
Continuous
 62
     7
370
    15
100
AcDbLine
 10
327.1887032727
 20
786.881712778
 30
0.0
 11
327.1850971917
 21
274.4958526925
 31
0.0
  0
SPLINE
  5
EA
330
1F
100
AcDbEntity
  8
0
  6
Continuous
 62
     7
370
    15
100
AcDbSpline
210
0.0
220
0.0
230
1.0
 70
     8
 71
     3
 72
    11
 73
     7
 74
     0
 42
0.00000001
 43
0.00000001
 12
1.0
 22
0.0
 32
0.0
 13
1.0
 23
0.0
 33
0.0
 40
0.0
 40
0.0
 40
0.0
 40
0.0
 40
0.2543193799860118
 40
0.5088713823952439
 40
0.7634010343535139
 40
0.9999999999999999
 40
0.9999999999999999
 40
0.9999999999999999
 40
0.9999999999999999
 10
329.4851212242845
 20
275.9887702302273
 30
0.0
 10
329.2851460630242
 20
275.8621855935194
 30
0.0
 10
328.8850128259864
 20
275.6089005348852
 30
0.0
 10
328.3833962804876
 20
275.2290025677885
 30
0.0
 10
328.0472868683207
 20
274.8577388661369
 30
0.0
 10
328.0053254535481
 20
274.6135092117162
 30
0.0
 10
327.9851107338669
 20
274.4958526925381
 30
0.0
  0
LINE
  5
EB
330
1F
100
AcDbEntity
  8
0
  6
Continuous
 62
     7
370
    15
100
AcDbLine
 10
327.1850971917
 20
274.4958526925
 30
0.0
 11
327.9851107339
 21
274.4958526925
 31
0.0
  0
SPLINE
  5
EC
330
1F
100
AcDbEntity
  8
0
  6
Continuous
 62
     7
370
    15
100
AcDbSpline
210
0.0
220
0.0
230
1.0
 70
     8
 71
     3
 72
    12
 73
     8
 74
     0
 42
0.00000001
 43
0.00000001
 12
1.0
 22
0.0
 32
0.0
 13
1.0
 23
0.0
 33
0.0
 40
0.0
 40
0.0
 40
0.0
 40
0.0
 40
0.2096828863980091
 40
0.4420440630885183
 40
0.674429597060341
 40
0.9068151612973108
 40
1.0
 40
1.0
 40
1.0
 40
1.0
 10
329.4887273052934
 20
785.3887654380138
 30
0.0
 10
329.3844327658975
 20
785.6410953378299
 30
0.0
 10
329.1645636924385
 20
786.1730459231613
 30
0.0
 10
328.828629459344
 20
786.8944455786673
 30
0.0
 10
328.4817091110014
 20
787.4377999637877
 30
0.0
 10
328.2033217957672
 20
787.6664294195959
 30
0.0
 10
328.0419638695645
 20
787.6838021440822
 30
0.0
 10
327.9957799652817
 20
787.6887745694455
 30
0.0
  0
LINE
  5
ED
330
1F
100
AcDbEntity
  8
0
  6
Continuous
 62
     7
370
    15
100
AcDbLine
 10
654.381641228
 20
787.6864797906
 30
0.0
 11
645.1910389999
 21
787.6865393953
 31
0.0
  0
LINE
  5
EE
330
1F
100
AcDbEntity
  8
0
  6
Continuous
 62
     7
370
    15
100
AcDbLine
 10
637.1870385895
 20
787.6865989999
 30
0.0
 11
345.1910345296
 21
787.6886553602
 31
0.0
  0
LINE
  5
EF
330
1F
100
AcDbEntity
  8
0
  6
Continuous
 62
     7
370
    15
100
AcDbLine
 10
337.1870248059
 20
787.6887149648
 30
0.0
 11
327.9957799653
 21
787.6887745694
 31
0.0
  0
SPLINE
  5
F0
330
1F
100
AcDbEntity
  8
0
  6
Continuous
 62
     7
370
    15
100
AcDbSpline
210
0.0
220
0.0
230
1.0
 70
     8
 71
     3
 72
    12
 73
     8
 74
     0
 42
0.00000001
 43
0.00000001
 12
1.0
 22
0.0
 32
0.0
 13
1.0
 23
0.0
 33
0.0
 40
0.0
 40
0.0
 40
0.0
 40
0.0
 40
0.2096808908184451
 40
0.4420444260900646
 40
0.6744377209886051
 40
0.9068218944815079
 40
1.0
 40
1.0
 40
1.0
 40
1.0
 10
654.3816412279609
 20
787.6864797906215
 30
0.0
 10
654.2773579133491
 20
787.6621419621688
 30
0.0
 10
654.0575102306229
 20
787.6108335126064
 30
0.0
 10
653.7215407058336
 20
787.1898961133268
 30
0.0
 10
653.3746506849027
 20
786.5381191232608
 30
0.0
 10
653.0962609259126
 20
785.8886621768885
 30
0.0
 10
652.9348990808667
 20
785.4982298952502
 30
0.0
 10
652.8887162396911
 20
785.3864855603512
 30
0.0
  0
SPLINE
  5
F1
330
1F
100
AcDbEntity
  8
0
  6
Continuous
 62
     7
370
    15
100
AcDbSpline
210
0.0
220
0.0
230
1.0
 70
     8
 71
     3
 72
    11
 73
     7
 74
     0
 42
0.00000001
 43
0.00000001
 12
1.0
 22
0.0
 32
0.0
 13
1.0
 23
0.0
 33
0.0
 40
0.0
 40
0.0
 40
0.0
 40
0.0
 40
0.2543143454806028
 40
0.5088691225383617
 40
0.7633995126067228
 40
1.0
 40
1.0
 40
1.0
 40
1.0
 10
329.488697502971
 20
785.3887654380138
 30
0.0
 10
329.3621277077004
 20
785.5887436006745
 30
0.0
 10
329.1088684566836
 20
785.9888889875488
 30
0.0
 10
328.7289198518325
 20
786.4904678748707
 30
0.0
 10
328.3576679092192
 20
786.8265827666189
 30
0.0
 10
328.1134372053739
 20
786.8685556478334
 30
0.0
 10
327.9957799652817
 20
786.8887759284314
 30
0.0
  0
LINE
  5
F2
330
1F
100
AcDbEntity
  8
0
  6
Continuous
 62
     7
370
    15
100
AcDbLine
 10
327.9957799653
 20
787.6887745694
 30
0.0
 11
327.9957799653
 21
786.8887759284
 31
0.0
  0
LINE
  5
F3
330
1F
100
AcDbEntity
  8
0
  6
Continuous
 62
     7
370
    15
100
AcDbLine
 10
327.9921738843
 20
273.688776
 30
0.0
 11
471.1850909928
 21
273.687762721
 31
0.0
  0
SPLINE
  5
F4
330
1F
100
AcDbEntity
  8
0
  6
Continuous
 62
     7
370
    15
100
AcDbSpline
210
0.0
220
0.0
230
1.0
 70
     8
 71
     3
 72
    12
 73
     8
 74
     0
 42
0.00000001
 43
0.00000001
 12
1.0
 22
0.0
 32
0.0
 13
1.0
 23
0.0
 33
0.0
 40
0.0
 40
0.0
 40
0.0
 40
0.0
 40
0.209680492800612
 40
0.4420417446468001
 40
0.6744378347799418
 40
0.9068217185187917
 40
1.0
 40
1.0
 40
1.0
 40
1.0
 10
327.9921738842729
 20
273.6887759999569
 30
0.0
 10
328.0964529842162
 20
273.7131227057459
 30
0.0
 10
328.3162908654299
 20
273.7644496563821
 30
0.0
 10
328.6522953725981
 20
274.18533550553
 30
0.0
 10
328.9991780388729
 20
274.8371384790268
 30
0.0
 10
329.2775709127907
 20
275.4865942402104
 30
0.0
 10
329.4389370510139
 20
275.8770258403087
 30
0.0
 10
329.4851212242845
 20
275.9887702302273
 30
0.0
  0
LWPOLYLINE
  5
F5
330
1F
100
AcDbEntity
  8
0
  6
Continuous
 62
     7
370
    15
100
AcDbPolyline
 90
        9
 70
   128
 43
0.0
 10
471.1851356963
 20
275.9877569513
 10
471.1851207951
 20
275.5390531854
 10
471.1851207951
 20
275.1076049642
 10
471.1851207951
 20
274.7099525766
 10
471.185105894
 20
274.3614144162
 10
471.185105894
 20
274.075371726
 10
471.185105894
 20
273.862851365
 10
471.1850909928
 20
273.7319595651
 10
471.1850909928
 20
273.687762721
  0
LINE
  5
F6
330
1F
100
AcDbEntity
  8
0
  6
Continuous
 62
     7
370
    15
100
AcDbLine
 10
327.9921738843
 20
273.688776
 30
0.0
 11
327.9921738843
 21
274.4887597398
 31
0.0
  0
SPLINE
  5
F7
330
1F
100
AcDbEntity
  8
0
  6
Continuous
 62
     7
370
    15
100
AcDbSpline
210
0.0
220
0.0
230
1.0
 70
     8
 71
     3
 72
    11
 73
     7
 74
     0
 42
0.00000001
 43
0.00000001
 12
1.0
 22
0.0
 32
0.0
 13
1.0
 23
0.0
 33
0.0
 40
0.0
 40
0.0
 40
0.0
 40
0.0
 40
0.2543300454974646
 40
0.5088677722375683
 40
0.7634099302495296
 40
1.0
 40
1.0
 40
1.0
 40
1.0
 10
327.9921738842729
 20
274.4887597398098
 30
0.0
 10
328.1187506726446
 20
274.5121206007283
 30
0.0
 10
328.3720076096677
 20
274.5588613986147
 30
0.0
 10
328.7520119235027
 20
274.9177608833639
 30
0.0
 10
329.1232102488172
 20
275.416948072336
 30
0.0
 10
329.3674602109805
 20
275.8028649134839
 30
0.0
 10
329.4851212242844
 20
275.9887702302273
 30
0.0
  0
LINE
  5
F8
330
1F
100
AcDbEntity
  8
0
  6
Continuous
 62
     7
370
    15
100
AcDbLine
 10
511.1851273516
 20
275.9874887304
 30
0.0
 11
511.1854775289
 21
325.6874806718
 31
0.0
  0
ARC
  5
F9
330
1F
100
AcDbEntity
  8
0
  6
Continuous
 62
     7
370
    15
100
AcDbCircle
 10
508.1854793612
 20
325.6875052767
 30
0.0
 40
2.999999999999931
100
AcDbArc
 50
359.9993448917
 51
89.9995965809
  0
LINE
  5
FA
330
1F
100
AcDbEntity
  8
0
  6
Continuous
 62
     7
370
    15
100
AcDbLine
 10
508.1855012516
 20
328.6875016527
 30
0.0
 11
474.1854994038
 21
328.6877400712
 31
0.0
  0
ARC
  5
FB
330
1F
100
AcDbEntity
  8
0
  6
Continuous
 62
     7
370
    15
100
AcDbCircle
 10
474.1854793635
 20
325.6877446704
 30
0.0
 40
2.999999999999874
100
AcDbArc
 50
89.9995965809
 51
179.9993448916
  0
LINE
  5
FC
330
1F
100
AcDbEntity
  8
0
  6
Continuous
 62
     7
370
    15
100
AcDbLine
 10
471.185478423
 20
325.687778695
 30
0.0
 11
471.1851356963
 21
275.9877569513
 31
0.0
  0
ARC
  5
FD
330
1F
100
AcDbEntity
  8
0
  6
Continuous
 62
     7
370
    15
100
AcDbCircle
 10
508.1854721543
 20
325.6875052768
 30
0.0
 40
2.999999999999931
100
AcDbArc
 50
359.9993448916
 51
89.9995965809
  0
LINE
  5
FE
330
1F
100
AcDbEntity
  8
0
  6
Continuous
 62
     7
370
    15
100
AcDbLine
 10
511.1854700783
 20
325.6874806718
 30
0.0
 11
511.1851199011
 21
275.9874887304
 31
0.0
  0
SPLINE
  5
FF
330
1F
100
AcDbEntity
  8
0
  6
Continuous
 62
     7
370
    15
100
AcDbSpline
210
0.0
220
0.0
230
1.0
 70
     8
 71
     3
 72
    12
 73
     8
 74
     0
 42
0.00000001
 43
0.00000001
 12
1.0
 22
0.0
 32
0.0
 13
1.0
 23
0.0
 33
0.0
 40
0.0
 40
0.0
 40
0.0
 40
0.0
 40
0.2096816710546653
 40
0.4420448780673912
 40
0.6744302392514292
 40
0.9068156307009742
 40
1.0
 40
1.0
 40
1.0
 40
1.0
 10
652.8851287851337
 20
275.9864754514034
 30
0.0
 10
652.9894126118272
 20
275.734144699952
 30
0.0
 10
653.2092607808315
 20
275.2021882552284
 30
0.0
 10
653.5452165570791
 20
274.48079900572
 30
0.0
 10
653.892112961826
 20
273.9374440174544
 30
0.0
 10
654.1704913338591
 20
273.7088007702887
 30
0.0
 10
654.3318407744467
 20
273.6914479377858
 30
0.0
 10
654.378022108436
 20
273.6864812211331
 30
0.0
  0
LINE
  5
100
330
1F
100
AcDbEntity
  8
0
  6
Continuous
 62
     7
370
    15
100
AcDbLine
 10
511.1850900987
 20
273.6874945001
 30
0.0
 11
654.3780221084
 21
273.6864812211
 31
0.0
  0
LWPOLYLINE
  5
101
330
1F
100
AcDbEntity
  8
0
  6
Continuous
 62
     7
370
    15
100
AcDbPolyline
 90
        9
 70
   128
 43
0.0
 10
511.1850900987
 20
273.6874945001
 10
511.1850975493
 20
273.7316913442
 10
511.1851049999
 20
273.8625533418
 10
511.1851049999
 20
274.0751035051
 10
511.1851124505
 20
274.3611461953
 10
511.1851199011
 20
274.7096843557
 10
511.1851199011
 20
275.107306941
 10
511.1851273516
 20
275.5387849645
 10
511.1851273516
 20
275.9874887304
  0
LWPOLYLINE
  5
102
330
1F
100
AcDbEntity
  8
0
  6
Continuous
 62
     7
370
    15
100
AcDbPolyline
 90
        9
 70
   128
 43
0.0
 10
511.1850975493
 20
274.4874782399
 10
511.1850975493
 20
274.5162970857
 10
511.1851049999
 20
274.601650937
 10
511.1851049999
 20
274.7402913408
 10
511.1851124505
 20
274.9268240766
 10
511.1851124505
 20
275.1541263894
 10
511.1851199011
 20
275.4134661989
 10
511.1851199011
 20
275.6948597268
 10
511.1851199011
 20
275.9874887304
  0
LINE
  5
103
330
1F
100
AcDbEntity
  8
0
  6
Continuous
 62
     7
370
    15
100
AcDbLine
 10
652.8887087891
 20
785.3864855604
 30
0.0
 11
652.8887162397
 21
785.3864855604
 31
0.0
  0
LINE
  5
104
330
1F
100
AcDbEntity
  8
0
  6
Continuous
 62
     7
370
    15
100
AcDbLine
 10
654.381641228
 20
787.6864797906
 30
0.0
 11
654.38163564
 21
786.8864811496
 31
0.0
  0
SPLINE
  5
105
330
1F
100
AcDbEntity
  8
0
  6
Continuous
 62
     7
370
    15
100
AcDbSpline
210
0.0
220
0.0
230
1.0
 70
     8
 71
     3
 72
    11
 73
     7
 74
     0
 42
0.00000001
 43
0.00000001
 12
1.0
 22
0.0
 32
0.0
 13
1.0
 23
0.0
 33
0.0
 40
0.0
 40
0.0
 40
0.0
 40
0.0
 40
0.2543294662282811
 40
0.508864265662733
 40
0.7634137961119445
 40
1.0
 40
1.0
 40
1.0
 40
1.0
 10
654.3816356400255
 20
786.8864811496074
 30
0.0
 10
654.2550591119581
 20
786.8631270302269
 30
0.0
 10
654.001803864108
 20
786.8163999364888
 30
0.0
 10
653.6218264119549
 20
786.4574874135534
 30
0.0
 10
653.250620771508
 20
785.9582996948011
 30
0.0
 10
653.0063682652916
 20
785.5723853227371
 30
0.0
 10
652.8887087891105
 20
785.3864855603512
 30
0.0
  0
SPLINE
  5
106
330
1F
100
AcDbEntity
  8
0
  6
Continuous
 62
     7
370
    15
100
AcDbSpline
210
0.0
220
0.0
230
1.0
 70
     8
 71
     3
 72
    12
 73
     8
 74
     0
 42
0.00000001
 43
0.00000001
 12
1.0
 22
0.0
 32
0.0
 13
1.0
 23
0.0
 33
0.0
 40
0.0
 40
0.0
 40
0.0
 40
0.0
 40
0.2096813020173225
 40
0.4420435181923433
 40
0.6744302666085694
 40
0.9068286723497276
 40
1.0
 40
1.0
 40
1.0
 40
1.0
 10
652.8887162396911
 20
785.3864855603513
 30
0.0
 10
653.1410478105705
 20
785.4907668475353
 30
0.0
 10
653.6730052825499
 20
785.7106093734303
 30
0.0
 10
654.3943819161733
 20
786.0465713547688
 30
0.0
 10
654.9377563861078
 20
786.3935109834481
 30
0.0
 10
655.1663515019053
 20
786.6718295197824
 30
0.0
 10
655.1837326261951
 20
786.83321726228
 30
0.0
 10
655.1887067446712
 20
786.8794030980404
 30
0.0
  0
SPLINE
  5
107
330
1F
100
AcDbEntity
  8
0
  6
Continuous
 62
     7
370
    15
100
AcDbSpline
210
0.0
220
0.0
230
1.0
 70
     8
 71
     3
 72
    11
 73
     7
 74
     0
 42
0.00000001
 43
0.00000001
 12
1.0
 22
0.0
 32
0.0
 13
1.0
 23
0.0
 33
0.0
 40
0.0
 40
0.0
 40
0.0
 40
0.0
 40
0.2543218264966331
 40
0.508870586293698
 40
0.763419323786048
 40
1.0
 40
1.0
 40
1.0
 40
1.0
 10
652.8887087891105
 20
785.3864855603512
 30
0.0
 10
653.0886851133783
 20
785.5130688333196
 30
0.0
 10
653.4888162023094
 20
785.7663483304739
 30
0.0
 10
653.990434766002
 20
786.1462722245669
 30
0.0
 10
654.3264953752631
 20
786.5175049244012
 30
0.0
 10
654.36848130681
 20
786.7617489445167
 30
0.0
 10
654.388706241012
 20
786.8794030980404
 30
0.0
  0
LINE
  5
108
330
1F
100
AcDbEntity
  8
0
  6
Continuous
 62
     7
370
    15
100
AcDbLine
 10
655.1887067447
 20
786.879403098
 30
0.0
 11
654.388706241
 21
786.879403098
 31
0.0
  0
LINE
  5
109
330
1F
100
AcDbEntity
  8
0
  6
Continuous
 62
     7
370
    15
100
AcDbLine
 10
655.185098801
 20
274.4935281114
 30
0.0
 11
655.1887067447
 21
786.879403098
 31
0.0
  0
SPLINE
  5
10A
330
1F
100
AcDbEntity
  8
0
  6
Continuous
 62
     7
370
    15
100
AcDbSpline
210
0.0
220
0.0
230
1.0
 70
     8
 71
     3
 72
    12
 73
     8
 74
     0
 42
0.00000001
 43
0.00000001
 12
1.0
 22
0.0
 32
0.0
 13
1.0
 23
0.0
 33
0.0
 40
0.0
 40
0.0
 40
0.0
 40
0.0
 40
0.2096842768129323
 40
0.4420469312054978
 40
0.6744299487497225
 40
0.9068201374799666
 40
1.0
 40
1.0
 40
1.0
 40
1.0
 10
655.1850988010171
 20
274.4935281113918
 30
0.0
 10
655.1607620439441
 20
274.5978228779112
 30
0.0
 10
655.1094563907826
 20
274.8176923987996
 30
0.0
 10
654.6885411428658
 20
275.153620689789
 30
0.0
 10
654.0367365284778
 20
275.5005561736681
 30
0.0
 10
653.3873151356038
 20
275.7789224409365
 30
0.0
 10
652.9968748501656
 20
275.940290938058
 30
0.0
 10
652.8851287851337
 20
275.9864754514035
 30
0.0
  0
LINE
  5
10B
330
1F
100
AcDbEntity
  8
0
  6
Continuous
 62
     7
370
    15
100
AcDbLine
 10
652.8851213346
 20
275.9864754514
 30
0.0
 11
652.8851287851
 21
275.9864754514
 31
0.0
  0
LINE
  5
10C
330
1F
100
AcDbEntity
  8
0
  6
Continuous
 62
     7
370
    15
100
AcDbLine
 10
655.185098801
 20
274.4935281114
 30
0.0
 11
654.3850982974
 21
274.4935579137
 31
0.0
  0
SPLINE
  5
10D
330
1F
100
AcDbEntity
  8
0
  6
Continuous
 62
     7
370
    15
100
AcDbSpline
210
0.0
220
0.0
230
1.0
 70
     8
 71
     3
 72
    11
 73
     7
 74
     0
 42
0.00000001
 43
0.00000001
 12
1.0
 22
0.0
 32
0.0
 13
1.0
 23
0.0
 33
0.0
 40
0.0
 40
0.0
 40
0.0
 40
0.0
 40
0.254330480755579
 40
0.5088637105428105
 40
0.7634128587978477
 40
1.0
 40
1.0
 40
1.0
 40
1.0
 10
654.3850982973579
 20
274.4935579137143
 30
0.0
 10
654.361750102348
 20
274.6201369114381
 30
0.0
 10
654.3150350994434
 20
274.8733958140565
 30
0.0
 10
653.9561264508418
 20
275.2533677602257
 30
0.0
 10
653.4569300256948
 20
275.6245568988334
 30
0.0
 10
653.0710196825411
 20
275.8688136143742
 30
0.0
 10
652.8851213345531
 20
275.9864754514035
 30
0.0
  0
SPLINE
  5
10E
330
1F
100
AcDbEntity
  8
0
  6
Continuous
 62
     7
370
    15
100
AcDbSpline
210
0.0
220
0.0
230
1.0
 70
     8
 71
     3
 72
    11
 73
     7
 74
     0
 42
0.00000001
 43
0.00000001
 12
1.0
 22
0.0
 32
0.0
 13
1.0
 23
0.0
 33
0.0
 40
0.0
 40
0.0
 40
0.0
 40
0.0
 40
0.2543209761710244
 40
0.508868548971748
 40
0.763416826508914
 40
1.0
 40
1.0
 40
1.0
 40
1.0
 10
652.8851213345531
 20
275.9864754514035
 30
0.0
 10
653.0117016336812
 20
275.7864988968847
 30
0.0
 10
653.2649750133119
 20
275.3863676113789
 30
0.0
 10
653.6449100304167
 20
274.884763591442
 30
0.0
 10
654.0161236237061
 20
274.5486961094169
 30
0.0
 10
654.2603711162702
 20
274.5066965766355
 30
0.0
 10
654.3780276963714
 20
274.486464960986
 30
0.0
  0
LINE
  5
10F
330
1F
100
AcDbEntity
  8
0
  6
Continuous
 62
     7
370
    15
100
AcDbLine
 10
654.3780221084
 20
273.6864812211
 30
0.0
 11
654.3780276964
 21
274.486464961
 31
0.0
  0
LINE
  5
110
330
1F
100
AcDbEntity
  8
0
  6
Continuous
 62
     7
370
    15
100
AcDbLine
 10
327.1850971917
 20
274.4958526925
 30
0.0
 11
327.1849481801
 21
274.4958526925
 31
0.0
  0
LINE
  5
111
330
1F
100
AcDbEntity
  8
0
  6
Continuous
 62
     7
370
    15
100
AcDbLine
 10
327.1849481801
 20
276.4958567457
 30
0.0
 11
327.1849481801
 21
274.4958526925
 31
0.0
  0
LINE
  5
112
330
1F
100
AcDbEntity
  8
0
  6
Continuous
 62
     7
370
    15
100
AcDbLine
 10
327.1885244588
 20
784.8817087249
 30
0.0
 11
327.1849481801
 21
276.4958567457
 31
0.0
  0
LWPOLYLINE
  5
113
330
1F
100
AcDbEntity
  8
0
  6
Continuous
 62
     7
370
    15
100
AcDbPolyline
 90
        9
 70
   128
 43
0.0
 10
327.1885542611
 20
786.881712778
 10
327.1885542611
 20
786.8432826833
 10
327.1885542611
 20
786.7294676141
 10
327.1885542611
 20
786.5446485118
 10
327.1885542611
 20
786.2959183292
 10
327.1885542611
 20
785.9928436117
 10
327.1885244588
 20
785.6470770673
 10
327.1885244588
 20
785.2718956308
 10
327.1885244588
 20
784.8817087249
  0
LINE
  5
114
330
1F
100
AcDbEntity
  8
0
  6
Continuous
 62
     7
370
    15
100
AcDbLine
 10
327.1887032727
 20
786.881712778
 30
0.0
 11
327.1885542611
 21
786.881712778
 31
0.0
  0
LINE
  5
115
330
1F
100
AcDbEntity
  8
0
  6
Continuous
 62
     7
370
    15
100
AcDbLine
 10
327.9957799653
 20
786.8887759284
 30
0.0
 11
327.9956309537
 21
786.8887759284
 31
0.0
  0
LINE
  5
116
330
1F
100
AcDbEntity
  8
0
  6
Continuous
 62
     7
370
    15
100
AcDbLine
 10
327.9956309537
 20
787.6887745694
 30
0.0
 11
327.9956309537
 21
786.8887759284
 31
0.0
  0
LINE
  5
117
330
1F
100
AcDbEntity
  8
0
  6
Continuous
 62
     7
370
    15
100
AcDbLine
 10
327.9957799653
 20
787.6887745694
 30
0.0
 11
327.9956309537
 21
787.6887745694
 31
0.0
  0
LINE
  5
118
330
1F
100
AcDbEntity
  8
0
  6
Continuous
 62
     7
370
    15
100
AcDbLine
 10
327.9921738843
 20
273.688776
 30
0.0
 11
327.9920248727
 21
273.688776
 31
0.0
  0
LINE
  5
119
330
1F
100
AcDbEntity
  8
0
  6
Continuous
 62
     7
370
    15
100
AcDbLine
 10
327.9920248727
 20
274.4887597398
 30
0.0
 11
327.9920248727
 21
273.688776
 31
0.0
  0
LINE
  5
11A
330
1F
100
AcDbEntity
  8
0
  6
Continuous
 62
     7
370
    15
100
AcDbLine
 10
327.9921738843
 20
274.4887597398
 30
0.0
 11
327.9920248727
 21
274.4887597398
 31
0.0
  0
LINE
  5
11B
330
1F
100
AcDbEntity
  8
0
  6
Continuous
 62
     7
370
    15
100
AcDbLine
 10
511.1850900987
 20
273.6874945001
 30
0.0
 11
511.1849485377
 21
273.6874945001
 31
0.0
  0
LINE
  5
11C
330
1F
100
AcDbEntity
  8
0
  6
Continuous
 62
     7
370
    15
100
AcDbLine
 10
511.1849559883
 20
274.4874782399
 30
0.0
 11
511.1849485377
 21
273.6874945001
 31
0.0
  0
LINE
  5
11D
330
1F
100
AcDbEntity
  8
0
  6
Continuous
 62
     7
370
    15
100
AcDbLine
 10
511.1850975493
 20
274.4874782399
 30
0.0
 11
511.1849559883
 21
274.4874782399
 31
0.0
  0
LINE
  5
11E
330
1F
100
AcDbEntity
  8
0
  6
Continuous
 62
     7
370
    15
100
AcDbLine
 10
654.3850982974
 20
274.4935579137
 30
0.0
 11
654.3849567363
 21
274.4935579137
 31
0.0
  0
LINE
  5
11F
330
1F
100
AcDbEntity
  8
0
  6
Continuous
 62
     7
370
    15
100
AcDbLine
 10
503.0777035693
 20
327.8712756471
 30
0.0
 11
503.0563651065
 21
327.4084753827
 31
0.0
  0
ARC
  5
120
330
1F
100
AcDbEntity
  8
0
  6
Continuous
 62
     7
370
    15
100
AcDbCircle
 10
491.181907009
 20
328.1876250022
 30
0.0
 40
11.89999999999995
100
AcDbArc
 50
288.0584175205
 51
305.7464138679
  0
LINE
  5
121
330
1F
100
AcDbEntity
  8
0
  6
Continuous
 62
     7
370
    15
100
AcDbLine
 10
479.284825776
 20
327.939493163
 30
0.0
 11
479.3077735642
 21
327.4086243944
 31
0.0
  0
ARC
  5
122
330
1F
100
AcDbEntity
  8
0
  6
Continuous
 62
     7
370
    15
100
AcDbCircle
 10
491.1822448342
 20
328.1876249995
 30
0.0
 40
11.8999999999999
100
AcDbArc
 50
234.2749114473
 51
251.9407756364
  0
ARC
  5
123
330
1F
100
AcDbEntity
  8
0
  6
Continuous
 62
     7
370
    15
100
AcDbCircle
 10
491.1822448342
 20
328.1876249995
 30
0.0
 40
11.89999999999994
100
AcDbArc
 50
288.0584175254
 51
305.7444097804
  0
LINE
  5
124
330
1F
100
AcDbEntity
  8
0
  6
Continuous
 62
     7
370
    15
100
AcDbLine
 10
503.0567078332
 20
327.4084753827
 30
0.0
 11
503.078046296
 21
327.8712756471
 31
0.0
  0
SPLINE
  5
125
330
1F
100
AcDbEntity
  8
0
  6
Continuous
 62
     7
370
    15
100
AcDbSpline
210
0.0
220
0.0
230
1.0
 70
    11
 71
     3
 72
    35
 73
    31
 74
     0
 42
0.00000001
 43
0.00000001
 12
1.0
 22
0.0
 32
0.0
 13
1.0
 23
0.0
 33
0.0
 40
0.0
 40
0.0
 40
0.0
 40
0.0
 40
0.0167390623470326
 40
0.0402843922365868
 40
0.0867170760669482
 40
0.1405418553964299
 40
0.1945005052504465
 40
0.2824727767772504
 40
0.3702250234516329
 40
0.4002590536123552
 40
0.4302180558902804
 40
0.4505020410131602
 40
0.4709142657518508
 40
0.4840670841935402
 40
0.4973079491630677
 40
0.5091741539295113
 40
0.5273440895172445
 40
0.5597580209249986
 40
0.5954739178460496
 40
0.6312889373044405
 40
0.7097170749021584
 40
0.7882452117499538
 40
0.8478345120797163
 40
0.8828810357262674
 40
0.917855233937682
 40
0.9412999411671915
 40
0.9648743137482633
 40
0.9789390257168162
 40
0.993130294183602
 40
1.0
 40
1.0
 40
1.0
 40
1.0
 10
491.7289941052202
 20
190.2789301709469
 30
0.0
 10
492.0925391544362
 20
190.1457226977939
 30
0.0
 10
492.9674502488969
 20
189.8251442815069
 30
0.0
 10
494.3478433211636
 20
188.3529640394829
 30
0.0
 10
495.6294671659156
 20
185.8790572322152
 30
0.0
 10
496.594505791465
 20
182.557785191359
 30
0.0
 10
497.2028866569952
 20
178.2361721113444
 30
0.0
 10
497.2817660415765
 20
173.1060793931602
 30
0.0
 10
496.5026572023901
 20
168.5540965292872
 30
0.0
 10
495.4333254938427
 20
165.4301382114747
 30
0.0
 10
494.6230177939598
 20
163.8156958050994
 30
0.0
 10
493.6811054307048
 20
162.5290838397457
 30
0.0
 10
492.7465872471882
 20
161.713430594395
 30
0.0
 10
491.7424255435579
 20
161.2951327763371
 30
0.0
 10
490.8409646912293
 20
161.2605070320398
 30
0.0
 10
489.8829130326716
 20
161.5697711425372
 30
0.0
 10
488.722814924392
 20
162.4281731346445
 30
0.0
 10
487.5874488886894
 20
164.0352346781729
 30
0.0
 10
486.6358681109178
 20
166.1636233979111
 30
0.0
 10
485.7094994614549
 20
169.3839492261448
 30
0.0
 10
485.1008416298308
 20
173.6536256262123
 30
0.0
 10
485.1853058511115
 20
178.486594823482
 30
0.0
 10
485.7537263282699
 20
182.3101018837735
 30
0.0
 10
486.5159617961912
 20
185.1017159117583
 30
0.0
 10
487.3196348533921
 20
187.0400684706139
 30
0.0
 10
488.2810084183589
 20
188.6135377386165
 30
0.0
 10
489.2366795737704
 20
189.6384001236121
 30
0.0
 10
490.2745334524978
 20
190.2284691064888
 30
0.0
 10
491.0944695375078
 20
190.3832156042418
 30
0.0
 10
491.572929265484
 20
190.3045797521643
 30
0.0
 10
491.7289941052201
 20
190.2789301709469
 30
0.0
  0
LINE
  5
126
330
1F
100
AcDbEntity
  8
0
  6
Continuous
 62
     7
370
    15
100
AcDbLine
 10
511.6842119435
 20
34.1552026109
 30
0.0
 11
511.6850017051
 21
201.67903374
 31
0.0
  0
LINE
  5
127
330
1F
100
AcDbEntity
  8
0
  6
Continuous
 62
     7
370
    15
100
AcDbLine
 10
511.6842119435
 20
34.1552026109
 30
0.0
 11
511.6841523389
 21
32.7648646669
 31
0.0
  0
LINE
  5
128
330
1F
100
AcDbEntity
  8
0
  6
Continuous
 62
     7
370
    15
100
AcDbLine
 10
470.6848739127
 20
198.683989747
 30
0.0
 11
470.6850080231
 21
201.6793317632
 31
0.0
  0
SPLINE
  5
129
330
1F
100
AcDbEntity
  8
0
  6
Continuous
 62
     7
370
    15
100
AcDbSpline
210
0.0
220
0.0
230
1.0
 70
     8
 71
     3
 72
    15
 73
    11
 74
     0
 42
0.00000001
 43
0.00000001
 12
1.0
 22
0.0
 32
0.0
 13
1.0
 23
0.0
 33
0.0
 40
0.0
 40
0.0
 40
0.0
 40
0.0
 40
0.1228728997641512
 40
0.250001423581342
 40
0.3771274272437515
 40
0.5000015280152872
 40
0.6228693516643204
 40
0.7499997286666361
 40
0.877129210457487
 40
1.0
 40
1.0
 40
1.0
 40
1.0
 10
470.6841586569551
 20
32.76510308545194
 30
0.0
 10
470.6841535553331
 20
32.66792255968548
 30
0.0
 10
470.6841431753977
 20
32.47019572298987
 30
0.0
 10
470.6841300383084
 20
32.72178726312253
 30
0.0
 10
470.6841098789853
 20
33.37287506253733
 30
0.0
 10
470.6841147600975
 20
34.39792408062997
 30
0.0
 10
470.6841147453376
 20
35.72197199596322
 30
0.0
 10
470.6841097839638
 20
37.28146723264497
 30
0.0
 10
470.6841295601172
 20
38.96577877254631
 30
0.0
 10
470.6841390779463
 20
40.06336921743853
 30
0.0
 10
470.6841437557939
 20
40.60281585019193
 30
0.0
  0
SPLINE
  5
12A
330
1F
100
AcDbEntity
  8
0
  6
Continuous
 62
     7
370
    15
100
AcDbSpline
210
0.0
220
0.0
230
1.0
 70
     8
 71
     3
 72
    11
 73
     7
 74
     0
 42
0.00000001
 43
0.00000001
 12
1.0
 22
0.0
 32
0.0
 13
1.0
 23
0.0
 33
0.0
 40
0.0
 40
0.0
 40
0.0
 40
0.0
 40
0.2459631115093235
 40
0.4999989860375744
 40
0.7540360275432035
 40
1.0
 40
1.0
 40
1.0
 40
1.0
 10
470.6841437557939
 20
40.60281585019193
 30
0.0
 10
470.68415300682
 20
41.94660720042037
 30
0.0
 10
470.6841718125005
 20
44.67829451904831
 30
0.0
 10
470.684212943586
 20
48.86094419617775
 30
0.0
 10
470.6841971849964
 20
52.8074822628724
 30
0.0
 10
470.6842113120979
 20
54.9563379329277
 30
0.0
 10
470.6842182615999
 20
56.01341794293485
 30
0.0
  0
SPLINE
  5
12B
330
1F
100
AcDbEntity
  8
0
  6
Continuous
 62
     7
370
    15
100
AcDbSpline
210
0.0
220
0.0
230
1.0
 70
     8
 71
     3
 72
    11
 73
     7
 74
     0
 42
0.00000001
 43
0.00000001
 12
1.0
 22
0.0
 32
0.0
 13
1.0
 23
0.0
 33
0.0
 40
0.0
 40
0.0
 40
0.0
 40
0.0
 40
0.2459642541977135
 40
0.4999955187364609
 40
0.7540354330216297
 40
1.0
 40
1.0
 40
1.0
 40
1.0
 10
470.6842182615999
 20
56.01341794293485
 30
0.0
 10
470.684218686398
 20
56.42712097670738
 30
0.0
 10
470.6842195499266
 20
57.26809546565775
 30
0.0
 10
470.6842129104231
 20
58.8125786575206
 30
0.0
 10
470.6842380385803
 20
60.44947931927741
 30
0.0
 10
470.6842347704401
 20
61.51855135341627
 30
0.0
 10
470.6842331627611
 20
62.04445431988798
 30
0.0
  0
SPLINE
  5
12C
330
1F
100
AcDbEntity
  8
0
  6
Continuous
 62
     7
370
    15
100
AcDbSpline
210
0.0
220
0.0
230
1.0
 70
     8
 71
     3
 72
    11
 73
     7
 74
     0
 42
0.00000001
 43
0.00000001
 12
1.0
 22
0.0
 32
0.0
 13
1.0
 23
0.0
 33
0.0
 40
0.0
 40
0.0
 40
0.0
 40
0.0
 40
0.2459633065285675
 40
0.4999993824635286
 40
0.7540379621262361
 40
1.0
 40
1.0
 40
1.0
 40
1.0
 10
470.684233162761
 20
62.04445431988786
 30
0.0
 10
470.6842508128079
 20
63.38824494139811
 30
0.0
 10
470.6842866921944
 20
66.11993077860006
 30
0.0
 10
470.6842894085735
 20
70.30259926049304
 30
0.0
 10
470.6843120646523
 20
74.24908945140113
 30
0.0
 10
470.6843091180634
 20
76.39797109955133
 30
0.0
 10
470.684307668567
 20
77.4550564126309
 30
0.0
  0
SPLINE
  5
12D
330
1F
100
AcDbEntity
  8
0
  6
Continuous
 62
     7
370
    15
100
AcDbSpline
210
0.0
220
0.0
230
1.0
 70
     8
 71
     3
 72
    11
 73
     7
 74
     0
 42
0.00000001
 43
0.00000001
 12
1.0
 22
0.0
 32
0.0
 13
1.0
 23
0.0
 33
0.0
 40
0.0
 40
0.0
 40
0.0
 40
0.0
 40
0.2459659354621849
 40
0.5000023522324161
 40
0.7540428676107126
 40
1.0
 40
1.0
 40
1.0
 40
1.0
 10
470.684307668567
 20
77.45505641263078
 30
0.0
 10
470.6843059719678
 20
77.86876198559773
 30
0.0
 10
470.6843025231016
 20
78.70974738150844
 30
0.0
 10
470.6843290408807
 20
80.2541974439272
 30
0.0
 10
470.684317143385
 20
81.8911049043028
 30
0.0
 10
470.6843307684795
 20
82.96015146032659
 30
0.0
 10
470.6843374708894
 20
83.48603318493925
 30
0.0
  0
SPLINE
  5
12E
330
1F
100
AcDbEntity
  8
0
  6
Continuous
 62
     7
370
    15
100
AcDbSpline
210
0.0
220
0.0
230
1.0
 70
     8
 71
     3
 72
    11
 73
     7
 74
     0
 42
0.00000001
 43
0.00000001
 12
1.0
 22
0.0
 32
0.0
 13
1.0
 23
0.0
 33
0.0
 40
0.0
 40
0.0
 40
0.0
 40
0.0
 40
0.2459658653679765
 40
0.5000009329729399
 40
0.7540356088565862
 40
1.0
 40
1.0
 40
1.0
 40
1.0
 10
470.6843374708894
 20
83.48603318493925
 30
0.0
 10
470.6843551209431
 20
84.82984316525949
 30
0.0
 10
470.6843910000813
 20
87.56154840774649
 30
0.0
 10
470.6843937166936
 20
91.74422873238558
 30
0.0
 10
470.6844163728897
 20
95.69068890443816
 30
0.0
 10
470.6844134262399
 20
97.83958772819429
 30
0.0
 10
470.6844119766954
 20
98.89669488232694
 30
0.0
  0
SPLINE
  5
12F
330
1F
100
AcDbEntity
  8
0
  6
Continuous
 62
     7
370
    15
100
AcDbSpline
210
0.0
220
0.0
230
1.0
 70
     8
 71
     3
 72
    11
 73
     7
 74
     0
 42
0.00000001
 43
0.00000001
 12
1.0
 22
0.0
 32
0.0
 13
1.0
 23
0.0
 33
0.0
 40
0.0
 40
0.0
 40
0.0
 40
0.0
 40
0.2459582516312512
 40
0.5000029179329333
 40
0.7540340271014474
 40
1.0
 40
1.0
 40
1.0
 40
1.0
 10
470.6844119766954
 20
98.89669488232694
 30
0.0
 10
470.6844102802423
 20
99.31037875918675
 30
0.0
 10
470.6844068315615
 20
100.1513472738021
 30
0.0
 10
470.6844333486006
 20
101.6958040796475
 30
0.0
 10
470.684421451875
 20
103.3327211552963
 30
0.0
 10
470.6844350765605
 20
104.401769535645
 30
0.0
 10
470.6844417790178
 20
104.9276716546353
 30
0.0
  0
SPLINE
  5
130
330
1F
100
AcDbEntity
  8
0
  6
Continuous
 62
     7
370
    15
100
AcDbSpline
210
0.0
220
0.0
230
1.0
 70
     8
 71
     3
 72
    11
 73
     7
 74
     0
 42
0.00000001
 43
0.00000001
 12
1.0
 22
0.0
 32
0.0
 13
1.0
 23
0.0
 33
0.0
 40
0.0
 40
0.0
 40
0.0
 40
0.0
 40
0.2459625431865687
 40
0.499997864189385
 40
0.7540361332566031
 40
1.0
 40
1.0
 40
1.0
 40
1.0
 10
470.6844417790178
 20
104.9276716546353
 30
0.0
 10
470.6844515437233
 20
106.2714623237206
 30
0.0
 10
470.6844713936233
 20
109.003148440458
 30
0.0
 10
470.6845044959369
 20
113.1858190190159
 30
0.0
 10
470.6845191230237
 20
117.1323247817105
 30
0.0
 10
470.6845172206501
 20
119.2811912510207
 30
0.0
 10
470.6845162848238
 20
120.3382737473782
 30
0.0
  0
SPLINE
  5
131
330
1F
100
AcDbEntity
  8
0
  6
Continuous
 62
     7
370
    15
100
AcDbSpline
210
0.0
220
0.0
230
1.0
 70
    24
 71
     3
 72
     9
 73
     5
 74
     0
 42
0.00000001
 43
0.00000001
 12
1.0
 22
0.0
 32
0.0
 13
1.0
 23
0.0
 33
0.0
 40
0.0
 40
0.0
 40
0.0
 40
0.0
 40
0.5000069993433968
 40
0.9999999999999999
 40
0.9999999999999999
 40
0.9999999999999999
 40
0.9999999999999999
 10
470.6845162848238
 20
120.3382737473782
 30
0.0
 10
470.6845162848238
 20
120.7579612075073
 30
0.0
 10
470.6845162848238
 20
121.5973243777834
 30
0.0
 10
470.6845162848238
 20
122.6344355570636
 30
0.0
 10
470.6845162848237
 20
123.1529838876064
 30
0.0
  0
LINE
  5
132
330
1F
100
AcDbEntity
  8
0
  6
Continuous
 62
     7
370
    15
100
AcDbLine
 10
470.6845162848
 20
123.1529838876
 30
0.0
 11
470.6848739127
 21
198.683989747
 31
0.0
  0
LINE
  5
133
330
1F
100
AcDbEntity
  8
0
  6
Continuous
 62
     7
370
    15
100
AcDbLine
 10
511.6841523389
 20
32.7648646669
 30
0.0
 11
511.6841374377
 21
32.5635797815
 31
0.0
  0
SPLINE
  5
134
330
1F
100
AcDbEntity
  8
0
  6
Continuous
 62
     7
370
    15
100
AcDbSpline
210
0.0
220
0.0
230
1.0
 70
     8
 71
     3
 72
    13
 73
     9
 74
     0
 42
0.00000001
 43
0.00000001
 12
1.0
 22
0.0
 32
0.0
 13
1.0
 23
0.0
 33
0.0
 40
0.0
 40
0.0
 40
0.0
 40
0.0
 40
0.1015743138193779
 40
0.2544889347587472
 40
0.5243797421733055
 40
0.7272425740823973
 40
0.8895591564372171
 40
1.0
 40
1.0
 40
1.0
 40
1.0
 10
475.954848382831
 20
328.3841438130673
 30
0.0
 10
475.9512422102039
 20
328.3550594686915
 30
0.0
 10
475.9422071402545
 20
328.2821902211421
 30
0.0
 10
475.8646159477153
 20
328.15467906058
 30
0.0
 10
475.7644226162024
 20
328.0275274080573
 30
0.0
 10
475.6810009852617
 20
327.9295591274138
 30
0.0
 10
475.6381470260717
 20
327.8789804976657
 30
0.0
 10
475.637939862371
 20
327.8767842704374
 30
0.0
 10
475.6378559807542
 20
327.8758950070675
 30
0.0
  0
SPLINE
  5
135
330
1F
100
AcDbEntity
  8
0
  6
Continuous
 62
     7
370
    15
100
AcDbSpline
210
0.0
220
0.0
230
1.0
 70
     8
 71
     3
 72
    11
 73
     7
 74
     0
 42
0.00000001
 43
0.00000001
 12
1.0
 22
0.0
 32
0.0
 13
1.0
 23
0.0
 33
0.0
 40
0.0
 40
0.0
 40
0.0
 40
0.0
 40
0.0400839175829974
 40
0.5996048440993506
 40
0.8510090245706169
 40
1.0
 40
1.0
 40
1.0
 40
1.0
 10
475.8009938935045
 20
328.6877400712307
 30
0.0
 10
475.8034469887117
 20
328.6849042323683
 30
0.0
 10
475.8401421986113
 20
328.6424836601904
 30
0.0
 10
475.9022874403464
 20
328.5582826497232
 30
0.0
 10
475.9497227094303
 20
328.4518799678178
 30
0.0
 10
475.9534583239341
 20
328.4025135446506
 30
0.0
 10
475.954848382831
 20
328.3841438130673
 30
0.0
  0
SPLINE
  5
136
330
1F
100
AcDbEntity
  8
0
  6
Continuous
 62
     7
370
    15
100
AcDbSpline
210
0.0
220
0.0
230
1.0
 70
     8
 71
     3
 72
    16
 73
    12
 74
     0
 42
0.00000001
 43
0.00000001
 12
1.0
 22
0.0
 32
0.0
 13
1.0
 23
0.0
 33
0.0
 40
0.0
 40
0.0
 40
0.0
 40
0.0
 40
0.1440823240994961
 40
0.2233470907169268
 40
0.2889199110882357
 40
0.3549439441945408
 40
0.4444932539216208
 40
0.618066683917702
 40
0.8011730624763207
 40
0.9147572746900475
 40
1.0
 40
1.0
 40
1.0
 40
1.0
 10
476.5677778462175
 20
328.6877400712307
 30
0.0
 10
476.5353741441783
 20
328.6476394522824
 30
0.0
 10
476.4851440231407
 20
328.5854780689619
 30
0.0
 10
476.4301589547492
 20
328.4840991176908
 30
0.0
 10
476.4085952012252
 20
328.3998627196733
 30
0.0
 10
476.4197126459983
 20
328.3077887150564
 30
0.0
 10
476.4787690708941
 20
328.1876911604245
 30
0.0
 10
476.5828324343595
 20
328.052422198448
 30
0.0
 10
476.6775592977816
 20
327.9405238904003
 30
0.0
 10
476.7284507939402
 20
327.8806157892939
 30
0.0
 10
476.729967486706
 20
327.8768944177399
 30
0.0
 10
476.7306177357439
 20
327.8752989606198
 30
0.0
  0
SPLINE
  5
137
330
1F
100
AcDbEntity
  8
0
  6
Continuous
 62
     7
370
    15
100
AcDbSpline
210
0.0
220
0.0
230
1.0
 70
     8
 71
     3
 72
    13
 73
     9
 74
     0
 42
0.00000001
 43
0.00000001
 12
1.0
 22
0.0
 32
0.0
 13
1.0
 23
0.0
 33
0.0
 40
0.0
 40
0.0
 40
0.0
 40
0.0
 40
0.1015383610006283
 40
0.2544803865578137
 40
0.5243757272993155
 40
0.7272521837865761
 40
0.8895230573135464
 40
1.0
 40
1.0
 40
1.0
 40
1.0
 10
483.4548561314348
 20
328.3840842084225
 30
0.0
 10
483.4512478295262
 20
328.3550107297463
 30
0.0
 10
483.4422045275121
 20
328.2821453612372
 30
0.0
 10
483.3646392310042
 20
328.1546172262836
 30
0.0
 10
483.2643973456074
 20
328.0274706670888
 30
0.0
 10
483.1810244368184
 20
327.9294955991471
 30
0.0
 10
483.138153995332
 20
327.8789613680423
 30
0.0
 10
483.1379368025025
 20
327.8767365632078
 30
0.0
 10
483.1378488281968
 20
327.8758354024227
 30
0.0
  0
SPLINE
  5
138
330
1F
100
AcDbEntity
  8
0
  6
Continuous
 62
     7
370
    15
100
AcDbSpline
210
0.0
220
0.0
230
1.0
 70
     8
 71
     3
 72
    11
 73
     7
 74
     0
 42
0.00000001
 43
0.00000001
 12
1.0
 22
0.0
 32
0.0
 13
1.0
 23
0.0
 33
0.0
 40
0.0
 40
0.0
 40
0.0
 40
0.0
 40
0.0400662699467196
 40
0.5996316962228034
 40
0.8510190165098465
 40
0.9999999999999999
 40
0.9999999999999999
 40
0.9999999999999999
 40
0.9999999999999999
 10
483.3010016421082
 20
328.6876804665859
 30
0.0
 10
483.3034496172153
 20
328.6848549058416
 30
0.0
 10
483.3400860065702
 20
328.6425675707802
 30
0.0
 10
483.4023014366999
 20
328.5582070809177
 30
0.0
 10
483.4497295496611
 20
328.4518225726863
 30
0.0
 10
483.4534658261913
 20
328.4024545392155
 30
0.0
 10
483.4548561314347
 20
328.3840842084225
 30
0.0
  0
SPLINE
  5
139
330
1F
100
AcDbEntity
  8
0
  6
Continuous
 62
     7
370
    15
100
AcDbSpline
210
0.0
220
0.0
230
1.0
 70
     8
 71
     3
 72
    16
 73
    12
 74
     0
 42
0.00000001
 43
0.00000001
 12
1.0
 22
0.0
 32
0.0
 13
1.0
 23
0.0
 33
0.0
 40
0.0
 40
0.0
 40
0.0
 40
0.0
 40
0.14409008412034
 40
0.2233502569909281
 40
0.2889263496039829
 40
0.354928088078858
 40
0.4444952990065752
 40
0.618058505543618
 40
0.801174617573815
 40
0.9147549794607308
 40
1.0
 40
1.0
 40
1.0
 40
1.0
 10
484.0677855948213
 20
328.687680466586
 30
0.0
 10
484.0353704829586
 20
328.6475823749018
 30
0.0
 10
483.9851246689659
 20
328.5854273755681
 30
0.0
 10
483.9301781371039
 20
328.4840339590465
 30
0.0
 10
483.9085757875681
 20
328.3998133850014
 30
0.0
 10
483.9197420152069
 20
328.3077471663252
 30
0.0
 10
483.9787268225342
 20
328.1876273327052
 30
0.0
 10
484.0828739168867
 20
328.0524143203511
 30
0.0
 10
484.1775297033584
 20
327.9404366757848
 30
0.0
 10
484.228469200778
 20
327.8806037322392
 30
0.0
 10
484.2299679883033
 20
327.8768491201744
 30
0.0
 10
484.2306105831865
 20
327.875239355975
 30
0.0
  0
SPLINE
  5
13A
330
1F
100
AcDbEntity
  8
0
  6
Continuous
 62
     7
370
    15
100
AcDbSpline
210
0.0
220
0.0
230
1.0
 70
     8
 71
     3
 72
    13
 73
     9
 74
     0
 42
0.00000001
 43
0.00000001
 12
1.0
 22
0.0
 32
0.0
 13
1.0
 23
0.0
 33
0.0
 40
0.0
 40
0.0
 40
0.0
 40
0.0
 40
0.1015727846100928
 40
0.2545120749473225
 40
0.524377232090181
 40
0.72725784325732
 40
0.8895258147269265
 40
1.0
 40
1.0
 40
1.0
 40
1.0
 10
490.9548489788774
 20
328.3840544061001
 30
0.0
 10
490.9512419698802
 20
328.35497060649
 30
0.0
 10
490.9422038466492
 20
328.2820950009374
 30
0.0
 10
490.8646337467727
 20
328.1545666015286
 30
0.0
 10
490.7644068261965
 20
328.0273991481939
 30
0.0
 10
490.681016937456
 20
327.9294387940963
 30
0.0
 10
490.6381413138143
 20
327.8789015580704
 30
0.0
 10
490.6379386612165
 20
327.8766768966712
 30
0.0
 10
490.6378565768006
 20
327.8757757977779
 30
0.0
  0
SPLINE
  5
13B
330
1F
100
AcDbEntity
  8
0
  6
Continuous
 62
     7
370
    15
100
AcDbSpline
210
0.0
220
0.0
230
1.0
 70
     8
 71
     3
 72
    11
 73
     7
 74
     0
 42
0.00000001
 43
0.00000001
 12
1.0
 22
0.0
 32
0.0
 13
1.0
 23
0.0
 33
0.0
 40
0.0
 40
0.0
 40
0.0
 40
0.0
 40
0.0400900856767343
 40
0.5996854303775607
 40
0.8510790221154203
 40
0.9999999999999999
 40
0.9999999999999999
 40
0.9999999999999999
 40
0.9999999999999999
 10
490.8009944895509
 20
328.6876208619412
 30
0.0
 10
490.8034475868918
 20
328.6847953854613
 30
0.0
 10
490.8401421139751
 20
328.6425306446832
 30
0.0
 10
490.9022807217169
 20
328.5581481133122
 30
0.0
 10
490.9497200083171
 20
328.4517675244331
 30
0.0
 10
490.9534582981123
 20
328.4024142953017
 30
0.0
 10
490.9548489788774
 20
328.3840544061001
 30
0.0
  0
SPLINE
  5
13C
330
1F
100
AcDbEntity
  8
0
  6
Continuous
 62
     7
370
    15
100
AcDbSpline
210
0.0
220
0.0
230
1.0
 70
     8
 71
     3
 72
    16
 73
    12
 74
     0
 42
0.00000001
 43
0.00000001
 12
1.0
 22
0.0
 32
0.0
 13
1.0
 23
0.0
 33
0.0
 40
0.0
 40
0.0
 40
0.0
 40
0.0
 40
0.1440924392344795
 40
0.2233294293912788
 40
0.2889285920864834
 40
0.3549281168694256
 40
0.4444815410350196
 40
0.6180443900189383
 40
0.801180027363619
 40
0.9147335603938074
 40
1.0
 40
1.0
 40
1.0
 40
1.0
 10
491.5677784422639
 20
328.6876208619412
 30
0.0
 10
491.5353793966592
 20
328.6475218646588
 30
0.0
 10
491.4851639904506
 20
328.5853722735364
 30
0.0
 10
491.4301455614996
 20
328.4839886550034
 30
0.0
 10
491.4085993815273
 20
328.3997647750342
 30
0.0
 10
491.4197172791781
 20
328.3076870954247
 30
0.0
 10
491.4787640292813
 20
328.1876113950988
 30
0.0
 10
491.5828528800302
 20
328.0523234022183
 30
0.0
 10
491.6775395943913
 20
327.9404041059937
 30
0.0
 10
491.7284585185808
 20
327.8805251502962
 30
0.0
 10
491.7299700797985
 20
327.8768049907472
 30
0.0
 10
491.7306183317903
 20
327.8752095536526
 30
0.0
  0
SPLINE
  5
13D
330
1F
100
AcDbEntity
  8
0
  6
Continuous
 62
     7
370
    15
100
AcDbSpline
210
0.0
220
0.0
230
1.0
 70
     8
 71
     3
 72
    13
 73
     9
 74
     0
 42
0.00000001
 43
0.00000001
 12
1.0
 22
0.0
 32
0.0
 13
1.0
 23
0.0
 33
0.0
 40
0.0
 40
0.0
 40
0.0
 40
0.0
 40
0.1015729195069818
 40
0.2544854413846541
 40
0.5243657091627316
 40
0.7272429345090174
 40
0.8895572887412503
 40
0.9999999999999999
 40
0.9999999999999999
 40
0.9999999999999999
 40
0.9999999999999999
 10
498.4548567274812
 20
328.3839948014553
 30
0.0
 10
498.4512503751865
 20
328.3549104203332
 30
0.0
 10
498.4422148550899
 20
328.2820410807176
 30
0.0
 10
498.3646307179711
 20
328.1545328183377
 30
0.0
 10
498.2643970649218
 20
328.0273707266405
 30
0.0
 10
498.1810156701308
 20
327.9294098230328
 30
0.0
 10
498.1381601649609
 20
327.8788429393152
 30
0.0
 10
498.1379389833961
 20
327.8766173583914
 30
0.0
 10
498.1378494242433
 20
327.8757161931332
 30
0.0
  0
SPLINE
  5
13E
330
1F
100
AcDbEntity
  8
0
  6
Continuous
 62
     7
370
    15
100
AcDbSpline
210
0.0
220
0.0
230
1.0
 70
     8
 71
     3
 72
    11
 73
     7
 74
     0
 42
0.00000001
 43
0.00000001
 12
1.0
 22
0.0
 32
0.0
 13
1.0
 23
0.0
 33
0.0
 40
0.0
 40
0.0
 40
0.0
 40
0.0
 40
0.0400183553300134
 40
0.5996130146605201
 40
0.8510835426211518
 40
1.0
 40
1.0
 40
1.0
 40
1.0
 10
498.3010022381548
 20
328.6875612572964
 30
0.0
 10
498.30345035369
 20
328.6847354466856
 30
0.0
 10
498.3401315697032
 20
328.6423950555013
 30
0.0
 10
498.4023068877915
 20
328.5581322821102
 30
0.0
 10
498.44972411917
 20
328.4517161700088
 30
0.0
 10
498.4534652746204
 20
328.4023541007234
 30
0.0
 10
498.4548567274812
 20
328.3839948014553
 30
0.0
  0
SPLINE
  5
13F
330
1F
100
AcDbEntity
  8
0
  6
Continuous
 62
     7
370
    15
100
AcDbSpline
210
0.0
220
0.0
230
1.0
 70
     8
 71
     3
 72
    16
 73
    12
 74
     0
 42
0.00000001
 43
0.00000001
 12
1.0
 22
0.0
 32
0.0
 13
1.0
 23
0.0
 33
0.0
 40
0.0
 40
0.0
 40
0.0
 40
0.0
 40
0.1440827240742542
 40
0.2233360160491963
 40
0.288911773738955
 40
0.3549373424236861
 40
0.4444822166254047
 40
0.6180627476037388
 40
0.8011779243868155
 40
0.9147577061734591
 40
0.9999999999999999
 40
0.9999999999999999
 40
0.9999999999999999
 40
0.9999999999999999
 10
499.0677861908678
 20
328.6875612572964
 30
0.0
 10
499.03537172457
 20
328.647477607482
 30
0.0
 10
498.9851275484426
 20
328.5853457820617
 30
0.0
 10
498.9301761293917
 20
328.4839394940473
 30
0.0
 10
498.9085771474338
 20
328.3997154521658
 30
0.0
 10
498.9197332832617
 20
328.3076437888791
 30
0.0
 10
498.9787456907703
 20
328.1875312632266
 30
0.0
 10
499.0828629364498
 20
328.0522911391801
 30
0.0
 10
499.1775315705538
 20
327.9403240462735
 30
0.0
 10
499.2284693355329
 20
327.8804738771648
 30
0.0
 10
499.2299684528313
 20
327.8767475582017
 30
0.0
 10
499.2306111792329
 20
327.8751499490078
 30
0.0
  0
SPLINE
  5
140
330
1F
100
AcDbEntity
  8
0
  6
Continuous
 62
     7
370
    15
100
AcDbSpline
210
0.0
220
0.0
230
1.0
 70
     8
 71
     3
 72
    13
 73
     9
 74
     0
 42
0.00000001
 43
0.00000001
 12
1.0
 22
0.0
 32
0.0
 13
1.0
 23
0.0
 33
0.0
 40
0.0
 40
0.0
 40
0.0
 40
0.0
 40
0.1015743138193779
 40
0.2544889347587472
 40
0.5243797421733055
 40
0.7272425740823973
 40
0.8895591564372171
 40
1.0
 40
1.0
 40
1.0
 40
1.0
 10
505.9548495749239
 20
328.3839351968106
 30
0.0
 10
505.9512434022968
 20
328.3548508524347
 30
0.0
 10
505.9422083323474
 20
328.2819816048855
 30
0.0
 10
505.8646171398082
 20
328.1544704443232
 30
0.0
 10
505.7644238082952
 20
328.0273187918006
 30
0.0
 10
505.6810021773546
 20
327.9293505111571
 30
0.0
 10
505.6381482181646
 20
327.878771881409
 30
0.0
 10
505.6379410544638
 20
327.8765756541807
 30
0.0
 10
505.6378571728471
 20
327.8756863908108
 30
0.0
  0
SPLINE
  5
141
330
1F
100
AcDbEntity
  8
0
  6
Continuous
 62
     7
370
    15
100
AcDbSpline
210
0.0
220
0.0
230
1.0
 70
     8
 71
     3
 72
    11
 73
     7
 74
     0
 42
0.00000001
 43
0.00000001
 12
1.0
 22
0.0
 32
0.0
 13
1.0
 23
0.0
 33
0.0
 40
0.0
 40
0.0
 40
0.0
 40
0.0
 40
0.0400839175829974
 40
0.5996048440993506
 40
0.8510090245706169
 40
1.0
 40
1.0
 40
1.0
 40
1.0
 10
505.8009950855974
 20
328.687531454974
 30
0.0
 10
505.8034481808046
 20
328.6846956161116
 30
0.0
 10
505.840143390704
 20
328.6422750439336
 30
0.0
 10
505.9022886324391
 20
328.5580740334665
 30
0.0
 10
505.9497239015232
 20
328.4516713515611
 30
0.0
 10
505.9534595160269
 20
328.4023049283939
 30
0.0
 10
505.9548495749239
 20
328.3839351968106
 30
0.0
  0
SPLINE
  5
142
330
1F
100
AcDbEntity
  8
0
  6
Continuous
 62
     7
370
    15
100
AcDbSpline
210
0.0
220
0.0
230
1.0
 70
     8
 71
     3
 72
    17
 73
    13
 74
     0
 42
0.00000001
 43
0.00000001
 12
1.0
 22
0.0
 32
0.0
 13
1.0
 23
0.0
 33
0.0
 40
0.0
 40
0.0
 40
0.0
 40
0.0
 40
0.0287970314917882
 40
0.1312939636596065
 40
0.2376450060561335
 40
0.3987859355320522
 40
0.5639029385139142
 40
0.637472922367545
 40
0.6986953158203183
 40
0.7600762040796083
 40
0.8572949260163182
 40
1.0
 40
1.0
 40
1.0
 40
1.0
 10
506.7306189278366
 20
327.875090344363
 30
0.0
 10
506.7316343575863
 20
327.8742763620511
 30
0.0
 10
506.736263994383
 20
327.8705651821642
 30
0.0
 10
506.713004114176
 20
327.8985393056477
 30
0.0
 10
506.6593417086912
 20
327.9616903537203
 30
0.0
 10
506.5671800308814
 20
328.0718073324228
 30
0.0
 10
506.4743928445981
 20
328.1948749136239
 30
0.0
 10
506.4222345951568
 20
328.3049739806023
 30
0.0
 10
506.4086781804626
 20
328.3859303985945
 30
0.0
 10
506.4253463944042
 20
328.4756275779076
 30
0.0
 10
506.4833201020053
 20
328.583451533558
 30
0.0
 10
506.5372229819991
 20
328.6487138589845
 30
0.0
 10
506.569284055591
 20
328.687531454974
 30
0.0
  0
LINE
  5
143
330
1F
100
AcDbEntity
  8
0
  6
Continuous
 62
     7
370
    15
100
AcDbLine
 10
477.3838995436
 20
316.7262203531
 30
0.0
 11
477.3854790667
 21
316.6293926076
 31
0.0
  0
LINE
  5
144
330
1F
100
AcDbEntity
  8
0
  6
Continuous
 62
     7
370
    15
100
AcDbLine
 10
499.1838960389
 20
316.7260713414
 30
0.0
 11
499.185475562
 21
316.6292137937
 31
0.0
  0
LWPOLYLINE
  5
145
330
1F
100
AcDbEntity
  8
0
  6
Continuous
 62
     7
370
    15
100
AcDbPolyline
 90
        7
 70
   128
 43
0.0
 10
491.1339311341
 20
319.6843094663
 10
491.1339460353
 20
319.6850843267
 10
491.1339460353
 20
319.8910183744
 10
491.1339609364
 20
320.4308874444
 10
491.1339758376
 20
321.2224669294
 10
491.1339758376
 20
322.1452362375
 10
491.1339758376
 20
322.6085431413
  0
LINE
  5
146
330
1F
100
AcDbEntity
  8
0
  6
Continuous
 62
     7
370
    15
100
AcDbLine
 10
491.2339328269
 20
319.6850843267
 30
0.0
 11
491.2339328269
 21
322.6009733514
 31
0.0
  0
LWPOLYLINE
  5
147
330
1F
100
AcDbEntity
  8
0
  6
Continuous
 62
     7
370
    15
100
AcDbPolyline
 90
        6
 70
   128
 43
0.0
 10
491.2339775304
 20
322.7913505868
 10
491.2339775304
 20
322.1452362375
 10
491.2339626292
 20
321.2224669294
 10
491.2339626292
 20
320.4308874444
 10
491.233947728
 20
319.8910183744
 10
491.2339328269
 20
319.6850843267
  0
LWPOLYLINE
  5
148
330
1F
100
AcDbEntity
  8
0
  6
Continuous
 62
     7
370
    15
100
AcDbPolyline
 90
       10
 70
   128
 43
0.0
 10
491.1349891165
 20
322.6085431413
 10
491.1350040177
 20
322.6093180017
 10
491.1350040177
 20
322.8152520494
 10
491.1350189189
 20
323.3551211194
 10
491.13503382
 20
324.1467006044
 10
491.13503382
 20
325.0694699125
 10
491.13503382
 20
325.9829706983
 10
491.13503382
 20
326.7481453256
 10
491.13503382
 20
327.2484667138
 10
491.13503382
 20
327.4085349874
  0
LWPOLYLINE
  5
149
330
1F
100
AcDbEntity
  8
0
  6
Continuous
 62
     7
370
    15
100
AcDbPolyline
 90
       17
 70
   128
 43
0.0
 10
491.2349908093
 20
322.6093180017
 10
491.2349908093
 20
322.7686412172
 10
491.2349908093
 20
323.2689626054
 10
491.2349908093
 20
324.0341074304
 10
491.2349908093
 20
324.9476380185
 10
491.2350057105
 20
325.8704073266
 10
491.2350057105
 20
326.6619868116
 10
491.2350206116
 20
327.2018260793
 10
491.2350355128
 20
327.407760127
 10
491.2350355128
 20
327.2484667138
 10
491.2350355128
 20
326.7481453256
 10
491.2350355128
 20
325.9829706983
 10
491.2350355128
 20
325.0694699125
 10
491.2350206116
 20
324.1467006044
 10
491.2350206116
 20
323.3551211194
 10
491.2350057105
 20
322.8152520494
 10
491.2349908093
 20
322.6093180017
  0
LWPOLYLINE
  5
14A
330
1F
100
AcDbEntity
  8
0
  6
Continuous
 62
     7
370
    15
100
AcDbPolyline
 90
       17
 70
   128
 43
0.0
 10
476.1838047246
 20
307.0908911065
 10
476.3942687253
 20
307.0898182229
 10
476.5727101306
 20
307.0867783861
 10
476.6919343213
 20
307.082248433
 10
476.7337916831
 20
307.0769138173
 10
476.6919343213
 20
307.0715792016
 10
476.5726952294
 20
307.0670492486
 10
476.3942687253
 20
307.0640094117
 10
476.1837898234
 20
307.0629663305
 10
475.9733109216
 20
307.0640094117
 10
475.7948844174
 20
307.0670492486
 10
475.6756602267
 20
307.0715792016
 10
475.6338028649
 20
307.0769138173
 10
475.6756602267
 20
307.0822782354
 10
475.7948844174
 20
307.0868081884
 10
475.9733258227
 20
307.0898182229
 10
476.1838047246
 20
307.0908911065
  0
ELLIPSE
  5
14B
330
1F
100
AcDbEntity
  8
0
  6
Continuous
 62
     7
370
    15
100
AcDbEllipse
 10
476.1838074415
 20
308.8263558951
 30
0.0
 11
-0.5499519144407827
 21
0.5499595331057776
 31
0.0
210
0.0
220
0.0
230
1.0
 40
0.0126985263
 41
3.154290500286866
 42
4.725077815503601
  0
ELLIPSE
  5
14C
330
1F
100
AcDbEntity
  8
0
  6
Continuous
 62
     7
370
    15
100
AcDbEllipse
 10
476.1838074415
 20
308.8263558951
 30
0.0
 11
0.5499594702143328
 21
0.5499518515502474
 31
0.0
210
0.0
220
0.0
230
1.0
 40
0.0126895191
 41
1.55809848010007
 42
3.128894806891595
  0
LWPOLYLINE
  5
14D
330
1F
100
AcDbEntity
  8
0
  6
Continuous
 62
     7
370
    15
100
AcDbPolyline
 90
       12
 70
   128
 43
0.0
 10
483.683797572
 20
307.0908315019
 10
483.8942764739
 20
307.0897586183
 10
484.072702978
 20
307.0867485837
 10
484.1919271687
 20
307.0822186307
 10
484.2337994317
 20
307.0768542127
 10
484.1919271687
 20
307.071519597
 10
484.072702978
 20
307.066989644
 10
483.8942615727
 20
307.0639796094
 10
483.683797572
 20
307.0629067258
 10
483.4733186702
 20
307.0639796094
 10
483.2948772649
 20
307.066989644
 10
483.1854431371
 20
307.0709533529
  0
ARC
  5
14E
330
1F
100
AcDbEntity
  8
0
  6
Continuous
 62
     7
370
    15
100
AcDbCircle
 10
483.6180579177
 20
295.7259084431
 30
0.0
 40
11.36511319056087
100
AcDbArc
 50
89.6685800062
 51
92.1814996873
  0
ELLIPSE
  5
14F
330
1F
100
AcDbEntity
  8
0
  6
Continuous
 62
     7
370
    15
100
AcDbEllipse
 10
483.683807441
 20
308.8263030876
 30
0.0
 11
-0.5499519144407828
 21
0.549959533105664
 31
0.0
210
0.0
220
0.0
230
1.0
 40
0.0126985263
 41
3.154281488703439
 42
4.725077815504065
  0
ELLIPSE
  5
150
330
1F
100
AcDbEntity
  8
0
  6
Continuous
 62
     7
370
    15
100
AcDbEllipse
 10
483.683807441
 20
308.8263030876
 30
0.0
 11
0.5499594702143328
 21
0.5499518515502474
 31
0.0
210
0.0
220
0.0
230
1.0
 40
0.0126895191
 41
1.55809848010007
 42
2.692112027795192
  0
LWPOLYLINE
  5
151
330
1F
100
AcDbEntity
  8
0
  6
Continuous
 62
     7
370
    15
100
AcDbPolyline
 90
       17
 70
   128
 43
0.0
 10
491.1838053206
 20
307.0907718973
 10
491.3942693213
 20
307.0896990136
 10
491.5727107266
 20
307.0866889791
 10
491.6919349173
 20
307.0821590261
 10
491.7337922791
 20
307.0768244104
 10
491.6919200162
 20
307.0714599923
 10
491.5726958255
 20
307.0669300393
 10
491.3942693213
 20
307.0639200048
 10
491.1837904195
 20
307.0628471212
 10
490.9733115176
 20
307.0639200048
 10
490.7948850135
 20
307.0669300393
 10
490.6756608227
 20
307.0714897947
 10
490.6337885598
 20
307.0768244104
 10
490.6756608227
 20
307.0821590261
 10
490.7948850135
 20
307.0866889791
 10
490.9733264188
 20
307.089728816
 10
491.1838053206
 20
307.0907718973
  0
ELLIPSE
  5
152
330
1F
100
AcDbEntity
  8
0
  6
Continuous
 62
     7
370
    15
100
AcDbEllipse
 10
491.1838074405
 20
308.8262502802
 30
0.0
 11
-0.5499519144407827
 21
0.5499595331057776
 31
0.0
210
0.0
220
0.0
230
1.0
 40
0.0126985263
 41
3.154281488711639
 42
4.725077815503911
  0
ELLIPSE
  5
153
330
1F
100
AcDbEntity
  8
0
  6
Continuous
 62
     7
370
    15
100
AcDbEllipse
 10
491.1838074405
 20
308.8262502802
 30
0.0
 11
0.5499594702143328
 21
0.5499518515502474
 31
0.0
210
0.0
220
0.0
230
1.0
 40
0.0126895191
 41
1.558098480100174
 42
3.128903818472537
  0
ARC
  5
154
330
1F
100
AcDbEntity
  8
0
  6
Continuous
 62
     7
370
    15
100
AcDbCircle
 10
498.7519174207
 20
295.944724708
 30
0.0
 40
11.14619573971063
100
AcDbArc
 50
87.7710101834
 51
90.3501616216
  0
LWPOLYLINE
  5
155
330
1F
100
AcDbEntity
  8
0
  6
Continuous
 62
     7
370
    15
100
AcDbPolyline
 90
       13
 70
   128
 43
0.0
 10
499.1854308585
 20
307.0710427598
 10
499.0727035741
 20
307.066900237
 10
498.8942621688
 20
307.0638604001
 10
498.6837832669
 20
307.0627875165
 10
498.4733192662
 20
307.0638604001
 10
498.2948778609
 20
307.066900237
 10
498.1756536702
 20
307.07143019
 10
498.1337963084
 20
307.0767648057
 10
498.1756685714
 20
307.0820994214
 10
498.2948927621
 20
307.0866293744
 10
498.4733192662
 20
307.0896692113
 10
498.6837981681
 20
307.0907122926
 10
498.6837981681
 20
307.0907122926
  0
ELLIPSE
  5
156
330
1F
100
AcDbEntity
  8
0
  6
Continuous
 62
     7
370
    15
100
AcDbEllipse
 10
498.68380744
 20
308.8261974727
 30
0.0
 11
-0.5499519144408395
 21
0.5499595331057209
 31
0.0
210
0.0
220
0.0
230
1.0
 40
0.0126985263
 41
3.576786509864187
 42
4.725077815503703
  0
ELLIPSE
  5
157
330
1F
100
AcDbEntity
  8
0
  6
Continuous
 62
     7
370
    15
100
AcDbEllipse
 10
498.68380744
 20
308.8261974727
 30
0.0
 11
0.5499594702143328
 21
0.5499518515503042
 31
0.0
210
0.0
220
0.0
230
1.0
 40
0.0126895191
 41
1.558098480099966
 42
3.128894806887535
  0
LWPOLYLINE
  5
158
330
1F
100
AcDbEntity
  8
0
  6
Continuous
 62
     7
370
    15
100
AcDbPolyline
 90
       17
 70
   128
 43
0.0
 10
506.1838059167
 20
307.0906824903
 10
506.3942699174
 20
307.0896096067
 10
506.5727113227
 20
307.0865697698
 10
506.6919355134
 20
307.0820398168
 10
506.7337928752
 20
307.0767052011
 10
506.6919206122
 20
307.0713705854
 10
506.5726964215
 20
307.0668406324
 10
506.3942699174
 20
307.0638007955
 10
506.1837910155
 20
307.0627577142
 10
505.9733121136
 20
307.0638007955
 10
505.7948856095
 20
307.0668406324
 10
505.6756614188
 20
307.0713705854
 10
505.6337891558
 20
307.0767052011
 10
505.6756614188
 20
307.0820696191
 10
505.7948856095
 20
307.0865697698
 10
505.9733270148
 20
307.0896096067
 10
506.1838059167
 20
307.0906824903
  0
ELLIPSE
  5
159
330
1F
100
AcDbEntity
  8
0
  6
Continuous
 62
     7
370
    15
100
AcDbEllipse
 10
506.1838074395
 20
308.8261446653
 30
0.0
 11
-0.5499519144408396
 21
0.5499595331057776
 31
0.0
210
0.0
220
0.0
230
1.0
 40
0.0126985263
 41
3.154290500278667
 42
4.725077815503651
  0
ELLIPSE
  5
15A
330
1F
100
AcDbEntity
  8
0
  6
Continuous
 62
     7
370
    15
100
AcDbEllipse
 10
506.1838074395
 20
308.8261446653
 30
0.0
 11
0.5499594702142759
 21
0.5499518515502474
 31
0.0
210
0.0
220
0.0
230
1.0
 40
0.0126895191
 41
1.558098480100275
 42
3.128903818464419
  0
ELLIPSE
  5
15B
330
1F
100
AcDbEntity
  8
0
  6
Continuous
 62
     7
370
    15
100
AcDbEllipse
 10
476.1838074415
 20
308.8263558951
 30
0.0
 11
-0.5499519144407827
 21
0.5499595331057776
 31
0.0
210
0.0
220
0.0
230
1.0
 40
0.0126985263
 41
4.725077815503601
 42
6.270487460493184
  0
ELLIPSE
  5
15C
330
1F
100
AcDbEntity
  8
0
  6
Continuous
 62
     7
370
    15
100
AcDbEllipse
 10
476.1838074415
 20
308.8263558951
 30
0.0
 11
0.5499594702143328
 21
0.5499518515502474
 31
0.0
210
0.0
220
0.0
230
1.0
 40
0.0126895191
 41
0.0126888351162452
 42
1.55809848010007
  0
ELLIPSE
  5
15D
330
1F
100
AcDbEntity
  8
0
  6
Continuous
 62
     7
370
    15
100
AcDbEllipse
 10
483.683807441
 20
308.8263030876
 30
0.0
 11
-0.5499519144407828
 21
0.549959533105664
 31
0.0
210
0.0
220
0.0
230
1.0
 40
0.0126985263
 41
4.725077815504065
 42
5.859100328430886
  0
ELLIPSE
  5
15E
330
1F
100
AcDbEntity
  8
0
  6
Continuous
 62
     7
370
    15
100
AcDbEllipse
 10
483.683807441
 20
308.8263030876
 30
0.0
 11
0.5499594702143328
 21
0.5499518515502474
 31
0.0
210
0.0
220
0.0
230
1.0
 40
0.0126895191
 41
0.0126888351121714
 42
1.55809848010007
  0
ELLIPSE
  5
15F
330
1F
100
AcDbEntity
  8
0
  6
Continuous
 62
     7
370
    15
100
AcDbEllipse
 10
491.1838074405
 20
308.8262502802
 30
0.0
 11
-0.5499519144407827
 21
0.5499595331057776
 31
0.0
210
0.0
220
0.0
230
1.0
 40
0.0126985263
 41
4.725077815503911
 42
6.270487460493184
  0
ELLIPSE
  5
160
330
1F
100
AcDbEntity
  8
0
  6
Continuous
 62
     7
370
    15
100
AcDbEllipse
 10
491.1838074405
 20
308.8262502802
 30
0.0
 11
0.5499594702143328
 21
0.5499518515502474
 31
0.0
210
0.0
220
0.0
230
1.0
 40
0.0126895191
 41
0.0126888351203139
 42
1.558098480100174
  0
ELLIPSE
  5
161
330
1F
100
AcDbEntity
  8
0
  6
Continuous
 62
     7
370
    15
100
AcDbEllipse
 10
498.68380744
 20
308.8261974727
 30
0.0
 11
-0.5499519144408395
 21
0.5499595331057209
 31
0.0
210
0.0
220
0.0
230
1.0
 40
0.0126985263
 41
4.725077815503703
 42
6.27048746047696
  0
ELLIPSE
  5
162
330
1F
100
AcDbEntity
  8
0
  6
Continuous
 62
     7
370
    15
100
AcDbEllipse
 10
498.68380744
 20
308.8261974727
 30
0.0
 11
0.5499594702143328
 21
0.5499518515503042
 31
0.0
210
0.0
220
0.0
230
1.0
 40
0.0126895191
 41
0.409816484341588
 42
1.558098480099966
  0
ELLIPSE
  5
163
330
1F
100
AcDbEntity
  8
0
  6
Continuous
 62
     7
370
    15
100
AcDbEllipse
 10
506.1838074395
 20
308.8261446653
 30
0.0
 11
-0.5499519144408396
 21
0.5499595331057776
 31
0.0
210
0.0
220
0.0
230
1.0
 40
0.0126985263
 41
4.725077815503651
 42
6.270487460489179
  0
ELLIPSE
  5
164
330
1F
100
AcDbEntity
  8
0
  6
Continuous
 62
     7
370
    15
100
AcDbEllipse
 10
506.1838074395
 20
308.8261446653
 30
0.0
 11
0.5499594702142759
 21
0.5499518515502474
 31
0.0
210
0.0
220
0.0
230
1.0
 40
0.0126895191
 41
0.0126888351162426
 42
1.558098480100275
  0
ELLIPSE
  5
165
330
1F
100
AcDbEntity
  8
0
  6
Continuous
 62
     7
370
    15
100
AcDbEllipse
 10
476.1838585168
 20
316.3239392111
 30
0.0
 11
-0.549951914440726
 21
0.5499595331057208
 31
0.0
210
0.0
220
0.0
230
1.0
 40
0.0126985263
 41
3.154281488715694
 42
4.725077815503706
  0
ELLIPSE
  5
166
330
1F
100
AcDbEntity
  8
0
  6
Continuous
 62
     7
370
    15
100
AcDbEllipse
 10
476.1838585168
 20
316.3239392111
 30
0.0
 11
0.5499594702143895
 21
0.5499518515502473
 31
0.0
210
0.0
220
0.0
230
1.0
 40
0.0126895191
 41
1.558098480099917
 42
3.128894806903857
  0
ELLIPSE
  5
167
330
1F
100
AcDbEntity
  8
0
  6
Continuous
 62
     7
370
    15
100
AcDbEllipse
 10
483.6838585163
 20
316.3238864037
 30
0.0
 11
-0.5499519144407827
 21
0.5499595331057209
 31
0.0
210
0.0
220
0.0
230
1.0
 40
0.0126985263
 41
3.154281488707547
 42
4.725077815503807
  0
ELLIPSE
  5
168
330
1F
100
AcDbEntity
  8
0
  6
Continuous
 62
     7
370
    15
100
AcDbEllipse
 10
483.6838585163
 20
316.3238864037
 30
0.0
 11
0.5499594702143328
 21
0.5499518515502474
 31
0.0
210
0.0
220
0.0
230
1.0
 40
0.0126895191
 41
1.55809848010007
 42
2.692179491671055
  0
ELLIPSE
  5
169
330
1F
100
AcDbEntity
  8
0
  6
Continuous
 62
     7
370
    15
100
AcDbEllipse
 10
491.1838585158
 20
316.3238335963
 30
0.0
 11
-0.5499519144407827
 21
0.5499595331057209
 31
0.0
210
0.0
220
0.0
230
1.0
 40
0.0126985263
 41
3.154281488707495
 42
4.725077815503859
  0
ELLIPSE
  5
16A
330
1F
100
AcDbEntity
  8
0
  6
Continuous
 62
     7
370
    15
100
AcDbEllipse
 10
491.1838585158
 20
316.3238335963
 30
0.0
 11
0.5499594702143328
 21
0.5499518515502474
 31
0.0
210
0.0
220
0.0
230
1.0
 40
0.0126895191
 41
1.558098480100174
 42
3.128903818472537
  0
ELLIPSE
  5
16B
330
1F
100
AcDbEntity
  8
0
  6
Continuous
 62
     7
370
    15
100
AcDbEllipse
 10
498.6838585153
 20
316.3237807888
 30
0.0
 11
-0.5499519144408396
 21
0.5499595331057776
 31
0.0
210
0.0
220
0.0
230
1.0
 40
0.0126985263
 41
3.576856101938556
 42
4.725077815503961
  0
ELLIPSE
  5
16C
330
1F
100
AcDbEntity
  8
0
  6
Continuous
 62
     7
370
    15
100
AcDbEllipse
 10
498.6838585153
 20
316.3237807888
 30
0.0
 11
0.5499594702143328
 21
0.5499518515502474
 31
0.0
210
0.0
220
0.0
230
1.0
 40
0.0126895191
 41
1.558098480100277
 42
3.128903818468478
  0
ELLIPSE
  5
16D
330
1F
100
AcDbEntity
  8
0
  6
Continuous
 62
     7
370
    15
100
AcDbEllipse
 10
506.1838585149
 20
316.3237279814
 30
0.0
 11
-0.5499519144408965
 21
0.5499595331057209
 31
0.0
210
0.0
220
0.0
230
1.0
 40
0.0126985263
 41
3.154290500270556
 42
4.725077815503648
  0
ELLIPSE
  5
16E
330
1F
100
AcDbEntity
  8
0
  6
Continuous
 62
     7
370
    15
100
AcDbEllipse
 10
506.1838585149
 20
316.3237279814
 30
0.0
 11
0.5499594702142759
 21
0.5499518515503042
 31
0.0
210
0.0
220
0.0
230
1.0
 40
0.0126895191
 41
1.558098480100119
 42
3.12890381845212
  0
ELLIPSE
  5
16F
330
1F
100
AcDbEntity
  8
0
  6
Continuous
 62
     7
370
    15
100
AcDbEllipse
 10
476.1838585168
 20
316.3239392111
 30
0.0
 11
-0.549951914440726
 21
0.5499595331057208
 31
0.0
210
0.0
220
0.0
230
1.0
 40
0.0126985263
 41
4.725077815503706
 42
6.270487460493185
  0
ELLIPSE
  5
170
330
1F
100
AcDbEntity
  8
0
  6
Continuous
 62
     7
370
    15
100
AcDbEllipse
 10
476.1838585168
 20
316.3239392111
 30
0.0
 11
0.5499594702143895
 21
0.5499518515502473
 31
0.0
210
0.0
220
0.0
230
1.0
 40
0.0126895191
 41
0.012688835116191
 42
1.558098480099917
  0
ELLIPSE
  5
171
330
1F
100
AcDbEntity
  8
0
  6
Continuous
 62
     7
370
    15
100
AcDbEllipse
 10
483.6838585163
 20
316.3238864037
 30
0.0
 11
-0.5499519144407827
 21
0.5499595331057209
 31
0.0
210
0.0
220
0.0
230
1.0
 40
0.0126985263
 41
4.725077815503807
 42
5.865865184154757
  0
ELLIPSE
  5
172
330
1F
100
AcDbEntity
  8
0
  6
Continuous
 62
     7
370
    15
100
AcDbEllipse
 10
483.6838585163
 20
316.3238864037
 30
0.0
 11
0.5499594702143328
 21
0.5499518515502474
 31
0.0
210
0.0
220
0.0
230
1.0
 40
0.0126895191
 41
0.0126888351203165
 42
1.55809848010007
  0
ELLIPSE
  5
173
330
1F
100
AcDbEntity
  8
0
  6
Continuous
 62
     7
370
    15
100
AcDbEllipse
 10
491.1838585158
 20
316.3238335963
 30
0.0
 11
-0.5499519144407828
 21
0.549959533105664
 31
0.0
210
0.0
220
0.0
230
1.0
 40
0.0126985263
 41
4.725077815503858
 42
6.270487460481069
  0
ELLIPSE
  5
174
330
1F
100
AcDbEntity
  8
0
  6
Continuous
 62
     7
370
    15
100
AcDbEllipse
 10
491.1838585158
 20
316.3238335963
 30
0.0
 11
0.5499594702143328
 21
0.5499518515502474
 31
0.0
210
0.0
220
0.0
230
1.0
 40
0.0126895191
 41
0.0126888351203139
 42
1.55809848010007
  0
ELLIPSE
  5
175
330
1F
100
AcDbEntity
  8
0
  6
Continuous
 62
     7
370
    15
100
AcDbEllipse
 10
498.6838585153
 20
316.3237807888
 30
0.0
 11
-0.5499519144408396
 21
0.5499595331057776
 31
0.0
210
0.0
220
0.0
230
1.0
 40
0.0126985263
 41
4.725077815503961
 42
6.270487460489179
  0
ELLIPSE
  5
176
330
1F
100
AcDbEntity
  8
0
  6
Continuous
 62
     7
370
    15
100
AcDbEllipse
 10
498.6838585153
 20
316.3237807888
 30
0.0
 11
0.5499594702143328
 21
0.5499518515502474
 31
0.0
210
0.0
220
0.0
230
1.0
 40
0.0126895191
 41
0.4166936944988978
 42
1.558098480100277
  0
ELLIPSE
  5
177
330
1F
100
AcDbEntity
  8
0
  6
Continuous
 62
     7
370
    15
100
AcDbEllipse
 10
506.1838585149
 20
316.3237279814
 30
0.0
 11
-0.5499519144408965
 21
0.5499595331057209
 31
0.0
210
0.0
220
0.0
230
1.0
 40
0.0126985263
 41
4.725077815503648
 42
6.270487460477011
  0
ELLIPSE
  5
178
330
1F
100
AcDbEntity
  8
0
  6
Continuous
 62
     7
370
    15
100
AcDbEllipse
 10
506.1838585149
 20
316.3237279814
 30
0.0
 11
0.5499594702142759
 21
0.5499518515503042
 31
0.0
210
0.0
220
0.0
230
1.0
 40
0.0126895191
 41
0.0126888351244338
 42
1.558098480100119
  0
LINE
  5
179
330
1F
100
AcDbEntity
  8
0
  6
Continuous
 62
     7
370
    15
100
AcDbLine
 10
291.1833851079
 20
110.8094580011
 30
0.0
 11
291.183861945
 21
100.4576213197
 31
0.0
  0
LINE
  5
17A
330
1F
100
AcDbEntity
  8
0
  6
Continuous
 62
     7
370
    15
100
AcDbLine
 10
691.1838902572
 20
100.1258022622
 30
0.0
 11
691.1839833895
 21
98.1798894243
 31
0.0
  0
LINE
  5
17B
330
1F
100
AcDbEntity
  8
0
  6
Continuous
 62
     7
370
    15
100
AcDbLine
 10
691.1839833895
 20
98.1798894243
 30
0.0
 11
691.1839722136
 21
97.8418118791
 31
0.0
  0
LINE
  5
17C
330
1F
100
AcDbEntity
  8
0
  6
Continuous
 62
     7
370
    15
100
AcDbLine
 10
291.1833851079
 20
110.4713804559
 30
0.0
 11
291.183861945
 21
99.9975330667
 31
0.0
  0
LWPOLYLINE
  5
17D
330
1F
100
AcDbEntity
  8
0
  6
Continuous
 62
     7
370
    15
100
AcDbPolyline
 90
        9
 70
   128
 43
0.0
 10
291.1833255032
 20
111.0760099725
 10
291.1833255032
 20
111.157310708
 10
291.1833255032
 20
111.1919410066
 10
291.1833255032
 20
111.1785895662
 10
291.1833553056
 20
111.1177332238
 10
291.1833553056
 20
111.0117561654
 10
291.1833553056
 20
110.8647115068
 10
291.1833851079
 20
110.6822616891
 10
291.1833851079
 20
110.4713804559
  0
LWPOLYLINE
  5
17E
330
1F
100
AcDbEntity
  8
0
  6
Continuous
 62
     7
370
    15
100
AcDbPolyline
 90
        9
 70
   128
 43
0.0
 10
291.1832957009
 20
111.8010408716
 10
291.1832957009
 20
111.9343764619
 10
291.1832957009
 20
111.9911796884
 10
291.1833255032
 20
111.9692451791
 10
291.1833255032
 20
111.8694670038
 10
291.1833553056
 20
111.6956598596
 10
291.1833553056
 20
111.4545590715
 10
291.1833851079
 20
111.1552841501
 10
291.1833851079
 20
110.8094580011
  0
LINE
  5
17F
330
1F
100
AcDbEntity
  8
0
  6
Continuous
 62
     7
370
    15
100
AcDbLine
 10
291.1818353871
 20
55.1691181497
 30
0.0
 11
291.1833255032
 21
111.0760099725
 31
0.0
  0
LINE
  5
180
330
1F
100
AcDbEntity
  8
0
  6
Continuous
 62
     7
370
    15
100
AcDbLine
 10
291.1818055848
 20
55.8941490487
 30
0.0
 11
291.1832957009
 21
111.8010408716
 31
0.0
  0
LWPOLYLINE
  5
181
330
1F
100
AcDbEntity
  8
0
  6
Continuous
 62
     7
370
    15
100
AcDbPolyline
 90
        9
 70
   128
 43
0.0
 10
291.1815969685
 20
55.1691181497
 10
291.1816267709
 20
54.7304279641
 10
291.1816863755
 20
54.4132716493
 10
291.1817161778
 20
54.2214639024
 10
291.1817459801
 20
54.1572697
 10
291.1817757825
 20
54.2214639024
 10
291.1818055848
 20
54.4132716493
 10
291.1818353871
 20
54.7304279641
 10
291.1818353871
 20
55.1691181497
  0
LWPOLYLINE
  5
182
330
1F
100
AcDbEntity
  8
0
  6
Continuous
 62
     7
370
    15
100
AcDbPolyline
 90
        9
 70
   128
 43
0.0
 10
291.1815671662
 20
55.8941490487
 10
291.1816267709
 20
55.4879433946
 10
291.1816565732
 20
55.1942713098
 10
291.1816863755
 20
55.016709073
 10
291.1817161778
 20
54.9572236375
 10
291.1817459801
 20
55.016709073
 10
291.1817757825
 20
55.1942713098
 10
291.1818055848
 20
55.4879433946
 10
291.1818055848
 20
55.8941490487
  0
LINE
  5
183
330
1F
100
AcDbEntity
  8
0
  6
Continuous
 62
     7
370
    15
100
AcDbLine
 10
691.1817519406
 20
54.1706211404
 30
0.0
 11
691.1817668418
 21
54.1862375573
 31
0.0
  0
LINE
  5
184
330
1F
100
AcDbEntity
  8
0
  6
Continuous
 62
     7
370
    15
100
AcDbLine
 10
291.1796598176
 20
76.5049583749
 30
0.0
 11
291.1815671662
 21
55.8941490487
 31
0.0
  0
LINE
  5
185
330
1F
100
AcDbEntity
  8
0
  6
Continuous
 62
     7
370
    15
100
AcDbLine
 10
291.1796598176
 20
75.7799274759
 30
0.0
 11
291.1815969685
 21
55.1691181497
 31
0.0
  0
LWPOLYLINE
  5
186
330
1F
100
AcDbEntity
  8
0
  6
Continuous
 62
     7
370
    15
100
AcDbPolyline
 90
        9
 70
   128
 43
0.0
 10
291.1791829804
 20
85.5680234269
 10
291.1792425851
 20
84.1547376947
 10
291.1793021897
 20
82.7697641687
 10
291.1793617944
 20
81.4409978227
 10
291.179421399
 20
80.195081933
 10
291.1794810036
 20
79.0569908456
 10
291.1795406083
 20
78.0496723489
 10
291.1796002129
 20
77.1932728128
 10
291.1796598176
 20
76.5049583749
  0
LWPOLYLINE
  5
187
330
1F
100
AcDbEntity
  8
0
  6
Continuous
 62
     7
370
    15
100
AcDbPolyline
 90
        9
 70
   128
 43
0.0
 10
291.1791531781
 20
85.5680234269
 10
291.1792127827
 20
84.0416676835
 10
291.1792723874
 20
82.5458891229
 10
291.179331992
 20
81.1107880906
 10
291.1793915967
 20
79.7652132348
 10
291.1794810036
 20
78.5361058549
 10
291.1795406083
 20
77.4482018785
 10
291.1796002129
 20
76.5232570009
 10
291.1796598176
 20
75.7799274759
  0
LINE
  5
188
330
1F
100
AcDbEntity
  8
0
  6
Continuous
 62
     7
370
    15
100
AcDbLine
 10
291.1771862248
 20
144.1973573999
 30
0.0
 11
291.1841897706
 21
144.3643994169
 31
0.0
  0
LINE
  5
189
330
1F
100
AcDbEntity
  8
0
  6
Continuous
 62
     7
370
    15
100
AcDbLine
 10
291.1841897706
 20
144.364131196
 30
0.0
 11
291.1772160271
 21
144.1973573999
 31
0.0
  0
LINE
  5
18A
330
1F
100
AcDbEntity
  8
0
  6
Continuous
 62
     7
370
    15
100
AcDbLine
 10
291.1772160271
 20
144.1973573999
 30
0.0
 11
291.1791829804
 21
85.5680234269
 31
0.0
  0
LINE
  5
18B
330
1F
100
AcDbEntity
  8
0
  6
Continuous
 62
     7
370
    15
100
AcDbLine
 10
291.1771862248
 20
144.1973573999
 30
0.0
 11
291.1791531781
 21
85.5680234269
 31
0.0
  0
LWPOLYLINE
  5
18C
330
1F
100
AcDbEntity
  8
0
  6
Continuous
 62
     7
370
    15
100
AcDbPolyline
 90
        3
 70
   128
 43
0.0
 10
491.7338518838
 20
315.4995865659
 10
493.3292000035
 20
315.6702942685
 10
493.8638983706
 20
315.7738275365
  0
LWPOLYLINE
  5
18D
330
1F
100
AcDbEntity
  8
0
  6
Continuous
 62
     7
370
    15
100
AcDbPolyline
 90
        3
 70
   128
 43
0.0
 10
496.9524769524
 20
316.8738014535
 10
497.3766236047
 20
317.1002991037
 10
498.1338708142
 20
317.558658822
  0
LWPOLYLINE
  5
18E
330
1F
100
AcDbEntity
  8
0
  6
Continuous
 62
     7
370
    15
100
AcDbPolyline
 90
        3
 70
   128
 43
0.0
 10
503.8590459565
 20
327.4084455804
 10
503.8715331296
 20
327.6485330896
 10
503.8790284137
 20
327.8712458448
  0
LWPOLYLINE
  5
18F
330
1F
100
AcDbEntity
  8
0
  6
Continuous
 62
     7
370
    15
100
AcDbPolyline
 90
        3
 70
   128
 43
0.0
 10
478.4862874488
 20
327.8973824815
 10
478.4944085816
 20
327.6487119035
 10
478.5068808535
 20
327.4086243944
  0
LWPOLYLINE
  5
190
330
1F
100
AcDbEntity
  8
0
  6
Continuous
 62
     7
370
    15
100
AcDbPolyline
 90
        3
 70
   128
 43
0.0
 10
484.2338739375
 20
317.5574965314
 10
484.9891690949
 20
317.1003885106
 10
485.4133157471
 20
316.8738610582
  0
LWPOLYLINE
  5
191
330
1F
100
AcDbEntity
  8
0
  6
Continuous
 62
     7
370
    15
100
AcDbPolyline
 90
        3
 70
   128
 43
0.0
 10
488.5018794278
 20
315.7738573388
 10
489.0365777949
 20
315.6703240709
 10
490.6338481644
 20
315.4994971589
  0
LWPOLYLINE
  5
192
330
1F
100
AcDbEntity
  8
0
  6
Continuous
 62
     7
370
    15
100
AcDbPolyline
 90
        3
 70
   128
 43
0.0
 10
491.7338518838
 20
315.4995865659
 10
493.3287976722
 20
315.6702942685
 10
493.8634811381
 20
315.7738275365
  0
LWPOLYLINE
  5
193
330
1F
100
AcDbEntity
  8
0
  6
Continuous
 62
     7
370
    15
100
AcDbPolyline
 90
        3
 70
   128
 43
0.0
 10
496.9520746211
 20
316.8738014535
 10
497.3762212733
 20
317.1002991037
 10
498.1338708142
 20
317.5589270429
  0
LWPOLYLINE
  5
194
330
1F
100
AcDbEntity
  8
0
  6
Continuous
 62
     7
370
    15
100
AcDbPolyline
 90
        3
 70
   128
 43
0.0
 10
503.8586436251
 20
327.4084455804
 10
503.8711158971
 20
327.6485330896
 10
503.8786260823
 20
327.8712458448
  0
LINE
  5
195
330
1F
100
AcDbEntity
  8
0
  6
Continuous
 62
     7
370
    15
100
AcDbLine
 10
511.1852912644
 20
299.687487586
 30
0.0
 11
504.9853949288
 21
299.6875173883
 31
0.0
  0
LINE
  5
196
330
1F
100
AcDbEntity
  8
0
  6
Continuous
 62
     7
370
    15
100
AcDbLine
 10
499.1854010562
 20
299.6875769929
 30
0.0
 11
483.1853984336
 21
299.6876962022
 31
0.0
  0
LINE
  5
197
330
1F
100
AcDbEntity
  8
0
  6
Continuous
 62
     7
370
    15
100
AcDbLine
 10
477.3854045609
 20
299.6877260045
 30
0.0
 11
471.1852996091
 21
299.6877558069
 31
0.0
  0
ELLIPSE
  5
198
330
1F
100
AcDbEntity
  8
0
  6
Continuous
 62
     7
370
    15
100
AcDbEllipse
 10
580.7356081393
 20
313.186994454
 30
0.0
 11
171.0042766894111
 21
11.67204512198003
 31
0.0
210
0.0
220
0.0
230
1.0
 40
0.039655418
 41
2.255807465998635
 42
2.263403213561509
  0
ELLIPSE
  5
199
330
1F
100
AcDbEntity
  8
0
  6
Continuous
 62
     7
370
    15
100
AcDbEllipse
 10
557.3990534809
 20
313.1871587664
 30
0.0
 11
86.29811848460452
 21
-0.0006076243076336141
 31
-0.0007774314507855707
210
9.008672081871475E-6
220
-7.197017979422286E-11
230
0.9999999999594221
 40
0.156434465
 41
3.185837829518576
 42
3.300330646569143
  0
ELLIPSE
  5
19A
330
1F
100
AcDbEntity
  8
0
  6
Continuous
 62
     7
370
    15
100
AcDbEllipse
 10
401.6300901354
 20
313.1882555344
 30
0.0
 11
171.0044760251191
 21
-11.67446152983467
 31
0.0
210
0.0
220
0.0
230
1.0
 40
0.0396552498
 41
0.8781525318158339
 42
0.8857864155646706
  0
ELLIPSE
  5
19B
330
1F
100
AcDbEntity
  8
0
  6
Continuous
 62
     7
370
    15
100
AcDbEllipse
 10
424.9667113886
 20
313.1880912214
 30
0.0
 11
-86.29811848460446
 21
0.0006076243076336141
 31
0.0007774314507855706
210
9.008672081871480E-6
220
-7.197017975629076E-11
230
0.9999999999594221
 40
0.156434465
 41
2.982854660610517
 42
3.098680240038231
  0
LINE
  5
19C
330
1F
100
AcDbEntity
  8
0
  6
Continuous
 62
     7
370
    15
100
AcDbLine
 10
472.1858976821
 20
311.0537953214
 30
0.0
 11
475.6338177661
 21
311.0537655191
 31
0.0
  0
LINE
  5
19D
330
1F
100
AcDbEntity
  8
0
  6
Continuous
 62
     7
370
    15
100
AcDbLine
 10
476.7338214854
 20
311.0537655191
 30
0.0
 11
477.3854492644
 21
311.0537357168
 31
0.0
  0
LINE
  5
19E
330
1F
100
AcDbEntity
  8
0
  6
Continuous
 62
     7
370
    15
100
AcDbLine
 10
484.233829234
 20
311.0537059144
 30
0.0
 11
490.6338183621
 21
311.0536463098
 31
0.0
  0
LINE
  5
19F
330
1F
100
AcDbEntity
  8
0
  6
Continuous
 62
     7
370
    15
100
AcDbLine
 10
491.7338220814
 20
311.0536463098
 30
0.0
 11
498.1338261107
 21
311.0535867051
 31
0.0
  0
LINE
  5
1A0
330
1F
100
AcDbEntity
  8
0
  6
Continuous
 62
     7
370
    15
100
AcDbLine
 10
504.9854545335
 20
311.0535569028
 30
0.0
 11
505.6338189582
 21
311.0535569028
 31
0.0
  0
LINE
  5
1A1
330
1F
100
AcDbEntity
  8
0
  6
Continuous
 62
     7
370
    15
100
AcDbLine
 10
506.7338226775
 20
311.0535271005
 30
0.0
 11
510.1798354129
 21
311.0535271005
 31
0.0
  0
ARC
  5
1A2
330
1F
100
AcDbEntity
  8
0
  6
Continuous
 62
     7
370
    15
100
AcDbCircle
 10
491.1829880497
 20
328.1876249935
 30
0.0
 40
14.99999999999998
100
AcDbArc
 50
272.1045620572
 51
297.606121557
  0
ARC
  5
1A3
330
1F
100
AcDbEntity
  8
0
  6
Continuous
 62
     7
370
    15
100
AcDbCircle
 10
491.1829880497
 20
328.1876249935
 30
0.0
 40
15.00000000000002
100
AcDbArc
 50
242.4012984654
 51
267.9019294911
  0
ARC
  5
1A4
330
1F
100
AcDbEntity
  8
0
  6
Continuous
 62
     7
370
    15
100
AcDbCircle
 10
491.1829745367
 20
328.1876249936
 30
0.0
 40
15.00000000000006
100
AcDbArc
 50
272.1046137079
 51
297.6061798044
  0
SPLINE
  5
1A5
330
1F
100
AcDbEntity
  8
0
  6
Continuous
 62
     7
370
    15
100
AcDbSpline
210
0.0
220
0.0
230
1.0
 70
     8
 71
     3
 72
    10
 73
     6
 74
     0
 42
0.00000001
 43
0.00000001
 12
1.0
 22
0.0
 32
0.0
 13
1.0
 23
0.0
 33
0.0
 40
0.0
 40
0.0
 40
0.0
 40
0.0
 40
0.4017998613448632
 40
0.8160244852521711
 40
1.0
 40
1.0
 40
1.0
 40
1.0
 10
509.1835437754396
 20
304.6875126199063
 30
0.0
 10
509.2505782164649
 20
304.6875000044656
 30
0.0
 10
509.3867199887611
 20
304.6874743834801
 30
0.0
 10
510.1126988387103
 20
304.687483645059
 30
0.0
 10
510.9330296208548
 20
304.6874830122143
 30
0.0
 10
511.1853210667375
 20
304.6874828175839
 30
0.0
  0
LWPOLYLINE
  5
1A6
330
1F
100
AcDbEntity
  8
0
  6
Continuous
 62
     7
370
    15
100
AcDbPolyline
 90
        9
 70
   128
 43
0.0
 10
291.1900310258
 20
954.1890449361
 10
291.1900310258
 20
954.1073567704
 10
291.1900310258
 20
953.8655109243
 10
291.1900310258
 20
953.4727759198
 10
291.1900608281
 20
952.9442317323
 10
291.1900608281
 20
952.3002035455
 10
291.1900310258
 20
951.565427287
 10
291.1900310258
 20
950.7681555585
 10
291.1900310258
 20
949.9390251474
  0
LINE
  5
1A7
330
1F
100
AcDbEntity
  8
0
  6
Continuous
 62
     7
370
    15
100
AcDbLine
 10
291.1900310258
 20
954.1890449361
 30
0.0
 11
691.1900295357
 21
954.1862137155
 31
0.0
  0
LWPOLYLINE
  5
1A8
330
1F
100
AcDbEntity
  8
0
  6
Continuous
 62
     7
370
    15
100
AcDbPolyline
 90
        9
 70
   128
 43
0.0
 10
691.1900295357
 20
954.1862137155
 10
691.1900369862
 20
954.1045553521
 10
691.1900407115
 20
953.862709506
 10
691.1900444368
 20
953.4699745015
 10
691.1900481621
 20
952.941430314
 10
691.1900481621
 20
952.2974021272
 10
691.1900444368
 20
951.5626258687
 10
691.1900407115
 20
950.7653541402
 10
691.1900369862
 20
949.9362237291
  0
LWPOLYLINE
  5
1A9
330
1F
100
AcDbEntity
  8
0
  6
Continuous
 62
     7
370
    15
100
AcDbPolyline
 90
        9
 70
   128
 43
0.0
 10
291.1900012234
 20
952.189040883
 10
291.1900310258
 20
952.1457977132
 10
291.1900310258
 20
952.0177669362
 10
291.1900310258
 20
951.8098361329
 10
291.1900310258
 20
951.530022128
 10
291.1900310258
 20
951.1890537576
 10
291.1900310258
 20
950.8000738458
 10
291.1900310258
 20
950.3779835538
 10
291.1900310258
 20
949.9390251474
  0
LINE
  5
1AA
330
1F
100
AcDbEntity
  8
0
  6
Continuous
 62
     7
370
    15
100
AcDbLine
 10
291.1900310258
 20
949.9390251474
 30
0.0
 11
291.1895541886
 21
883.4390319423
 31
0.0
  0
LINE
  5
1AB
330
1F
100
AcDbEntity
  8
0
  6
Continuous
 62
     7
370
    15
100
AcDbLine
 10
691.1900369862
 20
949.9362237291
 30
0.0
 11
691.1895675997
 21
883.4362156228
 31
0.0
  0
LWPOLYLINE
  5
1AC
330
1F
100
AcDbEntity
  8
0
  6
Continuous
 62
     7
370
    15
100
AcDbPolyline
 90
        9
 70
   128
 43
0.0
 10
291.1895541886
 20
883.4390319423
 10
291.1895541886
 20
882.6099015312
 10
291.1895541886
 20
881.8126298026
 10
291.1895541886
 20
881.0778535442
 10
291.1895243863
 20
880.4338253574
 10
291.1895243863
 20
879.9052811698
 10
291.1895243863
 20
879.5125461654
 10
291.189494584
 20
879.2707003192
 10
291.189494584
 20
879.1890270547
  0
LWPOLYLINE
  5
1AD
330
1F
100
AcDbEntity
  8
0
  6
Continuous
 62
     7
370
    15
100
AcDbPolyline
 90
        9
 70
   128
 43
0.0
 10
691.1895675997
 20
883.4362156228
 10
691.1895638744
 20
882.6070852117
 10
691.1895526985
 20
881.8098134832
 10
691.1895452479
 20
881.0750372247
 10
691.1895377973
 20
880.4310090379
 10
691.1895266215
 20
879.9024648504
 10
691.1895191709
 20
879.5097298459
 10
691.189507995
 20
879.2678839998
 10
691.1895005444
 20
879.1862107353
  0
LINE
  5
1AE
330
1F
100
AcDbEntity
  8
0
  6
Continuous
 62
     7
370
    15
100
AcDbLine
 10
291.189494584
 20
879.1890270547
 30
0.0
 11
691.1895005444
 21
879.1862107353
 31
0.0
  0
LWPOLYLINE
  5
1AF
330
1F
100
AcDbEntity
  8
0
  6
Continuous
 62
     7
370
    15
100
AcDbPolyline
 90
        9
 70
   128
 43
0.0
 10
291.1895541886
 20
883.4390319423
 10
291.1895541886
 20
883.0000735359
 10
291.1895541886
 20
882.577998145
 10
291.1895243863
 20
882.1890033321
 10
291.1895243863
 20
881.8480498628
 10
291.1895243863
 20
881.5682209567
 10
291.1895243863
 20
881.3603050546
 10
291.1895243863
 20
881.2322593765
 10
291.1895243863
 20
881.1890311078
  0
LINE
  5
1B0
330
1F
100
AcDbEntity
  8
0
  6
Continuous
 62
     7
370
    15
100
AcDbLine
 10
291.1899118165
 20
954.1890449361
 30
0.0
 11
291.1900310258
 21
954.1890449361
 31
0.0
  0
LINE
  5
1B1
330
1F
100
AcDbEntity
  8
0
  6
Continuous
 62
     7
370
    15
100
AcDbLine
 10
291.1899118165
 20
952.189040883
 30
0.0
 11
291.1900012234
 21
952.189040883
 31
0.0
  0
LINE
  5
1B2
330
1F
100
AcDbEntity
  8
0
  6
Continuous
 62
     7
370
    15
100
AcDbLine
 10
291.189494584
 20
879.1890270547
 30
0.0
 11
291.189405177
 21
879.1890270547
 31
0.0
  0
LINE
  5
1B3
330
1F
100
AcDbEntity
  8
0
  6
Continuous
 62
     7
370
    15
100
AcDbLine
 10
291.1895243863
 20
881.1890311078
 30
0.0
 11
291.189405177
 21
881.1890311078
 31
0.0
  0
LWPOLYLINE
  5
1B4
330
1F
100
AcDbEntity
  8
0
  6
Continuous
 62
     7
370
    15
100
AcDbPolyline
 90
        9
 70
   128
 43
0.0
 10
291.1898522118
 20
949.9390251474
 10
291.1898522118
 20
950.7681555585
 10
291.1898820142
 20
951.565427287
 10
291.1898820142
 20
952.3002035455
 10
291.1898820142
 20
952.9442317323
 10
291.1899118165
 20
953.4727759198
 10
291.1899118165
 20
953.8655109243
 10
291.1899118165
 20
954.1073567704
 10
291.1899118165
 20
954.1890449361
  0
LWPOLYLINE
  5
1B5
330
1F
100
AcDbEntity
  8
0
  6
Continuous
 62
     7
370
    15
100
AcDbPolyline
 90
        9
 70
   128
 43
0.0
 10
291.1898820142
 20
949.9390251474
 10
291.1898820142
 20
950.3779835538
 10
291.1898820142
 20
950.8000738458
 10
291.1898820142
 20
951.1890537576
 10
291.1898820142
 20
951.530022128
 10
291.1898820142
 20
951.8098361329
 10
291.1899118165
 20
952.0177669362
 10
291.1899118165
 20
952.1457977132
 10
291.1899118165
 20
952.189040883
  0
LWPOLYLINE
  5
1B6
330
1F
100
AcDbEntity
  8
0
  6
Continuous
 62
     7
370
    15
100
AcDbPolyline
 90
        9
 70
   128
 43
0.0
 10
291.189405177
 20
881.1890311078
 10
291.189405177
 20
881.1073727445
 10
291.189405177
 20
880.8655268983
 10
291.1893753747
 20
880.4727769927
 10
291.1893753747
 20
879.9442328052
 10
291.1893753747
 20
879.3002046184
 10
291.1893455724
 20
878.5654432611
 10
291.1893455724
 20
877.7681715326
 10
291.1893455724
 20
876.9390262203
  0
LWPOLYLINE
  5
1B7
330
1F
100
AcDbEntity
  8
0
  6
Continuous
 62
     7
370
    15
100
AcDbPolyline
 90
        9
 70
   128
 43
0.0
 10
291.189405177
 20
879.1890270547
 10
291.189405177
 20
879.1457987861
 10
291.1893753747
 20
879.0177680091
 10
291.1893753747
 20
878.8098372058
 10
291.1893753747
 20
878.5300232009
 10
291.1893753747
 20
878.1890697316
 10
291.1893753747
 20
877.8000749187
 10
291.1893753747
 20
877.3779846267
 10
291.1893753747
 20
876.9390262203
  0
LWPOLYLINE
  5
1B8
330
1F
100
AcDbEntity
  8
0
  6
Continuous
 62
     7
370
    15
100
AcDbPolyline
 90
        9
 70
   128
 43
0.0
 10
691.1893962363
 20
879.1862107353
 10
691.189392511
 20
879.1429824666
 10
691.1893887857
 20
879.0149516897
 10
691.1893813351
 20
878.8070208864
 10
691.1893776098
 20
878.5272068815
 10
691.1893738846
 20
878.1862534122
 10
691.1893701593
 20
877.7972585992
 10
691.1893627087
 20
877.3751683072
 10
691.1893589834
 20
876.9362099008
  0
LINE
  5
1B9
330
1F
100
AcDbEntity
  8
0
  6
Continuous
 62
     7
370
    15
100
AcDbLine
 10
291.1897926072
 20
941.189033492
 30
0.0
 11
291.1898522118
 21
949.9390251474
 31
0.0
  0
LINE
  5
1BA
330
1F
100
AcDbEntity
  8
0
  6
Continuous
 62
     7
370
    15
100
AcDbLine
 10
291.1893753747
 20
876.9390262203
 30
0.0
 11
291.1836533288
 21
66.1890036897
 31
0.0
  0
LINE
  5
1BB
330
1F
100
AcDbEntity
  8
0
  6
Continuous
 62
     7
370
    15
100
AcDbLine
 10
691.1893589834
 20
876.9362099008
 30
0.0
 11
691.1836518387
 21
66.1862022714
 31
0.0
  0
LINE
  5
1BC
330
1F
100
AcDbEntity
  8
0
  6
Continuous
 62
     7
370
    15
100
AcDbLine
 10
291.1893455724
 20
876.9390262203
 30
0.0
 11
291.1836235265
 21
66.1890036897
 31
0.0
  0
LWPOLYLINE
  5
1BD
330
1F
100
AcDbEntity
  8
0
  6
Continuous
 62
     7
370
    15
100
AcDbPolyline
 90
       12
 70
   128
 43
0.0
 10
291.1836533288
 20
66.1890036897
 10
291.1836235265
 20
64.0115864114
 10
291.1836235265
 20
61.9064099626
 10
291.1835937241
 20
59.9433905916
 10
291.1835639218
 20
58.1877953843
 10
291.1835341195
 20
56.6978580789
 10
291.1835043172
 20
55.5229909257
 10
291.1835043172
 20
54.7022945718
 10
291.1834745148
 20
54.2629487352
 10
291.1834447125
 20
54.2196161584
 10
291.1834447125
 20
54.5736677484
 10
291.1834149102
 20
55.31336139
  0
LWPOLYLINE
  5
1BE
330
1F
100
AcDbEntity
  8
0
  6
Continuous
 62
     7
370
    15
100
AcDbPolyline
 90
       10
 70
   128
 43
0.0
 10
691.1836518387
 20
66.1862022714
 10
691.1836369375
 20
64.0087253885
 10
691.1836145858
 20
61.9036085443
 10
691.183592234
 20
59.9405891733
 10
691.1835698823
 20
58.184993966
 10
691.1835438052
 20
56.6950566606
 10
691.1835177282
 20
55.5201895074
 10
691.1834953765
 20
54.6994931535
 10
691.1834730247
 20
54.2601473169
 10
691.1834581236
 20
54.1862375573
  0
LWPOLYLINE
  5
1BF
330
1F
100
AcDbEntity
  8
0
  6
Continuous
 62
     7
370
    15
100
AcDbPolyline
 90
       11
 70
   128
 43
0.0
 10
291.1836235265
 20
66.1890036897
 10
291.1836235265
 20
64.1953475313
 10
291.1835937241
 20
62.2817404107
 10
291.1835639218
 20
60.5249531106
 10
291.1835639218
 20
58.995617135
 10
291.1835341195
 20
57.7551252679
 10
291.1835043172
 20
56.8532473878
 10
291.1835043172
 20
56.3261635141
 10
291.1834745148
 20
56.1951525049
 10
291.1834447125
 20
56.4653403596
 10
291.1834447125
 20
57.1259386377
  0
ARC
  5
1C0
330
1F
100
AcDbEntity
  8
0
  6
Continuous
 62
     7
370
    15
100
AcDbCircle
 10
361.1887768307
 20
801.6885402911
 30
0.0
 40
40.00000000000005
100
AcDbArc
 50
89.9995965809
 51
179.9993448916
  0
LINE
  5
1C1
330
1F
100
AcDbEntity
  8
0
  6
Continuous
 62
     7
370
    15
100
AcDbLine
 10
321.1887805203
 20
801.6888178424
 30
0.0
 11
321.184310172
 21
167.6888294057
 31
0.0
  0
ARC
  5
1C2
330
1F
100
AcDbEntity
  8
0
  6
Continuous
 62
     7
370
    15
100
AcDbCircle
 10
361.1843128422
 20
167.6885403068
 30
0.0
 40
40.00000000000001
100
AcDbArc
 50
179.9993448916
 51
269.9995965809
  0
LINE
  5
1C3
330
1F
100
AcDbEntity
  8
0
  6
Continuous
 62
     7
370
    15
100
AcDbLine
 10
361.1890701989
 20
841.6885412769
 30
0.0
 11
621.1890587995
 21
841.686708434
 31
0.0
  0
LINE
  5
1C4
330
1F
100
AcDbEntity
  8
0
  6
Continuous
 62
     7
370
    15
100
AcDbLine
 10
361.1840336064
 20
127.6885397271
 30
0.0
 11
470.6845460871
 21
127.6877648668
 31
0.0
  0
LINE
  5
1C5
330
1F
100
AcDbEntity
  8
0
  6
Continuous
 62
     7
370
    15
100
AcDbLine
 10
511.6846515278
 20
127.6874668435
 30
0.0
 11
621.1840315202
 21
127.6866919832
 31
0.0
  0
ARC
  5
1C6
330
1F
100
AcDbEntity
  8
0
  6
Continuous
 62
     7
370
    15
100
AcDbCircle
 10
621.1887768137
 20
801.6867096333
 30
0.0
 40
40.00000000000005
100
AcDbArc
 50
359.9993448916
 51
89.9995965809
  0
ARC
  5
1C7
330
1F
100
AcDbEntity
  8
0
  6
Continuous
 62
     7
370
    15
100
AcDbCircle
 10
621.1843128252
 20
167.686709649
 30
0.0
 40
39.99999999999996
100
AcDbArc
 50
269.9995965809
 51
359.9993448916
  0
LINE
  5
1C8
330
1F
100
AcDbEntity
  8
0
  6
Continuous
 62
     7
370
    15
100
AcDbLine
 10
661.188776646
 20
801.6864336566
 30
0.0
 11
661.1843137482
 21
167.6864154176
 31
0.0
  0
ELLIPSE
  5
1C9
330
1F
100
AcDbEntity
  8
0
  6
Continuous
 62
     7
370
    15
100
AcDbEllipse
 10
327.0096999363
 20
238.8327383755
 30
0.0
 11
3.999999716405569
 21
-0.02544234052635375
 31
0.0
210
0.0
220
0.0
230
1.0
 40
0.03598652
 41
3.316345212105613
 42
4.712608614019985
  0
LINE
  5
1CA
330
1F
100
AcDbEntity
  8
0
  6
Continuous
 62
     7
370
    15
100
AcDbLine
 10
327.0096509198
 20
238.6887795762
 30
0.0
 11
327.0114986638
 21
238.6887795762
 31
0.0
  0
LINE
  5
1CB
330
1F
100
AcDbEntity
  8
0
  6
Continuous
 62
     7
370
    15
100
AcDbLine
 10
655.3578852156
 20
238.6864549951
 30
0.0
 11
655.3597106079
 21
238.6864549951
 31
0.0
  0
ELLIPSE
  5
1CC
330
1F
100
AcDbEntity
  8
0
  6
Continuous
 62
     7
370
    15
100
AcDbEllipse
 10
655.3597474056
 20
238.8304264657
 30
0.0
 11
4.00000007428514
 21
0.02538860937676191
 31
0.0
210
0.0
220
0.0
230
1.0
 40
0.0359864053
 41
4.712151307495906
 42
6.108414708729863
  0
LINE
  5
1CD
330
1F
100
AcDbEntity
  8
0
  6
Continuous
 62
     7
370
    15
100
AcDbLine
 10
327.0114986638
 20
238.6887795762
 30
0.0
 11
477.3851065377
 21
238.687736495
 31
0.0
  0
LINE
  5
1CE
330
1F
100
AcDbEntity
  8
0
  6
Continuous
 62
     7
370
    15
100
AcDbLine
 10
483.1851153115
 20
238.6876768903
 30
0.0
 11
499.1851179341
 21
238.687557681
 31
0.0
  0
LINE
  5
1CF
330
1F
100
AcDbEntity
  8
0
  6
Continuous
 62
     7
370
    15
100
AcDbLine
 10
504.9851118068
 20
238.6875278787
 30
0.0
 11
655.3578852156
 21
238.6864549951
 31
0.0
  0
LINE
  5
1D0
330
1F
100
AcDbEntity
  8
0
  6
Continuous
 62
     7
370
    15
100
AcDbLine
 10
291.1834447125
 20
57.1259386377
 30
0.0
 11
291.1832658986
 21
71.5642697648
 31
0.0
  0
LINE
  5
1D1
330
1F
100
AcDbEntity
  8
0
  6
Continuous
 62
     7
370
    15
100
AcDbLine
 10
291.1834149102
 20
55.31336139
 30
0.0
 11
291.1832360963
 21
69.7516925172
 31
0.0
  0
LINE
  5
1D2
330
1F
100
AcDbEntity
  8
0
  6
Continuous
 62
     7
370
    15
100
AcDbLine
 10
471.1852698067
 20
296.6877646283
 30
0.0
 11
477.3853896598
 21
296.687734826
 31
0.0
  0
LINE
  5
1D3
330
1F
100
AcDbEntity
  8
0
  6
Continuous
 62
     7
370
    15
100
AcDbLine
 10
483.1853835324
 20
296.6876752214
 30
0.0
 11
499.185386155
 21
296.6875560121
 31
0.0
  0
LINE
  5
1D4
330
1F
100
AcDbEntity
  8
0
  6
Continuous
 62
     7
370
    15
100
AcDbLine
 10
504.9853800277
 20
296.6875262098
 30
0.0
 11
511.1852689127
 21
296.6874964074
 31
0.0
  0
LINE
  5
1D5
330
1F
100
AcDbEntity
  8
0
  6
Continuous
 62
     7
370
    15
100
AcDbLine
 10
291.1832658986
 20
71.5642697648
 30
0.0
 11
291.1832658986
 21
76.4011866884
 31
0.0
  0
LINE
  5
1D6
330
1F
100
AcDbEntity
  8
0
  6
Continuous
 62
     7
370
    15
100
AcDbLine
 10
291.1832360963
 20
69.7516925172
 30
0.0
 11
291.1832360963
 21
75.5559332208
 31
0.0
  0
LINE
  5
1D7
330
1F
100
AcDbEntity
  8
0
  6
Continuous
 62
     7
370
    15
100
AcDbLine
 10
291.1832658986
 20
76.4011866884
 30
0.0
 11
291.1832957009
 21
93.9475424127
 31
0.0
  0
LINE
  5
1D8
330
1F
100
AcDbEntity
  8
0
  6
Continuous
 62
     7
370
    15
100
AcDbLine
 10
291.1838321427
 20
93.9890868501
 30
0.0
 11
291.1832957009
 21
93.9475424127
 31
0.0
  0
LINE
  5
1D9
330
1F
100
AcDbEntity
  8
0
  6
Continuous
 62
     7
370
    15
100
AcDbLine
 10
291.1832360963
 20
75.5559332208
 30
0.0
 11
291.1832957009
 21
93.1023485498
 31
0.0
  0
LINE
  5
1DA
330
1F
100
AcDbEntity
  8
0
  6
Continuous
 62
     7
370
    15
100
AcDbLine
 10
291.1832957009
 20
93.9475424127
 30
0.0
 11
291.1832957009
 21
93.1023485498
 31
0.0
  0
LWPOLYLINE
  5
1DB
330
1F
100
AcDbEntity
  8
0
  6
Continuous
 62
     7
370
    15
100
AcDbPolyline
 90
        9
 70
   128
 43
0.0
 10
291.1900012234
 20
951.9390292005
 10
291.1900310258
 20
951.9006140069
 10
291.1900310258
 20
951.7867989377
 10
291.1900310258
 20
951.6019649343
 10
291.1900310258
 20
951.3532347516
 10
291.1900310258
 20
951.0501749353
 10
291.1900310258
 20
950.7044083909
 10
291.1900310258
 20
950.3292269544
 10
291.1900310258
 20
949.9390251474
  0
LINE
  5
1DC
330
1F
100
AcDbEntity
  8
0
  6
Continuous
 62
     7
370
    15
100
AcDbLine
 10
291.1897926072
 20
939.539027913
 30
0.0
 11
291.1898820142
 21
949.9390251474
 31
0.0
  0
LWPOLYLINE
  5
1DD
330
1F
100
AcDbEntity
  8
0
  6
Continuous
 62
     7
370
    15
100
AcDbPolyline
 90
        9
 70
   128
 43
0.0
 10
291.1898820142
 20
949.9390251474
 10
291.1898820142
 20
950.3292269544
 10
291.1898820142
 20
950.7044083909
 10
291.1898820142
 20
951.0501749353
 10
291.1898820142
 20
951.3532347516
 10
291.1899118165
 20
951.6019649343
 10
291.1899118165
 20
951.7867989377
 10
291.1899118165
 20
951.9006140069
 10
291.1899118165
 20
951.9390292005
  0
LINE
  5
1DE
330
1F
100
AcDbEntity
  8
0
  6
Continuous
 62
     7
370
    15
100
AcDbLine
 10
291.1899118165
 20
951.9390292005
 30
0.0
 11
291.1900012234
 21
951.9390292005
 31
0.0
  0
LINE
  5
1DF
330
1F
100
AcDbEntity
  8
0
  6
Continuous
 62
     7
370
    15
100
AcDbLine
 10
291.1900310258
 20
949.9390251474
 30
0.0
 11
291.1900012234
 21
949.9390251474
 31
0.0
  0
LINE
  5
1E0
330
1F
100
AcDbEntity
  8
0
  6
Continuous
 62
     7
370
    15
100
AcDbLine
 10
291.1900012234
 20
949.9390251474
 30
0.0
 11
291.1900012234
 21
949.3390447931
 31
0.0
  0
LINE
  5
1E1
330
1F
100
AcDbEntity
  8
0
  6
Continuous
 62
     7
370
    15
100
AcDbLine
 10
291.1895243863
 20
884.0390271978
 30
0.0
 11
291.1895243863
 21
883.4390319423
 31
0.0
  0
LINE
  5
1E2
330
1F
100
AcDbEntity
  8
0
  6
Continuous
 62
     7
370
    15
100
AcDbLine
 10
291.1895243863
 20
883.4390319423
 30
0.0
 11
291.1895541886
 21
883.4390319423
 31
0.0
  0
LWPOLYLINE
  5
1E3
330
1F
100
AcDbEntity
  8
0
  6
Continuous
 62
     7
370
    15
100
AcDbPolyline
 90
        9
 70
   128
 43
0.0
 10
291.1895541886
 20
883.4390319423
 10
291.1895541886
 20
883.0488599376
 10
291.1895541886
 20
882.6736635999
 10
291.1895541886
 20
882.3278970556
 10
291.1895243863
 20
882.024822338
 10
291.1895243863
 20
881.7760921554
 10
291.1895243863
 20
881.5912730531
 10
291.1895243863
 20
881.4774579839
 10
291.1895243863
 20
881.4390278892
  0
LINE
  5
1E4
330
1F
100
AcDbEntity
  8
0
  6
Continuous
 62
     7
370
    15
100
AcDbLine
 10
291.1895243863
 20
881.4390278892
 30
0.0
 11
291.189405177
 21
881.4390278892
 31
0.0
  0
LINE
  5
1E5
330
1F
100
AcDbEntity
  8
0
  6
Continuous
 62
     7
370
    15
100
AcDbLine
 10
291.1897926072
 20
938.9390475587
 30
0.0
 11
291.189405177
 21
881.4390278892
 31
0.0
  0
LINE
  5
1E6
330
1F
100
AcDbEntity
  8
0
  6
Continuous
 62
     7
370
    15
100
AcDbLine
 10
291.1897926072
 20
938.9390475587
 30
0.0
 11
291.1898224095
 21
938.9390475587
 31
0.0
  0
LINE
  5
1E7
330
1F
100
AcDbEntity
  8
0
  6
Continuous
 62
     7
370
    15
100
AcDbLine
 10
291.1898224095
 20
938.9390475587
 30
0.0
 11
291.1898224095
 21
939.539027913
 31
0.0
  0
LINE
  5
1E8
330
1F
100
AcDbEntity
  8
0
  6
Continuous
 62
     7
370
    15
100
AcDbLine
 10
291.1898224095
 20
939.539027913
 30
0.0
 11
291.1897926072
 21
939.539027913
 31
0.0
  0
CIRCLE
  5
1E9
330
1F
100
AcDbEntity
  8
0
  6
Continuous
 62
     7
370
    15
100
AcDbCircle
 10
681.1898883143
 20
916.6862871686
 30
0.0
 40
9.5
  0
ARC
  5
1EA
330
1F
100
AcDbEntity
  8
0
  6
Continuous
 62
     7
370
    15
100
AcDbCircle
 10
681.1898027319
 20
916.6862871693
 30
0.0
 40
9.500000000000114
100
AcDbArc
 50
89.9995422353
 51
270.0
  0
CIRCLE
  5
1EB
330
1F
100
AcDbEntity
  8
0
  6
Continuous
 62
     7
370
    15
100
AcDbCircle
 10
301.1898883392
 20
916.6889627453
 30
0.0
 40
9.500000000000114
  0
ARC
  5
1EC
330
1F
100
AcDbEntity
  8
0
  6
Continuous
 62
     7
370
    15
100
AcDbCircle
 10
301.1898027568
 20
916.688962746
 30
0.0
 40
9.5
100
AcDbArc
 50
89.9995422373
 51
270.0
  0
ARC
  5
1ED
330
1F
100
AcDbEntity
  8
0
  6
Continuous
 62
     7
370
    15
100
AcDbCircle
 10
641.1886596997
 20
801.6865688144
 30
0.0
 40
9.999999994761376
100
AcDbArc
 50
0.0007299589
 51
246.4118962495
  0
ARC
  5
1EE
330
1F
100
AcDbEntity
  8
0
  6
Continuous
 62
     7
370
    15
100
AcDbCircle
 10
641.1886596997
 20
801.6865688144
 30
0.0
 40
9.999999994761376
100
AcDbArc
 50
293.5932609047
 51
0.0007299589
  0
ARC
  5
1EF
330
1F
100
AcDbEntity
  8
0
  6
Continuous
 62
     7
370
    15
100
AcDbCircle
 10
641.1887407777
 20
801.6865688138
 30
0.0
 40
4.999999999970133
100
AcDbArc
 50
323.1749982539
 51
180.0007299589
  0
ARC
  5
1F0
330
1F
100
AcDbEntity
  8
0
  6
Continuous
 62
     7
370
    15
100
AcDbCircle
 10
641.1887407777
 20
801.6865688138
 30
0.0
 40
4.999999999970134
100
AcDbArc
 50
180.0007299589
 51
216.8383641664
  0
LINE
  5
1F1
330
1F
100
AcDbEntity
  8
0
  6
Continuous
 62
     7
370
    15
100
AcDbLine
 10
641.1887724364
 20
805.6865758733
 30
0.0
 11
641.4361354375
 21
805.6789166765
 31
0.0
  0
LINE
  5
1F2
330
1F
100
AcDbEntity
  8
0
  6
Continuous
 62
     7
370
    15
100
AcDbLine
 10
645.1818738545
 20
801.9208587245
 30
0.0
 11
645.1887404958
 21
801.6865975694
 31
0.0
  0
LINE
  5
1F3
330
1F
100
AcDbEntity
  8
0
  6
Continuous
 62
     7
370
    15
100
AcDbLine
 10
645.1887228007
 20
801.6865975694
 30
0.0
 11
645.1843465159
 21
801.8736220435
 31
0.0
  0
LWPOLYLINE
  5
1F4
330
1F
100
AcDbEntity
  8
0
  6
Continuous
 62
     7
370
    15
100
AcDbPolyline
 90
        3
 70
   128
 43
0.0
 10
642.4542125726
 20
805.4811037616
 10
641.4876068423
 20
805.6753851013
 10
641.1887547413
 20
805.6865758733
  0
ARC
  5
1F5
330
1F
100
AcDbEntity
  8
0
  6
Continuous
 62
     7
370
    15
100
AcDbCircle
 10
641.188650691
 20
801.6865688145
 30
0.0
 40
10.00000000000015
100
AcDbArc
 50
89.9995422377
 51
246.4119534517
  0
ARC
  5
1F6
330
1F
100
AcDbEntity
  8
0
  6
Continuous
 62
     7
370
    15
100
AcDbCircle
 10
341.1886597193
 20
801.6886811118
 30
0.0
 40
9.99999999476149
100
AcDbArc
 50
0.0007299589
 51
246.4118986118
  0
ARC
  5
1F7
330
1F
100
AcDbEntity
  8
0
  6
Continuous
 62
     7
370
    15
100
AcDbCircle
 10
341.1886597193
 20
801.6886811118
 30
0.0
 40
9.99999999476149
100
AcDbArc
 50
293.5932640984
 51
0.0007299589
  0
ARC
  5
1F8
330
1F
100
AcDbEntity
  8
0
  6
Continuous
 62
     7
370
    15
100
AcDbCircle
 10
341.1887407973
 20
801.6886811112
 30
0.0
 40
4.999999999970247
100
AcDbArc
 50
323.1749971207
 51
180.0007299589
  0
ARC
  5
1F9
330
1F
100
AcDbEntity
  8
0
  6
Continuous
 62
     7
370
    15
100
AcDbCircle
 10
341.1887407973
 20
801.6886811112
 30
0.0
 40
4.999999999970266
100
AcDbArc
 50
180.0007299589
 51
216.8383624348
  0
LINE
  5
1FA
330
1F
100
AcDbEntity
  8
0
  6
Continuous
 62
     7
370
    15
100
AcDbLine
 10
341.1887614468
 20
805.688676937
 30
0.0
 11
341.436150525
 21
805.6810177402
 31
0.0
  0
LINE
  5
1FB
330
1F
100
AcDbEntity
  8
0
  6
Continuous
 62
     7
370
    15
100
AcDbLine
 10
345.1818852166
 20
801.9229597883
 30
0.0
 11
345.1887397507
 21
801.6887135343
 31
0.0
  0
LINE
  5
1FC
330
1F
100
AcDbEntity
  8
0
  6
Continuous
 62
     7
370
    15
100
AcDbLine
 10
345.1887099484
 20
801.6887135343
 30
0.0
 11
345.1843588094
 21
801.8757380084
 31
0.0
  0
LWPOLYLINE
  5
1FD
330
1F
100
AcDbEntity
  8
0
  6
Continuous
 62
     7
370
    15
100
AcDbPolyline
 90
        3
 70
   128
 43
0.0
 10
342.4541978577
 20
805.4832197265
 10
341.4876191357
 20
805.6775010661
 10
341.1887614468
 20
805.688676937
  0
ARC
  5
1FE
330
1F
100
AcDbEntity
  8
0
  6
Continuous
 62
     7
370
    15
100
AcDbCircle
 10
341.1886507106
 20
801.6886811119
 30
0.0
 40
9.99999999999999
100
AcDbArc
 50
89.9995422377
 51
246.4119516579
  0
ARC
  5
1FF
330
1F
100
AcDbEntity
  8
0
  6
Continuous
 62
     7
370
    15
100
AcDbCircle
 10
341.1890470922
 20
801.6886811087
 30
0.0
 40
4.002000000000067
100
AcDbArc
 50
89.9995965809
 51
179.9993448916
  0
ARC
  5
200
330
1F
100
AcDbEntity
  8
0
  6
Continuous
 62
     7
370
    15
100
AcDbCircle
 10
341.1890470922
 20
801.6886811087
 30
0.0
 40
4.002000000000018
100
AcDbArc
 50
359.9993448916
 51
89.9995965809
  0
ARC
  5
201
330
1F
100
AcDbEntity
  8
0
  6
Continuous
 62
     7
370
    15
100
AcDbCircle
 10
641.1890470726
 20
801.6865688113
 30
0.0
 40
4.002000000000132
100
AcDbArc
 50
89.9995965809
 51
179.9993448916
  0
ARC
  5
202
330
1F
100
AcDbEntity
  8
0
  6
Continuous
 62
     7
370
    15
100
AcDbCircle
 10
641.1890470726
 20
801.6865688113
 30
0.0
 40
4.002000000000132
100
AcDbArc
 50
359.9993448916
 51
89.9995965809
  0
ENDSEC
  0
SECTION
  2
OBJECTS
  0
DICTIONARY
  5
C
330
0
100
AcDbDictionary
281
     1
  3
ACAD_GROUP
350
D
  3
ACAD_LAYOUT
350
1A
  3
ACAD_MLINESTYLE
350
17
  3
ACAD_PLOTSETTINGS
350
19
  3
ACAD_PLOTSTYLENAME
350
E
  0
DICTIONARY
  5
D
102
{ACAD_REACTORS
330
C
102
}
330
C
100
AcDbDictionary
281
     1
  0
DICTIONARY
  5
1A
102
{ACAD_REACTORS
330
C
102
}
330
C
100
AcDbDictionary
281
     1
  3
Layout1
350
1E
  3
Layout2
350
26
  3
Model
350
22
  0
DICTIONARY
  5
17
102
{ACAD_REACTORS
330
C
102
}
330
C
100
AcDbDictionary
281
     1
  3
Standard
350
18
  0
DICTIONARY
  5
19
102
{ACAD_REACTORS
330
C
102
}
330
C
100
AcDbDictionary
281
     1
  0
ACDBDICTIONARYWDFLT
  5
E
102
{ACAD_REACTORS
330
C
102
}
330
C
100
AcDbDictionary
281
     1
  3
Normal
350
F
100
AcDbDictionaryWithDefault
340
F
  0
LAYOUT
  5
1E
102
{ACAD_REACTORS
330
1A
102
}
330
1A
100
AcDbPlotSettings
  1

  2
none_device
  4

  6

 40
0.0
 41
0.0
 42
0.0
 43
0.0
 44
0.0
 45
0.0
 46
0.0
 47
0.0
 48
0.0
 49
0.0
140
0.0
141
0.0
142
1.0
143
1.0
 70
   688
 72
     0
 73
     0
 74
     5
  7

 75
    16
147
1.0
148
0.0
149
0.0
100
AcDbLayout
  1
Layout1
 70
     1
 71
     1
 10
0.0
 20
0.0
 11
420.0
 21
297.0
 12
0.0
 22
0.0
 32
0.0
 14
1.0000000000E+20
 24
1.0000000000E+20
 34
1.0000000000E+20
 15
-1.0000000000E+20
 25
-1.0000000000E+20
 35
-1.0000000000E+20
146
0.0
 13
0.0
 23
0.0
 33
0.0
 16
1.0
 26
0.0
 36
0.0
 17
0.0
 27
1.0
 37
0.0
 76
     0
330
1B
  0
LAYOUT
  5
26
102
{ACAD_REACTORS
330
1A
102
}
330
1A
100
AcDbPlotSettings
  1

  2
none_device
  4

  6

 40
0.0
 41
0.0
 42
0.0
 43
0.0
 44
0.0
 45
0.0
 46
0.0
 47
0.0
 48
0.0
 49
0.0
140
0.0
141
0.0
142
1.0
143
1.0
 70
   688
 72
     0
 73
     0
 74
     5
  7

 75
    16
147
1.0
148
0.0
149
0.0
100
AcDbLayout
  1
Layout2
 70
     1
 71
     2
 10
0.0
 20
0.0
 11
0.0
 21
0.0
 12
0.0
 22
0.0
 32
0.0
 14
0.0
 24
0.0
 34
0.0
 15
0.0
 25
0.0
 35
0.0
146
0.0
 13
0.0
 23
0.0
 33
0.0
 16
1.0
 26
0.0
 36
0.0
 17
0.0
 27
1.0
 37
0.0
 76
     0
330
23
  0
LAYOUT
  5
22
102
{ACAD_REACTORS
330
1A
102
}
330
1A
100
AcDbPlotSettings
  1

  2
none_device
  4

  6

 40
0.0
 41
0.0
 42
0.0
 43
0.0
 44
0.0
 45
0.0
 46
0.0
 47
0.0
 48
0.0
 49
0.0
140
0.0
141
0.0
142
1.0
143
1.0
 70
  1712
 72
     0
 73
     0
 74
     0
  7

 75
     0
147
1.0
148
0.0
149
0.0
100
AcDbLayout
  1
Model
 70
     1
 71
     0
 10
0.0
 20
0.0
 11
1000.0
 21
1000.0
 12
0.0
 22
0.0
 32
0.0
 14
0.0
 24
0.0
 34
0.0
 15
1000.0
 25
1000.0
 35
0.0
146
0.0
 13
0.0
 23
0.0
 33
0.0
 16
1.0
 26
0.0
 36
0.0
 17
0.0
 27
1.0
 37
0.0
 76
     0
330
1F
331
29
  0
MLINESTYLE
  5
18
102
{ACAD_REACTORS
330
17
102
}
330
17
100
AcDbMlineStyle
  2
Standard
 70
     0
  3

 62
   256
 51
90.0
 52
90.0
 71
     2
 49
0.5
 62
   256
  6
BYLAYER
 49
-0.5
 62
   256
  6
BYLAYER
  0
ACDBPLACEHOLDER
  5
F
102
{ACAD_REACTORS
330
E
102
}
330
E
  0
ENDSEC
  0
EOF
