  0
SECTION
  2
HEADER
  9
$ACADVER
  1
AC1015
  9
$ACADMAINTVER
 70
     6
  9
$DWGCODEPAGE
  3
ANSI_1252
  9
$INSBASE
 10
0.0
 20
0.0
 30
0.0
  9
$EXTMIN
 10
0.0
 20
0.0
 30
0.0
  9
$EXTMAX
 10
500.0
 20
1400.0
 30
0.0
  9
$LIMMIN
 10
0.0
 20
0.0
  9
$LIMMAX
 10
500.0
 20
1400.0
  9
$ORTHOMODE
 70
     0
  9
$REGENMODE
 70
     1
  9
$FILLMODE
 70
     1
  9
$QTEXTMODE
 70
     0
  9
$MIRRTEXT
 70
     1
  9
$LTSCALE
 40
1.0
  9
$ATTMODE
 70
     1
  9
$TEXTSIZE
 40
3.5
  9
$TRACEWID
 40
1.0
  9
$TEXTSTYLE
  7
Standard
  9
$CLAYER
  8
0
  9
$CELTYPE
  6
ByLayer
  9
$CECOLOR
 62
   256
  9
$CELTSCALE
 40
1.0
  9
$DISPSILH
 70
     0
  9
$DIMSCALE
 40
1.0
  9
$DIMASZ
 40
3.302
  9
$DIMEXO
 40
1.0
  9
$DIMDLI
 40
3.75
  9
$DIMRND
 40
0.0
  9
$DIMDLE
 40
0.0
  9
$DIMEXE
 40
1.0
  9
$DIMTP
 40
0.0
  9
$DIMTM
 40
0.0
  9
$DIMTXT
 40
3.5
  9
$DIMCEN
 40
2.5
  9
$DIMTSZ
 40
0.0
  9
$DIMTOL
 70
     0
  9
$DIMLIM
 70
     0
  9
$DIMTIH
 70
     1
  9
$DIMTOH
 70
     1
  9
$DIMSE1
 70
     0
  9
$DIMSE2
 70
     0
  9
$DIMTAD
 70
     1
  9
$DIMZIN
 70
     0
  9
$DIMBLK
  1

  9
$DIMASO
 70
     1
  9
$DIMSHO
 70
     1
  9
$DIMPOST
  1

  9
$DIMAPOST
  1

  9
$DIMALT
 70
     0
  9
$DIMALTD
 70
     3
  9
$DIMALTF
 40
0.0393700787
  9
$DIMLFAC
 40
5.0
  9
$DIMTOFL
 70
     1
  9
$DIMTVP
 40
0.0
  9
$DIMTIX
 70
     0
  9
$DIMSOXD
 70
     0
  9
$DIMSAH
 70
     0
  9
$DIMBLK1
  1

  9
$DIMBLK2
  1

  9
$DIMSTYLE
  2
ISO-25
  9
$DIMCLRD
 70
     0
  9
$DIMCLRE
 70
     0
  9
$DIMCLRT
 70
     0
  9
$DIMTFAC
 40
1.0
  9
$DIMGAP
 40
5.0
  9
$DIMJUST
 70
     0
  9
$DIMSD1
 70
     0
  9
$DIMSD2
 70
     0
  9
$DIMTOLJ
 70
     0
  9
$DIMTZIN
 70
     0
  9
$DIMALTZ
 70
     0
  9
$DIMALTTZ
 70
     0
  9
$DIMUPT
 70
     0
  9
$DIMDEC
 70
     1
  9
$DIMTDEC
 70
     1
  9
$DIMALTU
 70
     2
  9
$DIMALTTD
 70
     3
  9
$DIMTXSTY
  7
Standard
  9
$DIMAUNIT
 70
     0
  9
$DIMADEC
 70
     1
  9
$DIMALTRND
 40
0.0
  9
$DIMAZIN
 70
     0
  9
$DIMDSEP
 70
    44
  9
$DIMATFIT
 70
     3
  9
$DIMFRAC
 70
     0
  9
$DIMLDRBLK
  1

  9
$DIMLUNIT
 70
     2
  9
$DIMLWD
 70
    -2
  9
$DIMLWE
 70
    -2
  9
$DIMTMOVE
 70
     0
  9
$LUNITS
 70
     2
  9
$LUPREC
 70
     1
  9
$SKETCHINC
 40
1.0
  9
$FILLETRAD
 40
10.0
  9
$AUNITS
 70
     0
  9
$AUPREC
 70
     1
  9
$MENU
  1
.
  9
$ELEVATION
 40
0.0
  9
$PELEVATION
 40
0.0
  9
$THICKNESS
 40
0.0
  9
$LIMCHECK
 70
     0
  9
$CHAMFERA
 40
0.0
  9
$CHAMFERB
 40
0.0
  9
$CHAMFERC
 40
0.0
  9
$CHAMFERD
 40
0.0
  9
$SKPOLY
 70
     0
  9
$TDCREATE
 40
2458136.440626771
  9
$TDUCREATE
 40
2458136.440626771
  9
$TDUPDATE
 40
2458136.440627674
  9
$TDUUPDATE
 40
2458136.440627674
  9
$TDINDWG
 40
0.0000000116
  9
$TDUSRTIMER
 40
0.0000000116
  9
$USRTIMER
 70
     1
  9
$ANGBASE
 50
0.0
  9
$ANGDIR
 70
     0
  9
$PDMODE
 70
     0
  9
$PDSIZE
 40
-1.0
  9
$PLINEWID
 40
0.0
  9
$SPLFRAME
 70
     0
  9
$SPLINETYPE
 70
     6
  9
$SPLINESEGS
 70
     8
  9
$HANDSEED
  5
2DB
  9
$SURFTAB1
 70
     6
  9
$SURFTAB2
 70
     6
  9
$SURFTYPE
 70
     6
  9
$SURFU
 70
     6
  9
$SURFV
 70
     6
  9
$UCSBASE
  2

  9
$UCSNAME
  2

  9
$UCSORG
 10
0.0
 20
0.0
 30
0.0
  9
$UCSXDIR
 10
1.0
 20
0.0
 30
0.0
  9
$UCSYDIR
 10
0.0
 20
1.0
 30
0.0
  9
$UCSORTHOREF
  2

  9
$UCSORTHOVIEW
 70
     0
  9
$UCSORGTOP
 10
0.0
 20
0.0
 30
0.0
  9
$UCSORGBOTTOM
 10
0.0
 20
0.0
 30
0.0
  9
$UCSORGLEFT
 10
0.0
 20
0.0
 30
0.0
  9
$UCSORGRIGHT
 10
0.0
 20
0.0
 30
0.0
  9
$UCSORGFRONT
 10
0.0
 20
0.0
 30
0.0
  9
$UCSORGBACK
 10
0.0
 20
0.0
 30
0.0
  9
$PUCSBASE
  2

  9
$PUCSNAME
  2

  9
$PUCSORG
 10
0.0
 20
0.0
 30
0.0
  9
$PUCSXDIR
 10
1.0
 20
0.0
 30
0.0
  9
$PUCSYDIR
 10
0.0
 20
1.0
 30
0.0
  9
$PUCSORTHOREF
  2

  9
$PUCSORTHOVIEW
 70
     0
  9
$PUCSORGTOP
 10
0.0
 20
0.0
 30
0.0
  9
$PUCSORGBOTTOM
 10
0.0
 20
0.0
 30
0.0
  9
$PUCSORGLEFT
 10
0.0
 20
0.0
 30
0.0
  9
$PUCSORGRIGHT
 10
0.0
 20
0.0
 30
0.0
  9
$PUCSORGFRONT
 10
0.0
 20
0.0
 30
0.0
  9
$PUCSORGBACK
 10
0.0
 20
0.0
 30
0.0
  9
$USERI1
 70
     0
  9
$USERI2
 70
     0
  9
$USERI3
 70
     0
  9
$USERI4
 70
     0
  9
$USERI5
 70
     0
  9
$USERR1
 40
0.0
  9
$USERR2
 40
0.0
  9
$USERR3
 40
0.0
  9
$USERR4
 40
0.0
  9
$USERR5
 40
0.0
  9
$WORLDVIEW
 70
     1
  9
$SHADEDGE
 70
     3
  9
$SHADEDIF
 70
    70
  9
$TILEMODE
 70
     1
  9
$MAXACTVP
 70
    64
  9
$PINSBASE
 10
0.0
 20
0.0
 30
0.0
  9
$PLIMCHECK
 70
     0
  9
$PEXTMIN
 10
1.0000000000E+20
 20
1.0000000000E+20
 30
1.0000000000E+20
  9
$PEXTMAX
 10
-1.0000000000E+20
 20
-1.0000000000E+20
 30
-1.0000000000E+20
  9
$PLIMMIN
 10
0.0
 20
0.0
  9
$PLIMMAX
 10
420.0
 20
297.0
  9
$UNITMODE
 70
     0
  9
$VISRETAIN
 70
     1
  9
$PLINEGEN
 70
     0
  9
$PSLTSCALE
 70
     1
  9
$TREEDEPTH
 70
  3020
  9
$CMLSTYLE
  2
Standard
  9
$CMLJUST
 70
     0
  9
$CMLSCALE
 40
20.0
  9
$PROXYGRAPHICS
 70
     1
  9
$MEASUREMENT
 70
     1
  9
$CELWEIGHT
370
    -1
  9
$ENDCAPS
280
     0
  9
$JOINSTYLE
280
     0
  9
$LWDISPLAY
290
     1
  9
$INSUNITS
 70
     4
  9
$HYPERLINKBASE
  1

  9
$STYLESHEET
  1

  9
$XEDIT
290
     1
  9
$CEPSNTYPE
380
     0
  9
$PSTYLEMODE
290
     1
  9
$FINGERPRINTGUID
  2
{EB4DD66B-84FE-4917-941D-6CA16A498E67}
  9
$VERSIONGUID
  2
{FAEB1C32-E019-11D5-929B-00C0DF256EC4}
  9
$EXTNAMES
290
     1
  9
$PSVPSCALE
 40
0.0
  9
$OLESTARTUP
290
     0
  0
ENDSEC
  0
SECTION
  2
CLASSES
  0
CLASS
  1
ACDBDICTIONARYWDFLT
  2
AcDbDictionaryWithDefault
  3
ObjectDBX Classes
 90
        0
280
     0
281
     0
  0
CLASS
  1
VISUALSTYLE
  2
AcDbVisualStyle
  3
ObjectDBX Classes
 90
     4095
280
     0
281
     0
  0
CLASS
  1
MATERIAL
  2
AcDbMaterial
  3
ObjectDBX Classes
 90
     1153
280
     0
281
     0
  0
CLASS
  1
SCALE
  2
AcDbScale
  3
ObjectDBX Classes
 90
     1153
280
     0
281
     0
  0
CLASS
  1
TABLESTYLE
  2
AcDbTableStyle
  3
ObjectDBX Classes
 90
     4095
280
     0
281
     0
  0
CLASS
  1
MLEADERSTYLE
  2
AcDbMLeaderStyle
  3
ACDB_MLEADERSTYLE_CLASS
 90
     4095
280
     0
281
     0
  0
CLASS
  1
SUN
  2
AcDbSun
  3
SCENEOE
 90
     1153
280
     0
281
     0
  0
CLASS
  1
ACDBPLACEHOLDER
  2
AcDbPlaceHolder
  3
ObjectDBX Classes
 90
        0
280
     0
281
     0
  0
CLASS
  1
LAYOUT
  2
AcDbLayout
  3
ObjectDBX Classes
 90
        0
280
     0
281
     0
  0
ENDSEC
  0
SECTION
  2
TABLES
  0
TABLE
  2
VPORT
  5
8
330
0
100
AcDbSymbolTable
 70
     1
  0
VPORT
  5
29
330
8
100
AcDbSymbolTableRecord
100
AcDbViewportTableRecord
  2
*Active
 70
     0
 10
0.0
 20
0.0
 11
1.0
 21
1.0
 12
250.0
 22
700.0
 13
0.0
 23
0.0
 14
10.0
 24
10.0
 15
10.0
 25
10.0
 16
0.0
 26
0.0
 36
1.0
 17
0.0
 27
0.0
 37
0.0
 40
1400.0
 41
0.3571428571
 42
50.0
 43
0.0
 44
0.0
 50
0.0
 51
0.0
 71
     0
 72
  2000
 73
     1
 74
     3
 75
     0
 76
     0
 77
     0
 78
     0
281
     0
 65
     1
110
0.0
120
0.0
130
0.0
111
1.0
121
0.0
131
0.0
112
0.0
122
1.0
132
0.0
 79
     0
146
0.0
  0
ENDTAB
  0
TABLE
  2
LTYPE
  5
5
330
0
100
AcDbSymbolTable
 70
     6
  0
LTYPE
  5
14
330
5
100
AcDbSymbolTableRecord
100
AcDbLinetypeTableRecord
  2
ByBlock
 70
     0
  3

 72
    65
 73
     0
 40
0.0
  0
LTYPE
  5
15
330
5
100
AcDbSymbolTableRecord
100
AcDbLinetypeTableRecord
  2
ByLayer
 70
     0
  3

 72
    65
 73
     0
 40
0.0
  0
LTYPE
  5
16
330
5
100
AcDbSymbolTableRecord
100
AcDbLinetypeTableRecord
  2
Continuous
 70
     0
  3
Solid line
 72
    65
 73
     0
 40
0.0
  0
LTYPE
  5
6E
330
5
100
AcDbSymbolTableRecord
100
AcDbLinetypeTableRecord
  2
HIDDEN
 70
     0
  3
Hidden __ __ __ __ __ __ __ __ __ __ __ __ __ __
 72
    65
 73
     2
 40
1.905
 49
1.27
 74
     0
 49
-0.635
 74
     0
  0
LTYPE
  5
6F
330
5
100
AcDbSymbolTableRecord
100
AcDbLinetypeTableRecord
  2
PHANTOM
 70
     0
  3
Phantom ______  __  __  ______  __  __  ______
 72
    65
 73
     6
 40
12.7
 49
6.35
 74
     0
 49
-1.27
 74
     0
 49
1.27
 74
     0
 49
-1.27
 74
     0
 49
1.27
 74
     0
 49
-1.27
 74
     0
  0
LTYPE
  5
70
330
5
100
AcDbSymbolTableRecord
100
AcDbLinetypeTableRecord
  2
CENTER
 70
     0
  3
Center ____ _ ____ _ ____ _ ____ _ ____ _ ____
 72
    65
 73
     4
 40
10.16
 49
6.35
 74
     0
 49
-1.27
 74
     0
 49
1.27
 74
     0
 49
-1.27
 74
     0
  0
LTYPE
  5
71
330
5
100
AcDbSymbolTableRecord
100
AcDbLinetypeTableRecord
  2
CENTERX2
 70
     0
  3
Center (2x) ________  __  ________  __  _____
 72
    65
 73
     4
 40
20.32
 49
12.7
 74
     0
 49
-2.54
 74
     0
 49
2.54
 74
     0
 49
-2.54
 74
     0
  0
LTYPE
  5
72
330
5
100
AcDbSymbolTableRecord
100
AcDbLinetypeTableRecord
  2
DOT2
 70
     0
  3
Dot (.5x) ........................................
 72
    65
 73
     2
 40
0.635
 49
0.0
 74
     0
 49
-0.635
 74
     0
  0
ENDTAB
  0
TABLE
  2
LAYER
  5
2
330
0
100
AcDbSymbolTable
 70
     4
  0
LAYER
  5
10
330
2
100
AcDbSymbolTableRecord
100
AcDbLayerTableRecord
  2
0
 70
     0
 62
     7
  6
Continuous
370
    -3
390
F
  0
LAYER
  5
73
330
2
100
AcDbSymbolTableRecord
100
AcDbLayerTableRecord
  2
FORMAT
 70
     0
 62
     7
  6
Continuous
370
    -3
390
F
  0
LAYER
  5
74
330
2
100
AcDbSymbolTableRecord
100
AcDbLayerTableRecord
  2
SLD-0
 70
     0
 62
     1
  6
Continuous
370
    -3
390
F
  0
LAYER
  5
75
330
2
100
AcDbSymbolTableRecord
100
AcDbLayerTableRecord
  2
WATERMARK
 70
     0
 62
     1
  6
Continuous
370
    -3
390
F
  0
ENDTAB
  0
TABLE
  2
STYLE
  5
3
330
0
100
AcDbSymbolTable
 70
     1
  0
STYLE
  5
11
330
3
100
AcDbSymbolTableRecord
100
AcDbTextStyleTableRecord
  2
Standard
 70
     0
 40
0.0
 41
1.0
 50
0.0
 71
     0
 42
3.5
  3
txt
  4

  0
ENDTAB
  0
TABLE
  2
VIEW
  5
6
330
0
100
AcDbSymbolTable
 70
     0
  0
ENDTAB
  0
TABLE
  2
UCS
  5
7
330
0
100
AcDbSymbolTable
 70
     0
  0
ENDTAB
  0
TABLE
  2
APPID
  5
9
330
0
100
AcDbSymbolTable
 70
     1
  0
APPID
  5
12
330
9
100
AcDbSymbolTableRecord
100
AcDbRegAppTableRecord
  2
ACAD
 70
     0
  0
ENDTAB
  0
TABLE
  2
DIMSTYLE
  5
A
330
0
100
AcDbSymbolTable
 70
     1
100
AcDbDimStyleTable
  0
DIMSTYLE
105
27
330
A
100
AcDbSymbolTableRecord
100
AcDbDimStyleTableRecord
  2
ISO-25
 70
     0
 41
2.5
 42
0.625
 43
3.75
 44
1.25
 73
     0
 74
     0
 77
     1
 78
     8
140
2.5
141
2.5
143
0.0393700787
147
0.625
171
     3
172
     1
178
     0
271
     2
272
     2
274
     3
278
    44
283
     0
284
     8
340
11
  0
ENDTAB
  0
TABLE
  2
BLOCK_RECORD
  5
1
330
0
100
AcDbSymbolTable
 70
     1
  0
BLOCK_RECORD
  5
1F
330
1
100
AcDbSymbolTableRecord
100
AcDbBlockTableRecord
  2
*Model_Space
340
22
  0
BLOCK_RECORD
  5
1B
330
1
100
AcDbSymbolTableRecord
100
AcDbBlockTableRecord
  2
*Paper_Space
340
1E
  0
BLOCK_RECORD
  5
23
330
1
100
AcDbSymbolTableRecord
100
AcDbBlockTableRecord
  2
*Paper_Space0
340
26
  0
ENDTAB
  0
ENDSEC
  0
SECTION
  2
BLOCKS
  0
BLOCK
  5
20
330
1F
100
AcDbEntity
  8
0
100
AcDbBlockBegin
  2
*Model_Space
 70
     0
 10
0.0
 20
0.0
 30
0.0
  3
*Model_Space
  1

  0
ENDBLK
  5
21
330
1F
100
AcDbEntity
  8
0
100
AcDbBlockEnd
  0
BLOCK
  5
1C
330
1B
100
AcDbEntity
 67
     1
  8
0
100
AcDbBlockBegin
  2
*Paper_Space
 70
     0
 10
0.0
 20
0.0
 30
0.0
  3
*Paper_Space
  1

  0
ENDBLK
  5
1D
330
1B
100
AcDbEntity
 67
     1
  8
0
100
AcDbBlockEnd
  0
BLOCK
  5
24
330
23
100
AcDbEntity
  8
0
100
AcDbBlockBegin
  2
*Paper_Space0
 70
     0
 10
0.0
 20
0.0
 30
0.0
  3
*Paper_Space0
  1

  0
ENDBLK
  5
25
330
23
100
AcDbEntity
  8
0
100
AcDbBlockEnd
  0
ENDSEC
  0
SECTION
  2
ENTITIES
  0
LINE
  5
76
330
1F
100
AcDbEntity
  8
0
  6
Continuous
 62
     7
370
    25
100
AcDbLine
 10
170.0513617085
 20
649.6051365774
 30
0.0
 11
170.0513617085
 21
647.9686922261
 31
0.0
  0
LINE
  5
77
330
1F
100
AcDbEntity
  8
0
  6
Continuous
 62
     7
370
    25
100
AcDbLine
 10
170.0513617085
 20
641.4840006064
 30
0.0
 11
170.0513617085
 21
634.9277075544
 31
0.0
  0
LINE
  5
78
330
1F
100
AcDbEntity
  8
0
  6
Continuous
 62
     7
370
    25
100
AcDbLine
 10
171.0513617085
 20
636.5993852218
 30
0.0
 11
171.0513617085
 21
637.5763082987
 31
0.0
  0
LINE
  5
79
330
1F
100
AcDbEntity
  8
0
  6
Continuous
 62
     7
370
    25
100
AcDbLine
 10
171.0513617085
 20
640.5070775295
 30
0.0
 11
171.0513617085
 21
641.4840006064
 31
0.0
  0
LINE
  5
7A
330
1F
100
AcDbEntity
  8
0
  6
Continuous
 62
     7
370
    25
100
AcDbLine
 10
171.0513617085
 20
647.9953127313
 30
0.0
 11
171.0513617085
 21
649.6051365774
 31
0.0
  0
SPLINE
  5
7B
330
1F
100
AcDbEntity
  8
0
  6
Continuous
 62
     7
370
    25
100
AcDbSpline
210
0.0
220
0.0
230
1.0
 70
     8
 71
     3
 72
    10
 73
     6
 74
     0
 42
0.000000001
 43
0.00000001
 40
0.0
 40
0.0
 40
0.0
 40
0.0
 40
0.2987222863910862
 40
0.883191066429134
 40
1.0
 40
1.0
 40
1.0
 40
1.0
 10
171.0513617084856
 20
649.605136577437
 30
0.0
 10
171.061398107415
 20
649.8993560101121
 30
0.0
 10
171.0910713466658
 20
650.7692341087562
 30
0.0
 10
171.2339346711245
 20
651.762416514459
 30
0.0
 10
171.4907328106682
 20
652.4055096925342
 30
0.0
 10
171.5335066165955
 20
652.5126270682326
 30
0.0
  0
SPLINE
  5
7C
330
1F
100
AcDbEntity
  8
0
  6
Continuous
 62
     7
370
    25
100
AcDbSpline
210
0.0
220
0.0
230
1.0
 70
     8
 71
     3
 72
    11
 73
     7
 74
     0
 42
0.000000001
 43
0.00000001
 40
0.0
 40
0.0
 40
0.0
 40
0.0
 40
0.0357907170168766
 40
0.3734102329447542
 40
0.7110318511593479
 40
1.0
 40
1.0
 40
1.0
 40
1.0
 10
171.4218393140601
 20
654.7626270682325
 30
0.0
 10
171.3860206131346
 20
654.7091387124533
 30
0.0
 10
171.0123184196284
 20
654.1510862045377
 30
0.0
 10
170.5623239823134
 20
652.936593699182
 30
0.0
 10
170.1192571312679
 20
651.2549726515697
 30
0.0
 10
170.0727908439837
 20
650.1258574056394
 30
0.0
 10
170.0513617084856
 20
649.605136577437
 30
0.0
  0
LINE
  5
7D
330
1F
100
AcDbEntity
  8
0
  6
Continuous
 62
     7
370
    25
100
AcDbLine
 10
335.0922509987
 20
650.7443572902
 30
0.0
 11
335.0922509987
 21
647.9665052998
 31
0.0
  0
LINE
  5
7E
330
1F
100
AcDbEntity
  8
0
  6
Continuous
 62
     7
370
    25
100
AcDbLine
 10
335.0922509987
 20
641.4840006064
 30
0.0
 11
335.0922509987
 21
634.9277676125
 31
0.0
  0
LINE
  5
7F
330
1F
100
AcDbEntity
  8
0
  6
Continuous
 62
     7
370
    25
100
AcDbLine
 10
336.0922509987
 20
636.5993852218
 30
0.0
 11
336.0922509987
 21
637.5763082987
 31
0.0
  0
LINE
  5
80
330
1F
100
AcDbEntity
  8
0
  6
Continuous
 62
     7
370
    25
100
AcDbLine
 10
336.0922509987
 20
640.5070775295
 30
0.0
 11
336.0922509987
 21
641.4840006064
 31
0.0
  0
LINE
  5
81
330
1F
100
AcDbEntity
  8
0
  6
Continuous
 62
     7
370
    25
100
AcDbLine
 10
336.0922509987
 20
647.9999738402
 30
0.0
 11
336.0922509987
 21
650.7443572902
 31
0.0
  0
SPLINE
  5
82
330
1F
100
AcDbEntity
  8
0
  6
Continuous
 62
     7
370
    25
100
AcDbSpline
210
0.0
220
0.0
230
1.0
 70
     8
 71
     3
 72
     9
 73
     5
 74
     0
 42
0.000000001
 43
0.00000001
 40
0.0
 40
0.0
 40
0.0
 40
0.0
 40
0.4957521982818102
 40
0.9999999999999999
 40
0.9999999999999999
 40
0.9999999999999999
 40
0.9999999999999999
 10
336.092250998746
 20
650.7443572902408
 30
0.0
 10
336.0959661284598
 20
651.0400845439402
 30
0.0
 10
336.1034600533009
 20
651.6366068684489
 30
0.0
 10
336.2323116687935
 20
652.2189711562897
 30
0.0
 10
336.2972848126535
 20
652.5126270682326
 30
0.0
  0
LINE
  5
83
330
1F
100
AcDbEntity
  8
0
  6
Continuous
 62
     7
370
    25
100
AcDbLine
 10
335.4922509947
 20
653.4905338264
 30
0.0
 11
335.3922509947
 21
653.0737977768
 31
0.0
  0
SPLINE
  5
84
330
1F
100
AcDbEntity
  8
0
  6
Continuous
 62
     7
370
    25
100
AcDbSpline
210
0.0
220
0.0
230
1.0
 70
     8
 71
     3
 72
     9
 73
     5
 74
     0
 42
0.000000001
 43
0.00000001
 40
0.0
 40
0.0
 40
0.0
 40
0.0
 40
0.116575587023563
 40
1.0
 40
1.0
 40
1.0
 40
1.0
 10
335.257592447852
 20
652.5126270682326
 30
0.0
 10
335.2408314094207
 20
652.4455447811707
 30
0.0
 10
335.0970531205069
 20
651.8701045129734
 30
0.0
 10
335.0945034446464
 20
651.2723915307181
 30
0.0
 10
335.092250998746
 20
650.7443572902408
 30
0.0
  0
LINE
  5
85
330
1F
100
AcDbEntity
  8
0
  6
Continuous
 62
     7
370
    25
100
AcDbLine
 10
169.4922596199
 20
652.5126270682
 30
0.0
 11
169.4923698256
 21
648.1476140767
 31
0.0
  0
LINE
  5
86
330
1F
100
AcDbEntity
  8
0
  6
Continuous
 62
     7
370
    25
100
AcDbLine
 10
336.1925585746
 20
636.5993852218
 30
0.0
 11
336.1925384084
 21
637.5763082987
 31
0.0
  0
LINE
  5
87
330
1F
100
AcDbEntity
  8
0
  6
Continuous
 62
     7
370
    25
100
AcDbLine
 10
336.1924779097
 20
640.5070775295
 30
0.0
 11
336.1924577435
 21
641.4840006064
 31
0.0
  0
LINE
  5
88
330
1F
100
AcDbEntity
  8
0
  6
Continuous
 62
     7
370
    25
100
AcDbLine
 10
336.1923210479
 20
648.1060227899
 30
0.0
 11
336.1922508123
 21
651.5084808581
 31
0.0
  0
LINE
  5
89
330
1F
100
AcDbEntity
  8
0
  6
Continuous
 62
     7
370
    25
100
AcDbLine
 10
334.6922508123
 20
651.5084808581
 30
0.0
 11
334.6923361214
 21
648.1136069938
 31
0.0
  0
LINE
  5
8A
330
1F
100
AcDbEntity
  8
0
  6
Continuous
 62
     7
370
    25
100
AcDbLine
 10
336.1922508123
 20
651.5084808581
 30
0.0
 11
336.0340655107
 21
652.5126270682
 31
0.0
  0
LINE
  5
8B
330
1F
100
AcDbEntity
  8
0
  6
Continuous
 62
     7
370
    25
100
AcDbLine
 10
334.5341041458
 20
652.5126270682
 30
0.0
 11
334.6922508123
 21
651.5084808581
 31
0.0
  0
LINE
  5
8C
330
1F
100
AcDbEntity
  8
0
  6
Continuous
 62
     7
370
    25
100
AcDbLine
 10
335.3922509947
 20
654.7626270682
 30
0.0
 11
335.4922509947
 21
654.7626270682
 31
0.0
  0
LINE
  5
8D
330
1F
100
AcDbEntity
  8
0
  6
Continuous
 62
     7
370
    25
100
AcDbLine
 10
170.392250996
 20
654.7626270682
 30
0.0
 11
170.492250996
 21
654.7626270682
 31
0.0
  0
LINE
  5
8E
330
1F
100
AcDbEntity
  8
0
  6
Continuous
 62
     7
370
    25
100
AcDbLine
 10
176.892250996
 20
402.986566827
 30
0.0
 11
176.892250996
 21
403.3328497496
 31
0.0
  0
SPLINE
  5
8F
330
1F
100
AcDbEntity
  8
0
  6
Continuous
 62
     7
370
    25
100
AcDbSpline
210
0.0
220
0.0
230
1.0
 70
     8
 71
     3
 72
    17
 73
    13
 74
     0
 42
0.000000001
 43
0.00000001
 40
0.0
 40
0.0
 40
0.0
 40
0.0
 40
0.048872094939995
 40
0.1496155475738134
 40
0.2514436134022532
 40
0.3560925170856679
 40
0.4646961278887004
 40
0.5764683935288081
 40
0.6893067837934712
 40
0.8031320115125237
 40
0.9152090479302853
 40
1.0
 40
1.0
 40
1.0
 40
1.0
 10
153.4327608634396
 20
395.6243162048291
 30
0.0
 10
153.433383646645
 20
395.3538339865423
 30
0.0
 10
153.435290216241
 20
394.5257879359759
 30
0.0
 10
153.7386249680208
 20
393.1211386915703
 30
0.0
 10
154.316973047768
 20
391.460301802009
 30
0.0
 10
155.1736607105558
 20
389.8541308128149
 30
0.0
 10
156.2858301747123
 20
388.3422264922744
 30
0.0
 10
157.6468452177606
 20
386.9871396191344
 30
0.0
 10
159.2217381616356
 20
385.8450172174153
 30
0.0
 10
160.9566236506331
 20
384.9825327047506
 30
0.0
 10
162.6557220276456
 20
384.4401030501073
 30
0.0
 10
163.7725427615535
 20
384.3431507107335
 30
0.0
 10
164.2535569378387
 20
384.3013933827695
 30
0.0
  0
SPLINE
  5
90
330
1F
100
AcDbEntity
  8
0
  6
Continuous
 62
     7
370
    25
100
AcDbSpline
210
0.0
220
0.0
230
1.0
 70
     8
 71
     3
 72
    16
 73
    12
 74
     0
 42
0.000000001
 43
0.00000001
 40
0.0
 40
0.0
 40
0.0
 40
0.0
 40
0.0687020526128805
 40
0.184364548419107
 40
0.3023869951974064
 40
0.4215912120487743
 40
0.5439111745368217
 40
0.666598474413939
 40
0.7888732301310768
 40
0.908864794797713
 40
1.0
 40
1.0
 40
1.0
 40
1.0
 10
176.5312834625678
 20
384.309600323658
 30
0.0
 10
176.8894267272617
 20
384.330934966871
 30
0.0
 10
177.8505176809292
 20
384.3881872863004
 30
0.0
 10
179.3821546730178
 20
384.823097238202
 30
0.0
 10
181.0759999688825
 20
385.5664490129388
 30
0.0
 10
182.6625291155862
 20
386.6022217472918
 30
0.0
 10
184.0907536265879
 20
387.8905084761038
 30
0.0
 10
185.3210183943583
 20
389.4002968577687
 30
0.0
 10
186.2867861003122
 20
391.0731243327537
 30
0.0
 10
186.9525729422346
 20
392.7114065566172
 30
0.0
 10
187.1459281454721
 20
393.7890205281874
 30
0.0
 10
187.2293920573906
 20
394.2541845170499
 30
0.0
  0
SPLINE
  5
91
330
1F
100
AcDbEntity
  8
0
  6
Continuous
 62
     7
370
    25
100
AcDbSpline
210
0.0
220
0.0
230
1.0
 70
     8
 71
     3
 72
    12
 73
     8
 74
     0
 42
0.000000001
 43
0.00000001
 40
0.0
 40
0.0
 40
0.0
 40
0.0
 40
0.1325771872198644
 40
0.3844997071735134
 40
0.6363926220928109
 40
0.8883000100718421
 40
1.0
 40
1.0
 40
1.0
 40
1.0
 10
164.25001083386
 20
384.2716390888656
 30
0.0
 10
164.7871384571869
 20
384.2364879720195
 30
0.0
 10
166.3449133520599
 20
384.1345428755998
 30
0.0
 10
168.9623489598711
 20
384.048845142921
 30
0.0
 10
172.0806105584227
 20
384.0533024553957
 30
0.0
 10
174.6098151309895
 20
384.1440173804547
 30
0.0
 10
176.0821811217782
 20
384.2416472467256
 30
0.0
 10
176.5344911581923
 20
384.2716390888656
 30
0.0
  0
LINE
  5
92
330
1F
100
AcDbEntity
  8
0
  6
Continuous
 62
     7
370
    25
100
AcDbLine
 10
176.892250996
 20
511.9909108382
 30
0.0
 11
176.892250996
 21
512.3371937607
 31
0.0
  0
LINE
  5
93
330
1F
100
AcDbEntity
  8
0
  6
Continuous
 62
     7
370
    25
100
AcDbLine
 10
176.892250996
 20
620.9952548493
 30
0.0
 11
176.892250996
 21
621.3415377719
 31
0.0
  0
SPLINE
  5
94
330
1F
100
AcDbEntity
  8
0
  6
Continuous
 62
     7
370
    25
100
AcDbSpline
210
0.0
220
0.0
230
1.0
 70
     8
 71
     3
 72
    18
 73
    14
 74
     0
 42
0.000000001
 43
0.00000001
 40
0.0
 40
0.0
 40
0.0
 40
0.0
 40
0.0438476403445079
 40
0.146400533001293
 40
0.251169224690584
 40
0.3570555597961651
 40
0.4650567976025453
 40
0.5738102454005282
 40
0.6827952914671128
 40
0.7888985451918757
 40
0.8938559483877663
 40
0.9956406800016045
 40
1.0
 40
1.0
 40
1.0
 40
1.0
 10
164.2522988317131
 20
634.6865613396817
 30
0.0
 10
163.994690506778
 20
634.6773649997028
 30
0.0
 10
163.1345758967386
 20
634.6466598337242
 30
0.0
 10
161.6930867867389
 20
634.2669652593567
 30
0.0
 10
159.9796962923562
 20
633.5760622920237
 30
0.0
 10
158.3722248657227
 20
632.580729574269
 30
0.0
 10
156.9146151684771
 20
631.3342747109635
 30
0.0
 10
155.6515410366072
 20
629.8569435340197
 30
0.0
 10
154.6358293841202
 20
628.2125341451865
 30
0.0
 10
153.8928132307912
 20
626.4537847165037
 30
0.0
 10
153.486561830152
 20
624.6679635715624
 30
0.0
 10
153.3335398081197
 20
623.4338342433139
 30
0.0
 10
153.399248702406
 20
622.8399708145527
 30
0.0
 10
153.4019473566648
 20
622.815580934178
 30
0.0
  0
SPLINE
  5
95
330
1F
100
AcDbEntity
  8
0
  6
Continuous
 62
     7
370
    25
100
AcDbSpline
210
0.0
220
0.0
230
1.0
 70
     8
 71
     3
 72
    16
 73
    12
 74
     0
 42
0.000000001
 43
0.00000001
 40
0.0
 40
0.0
 40
0.0
 40
0.0
 40
0.1127294741662757
 40
0.2309954045327807
 40
0.3536896031214802
 40
0.4794033000307442
 40
0.6083457375408027
 40
0.7377388634184422
 40
0.8666693913987676
 40
0.9929749638220708
 40
1.0
 40
1.0
 40
1.0
 40
1.0
 10
187.1147087557202
 20
625.4323441899721
 30
0.0
 10
186.9672122002582
 20
625.9754026991371
 30
0.0
 10
186.6649751256325
 20
627.0881908225388
 30
0.0
 10
185.8757098228376
 20
628.6973801859571
 30
0.0
 10
184.842004295636
 20
630.2363885199289
 30
0.0
 10
183.5511975467591
 20
631.6419240956841
 30
0.0
 10
182.0378387961148
 20
632.8456693342767
 30
0.0
 10
180.3422177847302
 20
633.8077907658773
 30
0.0
 10
178.5254386258468
 20
634.4255170034771
 30
0.0
 10
177.2328513199249
 20
634.7244398693073
 30
0.0
 10
176.569196008904
 20
634.7168715724446
 30
0.0
 10
176.5342287750595
 20
634.7164728076011
 30
0.0
  0
SPLINE
  5
96
330
1F
100
AcDbEntity
  8
0
  6
Continuous
 62
     7
370
    25
100
AcDbSpline
210
0.0
220
0.0
230
1.0
 70
     8
 71
     3
 72
    12
 73
     8
 74
     0
 42
0.000000001
 43
0.00000001
 40
0.0
 40
0.0
 40
0.0
 40
0.0
 40
0.1325771872198642
 40
0.3844997071735243
 40
0.6363926220928199
 40
0.8883000100718459
 40
1.0
 40
1.0
 40
1.0
 40
1.0
 10
176.5344911581922
 20
634.7252140533915
 30
0.0
 10
175.9973635348653
 20
634.7603651702376
 30
0.0
 10
174.4395886399923
 20
634.8623102666573
 30
0.0
 10
171.822153032181
 20
634.948007999336
 30
0.0
 10
168.7038914336294
 20
634.9435506868613
 30
0.0
 10
166.1746868610627
 20
634.8528357618022
 30
0.0
 10
164.702320870274
 20
634.7552058955315
 30
0.0
 10
164.2500108338599
 20
634.7252140533915
 30
0.0
  0
LINE
  5
97
330
1F
100
AcDbEntity
  8
0
  6
Continuous
 62
     7
370
    25
100
AcDbLine
 10
341.8922509947
 20
402.986566827
 30
0.0
 11
341.8922509947
 21
403.3328497496
 31
0.0
  0
SPLINE
  5
98
330
1F
100
AcDbEntity
  8
0
  6
Continuous
 62
     7
370
    25
100
AcDbSpline
210
0.0
220
0.0
230
1.0
 70
     8
 71
     3
 72
    17
 73
    13
 74
     0
 42
0.000000001
 43
0.00000001
 40
0.0
 40
0.0
 40
0.0
 40
0.0
 40
0.0488720949399951
 40
0.1496155475738125
 40
0.2514436134022534
 40
0.3560925170856673
 40
0.4646961278886966
 40
0.5764683935288071
 40
0.6893067837934685
 40
0.8031320115125229
 40
0.9152090479302838
 40
1.0
 40
1.0
 40
1.0
 40
1.0
 10
318.4327608620942
 20
395.6243162048292
 30
0.0
 10
318.4333836452997
 20
395.3538339865423
 30
0.0
 10
318.4352902148956
 20
394.525787935976
 30
0.0
 10
318.7386249666754
 20
393.1211386915703
 30
0.0
 10
319.3169730464227
 20
391.460301802009
 30
0.0
 10
320.1736607092104
 20
389.854130812815
 30
0.0
 10
321.285830173367
 20
388.3422264922744
 30
0.0
 10
322.6468452164152
 20
386.9871396191345
 30
0.0
 10
324.2217381602902
 20
385.8450172174153
 30
0.0
 10
325.9566236492877
 20
384.9825327047506
 30
0.0
 10
327.6557220263002
 20
384.4401030501073
 30
0.0
 10
328.7725427602081
 20
384.3431507107335
 30
0.0
 10
329.2535569364934
 20
384.3013933827695
 30
0.0
  0
SPLINE
  5
99
330
1F
100
AcDbEntity
  8
0
  6
Continuous
 62
     7
370
    25
100
AcDbSpline
210
0.0
220
0.0
230
1.0
 70
     8
 71
     3
 72
    16
 73
    12
 74
     0
 42
0.000000001
 43
0.00000001
 40
0.0
 40
0.0
 40
0.0
 40
0.0
 40
0.0687020526128792
 40
0.1843645484191054
 40
0.3023869951974055
 40
0.4215912120487733
 40
0.5439111745368204
 40
0.6665984744139374
 40
0.7888732301310749
 40
0.9088647947977117
 40
1.0
 40
1.0
 40
1.0
 40
1.0
 10
341.5312834612225
 20
384.309600323658
 30
0.0
 10
341.8894267259164
 20
384.330934966871
 30
0.0
 10
342.8505176795838
 20
384.3881872863004
 30
0.0
 10
344.3821546716724
 20
384.823097238202
 30
0.0
 10
346.0759999675371
 20
385.5664490129388
 30
0.0
 10
347.6625291142408
 20
386.6022217472918
 30
0.0
 10
349.0907536252425
 20
387.8905084761038
 30
0.0
 10
350.321018393013
 20
389.4002968577687
 30
0.0
 10
351.2867860989668
 20
391.0731243327537
 30
0.0
 10
351.9525729408893
 20
392.7114065566172
 30
0.0
 10
352.1459281441267
 20
393.7890205281875
 30
0.0
 10
352.2293920560453
 20
394.25418451705
 30
0.0
  0
SPLINE
  5
9A
330
1F
100
AcDbEntity
  8
0
  6
Continuous
 62
     7
370
    25
100
AcDbSpline
210
0.0
220
0.0
230
1.0
 70
     8
 71
     3
 72
    12
 73
     8
 74
     0
 42
0.000000001
 43
0.00000001
 40
0.0
 40
0.0
 40
0.0
 40
0.0
 40
0.1325771872198653
 40
0.3844997071735127
 40
0.6363926220928108
 40
0.8883000100718423
 40
1.0
 40
1.0
 40
1.0
 40
1.0
 10
329.2500108325146
 20
384.2716390888656
 30
0.0
 10
329.7871384558415
 20
384.2364879720195
 30
0.0
 10
331.3449133507145
 20
384.1345428755998
 30
0.0
 10
333.9623489585257
 20
384.0488451429211
 30
0.0
 10
337.0806105570773
 20
384.0533024553957
 30
0.0
 10
339.6098151296442
 20
384.1440173804547
 30
0.0
 10
341.0821811204329
 20
384.2416472467256
 30
0.0
 10
341.534491156847
 20
384.2716390888656
 30
0.0
  0
LINE
  5
9B
330
1F
100
AcDbEntity
  8
0
  6
Continuous
 62
     7
370
    25
100
AcDbLine
 10
341.8922509947
 20
511.9909108382
 30
0.0
 11
341.8922509947
 21
512.3371937607
 31
0.0
  0
LINE
  5
9C
330
1F
100
AcDbEntity
  8
0
  6
Continuous
 62
     7
370
    25
100
AcDbLine
 10
341.8922509947
 20
620.9952548493
 30
0.0
 11
341.8922509947
 21
621.3415377719
 31
0.0
  0
SPLINE
  5
9D
330
1F
100
AcDbEntity
  8
0
  6
Continuous
 62
     7
370
    25
100
AcDbSpline
210
0.0
220
0.0
230
1.0
 70
     8
 71
     3
 72
    18
 73
    14
 74
     0
 42
0.000000001
 43
0.00000001
 40
0.0
 40
0.0
 40
0.0
 40
0.0
 40
0.0438476403445081
 40
0.1464005330013135
 40
0.2511692246905819
 40
0.3570555597961462
 40
0.4650567976025267
 40
0.5738102454005851
 40
0.6827952914671512
 40
0.7888985451919036
 40
0.8938559483878039
 40
0.9956406800015929
 40
1.0
 40
1.0
 40
1.0
 40
1.0
 10
329.2522988303678
 20
634.6865613396817
 30
0.0
 10
328.9946905054327
 20
634.6773649997028
 30
0.0
 10
328.1345758953932
 20
634.6466598337244
 30
0.0
 10
326.6930867853935
 20
634.2669652593567
 30
0.0
 10
324.979696291011
 20
633.5760622920237
 30
0.0
 10
323.3722248643776
 20
632.5807295742694
 30
0.0
 10
321.9146151671318
 20
631.3342747109634
 30
0.0
 10
320.6515410352617
 20
629.8569435340194
 30
0.0
 10
319.6358293827747
 20
628.2125341451858
 30
0.0
 10
318.8928132294458
 20
626.4537847165033
 30
0.0
 10
318.4865618288066
 20
624.6679635715624
 30
0.0
 10
318.3335398067747
 20
623.4338342433136
 30
0.0
 10
318.3992487010607
 20
622.8399708145528
 30
0.0
 10
318.4019473553196
 20
622.815580934178
 30
0.0
  0
SPLINE
  5
9E
330
1F
100
AcDbEntity
  8
0
  6
Continuous
 62
     7
370
    25
100
AcDbSpline
210
0.0
220
0.0
230
1.0
 70
     8
 71
     3
 72
    16
 73
    12
 74
     0
 42
0.000000001
 43
0.00000001
 40
0.0
 40
0.0
 40
0.0
 40
0.0
 40
0.1127294741662626
 40
0.2309954045327489
 40
0.3536896031214493
 40
0.479403300030696
 40
0.6083457375407556
 40
0.7377388634183588
 40
0.8666693913987247
 40
0.9929749638219969
 40
1.0
 40
1.0
 40
1.0
 40
1.0
 10
352.1147087543749
 20
625.4323441899722
 30
0.0
 10
351.967212198913
 20
625.9754026991372
 30
0.0
 10
351.6649751242871
 20
627.0881908225385
 30
0.0
 10
350.8757098214926
 20
628.697380185957
 30
0.0
 10
349.842004294291
 20
630.2363885199284
 30
0.0
 10
348.5511975454143
 20
631.6419240956836
 30
0.0
 10
347.0378387947703
 20
632.8456693342763
 30
0.0
 10
345.3422177833856
 20
633.8077907658769
 30
0.0
 10
343.5254386245027
 20
634.4255170034771
 30
0.0
 10
342.2328513185799
 20
634.724439869307
 30
0.0
 10
341.5691960075592
 20
634.7168715724446
 30
0.0
 10
341.5342287737142
 20
634.716472807601
 30
0.0
  0
SPLINE
  5
9F
330
1F
100
AcDbEntity
  8
0
  6
Continuous
 62
     7
370
    25
100
AcDbSpline
210
0.0
220
0.0
230
1.0
 70
     8
 71
     3
 72
    12
 73
     8
 74
     0
 42
0.000000001
 43
0.00000001
 40
0.0
 40
0.0
 40
0.0
 40
0.0
 40
0.1325771872198643
 40
0.3844997071735294
 40
0.636392622092824
 40
0.8883000100718524
 40
0.9999999999999999
 40
0.9999999999999999
 40
0.9999999999999999
 40
0.9999999999999999
 10
341.534491156847
 20
634.7252140533915
 30
0.0
 10
340.9973635335201
 20
634.7603651702376
 30
0.0
 10
339.439588638647
 20
634.8623102666573
 30
0.0
 10
336.8221530308358
 20
634.9480079993359
 30
0.0
 10
333.7038914322841
 20
634.9435506868614
 30
0.0
 10
331.1746868597173
 20
634.8528357618022
 30
0.0
 10
329.7023208689287
 20
634.7552058955315
 30
0.0
 10
329.2500108325146
 20
634.7252140533915
 30
0.0
  0
LINE
  5
A0
330
1F
100
AcDbEntity
  8
0
  6
Continuous
 62
     7
370
    25
100
AcDbLine
 10
349.3922509947
 20
630.6543724506
 30
0.0
 11
349.3922509947
 21
644.2487882148
 31
0.0
  0
LINE
  5
A1
330
1F
100
AcDbEntity
  8
0
  6
Continuous
 62
     7
370
    25
100
AcDbLine
 10
343.3922509947
 20
644.2487882148
 30
0.0
 11
343.3922509947
 21
634.4177201076
 31
0.0
  0
LINE
  5
A2
330
1F
100
AcDbEntity
  8
0
  6
Continuous
 62
     7
370
    25
100
AcDbLine
 10
343.3922509947
 20
649.5126270682
 30
0.0
 11
343.3922509947
 21
644.2487882148
 31
0.0
  0
LINE
  5
A3
330
1F
100
AcDbEntity
  8
0
  6
Continuous
 62
     7
370
    25
100
AcDbLine
 10
349.3922509947
 20
644.2487882148
 30
0.0
 11
349.3922509947
 21
649.5126270682
 31
0.0
  0
LINE
  5
A4
330
1F
100
AcDbEntity
  8
0
  6
Continuous
 62
     7
370
    25
100
AcDbLine
 10
162.392250996
 20
634.3904417307
 30
0.0
 11
162.392250996
 21
644.2487882148
 31
0.0
  0
LINE
  5
A5
330
1F
100
AcDbEntity
  8
0
  6
Continuous
 62
     7
370
    25
100
AcDbLine
 10
156.392250996
 20
644.2487882148
 30
0.0
 11
156.392250996
 21
630.6462070781
 31
0.0
  0
LINE
  5
A6
330
1F
100
AcDbEntity
  8
0
  6
Continuous
 62
     7
370
    25
100
AcDbLine
 10
156.392250996
 20
649.5126270682
 30
0.0
 11
156.392250996
 21
644.2487882148
 31
0.0
  0
LINE
  5
A7
330
1F
100
AcDbEntity
  8
0
  6
Continuous
 62
     7
370
    25
100
AcDbLine
 10
162.392250996
 20
644.2487882148
 30
0.0
 11
162.392250996
 21
649.5126270682
 31
0.0
  0
LINE
  5
A8
330
1F
100
AcDbEntity
  8
0
  6
Continuous
 62
     7
370
    25
100
AcDbLine
 10
327.3922509947
 20
634.3904417307
 30
0.0
 11
327.3922509947
 21
644.2487882148
 31
0.0
  0
LINE
  5
A9
330
1F
100
AcDbEntity
  8
0
  6
Continuous
 62
     7
370
    25
100
AcDbLine
 10
321.3922509947
 20
644.2487882148
 30
0.0
 11
321.3922509947
 21
630.6462070781
 31
0.0
  0
LINE
  5
AA
330
1F
100
AcDbEntity
  8
0
  6
Continuous
 62
     7
370
    25
100
AcDbLine
 10
321.3922509947
 20
649.5126270682
 30
0.0
 11
321.3922509947
 21
644.2487882148
 31
0.0
  0
LINE
  5
AB
330
1F
100
AcDbEntity
  8
0
  6
Continuous
 62
     7
370
    25
100
AcDbLine
 10
327.3922509947
 20
644.2487882148
 30
0.0
 11
327.3922509947
 21
649.5126270682
 31
0.0
  0
LINE
  5
AC
330
1F
100
AcDbEntity
  8
0
  6
Continuous
 62
     7
370
    25
100
AcDbLine
 10
184.392250996
 20
630.6543724506
 30
0.0
 11
184.392250996
 21
644.2487882148
 31
0.0
  0
LINE
  5
AD
330
1F
100
AcDbEntity
  8
0
  6
Continuous
 62
     7
370
    25
100
AcDbLine
 10
178.392250996
 20
644.2487882148
 30
0.0
 11
178.392250996
 21
634.4177201076
 31
0.0
  0
LINE
  5
AE
330
1F
100
AcDbEntity
  8
0
  6
Continuous
 62
     7
370
    25
100
AcDbLine
 10
178.392250996
 20
649.5126270682
 30
0.0
 11
178.392250996
 21
644.2487882148
 31
0.0
  0
LINE
  5
AF
330
1F
100
AcDbEntity
  8
0
  6
Continuous
 62
     7
370
    25
100
AcDbLine
 10
184.392250996
 20
644.2487882148
 30
0.0
 11
184.392250996
 21
649.5126270682
 31
0.0
  0
LINE
  5
B0
330
1F
100
AcDbEntity
  8
0
  6
Continuous
 62
     7
370
    25
100
AcDbLine
 10
157.3994556322
 20
957.0126270682
 30
0.0
 11
183.3994556322
 21
957.0126270682
 31
0.0
  0
LINE
  5
B1
330
1F
100
AcDbEntity
  8
0
  6
Continuous
 62
     7
370
    25
100
AcDbLine
 10
322.3994556322
 20
957.0126270682
 30
0.0
 11
348.3994556322
 21
957.0126270682
 31
0.0
  0
SPLINE
  5
B2
330
1F
100
AcDbEntity
  8
0
  6
Continuous
 62
     7
370
    25
100
AcDbSpline
210
0.0
220
0.0
230
1.0
 70
     8
 71
     3
 72
    18
 73
    14
 74
     0
 42
0.000000001
 43
0.00000001
 40
0.0
 40
0.0
 40
0.0
 40
0.0
 40
0.0218133663837091
 40
0.1316694124602003
 40
0.2434031304310255
 40
0.3552110605208192
 40
0.4670189906106124
 40
0.5788269207004053
 40
0.6906348507901988
 40
0.8000109300356573
 40
0.9024754768791268
 40
0.9669545155738968
 40
1.0
 40
1.0
 40
1.0
 40
1.0
 10
322.8266282985507
 20
943.561483345587
 30
0.0
 10
322.9777290379867
 20
943.690620139358
 30
0.0
 10
323.8898003448114
 20
944.4701131100309
 30
0.0
 10
325.7916549338364
 20
945.6400990628911
 30
0.0
 10
328.5597017271311
 20
946.9059915975433
 30
0.0
 10
331.5187547171488
 20
947.720272758499
 30
0.0
 10
334.564316622145
 20
948.0798534580923
 30
0.0
 10
337.6303477958285
 20
947.9703070538903
 30
0.0
 10
340.6208201670447
 20
947.3984008257069
 30
0.0
 10
343.4137989064114
 20
946.4155622080131
 30
0.0
 10
345.6397911636068
 20
945.2277584622175
 30
0.0
 10
347.1651124495696
 20
944.2224490274314
 30
0.0
 10
347.8393620715078
 20
943.6431634464042
 30
0.0
 10
348.0678267147386
 20
943.4468766865873
 30
0.0
  0
SPLINE
  5
B3
330
1F
100
AcDbEntity
  8
0
  6
Continuous
 62
     7
370
    25
100
AcDbSpline
210
0.0
220
0.0
230
1.0
 70
     8
 71
     3
 72
    15
 73
    11
 74
     0
 42
0.000000001
 43
0.00000001
 40
0.0
 40
0.0
 40
0.0
 40
0.0
 40
0.0442229475013173
 40
0.1836566965885459
 40
0.3231830558042414
 40
0.4627094150199375
 40
0.6022357742356337
 40
0.7417621334513289
 40
0.878253758957233
 40
0.9999999999999999
 40
0.9999999999999999
 40
0.9999999999999999
 40
0.9999999999999999
 10
348.3994556321662
 20
949.2788584485438
 30
0.0
 10
348.0644581861716
 20
949.5040977032929
 30
0.0
 10
346.6732229164026
 20
950.4395101940148
 30
0.0
 10
343.9268199578061
 20
951.5795365336444
 30
0.0
 10
340.2527191701199
 20
952.6350859965218
 30
0.0
 10
336.4427639732659
 20
953.0812297087621
 30
0.0
 10
332.6122677432787
 20
952.9545655706835
 30
0.0
 10
328.8782830907306
 20
952.2384376800824
 30
0.0
 10
325.4259581418095
 20
951.0587863132351
 30
0.0
 10
323.3691417234902
 20
949.903549119876
 30
0.0
 10
322.3994556321662
 20
949.3589125501738
 30
0.0
  0
SPLINE
  5
B4
330
1F
100
AcDbEntity
  8
0
  6
Continuous
 62
     7
370
    25
100
AcDbSpline
210
0.0
220
0.0
230
1.0
 70
     8
 71
     3
 72
    18
 73
    14
 74
     0
 42
0.000000001
 43
0.00000001
 40
0.0
 40
0.0
 40
0.0
 40
0.0
 40
0.0218133664399404
 40
0.1316694125156333
 40
0.2434031304856493
 40
0.3552110605746331
 40
0.4670189906636171
 40
0.5788269207525998
 40
0.6906348508415834
 40
0.8000109300862501
 40
0.9024754769289777
 40
0.9669545156232779
 40
1.0
 40
1.0
 40
1.0
 40
1.0
 10
157.8266282987156
 20
943.561483344596
 30
0.0
 10
157.9777290385399
 20
943.6906201387036
 30
0.0
 10
158.8898003457417
 20
944.4701131097273
 30
0.0
 10
160.7916549351707
 20
945.6400990629044
 30
0.0
 10
163.5597017284789
 20
946.9059915975399
 30
0.0
 10
166.518754718493
 20
947.7202727585
 30
0.0
 10
169.5643166234901
 20
948.0798534580919
 30
0.0
 10
172.6303477971736
 20
947.9703070538908
 30
0.0
 10
175.620820168389
 20
947.3984008257057
 30
0.0
 10
178.4137989077589
 20
946.4155622080164
 30
0.0
 10
180.6397911649443
 20
945.2277584622077
 30
0.0
 10
182.165112450553
 20
944.2224490276953
 30
0.0
 10
182.8393620721588
 20
943.6431634469698
 30
0.0
 10
183.0678267150524
 20
943.4468766874478
 30
0.0
  0
SPLINE
  5
B5
330
1F
100
AcDbEntity
  8
0
  6
Continuous
 62
     7
370
    25
100
AcDbSpline
210
0.0
220
0.0
230
1.0
 70
     8
 71
     3
 72
    15
 73
    11
 74
     0
 42
0.000000001
 43
0.00000001
 40
0.0
 40
0.0
 40
0.0
 40
0.0
 40
0.0442229474428688
 40
0.1836566965305302
 40
0.3231830557466594
 40
0.462709414962788
 40
0.6022357741789173
 40
0.7417621333950444
 40
0.8782537589013721
 40
1.0
 40
1.0
 40
1.0
 40
1.0
 10
183.3994556321667
 20
949.2788584494169
 30
0.0
 10
183.0644581866127
 20
949.5040977038623
 30
0.0
 10
181.6732229172744
 20
950.4395101942636
 30
0.0
 10
178.9268199591417
 20
951.5795365336288
 30
0.0
 10
175.2527191714674
 20
952.6350859965261
 30
0.0
 10
171.44276397461
 20
953.0812297087616
 30
0.0
 10
167.6122677446247
 20
952.9545655706817
 30
0.0
 10
163.8782830920722
 20
952.2384376800892
 30
0.0
 10
160.4259581426843
 20
951.0587863130469
 30
0.0
 10
158.3691417239295
 20
949.9035491194256
 30
0.0
 10
157.3994556321667
 20
949.3589125494688
 30
0.0
  0
LINE
  5
B6
330
1F
100
AcDbEntity
  8
0
  6
Continuous
 62
     7
370
    25
100
AcDbLine
 10
152.9120037561
 20
652.5126270682
 30
0.0
 11
170.392250996
 21
652.5126270682
 31
0.0
  0
LINE
  5
B7
330
1F
100
AcDbEntity
  8
0
  6
Continuous
 62
     7
370
    25
100
AcDbLine
 10
170.492250996
 20
652.5126270682
 30
0.0
 11
187.8869075082
 21
652.5126270682
 31
0.0
  0
LINE
  5
B8
330
1F
100
AcDbEntity
  8
0
  6
Continuous
 62
     7
370
    25
100
AcDbLine
 10
335.4922509947
 20
652.5126270682
 30
0.0
 11
352.8869075082
 21
652.5126270682
 31
0.0
  0
LINE
  5
B9
330
1F
100
AcDbEntity
  8
0
  6
Continuous
 62
     7
370
    25
100
AcDbLine
 10
317.9120037561
 20
652.5126270682
 30
0.0
 11
335.3922509947
 21
652.5126270682
 31
0.0
  0
LINE
  5
BA
330
1F
100
AcDbEntity
  8
0
  6
Continuous
 62
     7
370
    25
100
AcDbLine
 10
353.0452509989
 20
253.3115055928
 30
0.0
 11
353.0452509989
 21
254.6927186602
 31
0.0
  0
LINE
  5
BB
330
1F
100
AcDbEntity
  8
0
  6
Continuous
 62
     7
370
    25
100
AcDbLine
 10
317.7392509989
 20
254.6927186602
 30
0.0
 11
317.7392509989
 21
253.3115055927
 31
0.0
  0
LINE
  5
BC
330
1F
100
AcDbEntity
  8
0
  6
Continuous
 62
     7
370
    25
100
AcDbLine
 10
317.8662509989
 20
256.4590006064
 30
0.0
 11
317.8662509989
 21
254.9500925194
 31
0.0
  0
LINE
  5
BD
330
1F
100
AcDbEntity
  8
0
  6
Continuous
 62
     7
370
    25
100
AcDbLine
 10
352.9182509989
 20
255.5860074109
 30
0.0
 11
352.9182509989
 21
256.4590006064
 31
0.0
  0
LINE
  5
BE
330
1F
100
AcDbEntity
  8
0
  6
Continuous
 62
     7
370
    25
100
AcDbLine
 10
320.2092180568
 20
249.3543380753
 30
0.0
 11
327.5782282176
 21
243.9602498916
 31
0.0
  0
LINE
  5
BF
330
1F
100
AcDbEntity
  8
0
  6
Continuous
 62
     7
370
    25
100
AcDbLine
 10
343.2062737803
 20
243.9602498916
 30
0.0
 11
350.5752839411
 21
249.3543380753
 31
0.0
  0
LINE
  5
C0
330
1F
100
AcDbEntity
  8
0
  6
Continuous
 62
     7
370
    25
100
AcDbLine
 10
326.2151987361
 20
246.724677993
 30
0.0
 11
326.2151987361
 21
246.9548801709
 31
0.0
  0
LINE
  5
C1
330
1F
100
AcDbEntity
  8
0
  6
Continuous
 62
     7
370
    25
100
AcDbLine
 10
324.6911987361
 20
246.9548801709
 30
0.0
 11
324.6911987361
 21
246.724677993
 31
0.0
  0
LINE
  5
C2
330
1F
100
AcDbEntity
  8
0
  6
Continuous
 62
     7
370
    25
100
AcDbLine
 10
328.4249987361
 20
246.724677993
 30
0.0
 11
328.4249987361
 21
246.9548801709
 31
0.0
  0
LINE
  5
C3
330
1F
100
AcDbEntity
  8
0
  6
Continuous
 62
     7
370
    25
100
AcDbLine
 10
326.9009987361
 20
246.9548801709
 30
0.0
 11
326.9009987361
 21
246.724677993
 31
0.0
  0
LINE
  5
C4
330
1F
100
AcDbEntity
  8
0
  6
Continuous
 62
     7
370
    25
100
AcDbLine
 10
330.6347987361
 20
246.724677993
 30
0.0
 11
330.6347987361
 21
246.9548801709
 31
0.0
  0
LINE
  5
C5
330
1F
100
AcDbEntity
  8
0
  6
Continuous
 62
     7
370
    25
100
AcDbLine
 10
329.1107987361
 20
246.9548801709
 30
0.0
 11
329.1107987361
 21
246.724677993
 31
0.0
  0
LINE
  5
C6
330
1F
100
AcDbEntity
  8
0
  6
Continuous
 62
     7
370
    25
100
AcDbLine
 10
332.8445987361
 20
246.724677993
 30
0.0
 11
332.8445987361
 21
246.9548801709
 31
0.0
  0
LINE
  5
C7
330
1F
100
AcDbEntity
  8
0
  6
Continuous
 62
     7
370
    25
100
AcDbLine
 10
331.3205987361
 20
246.9548801709
 30
0.0
 11
331.3205987361
 21
246.724677993
 31
0.0
  0
LINE
  5
C8
330
1F
100
AcDbEntity
  8
0
  6
Continuous
 62
     7
370
    25
100
AcDbLine
 10
335.0543987361
 20
246.724677993
 30
0.0
 11
335.0543987361
 21
246.9548801709
 31
0.0
  0
LINE
  5
C9
330
1F
100
AcDbEntity
  8
0
  6
Continuous
 62
     7
370
    25
100
AcDbLine
 10
333.5303987361
 20
246.9548801709
 30
0.0
 11
333.5303987361
 21
246.724677993
 31
0.0
  0
LINE
  5
CA
330
1F
100
AcDbEntity
  8
0
  6
Continuous
 62
     7
370
    25
100
AcDbLine
 10
337.2541032617
 20
246.724677993
 30
0.0
 11
337.2541032617
 21
246.9548801709
 31
0.0
  0
LINE
  5
CB
330
1F
100
AcDbEntity
  8
0
  6
Continuous
 62
     7
370
    25
100
AcDbLine
 10
335.7301032617
 20
246.9548801709
 30
0.0
 11
335.7301032617
 21
246.724677993
 31
0.0
  0
LINE
  5
CC
330
1F
100
AcDbEntity
  8
0
  6
Continuous
 62
     7
370
    25
100
AcDbLine
 10
339.4639032617
 20
246.724677993
 30
0.0
 11
339.4639032617
 21
246.9548801709
 31
0.0
  0
LINE
  5
CD
330
1F
100
AcDbEntity
  8
0
  6
Continuous
 62
     7
370
    25
100
AcDbLine
 10
337.9399032617
 20
246.9548801709
 30
0.0
 11
337.9399032617
 21
246.724677993
 31
0.0
  0
LINE
  5
CE
330
1F
100
AcDbEntity
  8
0
  6
Continuous
 62
     7
370
    25
100
AcDbLine
 10
341.6737032617
 20
246.724677993
 30
0.0
 11
341.6737032617
 21
246.9548801709
 31
0.0
  0
LINE
  5
CF
330
1F
100
AcDbEntity
  8
0
  6
Continuous
 62
     7
370
    25
100
AcDbLine
 10
340.1497032617
 20
246.9548801709
 30
0.0
 11
340.1497032617
 21
246.724677993
 31
0.0
  0
LINE
  5
D0
330
1F
100
AcDbEntity
  8
0
  6
Continuous
 62
     7
370
    25
100
AcDbLine
 10
343.8835032617
 20
246.724677993
 30
0.0
 11
343.8835032617
 21
246.9548801709
 31
0.0
  0
LINE
  5
D1
330
1F
100
AcDbEntity
  8
0
  6
Continuous
 62
     7
370
    25
100
AcDbLine
 10
342.3595032617
 20
246.9548801709
 30
0.0
 11
342.3595032617
 21
246.724677993
 31
0.0
  0
LINE
  5
D2
330
1F
100
AcDbEntity
  8
0
  6
Continuous
 62
     7
370
    25
100
AcDbLine
 10
346.0933032617
 20
246.724677993
 30
0.0
 11
346.0933032617
 21
246.9548801709
 31
0.0
  0
LINE
  5
D3
330
1F
100
AcDbEntity
  8
0
  6
Continuous
 62
     7
370
    25
100
AcDbLine
 10
344.5693032617
 20
246.9548801709
 30
0.0
 11
344.5693032617
 21
246.724677993
 31
0.0
  0
LINE
  5
D4
330
1F
100
AcDbEntity
  8
0
  6
Continuous
 62
     7
370
    25
100
AcDbLine
 10
327.3150509989
 20
245.9195902044
 30
0.0
 11
327.3150509989
 21
246.1497923823
 31
0.0
  0
LINE
  5
D5
330
1F
100
AcDbEntity
  8
0
  6
Continuous
 62
     7
370
    25
100
AcDbLine
 10
325.7910509989
 20
246.1497923823
 30
0.0
 11
325.7910509989
 21
245.9195902044
 31
0.0
  0
LINE
  5
D6
330
1F
100
AcDbEntity
  8
0
  6
Continuous
 62
     7
370
    25
100
AcDbLine
 10
329.5248509989
 20
245.9195902044
 30
0.0
 11
329.5248509989
 21
246.1497923823
 31
0.0
  0
LINE
  5
D7
330
1F
100
AcDbEntity
  8
0
  6
Continuous
 62
     7
370
    25
100
AcDbLine
 10
328.0008509989
 20
246.1497923823
 30
0.0
 11
328.0008509989
 21
245.9195902044
 31
0.0
  0
LINE
  5
D8
330
1F
100
AcDbEntity
  8
0
  6
Continuous
 62
     7
370
    25
100
AcDbLine
 10
331.7346509989
 20
245.9195902044
 30
0.0
 11
331.7346509989
 21
246.1497923823
 31
0.0
  0
LINE
  5
D9
330
1F
100
AcDbEntity
  8
0
  6
Continuous
 62
     7
370
    25
100
AcDbLine
 10
330.2106509989
 20
246.1497923823
 30
0.0
 11
330.2106509989
 21
245.9195902044
 31
0.0
  0
LINE
  5
DA
330
1F
100
AcDbEntity
  8
0
  6
Continuous
 62
     7
370
    25
100
AcDbLine
 10
333.9444509989
 20
245.9195902044
 30
0.0
 11
333.9444509989
 21
246.1497923823
 31
0.0
  0
LINE
  5
DB
330
1F
100
AcDbEntity
  8
0
  6
Continuous
 62
     7
370
    25
100
AcDbLine
 10
332.4204509989
 20
246.1497923823
 30
0.0
 11
332.4204509989
 21
245.9195902044
 31
0.0
  0
LINE
  5
DC
330
1F
100
AcDbEntity
  8
0
  6
Continuous
 62
     7
370
    25
100
AcDbLine
 10
336.1542509989
 20
245.9195902044
 30
0.0
 11
336.1542509989
 21
246.1497923823
 31
0.0
  0
LINE
  5
DD
330
1F
100
AcDbEntity
  8
0
  6
Continuous
 62
     7
370
    25
100
AcDbLine
 10
334.6302509989
 20
246.1497923823
 30
0.0
 11
334.6302509989
 21
245.9195902044
 31
0.0
  0
LINE
  5
DE
330
1F
100
AcDbEntity
  8
0
  6
Continuous
 62
     7
370
    25
100
AcDbLine
 10
338.3640509989
 20
245.9195902044
 30
0.0
 11
338.3640509989
 21
246.1497923823
 31
0.0
  0
LINE
  5
DF
330
1F
100
AcDbEntity
  8
0
  6
Continuous
 62
     7
370
    25
100
AcDbLine
 10
336.8400509989
 20
246.1497923823
 30
0.0
 11
336.8400509989
 21
245.9195902044
 31
0.0
  0
LINE
  5
E0
330
1F
100
AcDbEntity
  8
0
  6
Continuous
 62
     7
370
    25
100
AcDbLine
 10
340.5738509989
 20
245.9195902044
 30
0.0
 11
340.5738509989
 21
246.1497923823
 31
0.0
  0
LINE
  5
E1
330
1F
100
AcDbEntity
  8
0
  6
Continuous
 62
     7
370
    25
100
AcDbLine
 10
339.0498509989
 20
246.1497923823
 30
0.0
 11
339.0498509989
 21
245.9195902044
 31
0.0
  0
LINE
  5
E2
330
1F
100
AcDbEntity
  8
0
  6
Continuous
 62
     7
370
    25
100
AcDbLine
 10
342.7836509989
 20
245.9195902044
 30
0.0
 11
342.7836509989
 21
246.1497923823
 31
0.0
  0
LINE
  5
E3
330
1F
100
AcDbEntity
  8
0
  6
Continuous
 62
     7
370
    25
100
AcDbLine
 10
341.2596509989
 20
246.1497923823
 30
0.0
 11
341.2596509989
 21
245.9195902044
 31
0.0
  0
LINE
  5
E4
330
1F
100
AcDbEntity
  8
0
  6
Continuous
 62
     7
370
    25
100
AcDbLine
 10
344.9934509989
 20
245.9195902044
 30
0.0
 11
344.9934509989
 21
246.1497923823
 31
0.0
  0
LINE
  5
E5
330
1F
100
AcDbEntity
  8
0
  6
Continuous
 62
     7
370
    25
100
AcDbLine
 10
343.4694509989
 20
246.1497923823
 30
0.0
 11
343.4694509989
 21
245.9195902044
 31
0.0
  0
LINE
  5
E6
330
1F
100
AcDbEntity
  8
0
  6
Continuous
 62
     7
370
    25
100
AcDbLine
 10
328.3076811614
 20
245.028626385
 30
0.0
 11
328.3076811614
 21
245.2588285629
 31
0.0
  0
LINE
  5
E7
330
1F
100
AcDbEntity
  8
0
  6
Continuous
 62
     7
370
    25
100
AcDbLine
 10
326.7836811614
 20
245.2588285629
 30
0.0
 11
326.7836811614
 21
245.028626385
 31
0.0
  0
LINE
  5
E8
330
1F
100
AcDbEntity
  8
0
  6
Continuous
 62
     7
370
    25
100
AcDbLine
 10
330.5174811614
 20
245.028626385
 30
0.0
 11
330.5174811614
 21
245.2588285629
 31
0.0
  0
LINE
  5
E9
330
1F
100
AcDbEntity
  8
0
  6
Continuous
 62
     7
370
    25
100
AcDbLine
 10
328.9934811614
 20
245.2588285629
 30
0.0
 11
328.9934811614
 21
245.028626385
 31
0.0
  0
LINE
  5
EA
330
1F
100
AcDbEntity
  8
0
  6
Continuous
 62
     7
370
    25
100
AcDbLine
 10
332.7272811614
 20
245.028626385
 30
0.0
 11
332.7272811614
 21
245.2588285629
 31
0.0
  0
LINE
  5
EB
330
1F
100
AcDbEntity
  8
0
  6
Continuous
 62
     7
370
    25
100
AcDbLine
 10
331.2032811614
 20
245.2588285629
 30
0.0
 11
331.2032811614
 21
245.028626385
 31
0.0
  0
LINE
  5
EC
330
1F
100
AcDbEntity
  8
0
  6
Continuous
 62
     7
370
    25
100
AcDbLine
 10
334.9370811614
 20
245.028626385
 30
0.0
 11
334.9370811614
 21
245.2588285629
 31
0.0
  0
LINE
  5
ED
330
1F
100
AcDbEntity
  8
0
  6
Continuous
 62
     7
370
    25
100
AcDbLine
 10
333.4130811614
 20
245.2588285629
 30
0.0
 11
333.4130811614
 21
245.028626385
 31
0.0
  0
LINE
  5
EE
330
1F
100
AcDbEntity
  8
0
  6
Continuous
 62
     7
370
    25
100
AcDbLine
 10
337.3714208365
 20
245.028626385
 30
0.0
 11
337.3714208365
 21
245.2588285629
 31
0.0
  0
LINE
  5
EF
330
1F
100
AcDbEntity
  8
0
  6
Continuous
 62
     7
370
    25
100
AcDbLine
 10
335.8474208365
 20
245.2588285629
 30
0.0
 11
335.8474208365
 21
245.028626385
 31
0.0
  0
LINE
  5
F0
330
1F
100
AcDbEntity
  8
0
  6
Continuous
 62
     7
370
    25
100
AcDbLine
 10
339.5812208365
 20
245.028626385
 30
0.0
 11
339.5812208365
 21
245.2588285629
 31
0.0
  0
LINE
  5
F1
330
1F
100
AcDbEntity
  8
0
  6
Continuous
 62
     7
370
    25
100
AcDbLine
 10
338.0572208365
 20
245.2588285629
 30
0.0
 11
338.0572208365
 21
245.028626385
 31
0.0
  0
LINE
  5
F2
330
1F
100
AcDbEntity
  8
0
  6
Continuous
 62
     7
370
    25
100
AcDbLine
 10
341.7910208365
 20
245.028626385
 30
0.0
 11
341.7910208365
 21
245.2588285629
 31
0.0
  0
LINE
  5
F3
330
1F
100
AcDbEntity
  8
0
  6
Continuous
 62
     7
370
    25
100
AcDbLine
 10
340.2670208365
 20
245.2588285629
 30
0.0
 11
340.2670208365
 21
245.028626385
 31
0.0
  0
LINE
  5
F4
330
1F
100
AcDbEntity
  8
0
  6
Continuous
 62
     7
370
    25
100
AcDbLine
 10
344.0008208365
 20
245.028626385
 30
0.0
 11
344.0008208365
 21
245.2588285629
 31
0.0
  0
LINE
  5
F5
330
1F
100
AcDbEntity
  8
0
  6
Continuous
 62
     7
370
    25
100
AcDbLine
 10
342.4768208365
 20
245.2588285629
 30
0.0
 11
342.4768208365
 21
245.028626385
 31
0.0
  0
SPLINE
  5
F6
330
1F
100
AcDbEntity
  8
0
  6
Continuous
 62
     7
370
    25
100
AcDbSpline
210
0.0
220
0.0
230
1.0
 70
     8
 71
     3
 72
    10
 73
     6
 74
     0
 42
0.000000001
 43
0.00000001
 40
0.0
 40
0.0
 40
0.0
 40
0.0
 40
0.2651740973556348
 40
0.6929866389547046
 40
1.0
 40
1.0
 40
1.0
 40
1.0
 10
327.5782282175953
 20
243.9602498915871
 30
0.0
 10
327.6620944179239
 20
243.9089151786181
 30
0.0
 10
327.8812642269932
 20
243.7747607851204
 30
0.0
 10
328.3069400848825
 20
243.6662020993536
 30
0.0
 10
328.6498628462302
 20
243.6513606035731
 30
0.0
 10
328.793137422101
 20
243.6451597640462
 30
0.0
  0
SPLINE
  5
F7
330
1F
100
AcDbEntity
  8
0
  6
Continuous
 62
     7
370
    25
100
AcDbSpline
210
0.0
220
0.0
230
1.0
 70
     8
 71
     3
 72
    10
 73
     6
 74
     0
 42
0.000000001
 43
0.00000001
 40
0.0
 40
0.0
 40
0.0
 40
0.0
 40
0.2476669137705773
 40
0.6400777806601452
 40
1.0
 40
1.0
 40
1.0
 40
1.0
 10
341.9913645757757
 20
243.645159764053
 30
0.0
 10
342.1068187013739
 20
243.6492539711406
 30
0.0
 10
342.4052017972662
 20
243.6598351624118
 30
0.0
 10
342.8456301727206
 20
243.751391588739
 30
0.0
 10
343.0895706753609
 20
243.8926640203341
 30
0.0
 10
343.2062737802812
 20
243.960249891595
 30
0.0
  0
LINE
  5
F8
330
1F
100
AcDbEntity
  8
0
  6
Continuous
 62
     7
370
    25
100
AcDbLine
 10
328.7931374221
 20
243.645159764
 30
0.0
 11
341.9913645758
 21
243.6451597641
 31
0.0
  0
LINE
  5
F9
330
1F
100
AcDbEntity
  8
0
  6
Continuous
 62
     7
370
    25
100
AcDbLine
 10
188.0452509988
 20
253.3115055927
 30
0.0
 11
188.0452509988
 21
254.6927186602
 31
0.0
  0
LINE
  5
FA
330
1F
100
AcDbEntity
  8
0
  6
Continuous
 62
     7
370
    25
100
AcDbLine
 10
152.7392509988
 20
254.6927186602
 30
0.0
 11
152.7392509988
 21
253.3115055927
 31
0.0
  0
LINE
  5
FB
330
1F
100
AcDbEntity
  8
0
  6
Continuous
 62
     7
370
    25
100
AcDbLine
 10
152.8662509988
 20
256.4590006064
 30
0.0
 11
152.8662509988
 21
254.9500925194
 31
0.0
  0
LINE
  5
FC
330
1F
100
AcDbEntity
  8
0
  6
Continuous
 62
     7
370
    25
100
AcDbLine
 10
187.9182509988
 20
255.5860074109
 30
0.0
 11
187.9182509988
 21
256.4590006064
 31
0.0
  0
LINE
  5
FD
330
1F
100
AcDbEntity
  8
0
  6
Continuous
 62
     7
370
    25
100
AcDbLine
 10
178.2062737801
 20
243.9602498916
 30
0.0
 11
185.5752839409
 21
249.3543380753
 31
0.0
  0
LINE
  5
FE
330
1F
100
AcDbEntity
  8
0
  6
Continuous
 62
     7
370
    25
100
AcDbLine
 10
155.2092180566
 20
249.3543380753
 30
0.0
 11
162.5782282174
 21
243.9602498916
 31
0.0
  0
LINE
  5
FF
330
1F
100
AcDbEntity
  8
0
  6
Continuous
 62
     7
370
    25
100
AcDbLine
 10
181.0933032616
 20
246.724677993
 30
0.0
 11
181.0933032616
 21
246.9548801709
 31
0.0
  0
LINE
  5
100
330
1F
100
AcDbEntity
  8
0
  6
Continuous
 62
     7
370
    25
100
AcDbLine
 10
179.5693032616
 20
246.9548801709
 30
0.0
 11
179.5693032616
 21
246.724677993
 31
0.0
  0
LINE
  5
101
330
1F
100
AcDbEntity
  8
0
  6
Continuous
 62
     7
370
    25
100
AcDbLine
 10
178.8835032616
 20
246.724677993
 30
0.0
 11
178.8835032616
 21
246.9548801709
 31
0.0
  0
LINE
  5
102
330
1F
100
AcDbEntity
  8
0
  6
Continuous
 62
     7
370
    25
100
AcDbLine
 10
177.3595032616
 20
246.9548801709
 30
0.0
 11
177.3595032616
 21
246.724677993
 31
0.0
  0
LINE
  5
103
330
1F
100
AcDbEntity
  8
0
  6
Continuous
 62
     7
370
    25
100
AcDbLine
 10
165.6347987359
 20
246.724677993
 30
0.0
 11
165.6347987359
 21
246.9548801709
 31
0.0
  0
LINE
  5
104
330
1F
100
AcDbEntity
  8
0
  6
Continuous
 62
     7
370
    25
100
AcDbLine
 10
164.1107987359
 20
246.9548801709
 30
0.0
 11
164.1107987359
 21
246.724677993
 31
0.0
  0
LINE
  5
105
330
1F
100
AcDbEntity
  8
0
  6
Continuous
 62
     7
370
    25
100
AcDbLine
 10
163.4249987359
 20
246.724677993
 30
0.0
 11
163.4249987359
 21
246.9548801709
 31
0.0
  0
LINE
  5
106
330
1F
100
AcDbEntity
  8
0
  6
Continuous
 62
     7
370
    25
100
AcDbLine
 10
161.9009987359
 20
246.9548801709
 30
0.0
 11
161.9009987359
 21
246.724677993
 31
0.0
  0
LINE
  5
107
330
1F
100
AcDbEntity
  8
0
  6
Continuous
 62
     7
370
    25
100
AcDbLine
 10
167.8445987359
 20
246.724677993
 30
0.0
 11
167.8445987359
 21
246.9548801709
 31
0.0
  0
LINE
  5
108
330
1F
100
AcDbEntity
  8
0
  6
Continuous
 62
     7
370
    25
100
AcDbLine
 10
166.3205987359
 20
246.9548801709
 30
0.0
 11
166.3205987359
 21
246.724677993
 31
0.0
  0
LINE
  5
109
330
1F
100
AcDbEntity
  8
0
  6
Continuous
 62
     7
370
    25
100
AcDbLine
 10
170.0543987359
 20
246.724677993
 30
0.0
 11
170.0543987359
 21
246.9548801709
 31
0.0
  0
LINE
  5
10A
330
1F
100
AcDbEntity
  8
0
  6
Continuous
 62
     7
370
    25
100
AcDbLine
 10
168.5303987359
 20
246.9548801709
 30
0.0
 11
168.5303987359
 21
246.724677993
 31
0.0
  0
LINE
  5
10B
330
1F
100
AcDbEntity
  8
0
  6
Continuous
 62
     7
370
    25
100
AcDbLine
 10
174.4639032616
 20
246.724677993
 30
0.0
 11
174.4639032616
 21
246.9548801709
 31
0.0
  0
LINE
  5
10C
330
1F
100
AcDbEntity
  8
0
  6
Continuous
 62
     7
370
    25
100
AcDbLine
 10
172.9399032616
 20
246.9548801709
 30
0.0
 11
172.9399032616
 21
246.724677993
 31
0.0
  0
LINE
  5
10D
330
1F
100
AcDbEntity
  8
0
  6
Continuous
 62
     7
370
    25
100
AcDbLine
 10
161.2151987359
 20
246.724677993
 30
0.0
 11
161.2151987359
 21
246.9548801709
 31
0.0
  0
LINE
  5
10E
330
1F
100
AcDbEntity
  8
0
  6
Continuous
 62
     7
370
    25
100
AcDbLine
 10
159.6911987359
 20
246.9548801709
 30
0.0
 11
159.6911987359
 21
246.724677993
 31
0.0
  0
LINE
  5
10F
330
1F
100
AcDbEntity
  8
0
  6
Continuous
 62
     7
370
    25
100
AcDbLine
 10
176.6737032616
 20
246.724677993
 30
0.0
 11
176.6737032616
 21
246.9548801709
 31
0.0
  0
LINE
  5
110
330
1F
100
AcDbEntity
  8
0
  6
Continuous
 62
     7
370
    25
100
AcDbLine
 10
175.1497032616
 20
246.9548801709
 30
0.0
 11
175.1497032616
 21
246.724677993
 31
0.0
  0
LINE
  5
111
330
1F
100
AcDbEntity
  8
0
  6
Continuous
 62
     7
370
    25
100
AcDbLine
 10
172.2541032616
 20
246.724677993
 30
0.0
 11
172.2541032616
 21
246.9548801709
 31
0.0
  0
LINE
  5
112
330
1F
100
AcDbEntity
  8
0
  6
Continuous
 62
     7
370
    25
100
AcDbLine
 10
170.7301032616
 20
246.9548801709
 30
0.0
 11
170.7301032616
 21
246.724677993
 31
0.0
  0
LINE
  5
113
330
1F
100
AcDbEntity
  8
0
  6
Continuous
 62
     7
370
    25
100
AcDbLine
 10
179.9934509988
 20
245.9195902044
 30
0.0
 11
179.9934509988
 21
246.1497923823
 31
0.0
  0
LINE
  5
114
330
1F
100
AcDbEntity
  8
0
  6
Continuous
 62
     7
370
    25
100
AcDbLine
 10
178.4694509988
 20
246.1497923823
 30
0.0
 11
178.4694509988
 21
245.9195902044
 31
0.0
  0
LINE
  5
115
330
1F
100
AcDbEntity
  8
0
  6
Continuous
 62
     7
370
    25
100
AcDbLine
 10
168.9444509988
 20
245.9195902044
 30
0.0
 11
168.9444509988
 21
246.1497923823
 31
0.0
  0
LINE
  5
116
330
1F
100
AcDbEntity
  8
0
  6
Continuous
 62
     7
370
    25
100
AcDbLine
 10
167.4204509988
 20
246.1497923823
 30
0.0
 11
167.4204509988
 21
245.9195902044
 31
0.0
  0
LINE
  5
117
330
1F
100
AcDbEntity
  8
0
  6
Continuous
 62
     7
370
    25
100
AcDbLine
 10
177.7836509988
 20
245.9195902044
 30
0.0
 11
177.7836509988
 21
246.1497923823
 31
0.0
  0
LINE
  5
118
330
1F
100
AcDbEntity
  8
0
  6
Continuous
 62
     7
370
    25
100
AcDbLine
 10
176.2596509988
 20
246.1497923823
 30
0.0
 11
176.2596509988
 21
245.9195902044
 31
0.0
  0
LINE
  5
119
330
1F
100
AcDbEntity
  8
0
  6
Continuous
 62
     7
370
    25
100
AcDbLine
 10
173.3640509988
 20
245.9195902044
 30
0.0
 11
173.3640509988
 21
246.1497923823
 31
0.0
  0
LINE
  5
11A
330
1F
100
AcDbEntity
  8
0
  6
Continuous
 62
     7
370
    25
100
AcDbLine
 10
171.8400509988
 20
246.1497923823
 30
0.0
 11
171.8400509988
 21
245.9195902044
 31
0.0
  0
LINE
  5
11B
330
1F
100
AcDbEntity
  8
0
  6
Continuous
 62
     7
370
    25
100
AcDbLine
 10
162.3150509988
 20
245.9195902044
 30
0.0
 11
162.3150509988
 21
246.1497923823
 31
0.0
  0
LINE
  5
11C
330
1F
100
AcDbEntity
  8
0
  6
Continuous
 62
     7
370
    25
100
AcDbLine
 10
160.7910509988
 20
246.1497923823
 30
0.0
 11
160.7910509988
 21
245.9195902044
 31
0.0
  0
LINE
  5
11D
330
1F
100
AcDbEntity
  8
0
  6
Continuous
 62
     7
370
    25
100
AcDbLine
 10
171.1542509988
 20
245.9195902044
 30
0.0
 11
171.1542509988
 21
246.1497923823
 31
0.0
  0
LINE
  5
11E
330
1F
100
AcDbEntity
  8
0
  6
Continuous
 62
     7
370
    25
100
AcDbLine
 10
169.6302509988
 20
246.1497923823
 30
0.0
 11
169.6302509988
 21
245.9195902044
 31
0.0
  0
LINE
  5
11F
330
1F
100
AcDbEntity
  8
0
  6
Continuous
 62
     7
370
    25
100
AcDbLine
 10
175.5738509988
 20
245.9195902044
 30
0.0
 11
175.5738509988
 21
246.1497923823
 31
0.0
  0
LINE
  5
120
330
1F
100
AcDbEntity
  8
0
  6
Continuous
 62
     7
370
    25
100
AcDbLine
 10
174.0498509988
 20
246.1497923823
 30
0.0
 11
174.0498509988
 21
245.9195902044
 31
0.0
  0
LINE
  5
121
330
1F
100
AcDbEntity
  8
0
  6
Continuous
 62
     7
370
    25
100
AcDbLine
 10
166.7346509988
 20
245.9195902044
 30
0.0
 11
166.7346509988
 21
246.1497923823
 31
0.0
  0
LINE
  5
122
330
1F
100
AcDbEntity
  8
0
  6
Continuous
 62
     7
370
    25
100
AcDbLine
 10
165.2106509988
 20
246.1497923823
 30
0.0
 11
165.2106509988
 21
245.9195902044
 31
0.0
  0
LINE
  5
123
330
1F
100
AcDbEntity
  8
0
  6
Continuous
 62
     7
370
    25
100
AcDbLine
 10
164.5248509988
 20
245.9195902044
 30
0.0
 11
164.5248509988
 21
246.1497923823
 31
0.0
  0
LINE
  5
124
330
1F
100
AcDbEntity
  8
0
  6
Continuous
 62
     7
370
    25
100
AcDbLine
 10
163.0008509988
 20
246.1497923823
 30
0.0
 11
163.0008509988
 21
245.9195902044
 31
0.0
  0
LINE
  5
125
330
1F
100
AcDbEntity
  8
0
  6
Continuous
 62
     7
370
    25
100
AcDbLine
 10
179.0008208363
 20
245.028626385
 30
0.0
 11
179.0008208363
 21
245.2588285629
 31
0.0
  0
LINE
  5
126
330
1F
100
AcDbEntity
  8
0
  6
Continuous
 62
     7
370
    25
100
AcDbLine
 10
177.4768208363
 20
245.2588285629
 30
0.0
 11
177.4768208363
 21
245.028626385
 31
0.0
  0
LINE
  5
127
330
1F
100
AcDbEntity
  8
0
  6
Continuous
 62
     7
370
    25
100
AcDbLine
 10
176.7910208363
 20
245.028626385
 30
0.0
 11
176.7910208363
 21
245.2588285629
 31
0.0
  0
LINE
  5
128
330
1F
100
AcDbEntity
  8
0
  6
Continuous
 62
     7
370
    25
100
AcDbLine
 10
175.2670208363
 20
245.2588285629
 30
0.0
 11
175.2670208363
 21
245.028626385
 31
0.0
  0
LINE
  5
129
330
1F
100
AcDbEntity
  8
0
  6
Continuous
 62
     7
370
    25
100
AcDbLine
 10
174.5812208363
 20
245.028626385
 30
0.0
 11
174.5812208363
 21
245.2588285629
 31
0.0
  0
LINE
  5
12A
330
1F
100
AcDbEntity
  8
0
  6
Continuous
 62
     7
370
    25
100
AcDbLine
 10
173.0572208363
 20
245.2588285629
 30
0.0
 11
173.0572208363
 21
245.028626385
 31
0.0
  0
LINE
  5
12B
330
1F
100
AcDbEntity
  8
0
  6
Continuous
 62
     7
370
    25
100
AcDbLine
 10
163.3076811612
 20
245.028626385
 30
0.0
 11
163.3076811612
 21
245.2588285629
 31
0.0
  0
LINE
  5
12C
330
1F
100
AcDbEntity
  8
0
  6
Continuous
 62
     7
370
    25
100
AcDbLine
 10
161.7836811612
 20
245.2588285629
 30
0.0
 11
161.7836811612
 21
245.028626385
 31
0.0
  0
LINE
  5
12D
330
1F
100
AcDbEntity
  8
0
  6
Continuous
 62
     7
370
    25
100
AcDbLine
 10
172.3714208363
 20
245.028626385
 30
0.0
 11
172.3714208363
 21
245.2588285629
 31
0.0
  0
LINE
  5
12E
330
1F
100
AcDbEntity
  8
0
  6
Continuous
 62
     7
370
    25
100
AcDbLine
 10
170.8474208363
 20
245.2588285629
 30
0.0
 11
170.8474208363
 21
245.028626385
 31
0.0
  0
LINE
  5
12F
330
1F
100
AcDbEntity
  8
0
  6
Continuous
 62
     7
370
    25
100
AcDbLine
 10
167.7272811612
 20
245.028626385
 30
0.0
 11
167.7272811612
 21
245.2588285629
 31
0.0
  0
LINE
  5
130
330
1F
100
AcDbEntity
  8
0
  6
Continuous
 62
     7
370
    25
100
AcDbLine
 10
166.2032811612
 20
245.2588285629
 30
0.0
 11
166.2032811612
 21
245.028626385
 31
0.0
  0
LINE
  5
131
330
1F
100
AcDbEntity
  8
0
  6
Continuous
 62
     7
370
    25
100
AcDbLine
 10
165.5174811612
 20
245.028626385
 30
0.0
 11
165.5174811612
 21
245.2588285629
 31
0.0
  0
LINE
  5
132
330
1F
100
AcDbEntity
  8
0
  6
Continuous
 62
     7
370
    25
100
AcDbLine
 10
163.9934811612
 20
245.2588285629
 30
0.0
 11
163.9934811612
 21
245.028626385
 31
0.0
  0
LINE
  5
133
330
1F
100
AcDbEntity
  8
0
  6
Continuous
 62
     7
370
    25
100
AcDbLine
 10
169.9370811612
 20
245.028626385
 30
0.0
 11
169.9370811612
 21
245.2588285629
 31
0.0
  0
LINE
  5
134
330
1F
100
AcDbEntity
  8
0
  6
Continuous
 62
     7
370
    25
100
AcDbLine
 10
168.4130811612
 20
245.2588285629
 30
0.0
 11
168.4130811612
 21
245.028626385
 31
0.0
  0
SPLINE
  5
135
330
1F
100
AcDbEntity
  8
0
  6
Continuous
 62
     7
370
    25
100
AcDbSpline
210
0.0
220
0.0
230
1.0
 70
     8
 71
     3
 72
    10
 73
     6
 74
     0
 42
0.000000001
 43
0.00000001
 40
0.0
 40
0.0
 40
0.0
 40
0.0
 40
0.2476669137705638
 40
0.6400777806601324
 40
0.9999999999999999
 40
0.9999999999999999
 40
0.9999999999999999
 40
0.9999999999999999
 10
176.9913645755909
 20
243.6451597640385
 30
0.0
 10
177.1068187011891
 20
243.649253971126
 30
0.0
 10
177.4052017970814
 20
243.6598351623971
 30
0.0
 10
177.8456301725358
 20
243.7513915887241
 30
0.0
 10
178.0895706751762
 20
243.8926640203191
 30
0.0
 10
178.2062737800964
 20
243.9602498915799
 30
0.0
  0
SPLINE
  5
136
330
1F
100
AcDbEntity
  8
0
  6
Continuous
 62
     7
370
    25
100
AcDbSpline
210
0.0
220
0.0
230
1.0
 70
     8
 71
     3
 72
    10
 73
     6
 74
     0
 42
0.000000001
 43
0.00000001
 40
0.0
 40
0.0
 40
0.0
 40
0.0
 40
0.2651740973556516
 40
0.6929866389547162
 40
1.0
 40
1.0
 40
1.0
 40
1.0
 10
162.5782282174106
 20
243.9602498915799
 30
0.0
 10
162.6620944177391
 20
243.908915178611
 30
0.0
 10
162.8812642268084
 20
243.7747607851131
 30
0.0
 10
163.3069400846978
 20
243.6662020993461
 30
0.0
 10
163.6498628460454
 20
243.6513606035654
 30
0.0
 10
163.7931374219162
 20
243.6451597640385
 30
0.0
  0
LINE
  5
137
330
1F
100
AcDbEntity
  8
0
  6
Continuous
 62
     7
370
    25
100
AcDbLine
 10
163.7931374219
 20
243.645159764
 30
0.0
 11
176.9913645756
 21
243.645159764
 31
0.0
  0
LINE
  5
138
330
1F
100
AcDbEntity
  8
0
  6
Continuous
 62
     7
370
    25
100
AcDbLine
 10
191.9406030683
 20
256.4590006064
 30
0.0
 11
192.3511380951
 21
255.4959582927
 31
0.0
  0
SPLINE
  5
139
330
1F
100
AcDbEntity
  8
0
  6
Continuous
 62
     7
370
    25
100
AcDbSpline
210
0.0
220
0.0
230
1.0
 70
     8
 71
     3
 72
     9
 73
     5
 74
     0
 42
0.000000001
 43
0.00000001
 40
0.0
 40
0.0
 40
0.0
 40
0.0
 40
0.0361556317833499
 40
1.0
 40
1.0
 40
1.0
 40
1.0
 10
213.2115610142673
 20
255.0019662441562
 30
0.0
 10
213.2163359166755
 20
255.0195381448482
 30
0.0
 10
213.3484011627426
 20
255.5055454368043
 30
0.0
 10
213.6107793481753
 20
255.9910498815794
 30
0.0
 10
213.8636710845476
 20
256.4590006064201
 30
0.0
  0
ARC
  5
13A
330
1F
100
AcDbEntity
  8
0
  6
Continuous
 62
     7
370
    25
100
AcDbCircle
 10
192.2574477383
 20
244.7963579418
 30
0.0
 40
0.9999999999999946
100
AcDbArc
 50
190.6555437002
 51
253.8963089622
  0
ARC
  5
13B
330
1F
100
AcDbEntity
  8
0
  6
Continuous
 62
     7
370
    25
100
AcDbCircle
 10
213.5270542592
 20
244.7963579418
 30
0.0
 40
0.9999999999999893
100
AcDbArc
 50
286.1036910378
 51
349.3444562998
  0
SPLINE
  5
13C
330
1F
100
AcDbEntity
  8
0
  6
Continuous
 62
     7
370
    25
100
AcDbSpline
210
0.0
220
0.0
230
1.0
 70
     8
 71
     3
 72
    17
 73
    13
 74
     0
 42
0.000000001
 43
0.00000001
 40
0.0
 40
0.0
 40
0.0
 40
0.0
 40
0.0568462585242056
 40
0.1651287268936533
 40
0.2731860223960756
 40
0.3810465461657311
 40
0.4887964340201459
 40
0.5965120207073594
 40
0.7042562858008276
 40
0.8120888674655274
 40
0.9200909108884675
 40
0.9999999999999999
 40
0.9999999999999999
 40
0.9999999999999999
 40
0.9999999999999999
 10
191.9800711914876
 20
243.8355966544822
 30
0.0
 10
192.34984431731
 20
243.7334780939375
 30
0.0
 10
193.4239724497807
 20
243.4368410182049
 30
0.0
 10
195.3241921120029
 20
243.0376241581935
 30
0.0
 10
197.6916005380684
 20
242.6857104436295
 30
0.0
 10
200.1412991960198
 20
242.4682053710982
 30
0.0
 10
202.6320975164343
 20
242.3857140115774
 30
0.0
 10
205.1261537087804
 20
242.4398426926585
 30
0.0
 10
207.5856211449982
 20
242.6290003151365
 30
0.0
 10
209.9688773387555
 20
242.953118001374
 30
0.0
 10
212.0534603116952
 20
243.3601125666188
 30
0.0
 10
213.2819965536741
 20
243.6937272313496
 30
0.0
 10
213.8044308060409
 20
243.8355966544823
 30
0.0
  0
SPLINE
  5
13D
330
1F
100
AcDbEntity
  8
0
  6
Continuous
 62
     7
370
    25
100
AcDbSpline
210
0.0
220
0.0
230
1.0
 70
     8
 71
     3
 72
     9
 73
     5
 74
     0
 42
0.000000001
 43
0.00000001
 40
0.0
 40
0.0
 40
0.0
 40
0.0
 40
0.5245004331693314
 40
1.0
 40
1.0
 40
1.0
 40
1.0
 10
214.5106855236094
 20
244.6118092234782
 30
0.0
 10
214.9004131087713
 20
246.6123511006414
 30
0.0
 10
215.6434584153442
 20
250.4265364676099
 30
0.0
 10
216.5911215020235
 20
254.3313078886343
 30
0.0
 10
217.0417348892409
 20
256.1880250079042
 30
0.0
  0
SPLINE
  5
13E
330
1F
100
AcDbEntity
  8
0
  6
Continuous
 62
     7
370
    25
100
AcDbSpline
210
0.0
220
0.0
230
1.0
 70
     8
 71
     3
 72
    10
 73
     6
 74
     0
 42
0.000000001
 43
0.00000001
 40
0.0
 40
0.0
 40
0.0
 40
0.0
 40
0.1102503612154816
 40
0.7179885112989767
 40
1.0
 40
1.0
 40
1.0
 40
1.0
 10
188.7499947085353
 20
256.1852944035696
 30
0.0
 10
188.8581775211009
 20
255.7541105680673
 30
0.0
 10
189.5627014399866
 20
252.9460921930221
 30
0.0
 10
190.4308279320121
 20
249.0616688803054
 30
0.0
 10
191.0476469665922
 20
245.6946038365005
 30
0.0
 10
191.2431514620351
 20
244.6273923601871
 30
0.0
  0
SPLINE
  5
13F
330
1F
100
AcDbEntity
  8
0
  6
Continuous
 62
     7
370
    25
100
AcDbSpline
210
0.0
220
0.0
230
1.0
 70
     8
 71
     3
 72
     9
 73
     5
 74
     0
 42
0.000000001
 43
0.00000001
 40
0.0
 40
0.0
 40
0.0
 40
0.0
 40
0.3580181470209445
 40
1.0
 40
1.0
 40
1.0
 40
1.0
 10
217.0319529212147
 20
256.187792746833
 30
0.0
 10
217.0363042696184
 20
256.2145653255624
 30
0.0
 10
217.0484582580124
 20
256.2893452744341
 30
0.0
 10
217.101488079725
 20
256.3926687866144
 30
0.0
 10
217.1355322629312
 20
256.4590006064201
 30
0.0
  0
LINE
  5
140
330
1F
100
AcDbEntity
  8
0
  6
Continuous
 62
     7
370
    25
100
AcDbLine
 10
188.6496861631
 20
256.4590006064
 30
0.0
 11
188.7504376398
 21
256.1878957433
 31
0.0
  0
LINE
  5
141
330
1F
100
AcDbEntity
  8
0
  6
Continuous
 62
     7
370
    25
100
AcDbLine
 10
291.9406030683
 20
256.4590006064
 30
0.0
 11
292.3511380951
 21
255.4959582927
 31
0.0
  0
SPLINE
  5
142
330
1F
100
AcDbEntity
  8
0
  6
Continuous
 62
     7
370
    25
100
AcDbSpline
210
0.0
220
0.0
230
1.0
 70
     8
 71
     3
 72
     9
 73
     5
 74
     0
 42
0.000000001
 43
0.00000001
 40
0.0
 40
0.0
 40
0.0
 40
0.0
 40
0.0361556317833613
 40
1.0
 40
1.0
 40
1.0
 40
1.0
 10
313.2115610142648
 20
255.0019662441607
 30
0.0
 10
313.216335916673
 20
255.0195381448526
 30
0.0
 10
313.3484011627396
 20
255.5055454368072
 30
0.0
 10
313.6107793481715
 20
255.9910498815808
 30
0.0
 10
313.8636710845431
 20
256.4590006064201
 30
0.0
  0
ARC
  5
143
330
1F
100
AcDbEntity
  8
0
  6
Continuous
 62
     7
370
    25
100
AcDbCircle
 10
313.5270542592
 20
244.7963579418
 30
0.0
 40
1.000000000000045
100
AcDbArc
 50
286.1036910378
 51
349.3444562998
  0
ARC
  5
144
330
1F
100
AcDbEntity
  8
0
  6
Continuous
 62
     7
370
    25
100
AcDbCircle
 10
292.2574477383
 20
244.7963579418
 30
0.0
 40
1.000000000000022
100
AcDbArc
 50
190.6555437002
 51
253.8963089622
  0
SPLINE
  5
145
330
1F
100
AcDbEntity
  8
0
  6
Continuous
 62
     7
370
    25
100
AcDbSpline
210
0.0
220
0.0
230
1.0
 70
     8
 71
     3
 72
    17
 73
    13
 74
     0
 42
0.000000001
 43
0.00000001
 40
0.0
 40
0.0
 40
0.0
 40
0.0
 40
0.0568462585242058
 40
0.165128726893652
 40
0.2731860223960759
 40
0.3810465461657301
 40
0.4887964340201454
 40
0.5965120207073591
 40
0.704256285800825
 40
0.8120888674655259
 40
0.9200909108884663
 40
1.0
 40
1.0
 40
1.0
 40
1.0
 10
291.980071191485
 20
243.8355966544865
 30
0.0
 10
292.3498443173075
 20
243.7334780939418
 30
0.0
 10
293.4239724497781
 20
243.4368410182092
 30
0.0
 10
295.3241921120003
 20
243.0376241581978
 30
0.0
 10
297.6916005380658
 20
242.6857104436338
 30
0.0
 10
300.1412991960173
 20
242.4682053711025
 30
0.0
 10
302.6320975164317
 20
242.3857140115817
 30
0.0
 10
305.1261537087779
 20
242.4398426926628
 30
0.0
 10
307.5856211449956
 20
242.6290003151406
 30
0.0
 10
309.9688773387529
 20
242.9531180013782
 30
0.0
 10
312.0534603116926
 20
243.360112566623
 30
0.0
 10
313.2819965536715
 20
243.6937272313537
 30
0.0
 10
313.8044308060383
 20
243.8355966544865
 30
0.0
  0
SPLINE
  5
146
330
1F
100
AcDbEntity
  8
0
  6
Continuous
 62
     7
370
    25
100
AcDbSpline
210
0.0
220
0.0
230
1.0
 70
     8
 71
     3
 72
     9
 73
     5
 74
     0
 42
0.000000001
 43
0.00000001
 40
0.0
 40
0.0
 40
0.0
 40
0.0
 40
0.5245004331693456
 40
1.0
 40
1.0
 40
1.0
 40
1.0
 10
314.5106855236068
 20
244.6118092234824
 30
0.0
 10
314.9004131087688
 20
246.6123511006456
 30
0.0
 10
315.6434584153417
 20
250.4265364676141
 30
0.0
 10
316.5911215020211
 20
254.3313078886384
 30
0.0
 10
317.0417348892385
 20
256.1880250079083
 30
0.0
  0
SPLINE
  5
147
330
1F
100
AcDbEntity
  8
0
  6
Continuous
 62
     7
370
    25
100
AcDbSpline
210
0.0
220
0.0
230
1.0
 70
     8
 71
     3
 72
    10
 73
     6
 74
     0
 42
0.000000001
 43
0.00000001
 40
0.0
 40
0.0
 40
0.0
 40
0.0
 40
0.1102503612154814
 40
0.7179885112989729
 40
1.0
 40
1.0
 40
1.0
 40
1.0
 10
288.7499947085328
 20
256.1852944035738
 30
0.0
 10
288.8581775210984
 20
255.7541105680716
 30
0.0
 10
289.5627014399842
 20
252.9460921930263
 30
0.0
 10
290.4308279320097
 20
249.0616688803097
 30
0.0
 10
291.0476469665896
 20
245.6946038365049
 30
0.0
 10
291.2431514620325
 20
244.6273923601914
 30
0.0
  0
SPLINE
  5
148
330
1F
100
AcDbEntity
  8
0
  6
Continuous
 62
     7
370
    25
100
AcDbSpline
210
0.0
220
0.0
230
1.0
 70
     8
 71
     3
 72
     9
 73
     5
 74
     0
 42
0.000000001
 43
0.00000001
 40
0.0
 40
0.0
 40
0.0
 40
0.0
 40
0.3580181470260541
 40
0.9999999999999999
 40
0.9999999999999999
 40
0.9999999999999999
 40
0.9999999999999999
 10
317.0319529212123
 20
256.187792746837
 30
0.0
 10
317.036304269616
 20
256.2145653255664
 30
0.0
 10
317.0484582580097
 20
256.289345274437
 30
0.0
 10
317.1014880797215
 20
256.3926687866158
 30
0.0
 10
317.1355322629269
 20
256.4590006064201
 30
0.0
  0
LINE
  5
149
330
1F
100
AcDbEntity
  8
0
  6
Continuous
 62
     7
370
    25
100
AcDbLine
 10
288.6496861631
 20
256.4590006064
 30
0.0
 11
288.7504376398
 21
256.1878957433
 31
0.0
  0
LINE
  5
14A
330
1F
100
AcDbEntity
  8
0
  6
Continuous
 62
     7
370
    25
100
AcDbLine
 10
52.8922509988
 20
256.3967687673
 30
0.0
 11
152.8662509988
 21
256.3967687673
 31
0.0
  0
LINE
  5
14B
330
1F
100
AcDbEntity
  8
0
  6
Continuous
 62
     7
370
    25
100
AcDbLine
 10
187.9182509988
 20
256.3967687673
 30
0.0
 11
188.6728135597
 21
256.3967687673
 31
0.0
  0
LINE
  5
14C
330
1F
100
AcDbEntity
  8
0
  6
Continuous
 62
     7
370
    25
100
AcDbLine
 10
217.1071849925
 20
256.3967687673
 30
0.0
 11
288.6728135597
 21
256.3967687673
 31
0.0
  0
LINE
  5
14D
330
1F
100
AcDbEntity
  8
0
  6
Continuous
 62
     7
370
    25
100
AcDbLine
 10
317.1071849925
 20
256.3967687673
 30
0.0
 11
317.8662509989
 21
256.3967687673
 31
0.0
  0
LINE
  5
14E
330
1F
100
AcDbEntity
  8
0
  6
Continuous
 62
     7
370
    25
100
AcDbLine
 10
352.9182509989
 20
256.3967687673
 30
0.0
 11
452.8922509988
 21
256.3967687673
 31
0.0
  0
ARC
  5
14F
330
1F
100
AcDbEntity
  8
0
  6
Continuous
 62
     7
370
    25
100
AcDbCircle
 10
392.8922509988
 20
973.9590006064
 30
0.0
 40
14.00200000000001
100
AcDbArc
 50
270.0
 51
0.0
  0
ARC
  5
150
330
1F
100
AcDbEntity
  8
0
  6
Continuous
 62
     7
370
    25
100
AcDbCircle
 10
392.8922509988
 20
973.9590006064
 30
0.0
 40
5.99799999999999
100
AcDbArc
 50
270.0
 51
0.0
  0
LINE
  5
151
330
1F
100
AcDbEntity
  8
0
  6
Continuous
 62
     7
370
    25
100
AcDbLine
 10
406.8942509988
 20
973.9590006064
 30
0.0
 11
406.8942509988
 21
990.9590006064
 31
0.0
  0
LINE
  5
152
330
1F
100
AcDbEntity
  8
0
  6
Continuous
 62
     7
370
    25
100
AcDbLine
 10
398.8902509988
 20
990.9590006064
 30
0.0
 11
398.8902509988
 21
973.9590006064
 31
0.0
  0
LINE
  5
153
330
1F
100
AcDbEntity
  8
0
  6
Continuous
 62
     7
370
    25
100
AcDbLine
 10
406.8942509988
 20
990.9590006064
 30
0.0
 11
406.8942509988
 21
1000.9590006064
 31
0.0
  0
LINE
  5
154
330
1F
100
AcDbEntity
  8
0
  6
Continuous
 62
     7
370
    25
100
AcDbLine
 10
398.8902509988
 20
1000.9590006064
 30
0.0
 11
398.8902509988
 21
990.9590006064
 31
0.0
  0
LINE
  5
155
330
1F
100
AcDbEntity
  8
0
  6
Continuous
 62
     7
370
    25
100
AcDbLine
 10
112.8922509988
 20
959.9570006064
 30
0.0
 11
392.8922509988
 21
959.9570006064
 31
0.0
  0
LINE
  5
156
330
1F
100
AcDbEntity
  8
0
  6
Continuous
 62
     7
370
    25
100
AcDbLine
 10
392.8922509988
 20
967.9610006064
 30
0.0
 11
112.8922509988
 21
967.9610006064
 31
0.0
  0
LINE
  5
157
330
1F
100
AcDbEntity
  8
0
  6
Continuous
 62
     7
370
    25
100
AcDbLine
 10
98.8902509988
 20
990.9590006064
 30
0.0
 11
98.8902509988
 21
973.9590006064
 31
0.0
  0
LINE
  5
158
330
1F
100
AcDbEntity
  8
0
  6
Continuous
 62
     7
370
    25
100
AcDbLine
 10
106.8942509988
 20
973.9590006064
 30
0.0
 11
106.8942509988
 21
990.9590006064
 31
0.0
  0
ARC
  5
159
330
1F
100
AcDbEntity
  8
0
  6
Continuous
 62
     7
370
    25
100
AcDbCircle
 10
112.8922509988
 20
973.9590006064
 30
0.0
 40
14.00200000000007
100
AcDbArc
 50
180.0
 51
270.0
  0
ARC
  5
15A
330
1F
100
AcDbEntity
  8
0
  6
Continuous
 62
     7
370
    25
100
AcDbCircle
 10
112.8922509988
 20
973.9590006064
 30
0.0
 40
5.997999999999976
100
AcDbArc
 50
180.0
 51
270.0
  0
LINE
  5
15B
330
1F
100
AcDbEntity
  8
0
  6
Continuous
 62
     7
370
    25
100
AcDbLine
 10
98.8902509988
 20
1000.9590006064
 30
0.0
 11
98.8902509988
 21
990.9590006064
 31
0.0
  0
LINE
  5
15C
330
1F
100
AcDbEntity
  8
0
  6
Continuous
 62
     7
370
    25
100
AcDbLine
 10
106.8942509988
 20
990.9590006064
 30
0.0
 11
106.8942509988
 21
1000.9590006064
 31
0.0
  0
LWPOLYLINE
  5
15D
330
1F
100
AcDbEntity
  8
0
  6
Continuous
 62
     7
370
    25
100
AcDbPolyline
 90
        3
 70
   128
 43
0.0
 10
350.6422509988
 20
639.9590006064
 10
350.7692755792
 20
641.6066939138
 10
350.9339993607
 20
642.4464637067
  0
LWPOLYLINE
  5
15E
330
1F
100
AcDbEntity
  8
0
  6
Continuous
 62
     7
370
    25
100
AcDbPolyline
 90
        3
 70
   128
 43
0.0
 10
319.8505026368
 20
642.4464637067
 10
320.0152264183
 20
641.6066939138
 10
320.1422509988
 20
639.9590006064
  0
LINE
  5
15F
330
1F
100
AcDbEntity
  8
0
  6
Continuous
 62
     7
370
    25
100
AcDbLine
 10
350.6422509988
 20
633.4844415614
 30
0.0
 11
350.6422509988
 21
639.9590006064
 31
0.0
  0
LINE
  5
160
330
1F
100
AcDbEntity
  8
0
  6
Continuous
 62
     7
370
    25
100
AcDbLine
 10
320.1422509988
 20
639.9590006064
 30
0.0
 11
320.1422509988
 21
633.4844415614
 31
0.0
  0
LWPOLYLINE
  5
161
330
1F
100
AcDbEntity
  8
0
  6
Continuous
 62
     7
370
    25
100
AcDbPolyline
 90
        3
 70
   128
 43
0.0
 10
154.8505026368
 20
642.4464637067
 10
155.0152264183
 20
641.6066939138
 10
155.1422509988
 20
639.9590006064
  0
LINE
  5
162
330
1F
100
AcDbEntity
  8
0
  6
Continuous
 62
     7
370
    25
100
AcDbLine
 10
155.1422509988
 20
639.9590006064
 30
0.0
 11
155.1422509988
 21
633.4844415614
 31
0.0
  0
LINE
  5
163
330
1F
100
AcDbEntity
  8
0
  6
Continuous
 62
     7
370
    25
100
AcDbLine
 10
185.6422509988
 20
633.4844415614
 30
0.0
 11
185.6422509988
 21
639.9590006064
 31
0.0
  0
LWPOLYLINE
  5
164
330
1F
100
AcDbEntity
  8
0
  6
Continuous
 62
     7
370
    25
100
AcDbPolyline
 90
        3
 70
   128
 43
0.0
 10
185.6422509988
 20
639.9590006064
 10
185.7692755792
 20
641.6066939138
 10
185.9339993607
 20
642.4464637067
  0
LINE
  5
165
330
1F
100
AcDbEntity
  8
0
  6
Continuous
 62
     7
370
    25
100
AcDbLine
 10
52.8922509988
 20
256.4590006064
 30
0.0
 11
452.8922509988
 21
256.4590006064
 31
0.0
  0
CIRCLE
  5
166
330
1F
100
AcDbEntity
  8
0
  6
Continuous
 62
     7
370
    25
100
AcDbCircle
 10
252.8994556322
 20
794.5885261959
 30
0.0
 40
18.99999999999998
  0
SPLINE
  5
167
330
1F
100
AcDbEntity
  8
0
  6
Continuous
 62
     7
370
    25
100
AcDbSpline
210
0.0
220
0.0
230
1.0
 70
     8
 71
     3
 72
    12
 73
     8
 74
     0
 42
0.000000001
 43
0.00000001
 40
0.0
 40
0.0
 40
0.0
 40
0.0
 40
0.2096821001528694
 40
0.4420453733185939
 40
0.6744332966681327
 40
0.9068208701180533
 40
0.9999999999999999
 40
0.9999999999999999
 40
0.9999999999999999
 40
0.9999999999999999
 10
93.19945563216669
 20
601.5385261959068
 30
0.0
 10
92.94712467419133
 20
601.4342409879793
 30
0.0
 10
92.41516828670413
 20
601.2143901106925
 30
0.0
 10
91.69378685688936
 20
600.8784219808095
 30
0.0
 10
91.15042792290306
 20
600.5315167123928
 30
0.0
 10
90.9218060827596
 20
600.25314005016
 30
0.0
 10
90.90442904413531
 20
600.0917795889384
 30
0.0
 10
90.89945563216669
 20
600.0455972637186
 30
0.0
  0
LINE
  5
168
330
1F
100
AcDbEntity
  8
0
  6
Continuous
 62
     7
370
    25
100
AcDbLine
 10
90.8994556322
 20
989.1314551281
 30
0.0
 11
90.8994556322
 21
600.0455972637
 31
0.0
  0
SPLINE
  5
169
330
1F
100
AcDbEntity
  8
0
  6
Continuous
 62
     7
370
    25
100
AcDbSpline
210
0.0
220
0.0
230
1.0
 70
     8
 71
     3
 72
    12
 73
     8
 74
     0
 42
0.000000001
 43
0.00000001
 40
0.0
 40
0.0
 40
0.0
 40
0.0
 40
0.2096821001528681
 40
0.4420453733186119
 40
0.6744332966681247
 40
0.9068208701180591
 40
1.0
 40
1.0
 40
1.0
 40
1.0
 10
90.89945563216675
 20
989.131455128095
 30
0.0
 10
90.92379560233535
 20
989.0271699201674
 30
0.0
 10
90.97510838102221
 20
988.8073190428807
 30
0.0
 10
91.3960389679509
 20
988.4713509129977
 30
0.0
 10
92.04782844584649
 20
988.1244456445808
 30
0.0
 10
92.69726948494895
 20
987.8460689823482
 30
0.0
 10
93.0877094020553
 20
987.6847085211265
 30
0.0
 10
93.19945563216675
 20
987.6385261959068
 30
0.0
  0
SPLINE
  5
16A
330
1F
100
AcDbEntity
  8
0
  6
Continuous
 62
     7
370
    25
100
AcDbSpline
210
0.0
220
0.0
230
1.0
 70
     8
 71
     3
 72
    12
 73
     8
 74
     0
 42
0.000000001
 43
0.00000001
 40
0.0
 40
0.0
 40
0.0
 40
0.0
 40
0.2096821001528781
 40
0.4420453733186172
 40
0.6744332966681472
 40
0.9068208701180743
 40
0.9999999999999999
 40
0.9999999999999999
 40
0.9999999999999999
 40
0.9999999999999999
 10
91.70652669997855
 20
599.2385261959067
 30
0.0
 10
91.81081190790613
 20
599.2628661660755
 30
0.0
 10
92.03066278519287
 20
599.3141789447625
 30
0.0
 10
92.3666309150758
 20
599.7351095316909
 30
0.0
 10
92.71353618349245
 20
600.3868990095866
 30
0.0
 10
92.9919128457254
 20
601.036340048689
 30
0.0
 10
93.15327330694691
 20
601.4267799657955
 30
0.0
 10
93.19945563216663
 20
601.5385261959069
 30
0.0
  0
LINE
  5
16B
330
1F
100
AcDbEntity
  8
0
  6
Continuous
 62
     7
370
    25
100
AcDbLine
 10
91.7065267
 20
599.2385261959
 30
0.0
 11
91.7065267
 21
600.0385261959
 31
0.0
  0
SPLINE
  5
16C
330
1F
100
AcDbEntity
  8
0
  6
Continuous
 62
     7
370
    25
100
AcDbSpline
210
0.0
220
0.0
230
1.0
 70
     8
 71
     3
 72
    11
 73
     7
 74
     0
 42
0.000000001
 43
0.00000001
 40
0.0
 40
0.0
 40
0.0
 40
0.0
 40
0.2543211584721236
 40
0.5088664984542566
 40
0.7634130007197585
 40
1.0
 40
1.0
 40
1.0
 40
1.0
 10
91.70652669997855
 20
600.0385261959069
 30
0.0
 10
91.833107807764
 20
600.0618802579258
 30
0.0
 10
92.08638160329171
 20
600.1086089683316
 30
0.0
 10
92.46632627277693
 20
600.4674965845271
 30
0.0
 10
92.83755140444805
 20
600.9667195638165
 30
0.0
 10
93.0817980491171
 20
601.3526278804118
 30
0.0
 10
93.19945563216666
 20
601.5385261959068
 30
0.0
  0
SPLINE
  5
16D
330
1F
100
AcDbEntity
  8
0
  6
Continuous
 62
     7
370
    25
100
AcDbSpline
210
0.0
220
0.0
230
1.0
 70
     8
 71
     3
 72
    11
 73
     7
 74
     0
 42
0.000000001
 43
0.00000001
 40
0.0
 40
0.0
 40
0.0
 40
0.0
 40
0.2543211584721107
 40
0.5088664984541749
 40
0.7634130007196968
 40
1.0
 40
1.0
 40
1.0
 40
1.0
 10
93.19945563216669
 20
601.5385261959068
 30
0.0
 10
92.99948044202746
 20
601.4119450881213
 30
0.0
 10
92.59935378565635
 20
601.1586712925937
 30
0.0
 10
92.09773003156066
 20
600.7787266231085
 30
0.0
 10
91.76166478470196
 20
600.4075014914372
 30
0.0
 10
91.71968026059116
 20
600.1632548467683
 30
0.0
 10
91.69945563216666
 20
600.0455972637187
 30
0.0
  0
LINE
  5
16E
330
1F
100
AcDbEntity
  8
0
  6
Continuous
 62
     7
370
    25
100
AcDbLine
 10
90.8994556322
 20
600.0455972637
 30
0.0
 11
91.6994556322
 21
600.0455972637
 31
0.0
  0
LINE
  5
16F
330
1F
100
AcDbEntity
  8
0
  6
Continuous
 62
     7
370
    25
100
AcDbLine
 10
233.8994556322
 20
946.1385261959
 30
0.0
 11
233.8994556322
 21
959.9570006064
 31
0.0
  0
LINE
  5
170
330
1F
100
AcDbEntity
  8
0
  6
Continuous
 62
     7
370
    25
100
AcDbLine
 10
233.8994556322
 20
967.9610006064
 30
0.0
 11
233.8994556322
 21
987.6385261959
 31
0.0
  0
LINE
  5
171
330
1F
100
AcDbEntity
  8
0
  6
Continuous
 62
     7
370
    25
100
AcDbLine
 10
322.3994556322
 20
987.6385261959
 30
0.0
 11
322.3994556322
 21
967.9610006064
 31
0.0
  0
LINE
  5
172
330
1F
100
AcDbEntity
  8
0
  6
Continuous
 62
     7
370
    25
100
AcDbLine
 10
322.3994556322
 20
959.9570006064
 30
0.0
 11
322.3994556322
 21
946.1385261959
 31
0.0
  0
ARC
  5
173
330
1F
100
AcDbEntity
  8
0
  6
Continuous
 62
     7
370
    25
100
AcDbCircle
 10
335.3994556322
 20
946.1385261959
 30
0.0
 40
13.00000000000011
100
AcDbArc
 50
180.0
 51
360.0
  0
LINE
  5
174
330
1F
100
AcDbEntity
  8
0
  6
Continuous
 62
     7
370
    25
100
AcDbLine
 10
348.3994556322
 20
946.1385261959
 30
0.0
 11
348.3994556322
 21
959.9570006064
 31
0.0
  0
LINE
  5
175
330
1F
100
AcDbEntity
  8
0
  6
Continuous
 62
     7
370
    25
100
AcDbLine
 10
348.3994556322
 20
967.9610006064
 30
0.0
 11
348.3994556322
 21
987.6385261959
 31
0.0
  0
ARC
  5
176
330
1F
100
AcDbEntity
  8
0
  6
Continuous
 62
     7
370
    25
100
AcDbCircle
 10
349.8994556322
 20
652.2385261959
 30
0.0
 40
3.0
100
AcDbArc
 50
0.0
 51
90.0
  0
LINE
  5
177
330
1F
100
AcDbEntity
  8
0
  6
Continuous
 62
     7
370
    25
100
AcDbLine
 10
349.8994556322
 20
655.2385261959
 30
0.0
 11
320.8994556322
 21
655.2385261959
 31
0.0
  0
ARC
  5
178
330
1F
100
AcDbEntity
  8
0
  6
Continuous
 62
     7
370
    25
100
AcDbCircle
 10
320.8994556322
 20
652.2385261959
 30
0.0
 40
3.000000000000057
100
AcDbArc
 50
90.0
 51
180.0
  0
ARC
  5
179
330
1F
100
AcDbEntity
  8
0
  6
Continuous
 62
     7
370
    25
100
AcDbCircle
 10
184.8994556322
 20
652.2385261959
 30
0.0
 40
3.0
100
AcDbArc
 50
0.0
 51
90.0
  0
LINE
  5
17A
330
1F
100
AcDbEntity
  8
0
  6
Continuous
 62
     7
370
    25
100
AcDbLine
 10
184.8994556322
 20
655.2385261959
 30
0.0
 11
155.8994556322
 21
655.2385261959
 31
0.0
  0
ARC
  5
17B
330
1F
100
AcDbEntity
  8
0
  6
Continuous
 62
     7
370
    25
100
AcDbCircle
 10
155.8994556322
 20
652.2385261959
 30
0.0
 40
3.000000000000114
100
AcDbArc
 50
90.0
 51
180.0
  0
LINE
  5
17C
330
1F
100
AcDbEntity
  8
0
  6
Continuous
 62
     7
370
    25
100
AcDbLine
 10
157.3994556322
 20
987.6385261959
 30
0.0
 11
157.3994556322
 21
967.9610006064
 31
0.0
  0
LINE
  5
17D
330
1F
100
AcDbEntity
  8
0
  6
Continuous
 62
     7
370
    25
100
AcDbLine
 10
157.3994556322
 20
959.9570006064
 30
0.0
 11
157.3994556322
 21
946.1385261959
 31
0.0
  0
ARC
  5
17E
330
1F
100
AcDbEntity
  8
0
  6
Continuous
 62
     7
370
    25
100
AcDbCircle
 10
170.3994556322
 20
946.1385261959
 30
0.0
 40
13.0
100
AcDbArc
 50
180.0
 51
0.0
  0
LINE
  5
17F
330
1F
100
AcDbEntity
  8
0
  6
Continuous
 62
     7
370
    25
100
AcDbLine
 10
183.3994556322
 20
946.1385261959
 30
0.0
 11
183.3994556322
 21
959.9570006064
 31
0.0
  0
LINE
  5
180
330
1F
100
AcDbEntity
  8
0
  6
Continuous
 62
     7
370
    25
100
AcDbLine
 10
183.3994556322
 20
967.9610006064
 30
0.0
 11
183.3994556322
 21
987.6385261959
 31
0.0
  0
LINE
  5
181
330
1F
100
AcDbEntity
  8
0
  6
Continuous
 62
     7
370
    25
100
AcDbLine
 10
207.8994556322
 20
946.1385261959
 30
0.0
 11
207.8994556322
 21
959.9570006064
 31
0.0
  0
LINE
  5
182
330
1F
100
AcDbEntity
  8
0
  6
Continuous
 62
     7
370
    25
100
AcDbLine
 10
207.8994556322
 20
967.9610006064
 30
0.0
 11
207.8994556322
 21
987.6385261959
 31
0.0
  0
ARC
  5
183
330
1F
100
AcDbEntity
  8
0
  6
Continuous
 62
     7
370
    25
100
AcDbCircle
 10
220.8994556322
 20
946.1385261959
 30
0.0
 40
13.0
100
AcDbArc
 50
180.0
 51
0.0
  0
LINE
  5
184
330
1F
100
AcDbEntity
  8
0
  6
Continuous
 62
     7
370
    25
100
AcDbLine
 10
317.8994556322
 20
652.2385261959
 30
0.0
 11
317.8994556322
 21
601.5385261959
 31
0.0
  0
LINE
  5
185
330
1F
100
AcDbEntity
  8
0
  6
Continuous
 62
     7
370
    25
100
AcDbLine
 10
187.8994556322
 20
601.5385261959
 30
0.0
 11
187.8994556322
 21
652.2385261959
 31
0.0
  0
LINE
  5
186
330
1F
100
AcDbEntity
  8
0
  6
Continuous
 62
     7
370
    25
100
AcDbLine
 10
152.8994556322
 20
652.2385261959
 30
0.0
 11
152.8994556322
 21
601.5385261959
 31
0.0
  0
LINE
  5
187
330
1F
100
AcDbEntity
  8
0
  6
Continuous
 62
     7
370
    25
100
AcDbLine
 10
352.8994556322
 20
601.5385261959
 30
0.0
 11
352.8994556322
 21
652.2385261959
 31
0.0
  0
LINE
  5
188
330
1F
100
AcDbEntity
  8
0
  6
Continuous
 62
     7
370
    25
100
AcDbLine
 10
187.8994556322
 20
599.2385261959
 30
0.0
 11
317.8994556322
 21
599.2385261959
 31
0.0
  0
LINE
  5
189
330
1F
100
AcDbEntity
  8
0
  6
Continuous
 62
     7
370
    25
100
AcDbLine
 10
317.8994556322
 20
601.5385261959
 30
0.0
 11
317.8994556322
 21
599.2385261959
 31
0.0
  0
LINE
  5
18A
330
1F
100
AcDbEntity
  8
0
  6
Continuous
 62
     7
370
    25
100
AcDbLine
 10
187.8994556322
 20
599.2385261959
 30
0.0
 11
187.8994556322
 21
601.5385261959
 31
0.0
  0
SPLINE
  5
18B
330
1F
100
AcDbEntity
  8
0
  6
Continuous
 62
     7
370
    25
100
AcDbSpline
210
0.0
220
0.0
230
1.0
 70
     8
 71
     3
 72
    16
 73
    12
 74
     0
 42
0.000000001
 43
0.00000001
 40
0.0
 40
0.0
 40
0.0
 40
0.0
 40
0.1036038777228837
 40
0.2096410681985635
 40
0.324216622108177
 40
0.4421137186284569
 40
0.5567011541040547
 40
0.6746112072422655
 40
0.7891984696679663
 40
0.907108342547205
 40
1.0
 40
1.0
 40
1.0
 40
1.0
 10
412.5994556321667
 20
601.5385261959068
 30
0.0
 10
412.6510061002114
 20
601.413779504898
 30
0.0
 10
412.7553177864586
 20
601.1613562353052
 30
0.0
 10
412.9166305664174
 20
600.7813978138901
 30
0.0
 10
413.0851110547657
 20
600.4075086107279
 30
0.0
 10
413.2578390669638
 20
600.0614335959943
 30
0.0
 10
413.4322211460132
 20
599.7616403076785
 30
0.0
 10
413.6049672543192
 20
599.5229995662983
 30
0.0
 10
413.7793466865623
 20
599.350845500759
 30
0.0
 10
413.9413196261148
 20
599.2541943765722
 30
0.0
 10
414.0461778232736
 20
599.2433186750595
 30
0.0
 10
414.0923845643549
 20
599.2385261959067
 30
0.0
  0
LINE
  5
18C
330
1F
100
AcDbEntity
  8
0
  6
Continuous
 62
     7
370
    25
100
AcDbLine
 10
352.8994556322
 20
599.2385261959
 30
0.0
 11
414.0923845644
 21
599.2385261959
 31
0.0
  0
LINE
  5
18D
330
1F
100
AcDbEntity
  8
0
  6
Continuous
 62
     7
370
    25
100
AcDbLine
 10
352.8994556322
 20
599.2385261959
 30
0.0
 11
352.8994556322
 21
601.5385261959
 31
0.0
  0
SPLINE
  5
18E
330
1F
100
AcDbEntity
  8
0
  6
Continuous
 62
     7
370
    25
100
AcDbSpline
210
0.0
220
0.0
230
1.0
 70
     8
 71
     3
 72
    11
 73
     7
 74
     0
 42
0.000000001
 43
0.00000001
 40
0.0
 40
0.0
 40
0.0
 40
0.0
 40
0.2543211584721202
 40
0.5088664984541974
 40
0.7634130007197226
 40
1.0
 40
1.0
 40
1.0
 40
1.0
 10
412.5994556321667
 20
601.5385261959068
 30
0.0
 10
412.7260367399521
 20
601.3385510057674
 30
0.0
 10
412.9793105354798
 20
600.9384243493963
 30
0.0
 10
413.3592552049652
 20
600.436800595301
 30
0.0
 10
413.7304803366362
 20
600.100735348442
 30
0.0
 10
413.9747269813053
 20
600.0587508243314
 30
0.0
 10
414.0923845643548
 20
600.0385261959068
 30
0.0
  0
LINE
  5
18F
330
1F
100
AcDbEntity
  8
0
  6
Continuous
 62
     7
370
    25
100
AcDbLine
 10
414.0923845644
 20
599.2385261959
 30
0.0
 11
414.0923845644
 21
600.0385261959
 31
0.0
  0
LINE
  5
190
330
1F
100
AcDbEntity
  8
0
  6
Continuous
 62
     7
370
    25
100
AcDbLine
 10
91.7065267
 20
599.2385261959
 30
0.0
 11
152.8994556322
 21
599.2385261959
 31
0.0
  0
LINE
  5
191
330
1F
100
AcDbEntity
  8
0
  6
Continuous
 62
     7
370
    25
100
AcDbLine
 10
152.8994556322
 20
601.5385261959
 30
0.0
 11
152.8994556322
 21
599.2385261959
 31
0.0
  0
SPLINE
  5
192
330
1F
100
AcDbEntity
  8
0
  6
Continuous
 62
     7
370
    25
100
AcDbSpline
210
0.0
220
0.0
230
1.0
 70
     8
 71
     3
 72
    12
 73
     8
 74
     0
 42
0.000000001
 43
0.00000001
 40
0.0
 40
0.0
 40
0.0
 40
0.0
 40
0.2096821001528733
 40
0.4420453733185943
 40
0.6744332966681463
 40
0.9068208701180408
 40
1.0
 40
1.0
 40
1.0
 40
1.0
 10
414.8994556321667
 20
600.0455972637185
 30
0.0
 10
414.8751156619981
 20
600.149882471646
 30
0.0
 10
414.8238028833111
 20
600.3697333489328
 30
0.0
 10
414.4028722963825
 20
600.705701478816
 30
0.0
 10
413.751082818487
 20
601.0526067472325
 30
0.0
 10
413.1016417793845
 20
601.3309834094655
 30
0.0
 10
412.7112018622782
 20
601.492343870687
 30
0.0
 10
412.5994556321667
 20
601.5385261959068
 30
0.0
  0
LINE
  5
193
330
1F
100
AcDbEntity
  8
0
  6
Continuous
 62
     7
370
    25
100
AcDbLine
 10
414.8994556322
 20
600.0455972637
 30
0.0
 11
414.0994556322
 21
600.0455972637
 31
0.0
  0
SPLINE
  5
194
330
1F
100
AcDbEntity
  8
0
  6
Continuous
 62
     7
370
    25
100
AcDbSpline
210
0.0
220
0.0
230
1.0
 70
     8
 71
     3
 72
    11
 73
     7
 74
     0
 42
0.000000001
 43
0.00000001
 40
0.0
 40
0.0
 40
0.0
 40
0.0
 40
0.2543211584721788
 40
0.5088664984542536
 40
0.7634130007197582
 40
1.0
 40
1.0
 40
1.0
 40
1.0
 10
414.0994556321667
 20
600.0455972637185
 30
0.0
 10
414.0761015701476
 20
600.1721783715041
 30
0.0
 10
414.0293728597417
 20
600.4254521670317
 30
0.0
 10
413.6704852435464
 20
600.805396836517
 30
0.0
 10
413.1712622642569
 20
601.176621968188
 30
0.0
 10
412.7853539476617
 20
601.4208686128572
 30
0.0
 10
412.5994556321667
 20
601.5385261959068
 30
0.0
  0
SPLINE
  5
195
330
1F
100
AcDbEntity
  8
0
  6
Continuous
 62
     7
370
    25
100
AcDbSpline
210
0.0
220
0.0
230
1.0
 70
     8
 71
     3
 72
    12
 73
     8
 74
     0
 42
0.000000001
 43
0.00000001
 40
0.0
 40
0.0
 40
0.0
 40
0.0
 40
0.2096821001529098
 40
0.4420453733185875
 40
0.6744332966681565
 40
0.9068208701180761
 40
0.9999999999999999
 40
0.9999999999999999
 40
0.9999999999999999
 40
0.9999999999999999
 10
412.5994556321667
 20
987.6385261959066
 30
0.0
 10
412.8517865901421
 20
987.742811403834
 30
0.0
 10
413.3837429776293
 20
987.9626622811211
 30
0.0
 10
414.105124407444
 20
988.2986304110042
 30
0.0
 10
414.6484833414306
 20
988.6455356794204
 30
0.0
 10
414.8771051815736
 20
988.9239123416534
 30
0.0
 10
414.8944822201981
 20
989.0852728028751
 30
0.0
 10
414.8994556321667
 20
989.1314551280948
 30
0.0
  0
LINE
  5
196
330
1F
100
AcDbEntity
  8
0
  6
Continuous
 62
     7
370
    25
100
AcDbLine
 10
414.8994556322
 20
600.0455972637
 30
0.0
 11
414.8994556322
 21
989.1314551281
 31
0.0
  0
LINE
  5
197
330
1F
100
AcDbEntity
  8
0
  6
Continuous
 62
     7
370
    25
100
AcDbLine
 10
414.0923845644
 20
989.9385261959
 30
0.0
 11
406.8942509988
 21
989.9385261959
 31
0.0
  0
LINE
  5
198
330
1F
100
AcDbEntity
  8
0
  6
Continuous
 62
     7
370
    25
100
AcDbLine
 10
398.8902509988
 20
989.9385261959
 30
0.0
 11
348.3994556322
 21
989.9385261959
 31
0.0
  0
SPLINE
  5
199
330
1F
100
AcDbEntity
  8
0
  6
Continuous
 62
     7
370
    25
100
AcDbSpline
210
0.0
220
0.0
230
1.0
 70
     8
 71
     3
 72
    15
 73
    11
 74
     0
 42
0.000000001
 43
0.00000001
 40
0.0
 40
0.0
 40
0.0
 40
0.0
 40
0.2091619226109827
 40
0.3238069365708323
 40
0.4417755067866168
 40
0.5564324095154832
 40
0.674413944203919
 40
0.7890706737780376
 40
0.9070520280981939
 40
1.0
 40
1.0
 40
1.0
 40
1.0
 10
414.0923845643549
 20
989.9385261959067
 30
0.0
 10
413.9879779877181
 20
989.9151816244731
 30
0.0
 10
413.8263444871433
 20
989.879041517961
 30
0.0
 10
413.6067555442611
 20
989.6547439635342
 30
0.0
 10
413.4339941992471
 20
989.4185488710061
 30
0.0
 10
413.2596209461271
 20
989.1188501555932
 30
0.0
 10
413.0868724446053
 20
988.7733080060448
 30
0.0
 10
412.9124936463573
 20
988.3866181646781
 30
0.0
 10
412.7505205442913
 20
988.0040899267995
 30
0.0
 10
412.64566236526
 20
987.7503424046106
 30
0.0
 10
412.5994556321667
 20
987.6385261959066
 30
0.0
  0
LINE
  5
19A
330
1F
100
AcDbEntity
  8
0
  6
Continuous
 62
     7
370
    25
100
AcDbLine
 10
348.3994556322
 20
987.6385261959
 30
0.0
 11
348.3994556322
 21
989.9385261959
 31
0.0
  0
LINE
  5
19B
330
1F
100
AcDbEntity
  8
0
  6
Continuous
 62
     7
370
    25
100
AcDbLine
 10
207.8994556322
 20
989.9385261959
 30
0.0
 11
183.3994556322
 21
989.9385261959
 31
0.0
  0
LINE
  5
19C
330
1F
100
AcDbEntity
  8
0
  6
Continuous
 62
     7
370
    25
100
AcDbLine
 10
183.3994556322
 20
987.6385261959
 30
0.0
 11
183.3994556322
 21
989.9385261959
 31
0.0
  0
LINE
  5
19D
330
1F
100
AcDbEntity
  8
0
  6
Continuous
 62
     7
370
    25
100
AcDbLine
 10
207.8994556322
 20
989.9385261959
 30
0.0
 11
207.8994556322
 21
987.6385261959
 31
0.0
  0
LINE
  5
19E
330
1F
100
AcDbEntity
  8
0
  6
Continuous
 62
     7
370
    25
100
AcDbLine
 10
90.8994556322
 20
989.1314551281
 30
0.0
 11
91.6994556322
 21
989.1314551281
 31
0.0
  0
SPLINE
  5
19F
330
1F
100
AcDbEntity
  8
0
  6
Continuous
 62
     7
370
    25
100
AcDbSpline
210
0.0
220
0.0
230
1.0
 70
     8
 71
     3
 72
    11
 73
     7
 74
     0
 42
0.000000001
 43
0.00000001
 40
0.0
 40
0.0
 40
0.0
 40
0.0
 40
0.2543211584721202
 40
0.5088664984542417
 40
0.7634130007197334
 40
0.9999999999999999
 40
0.9999999999999999
 40
0.9999999999999999
 40
0.9999999999999999
 10
91.69945563216675
 20
989.131455128095
 30
0.0
 10
91.72280969418584
 20
989.0048740203097
 30
0.0
 10
91.76953840459167
 20
988.751600224782
 30
0.0
 10
92.12842602078697
 20
988.3716555552961
 30
0.0
 10
92.62764900007639
 20
988.0004304236254
 30
0.0
 10
93.01355731667164
 20
987.7561837789564
 30
0.0
 10
93.19945563216675
 20
987.6385261959068
 30
0.0
  0
SPLINE
  5
1A0
330
1F
100
AcDbEntity
  8
0
  6
Continuous
 62
     7
370
    25
100
AcDbSpline
210
0.0
220
0.0
230
1.0
 70
     8
 71
     3
 72
    12
 73
     8
 74
     0
 42
0.000000001
 43
0.00000001
 40
0.0
 40
0.0
 40
0.0
 40
0.0
 40
0.2096821001528712
 40
0.4420453733185942
 40
0.6744332966681186
 40
0.9068208701180462
 40
1.0
 40
1.0
 40
1.0
 40
1.0
 10
93.19945563216677
 20
987.6385261959068
 30
0.0
 10
93.09517042423923
 20
987.8908571538823
 30
0.0
 10
92.87531954695247
 20
988.4228135413695
 30
0.0
 10
92.53935141706954
 20
989.1441949711841
 30
0.0
 10
92.19244614865282
 20
989.6875539051706
 30
0.0
 10
91.91406948641992
 20
989.9161757453139
 30
0.0
 10
91.75270902519833
 20
989.9335527839381
 30
0.0
 10
91.70652669997861
 20
989.9385261959069
 30
0.0
  0
LINE
  5
1A1
330
1F
100
AcDbEntity
  8
0
  6
Continuous
 62
     7
370
    25
100
AcDbLine
 10
157.3994556322
 20
989.9385261959
 30
0.0
 11
106.8942509988
 21
989.9385261959
 31
0.0
  0
LINE
  5
1A2
330
1F
100
AcDbEntity
  8
0
  6
Continuous
 62
     7
370
    25
100
AcDbLine
 10
98.8902509988
 20
989.9385261959
 30
0.0
 11
91.7065267
 21
989.9385261959
 31
0.0
  0
LINE
  5
1A3
330
1F
100
AcDbEntity
  8
0
  6
Continuous
 62
     7
370
    25
100
AcDbLine
 10
157.3994556322
 20
989.9385261959
 30
0.0
 11
157.3994556322
 21
987.6385261959
 31
0.0
  0
SPLINE
  5
1A4
330
1F
100
AcDbEntity
  8
0
  6
Continuous
 62
     7
370
    25
100
AcDbSpline
210
0.0
220
0.0
230
1.0
 70
     8
 71
     3
 72
    11
 73
     7
 74
     0
 42
0.000000001
 43
0.00000001
 40
0.0
 40
0.0
 40
0.0
 40
0.0
 40
0.2543211584721203
 40
0.5088664984542309
 40
0.7634130007197166
 40
0.9999999999999999
 40
0.9999999999999999
 40
0.9999999999999999
 40
0.9999999999999999
 10
93.19945563216677
 20
987.6385261959068
 30
0.0
 10
93.07287452438135
 20
987.838501386046
 30
0.0
 10
92.81960072885362
 20
988.2386280424173
 30
0.0
 10
92.43965605936837
 20
988.7402517965127
 30
0.0
 10
92.06843092769729
 20
989.0763170433717
 30
0.0
 10
91.82418428302813
 20
989.1183015674825
 30
0.0
 10
91.70652669997858
 20
989.1385261959069
 30
0.0
  0
LINE
  5
1A5
330
1F
100
AcDbEntity
  8
0
  6
Continuous
 62
     7
370
    25
100
AcDbLine
 10
91.7065267
 20
989.9385261959
 30
0.0
 11
91.7065267
 21
989.1385261959
 31
0.0
  0
LINE
  5
1A6
330
1F
100
AcDbEntity
  8
0
  6
Continuous
 62
     7
370
    25
100
AcDbLine
 10
414.0923845644
 20
989.9385261959
 30
0.0
 11
414.0923845644
 21
989.1385261959
 31
0.0
  0
SPLINE
  5
1A7
330
1F
100
AcDbEntity
  8
0
  6
Continuous
 62
     7
370
    25
100
AcDbSpline
210
0.0
220
0.0
230
1.0
 70
     8
 71
     3
 72
    11
 73
     7
 74
     0
 42
0.000000001
 43
0.00000001
 40
0.0
 40
0.0
 40
0.0
 40
0.0
 40
0.254321158472136
 40
0.5088664984542718
 40
0.7634130007197525
 40
0.9999999999999999
 40
0.9999999999999999
 40
0.9999999999999999
 40
0.9999999999999999
 10
414.0923845643549
 20
989.1385261959067
 30
0.0
 10
413.9658034565695
 20
989.1151721338875
 30
0.0
 10
413.7125296610418
 20
989.0684434234813
 30
0.0
 10
413.3325849915563
 20
988.7095558072867
 30
0.0
 10
412.9613598598855
 20
988.2103328279969
 30
0.0
 10
412.7171132152163
 20
987.8244245114016
 30
0.0
 10
412.5994556321667
 20
987.6385261959066
 30
0.0
  0
SPLINE
  5
1A8
330
1F
100
AcDbEntity
  8
0
  6
Continuous
 62
     7
370
    25
100
AcDbSpline
210
0.0
220
0.0
230
1.0
 70
     8
 71
     3
 72
    11
 73
     7
 74
     0
 42
0.000000001
 43
0.00000001
 40
0.0
 40
0.0
 40
0.0
 40
0.0
 40
0.2543211584721429
 40
0.5088664984542779
 40
0.7634130007197671
 40
1.0
 40
1.0
 40
1.0
 40
1.0
 10
412.5994556321667
 20
987.6385261959066
 30
0.0
 10
412.799430822306
 20
987.7651073036919
 30
0.0
 10
413.1995574786772
 20
988.0183810992198
 30
0.0
 10
413.7011812327729
 20
988.3983257687053
 30
0.0
 10
414.0372464796316
 20
988.769550900376
 30
0.0
 10
414.0792310037422
 20
989.0137975450452
 30
0.0
 10
414.0994556321667
 20
989.1314551280948
 30
0.0
  0
LINE
  5
1A9
330
1F
100
AcDbEntity
  8
0
  6
Continuous
 62
     7
370
    25
100
AcDbLine
 10
414.8994556322
 20
989.1314551281
 30
0.0
 11
414.0994556322
 21
989.1314551281
 31
0.0
  0
LINE
  5
1AA
330
1F
100
AcDbEntity
  8
0
  6
Continuous
 62
     7
370
    25
100
AcDbLine
 10
322.3994556322
 20
989.9385261959
 30
0.0
 11
233.8994556322
 21
989.9385261959
 31
0.0
  0
LINE
  5
1AB
330
1F
100
AcDbEntity
  8
0
  6
Continuous
 62
     7
370
    25
100
AcDbLine
 10
233.8994556322
 20
987.6385261959
 30
0.0
 11
233.8994556322
 21
989.9385261959
 31
0.0
  0
LINE
  5
1AC
330
1F
100
AcDbEntity
  8
0
  6
Continuous
 62
     7
370
    25
100
AcDbLine
 10
322.3994556322
 20
989.9385261959
 30
0.0
 11
322.3994556322
 21
987.6385261959
 31
0.0
  0
SPLINE
  5
1AD
330
1F
100
AcDbEntity
  8
0
  6
Continuous
 62
     7
370
    25
100
AcDbSpline
210
0.0
220
0.0
230
1.0
 70
     8
 71
     3
 72
    17
 73
    13
 74
     0
 42
0.000000001
 43
0.00000001
 40
0.0
 40
0.0
 40
0.0
 40
0.0
 40
0.0054839192605709
 40
0.1255742771400423
 40
0.2467755481726761
 40
0.3662438097296903
 40
0.4838921185044955
 40
0.6023510900623877
 40
0.7230317932186058
 40
0.8439828726756026
 40
0.9626986351740602
 40
1.0
 40
1.0
 40
1.0
 40
1.0
 10
175.5752258123367
 20
515.9584708095165
 30
0.0
 10
175.5594954596167
 20
515.9870148297204
 30
0.0
 10
175.1992918209201
 20
516.6406339902966
 30
0.0
 10
173.9325106821874
 20
517.5811530684314
 30
0.0
 10
171.9328196880799
 20
518.4901869709751
 30
0.0
 10
169.69832439167
 20
518.6225902080648
 30
0.0
 10
167.5803658671417
 20
518.0275263926276
 30
0.0
 10
165.7689465836141
 20
516.7805172836513
 30
0.0
 10
164.4414356092678
 20
515.0161721933513
 30
0.0
 10
163.8275663685664
 20
512.9778864055838
 30
0.0
 10
163.7882107190745
 20
511.3244335995864
 30
0.0
 10
164.1646236911636
 20
510.529081035828
 30
0.0
 10
164.2546184105761
 20
510.3389241174513
 30
0.0
  0
SPLINE
  5
1AE
330
1F
100
AcDbEntity
  8
0
  6
Continuous
 62
     7
370
    25
100
AcDbSpline
210
0.0
220
0.0
230
1.0
 70
     8
 71
     3
 72
     9
 73
     5
 74
     0
 42
0.000000001
 43
0.00000001
 40
0.0
 40
0.0
 40
0.0
 40
0.0
 40
0.3154446431773235
 40
1.0
 40
1.0
 40
1.0
 40
1.0
 10
176.3858631162302
 20
509.9937874149304
 30
0.0
 10
176.5032527611789
 20
510.2018902046765
 30
0.0
 10
176.8753930003228
 20
510.8616027540797
 30
0.0
 10
176.9002410977948
 20
511.638995874246
 30
0.0
 10
176.9172509960261
 20
512.171164499013
 30
0.0
  0
SPLINE
  5
1AF
330
1F
100
AcDbEntity
  8
0
  6
Continuous
 62
     7
370
    25
100
AcDbSpline
210
0.0
220
0.0
230
1.0
 70
     8
 71
     3
 72
    17
 73
    13
 74
     0
 42
0.000000001
 43
0.00000001
 40
0.0
 40
0.0
 40
0.0
 40
0.0
 40
0.0054839192604302
 40
0.1255742771399263
 40
0.2467755481725731
 40
0.3662438097296034
 40
0.4838921185044261
 40
0.6023510900623301
 40
0.7230317932185708
 40
0.8439828726755715
 40
0.9626986351740554
 40
1.0
 40
1.0
 40
1.0
 40
1.0
 10
175.5752258123356
 20
406.954126798353
 30
0.0
 10
175.559495459616
 20
406.9826708185561
 30
0.0
 10
175.1992918209196
 20
407.6362899791317
 30
0.0
 10
173.9325106821876
 20
408.5768090572658
 30
0.0
 10
171.9328196880801
 20
409.4858429598094
 30
0.0
 10
169.6983243916701
 20
409.6182461968993
 30
0.0
 10
167.5803658671418
 20
409.023182381462
 30
0.0
 10
165.7689465836141
 20
407.7761732724858
 30
0.0
 10
164.441435609268
 20
406.0118281821857
 30
0.0
 10
163.8275663685665
 20
403.9735423944182
 30
0.0
 10
163.7882107190746
 20
402.3200895884207
 30
0.0
 10
164.1646236911636
 20
401.5247370246623
 30
0.0
 10
164.2546184105762
 20
401.3345801062856
 30
0.0
  0
SPLINE
  5
1B0
330
1F
100
AcDbEntity
  8
0
  6
Continuous
 62
     7
370
    25
100
AcDbSpline
210
0.0
220
0.0
230
1.0
 70
     8
 71
     3
 72
     9
 73
     5
 74
     0
 42
0.000000001
 43
0.00000001
 40
0.0
 40
0.0
 40
0.0
 40
0.0
 40
0.3154446431772926
 40
1.0
 40
1.0
 40
1.0
 40
1.0
 10
176.3858631162303
 20
400.989443403765
 30
0.0
 10
176.503252761179
 20
401.197546193511
 30
0.0
 10
176.875393000323
 20
401.8572587429142
 30
0.0
 10
176.9002410977949
 20
402.6346518630805
 30
0.0
 10
176.9172509960262
 20
403.1668204878476
 30
0.0
  0
SPLINE
  5
1B1
330
1F
100
AcDbEntity
  8
0
  6
Continuous
 62
     7
370
    25
100
AcDbSpline
210
0.0
220
0.0
230
1.0
 70
     8
 71
     3
 72
    17
 73
    13
 74
     0
 42
0.000000001
 43
0.00000001
 40
0.0
 40
0.0
 40
0.0
 40
0.0
 40
0.005483919260743
 40
0.1255742771401994
 40
0.2467755481728116
 40
0.3662438097298077
 40
0.4838921185045938
 40
0.6023510900624626
 40
0.7230317932186677
 40
0.8439828726756343
 40
0.9626986351740764
 40
1.0
 40
1.0
 40
1.0
 40
1.0
 10
175.5752258123382
 20
624.9628148206791
 30
0.0
 10
175.5594954596177
 20
624.991358840884
 30
0.0
 10
175.1992918209209
 20
625.6449780014608
 30
0.0
 10
173.9325106821876
 20
626.5854970795971
 30
0.0
 10
171.9328196880799
 20
627.4945309821405
 30
0.0
 10
169.69832439167
 20
627.6269342192304
 30
0.0
 10
167.5803658671417
 20
627.0318704037932
 30
0.0
 10
165.7689465836141
 20
625.7848612948169
 30
0.0
 10
164.4414356092679
 20
624.0205162045168
 30
0.0
 10
163.8275663685664
 20
621.9822304167493
 30
0.0
 10
163.7882107190744
 20
620.328777610752
 30
0.0
 10
164.1646236911635
 20
619.5334250469936
 30
0.0
 10
164.254618410576
 20
619.3432681286171
 30
0.0
  0
SPLINE
  5
1B2
330
1F
100
AcDbEntity
  8
0
  6
Continuous
 62
     7
370
    25
100
AcDbSpline
210
0.0
220
0.0
230
1.0
 70
     8
 71
     3
 72
     9
 73
     5
 74
     0
 42
0.000000001
 43
0.00000001
 40
0.0
 40
0.0
 40
0.0
 40
0.0
 40
0.3154446431772878
 40
1.0
 40
1.0
 40
1.0
 40
1.0
 10
176.3858631162302
 20
618.9981314260962
 30
0.0
 10
176.5032527611788
 20
619.2062342158422
 30
0.0
 10
176.8753930003228
 20
619.8659467652453
 30
0.0
 10
176.9002410977947
 20
620.6433398854117
 30
0.0
 10
176.917250996026
 20
621.1755085101787
 30
0.0
  0
LINE
  5
1B3
330
1F
100
AcDbEntity
  8
0
  6
Continuous
 62
     7
370
    25
100
AcDbLine
 10
187.392250996
 20
397.5512247305
 30
0.0
 11
187.392250996
 21
395.9193994232
 31
0.0
  0
LINE
  5
1B4
330
1F
100
AcDbEntity
  8
0
  6
Continuous
 62
     7
370
    25
100
AcDbLine
 10
187.130133178
 20
394.2856610348
 30
0.0
 11
187.392250996
 21
395.9193994232
 31
0.0
  0
SPLINE
  5
1B5
330
1F
100
AcDbEntity
  8
0
  6
Continuous
 62
     7
370
    25
100
AcDbSpline
210
0.0
220
0.0
230
1.0
 70
     8
 71
     3
 72
    14
 73
    10
 74
     0
 42
0.000000001
 43
0.00000001
 40
0.0
 40
0.0
 40
0.0
 40
0.0
 40
0.1123642709119473
 40
0.2235785461663821
 40
0.3389459977337634
 40
0.4511848041708209
 40
0.5669085539175447
 40
0.7826112312694266
 40
1.0
 40
1.0
 40
1.0
 40
1.0
 10
153.3922509960261
 20
395.9193994231842
 30
0.0
 10
153.4268415785332
 20
395.292312392118
 30
0.0
 10
153.4956687251449
 20
394.0445562718878
 30
0.0
 10
154.0450758043131
 20
392.1547891151331
 30
0.0
 10
154.8924824449235
 20
390.3612284719785
 30
0.0
 10
156.0495710566209
 20
388.6958760010897
 30
0.0
 10
157.8678160877174
 20
386.8234593199977
 30
0.0
 10
160.6266420161325
 20
384.9983428595268
 30
0.0
 10
163.1337944265283
 20
384.5914352504886
 30
0.0
 10
164.3922509960262
 20
384.3871893691256
 30
0.0
  0
LINE
  5
1B6
330
1F
100
AcDbEntity
  8
0
  6
Continuous
 62
     7
370
    25
100
AcDbLine
 10
153.392250996
 20
395.9193994232
 30
0.0
 11
153.392250996
 21
397.5512247305
 31
0.0
  0
LWPOLYLINE
  5
1B7
330
1F
100
AcDbEntity
  8
0
  6
Continuous
 62
     7
370
    25
100
AcDbPolyline
 90
       27
 70
   128
 43
0.0
 10
176.692250996
 20
403.4012537782
 10
176.5091844458
 20
404.81801771
 10
175.9706239576
 20
406.1524444717
 10
175.1078687095
 20
407.3269820306
 10
173.9710589004
 20
408.2733705328
 10
172.6262617844
 20
408.9366093187
 10
171.1516320816
 20
409.2781533608
 10
169.6328699104
 20
409.2781533608
 10
168.1582402077
 20
408.9366093187
 10
166.8134430916
 20
408.2733705328
 10
165.6766332825
 20
407.3269820306
 10
164.8138780344
 20
406.1524444717
 10
164.2753175462
 20
404.81801771
 10
164.092250996
 20
403.4012537782
 10
164.2753175462
 20
401.9844898465
 10
164.8138780344
 20
400.6500630847
 10
165.6766332825
 20
399.4755255259
 10
166.8134430916
 20
398.5291370237
 10
168.1582402077
 20
397.8658982378
 10
169.6328699104
 20
397.5243541957
 10
171.1516320816
 20
397.5243541957
 10
172.6262617844
 20
397.8658982378
 10
173.9710589004
 20
398.5291370237
 10
175.1078687095
 20
399.4755255259
 10
175.9706239576
 20
400.6500630847
 10
176.5091844458
 20
401.9844898465
 10
176.692250996
 20
403.4012537782
  0
LWPOLYLINE
  5
1B8
330
1F
100
AcDbEntity
  8
0
  6
Continuous
 62
     7
370
    25
100
AcDbPolyline
 90
       28
 70
   128
 43
0.0
 10
176.892250996
 20
403.3328497496
 10
176.7170426548
 20
401.9242475417
 10
176.2008631581
 20
400.5915834435
 10
175.3715398763
 20
399.4067017215
 10
174.2737818421
 20
398.4334796558
 10
172.9667694753
 20
397.7243839001
 10
171.5209641509
 20
397.31764199
 10
170.0143096081
 20
397.2351814872
 10
168.5280299834
 20
397.4814478587
 10
167.142250996
 20
398.0431648208
 10
165.9316803499
 20
398.8900500666
 10
164.9615802218
 20
399.9764477932
 10
164.2842489609
 20
401.2437900181
 10
163.9362016707
 20
402.6237539938
 10
163.9362016707
 20
404.0419455053
 10
164.2842489609
 20
405.421909481
 10
164.9615802218
 20
406.6892517059
 10
165.9316803499
 20
407.7756494326
 10
167.142250996
 20
408.6225346783
 10
168.5280299834
 20
409.1842516404
 10
170.0143096081
 20
409.430518012
 10
171.5209641509
 20
409.3480575092
 10
172.9667694753
 20
408.9413155991
 10
174.2737818421
 20
408.2322198433
 10
175.3715398763
 20
407.2589977777
 10
176.2008631581
 20
406.0741160556
 10
176.7170426548
 20
404.7414519574
 10
176.892250996
 20
403.3328497496
  0
LINE
  5
1B9
330
1F
100
AcDbEntity
  8
0
  6
Continuous
 62
     7
370
    25
100
AcDbLine
 10
187.392250996
 20
623.0774537191
 30
0.0
 11
187.392250996
 21
397.5512247305
 31
0.0
  0
LINE
  5
1BA
330
1F
100
AcDbEntity
  8
0
  6
Continuous
 62
     7
370
    25
100
AcDbLine
 10
153.392250996
 20
397.5512247305
 30
0.0
 11
153.392250996
 21
623.0774537191
 31
0.0
  0
LWPOLYLINE
  5
1BB
330
1F
100
AcDbEntity
  8
0
  6
Continuous
 62
     7
370
    25
100
AcDbPolyline
 90
       27
 70
   128
 43
0.0
 10
176.692250996
 20
512.4055977894
 10
176.5091844458
 20
513.8223617211
 10
175.9706239576
 20
515.1567884829
 10
175.1078687095
 20
516.3313260417
 10
173.9710589004
 20
517.277714544
 10
172.6262617844
 20
517.9409533299
 10
171.1516320816
 20
518.2824973719
 10
169.6328699104
 20
518.2824973719
 10
168.1582402077
 20
517.9409533299
 10
166.8134430916
 20
517.277714544
 10
165.6766332825
 20
516.3313260417
 10
164.8138780344
 20
515.1567884829
 10
164.2753175462
 20
513.8223617211
 10
164.092250996
 20
512.4055977894
 10
164.2753175462
 20
510.9888338576
 10
164.8138780344
 20
509.6544070959
 10
165.6766332825
 20
508.4798695371
 10
166.8134430916
 20
507.5334810348
 10
168.1582402077
 20
506.8702422489
 10
169.6328699104
 20
506.5286982069
 10
171.1516320816
 20
506.5286982069
 10
172.6262617844
 20
506.8702422489
 10
173.9710589004
 20
507.5334810348
 10
175.1078687095
 20
508.4798695371
 10
175.9706239576
 20
509.6544070959
 10
176.5091844458
 20
510.9888338576
 10
176.692250996
 20
512.4055977894
  0
LWPOLYLINE
  5
1BC
330
1F
100
AcDbEntity
  8
0
  6
Continuous
 62
     7
370
    25
100
AcDbPolyline
 90
       28
 70
   128
 43
0.0
 10
176.892250996
 20
512.3371937607
 10
176.7170426548
 20
510.9285915529
 10
176.2008631581
 20
509.5959274547
 10
175.3715398763
 20
508.4110457326
 10
174.2737818421
 20
507.437823667
 10
172.9667694753
 20
506.7287279112
 10
171.5209641509
 20
506.3219860011
 10
170.0143096081
 20
506.2395254983
 10
168.5280299834
 20
506.4857918699
 10
167.142250996
 20
507.047508832
 10
165.9316803499
 20
507.8943940777
 10
164.9615802218
 20
508.9807918044
 10
164.2842489609
 20
510.2481340293
 10
163.9362016707
 20
511.628098005
 10
163.9362016707
 20
513.0462895165
 10
164.2842489609
 20
514.4262534922
 10
164.9615802218
 20
515.6935957171
 10
165.9316803499
 20
516.7799934437
 10
167.142250996
 20
517.6268786895
 10
168.5280299834
 20
518.1885956516
 10
170.0143096081
 20
518.4348620231
 10
171.5209641509
 20
518.3524015203
 10
172.9667694753
 20
517.9456596102
 10
174.2737818421
 20
517.2365638545
 10
175.3715398763
 20
516.2633417888
 10
176.2008631581
 20
515.0784600668
 10
176.7170426548
 20
513.7457959686
 10
176.892250996
 20
512.3371937607
  0
LWPOLYLINE
  5
1BD
330
1F
100
AcDbEntity
  8
0
  6
Continuous
 62
     7
370
    25
100
AcDbPolyline
 90
       27
 70
   128
 43
0.0
 10
176.692250996
 20
621.4099418006
 10
176.5091844458
 20
622.8267057323
 10
175.9706239576
 20
624.1611324941
 10
175.1078687095
 20
625.3356700529
 10
173.9710589004
 20
626.2820585551
 10
172.6262617844
 20
626.945297341
 10
171.1516320816
 20
627.2868413831
 10
169.6328699104
 20
627.2868413831
 10
168.1582402077
 20
626.945297341
 10
166.8134430916
 20
626.2820585551
 10
165.6766332825
 20
625.3356700529
 10
164.8138780344
 20
624.1611324941
 10
164.2753175462
 20
622.8267057323
 10
164.092250996
 20
621.4099418006
 10
164.2753175462
 20
619.9931778688
 10
164.8138780344
 20
618.6587511071
 10
165.6766332825
 20
617.4842135482
 10
166.8134430916
 20
616.537825046
 10
168.1582402077
 20
615.8745862601
 10
169.6328699104
 20
615.533042218
 10
171.1516320816
 20
615.533042218
 10
172.6262617844
 20
615.8745862601
 10
173.9710589004
 20
616.537825046
 10
175.1078687095
 20
617.4842135482
 10
175.9706239576
 20
618.6587511071
 10
176.5091844458
 20
619.9931778688
 10
176.692250996
 20
621.4099418006
  0
LWPOLYLINE
  5
1BE
330
1F
100
AcDbEntity
  8
0
  6
Continuous
 62
     7
370
    25
100
AcDbPolyline
 90
       28
 70
   128
 43
0.0
 10
176.892250996
 20
621.3415377719
 10
176.7170426548
 20
619.9329355641
 10
176.2008631581
 20
618.6002714659
 10
175.3715398763
 20
617.4153897438
 10
174.2737818421
 20
616.4421676781
 10
172.9667694753
 20
615.7330719224
 10
171.5209641509
 20
615.3263300123
 10
170.0143096081
 20
615.2438695095
 10
168.5280299834
 20
615.4901358811
 10
167.142250996
 20
616.0518528431
 10
165.9316803499
 20
616.8987380889
 10
164.9615802218
 20
617.9851358155
 10
164.2842489609
 20
619.2524780404
 10
163.9362016707
 20
620.6324420162
 10
163.9362016707
 20
622.0506335276
 10
164.2842489609
 20
623.4305975034
 10
164.9615802218
 20
624.6979397283
 10
165.9316803499
 20
625.7843374549
 10
167.142250996
 20
626.6312227007
 10
168.5280299834
 20
627.1929396627
 10
170.0143096081
 20
627.4392060343
 10
171.5209641509
 20
627.3567455315
 10
172.9667694753
 20
626.9500036214
 10
174.2737818421
 20
626.2409078657
 10
175.3715398763
 20
625.2676858
 10
176.2008631581
 20
624.0828040779
 10
176.7170426548
 20
622.7501399797
 10
176.892250996
 20
621.3415377719
  0
LINE
  5
1BF
330
1F
100
AcDbEntity
  8
0
  6
Continuous
 62
     7
370
    25
100
AcDbLine
 10
187.0213643946
 20
625.3891305185
 30
0.0
 11
187.392250996
 21
623.0774537191
 31
0.0
  0
SPLINE
  5
1C0
330
1F
100
AcDbEntity
  8
0
  6
Continuous
 62
     7
370
    25
100
AcDbSpline
210
0.0
220
0.0
230
1.0
 70
     8
 71
     3
 72
    17
 73
    13
 74
     0
 42
0.000000001
 43
0.00000001
 40
0.0
 40
0.0
 40
0.0
 40
0.0
 40
0.0054839192605775
 40
0.1255742771400481
 40
0.246775548172681
 40
0.3662438097296946
 40
0.4838921185044989
 40
0.6023510900623903
 40
0.7230317932186076
 40
0.8439828726756036
 40
0.9626986351740604
 40
1.0
 40
1.0
 40
1.0
 40
1.0
 10
340.5752258109914
 20
515.9584708095164
 30
0.0
 10
340.5594954582714
 20
515.9870148297204
 30
0.0
 10
340.1992918195747
 20
516.6406339902962
 30
0.0
 10
338.9325106808423
 20
517.5811530684316
 30
0.0
 10
336.9328196867346
 20
518.490186970975
 30
0.0
 10
334.6983243903247
 20
518.6225902080647
 30
0.0
 10
332.5803658657964
 20
518.0275263926276
 30
0.0
 10
330.7689465822688
 20
516.7805172836513
 30
0.0
 10
329.4414356079225
 20
515.0161721933513
 30
0.0
 10
328.8275663672211
 20
512.9778864055838
 30
0.0
 10
328.7882107177292
 20
511.3244335995864
 30
0.0
 10
329.1646236898183
 20
510.5290810358281
 30
0.0
 10
329.2546184092308
 20
510.3389241174513
 30
0.0
  0
SPLINE
  5
1C1
330
1F
100
AcDbEntity
  8
0
  6
Continuous
 62
     7
370
    25
100
AcDbSpline
210
0.0
220
0.0
230
1.0
 70
     8
 71
     3
 72
     9
 73
     5
 74
     0
 42
0.000000001
 43
0.00000001
 40
0.0
 40
0.0
 40
0.0
 40
0.0
 40
0.3154446431773235
 40
1.0
 40
1.0
 40
1.0
 40
1.0
 10
341.3858631148849
 20
509.9937874149304
 30
0.0
 10
341.5032527598336
 20
510.2018902046765
 30
0.0
 10
341.8753929989775
 20
510.8616027540797
 30
0.0
 10
341.9002410964495
 20
511.638995874246
 30
0.0
 10
341.9172509946807
 20
512.171164499013
 30
0.0
  0
SPLINE
  5
1C2
330
1F
100
AcDbEntity
  8
0
  6
Continuous
 62
     7
370
    25
100
AcDbSpline
210
0.0
220
0.0
230
1.0
 70
     8
 71
     3
 72
    17
 73
    13
 74
     0
 42
0.000000001
 43
0.00000001
 40
0.0
 40
0.0
 40
0.0
 40
0.0
 40
0.0054839192603698
 40
0.1255742771398727
 40
0.2467755481725268
 40
0.3662438097295642
 40
0.4838921185043939
 40
0.6023510900623049
 40
0.7230317932185517
 40
0.8439828726755596
 40
0.9626986351740504
 40
0.9999999999999999
 40
0.9999999999999999
 40
0.9999999999999999
 40
0.9999999999999999
 10
340.5752258109897
 20
406.954126798354
 30
0.0
 10
340.5594954582702
 20
406.9826708185567
 30
0.0
 10
340.199291819574
 20
407.6362899791318
 30
0.0
 10
338.9325106808422
 20
408.5768090572658
 30
0.0
 10
336.9328196867347
 20
409.4858429598094
 30
0.0
 10
334.6983243903247
 20
409.6182461968994
 30
0.0
 10
332.5803658657964
 20
409.023182381462
 30
0.0
 10
330.7689465822688
 20
407.7761732724858
 30
0.0
 10
329.4414356079226
 20
406.0118281821856
 30
0.0
 10
328.8275663672211
 20
403.9735423944183
 30
0.0
 10
328.7882107177292
 20
402.3200895884207
 30
0.0
 10
329.1646236898183
 20
401.5247370246623
 30
0.0
 10
329.2546184092309
 20
401.3345801062856
 30
0.0
  0
SPLINE
  5
1C3
330
1F
100
AcDbEntity
  8
0
  6
Continuous
 62
     7
370
    25
100
AcDbSpline
210
0.0
220
0.0
230
1.0
 70
     8
 71
     3
 72
     9
 73
     5
 74
     0
 42
0.000000001
 43
0.00000001
 40
0.0
 40
0.0
 40
0.0
 40
0.0
 40
0.3154446431772807
 40
1.0
 40
1.0
 40
1.0
 40
1.0
 10
341.385863114885
 20
400.989443403765
 30
0.0
 10
341.5032527598336
 20
401.197546193511
 30
0.0
 10
341.8753929989776
 20
401.8572587429142
 30
0.0
 10
341.9002410964495
 20
402.6346518630805
 30
0.0
 10
341.9172509946808
 20
403.1668204878476
 30
0.0
  0
SPLINE
  5
1C4
330
1F
100
AcDbEntity
  8
0
  6
Continuous
 62
     7
370
    25
100
AcDbSpline
210
0.0
220
0.0
230
1.0
 70
     8
 71
     3
 72
    17
 73
    13
 74
     0
 42
0.000000001
 43
0.00000001
 40
0.0
 40
0.0
 40
0.0
 40
0.0
 40
0.0054839192607344
 40
0.1255742771401908
 40
0.2467755481728036
 40
0.3662438097298005
 40
0.4838921185045874
 40
0.6023510900624561
 40
0.7230317932186631
 40
0.8439828726756304
 40
0.9626986351740732
 40
0.9999999999999999
 40
0.9999999999999999
 40
0.9999999999999999
 40
0.9999999999999999
 10
340.5752258109929
 20
624.9628148206793
 30
0.0
 10
340.5594954582724
 20
624.991358840884
 30
0.0
 10
340.1992918195754
 20
625.644978001461
 30
0.0
 10
338.9325106808423
 20
626.585497079597
 30
0.0
 10
336.9328196867346
 20
627.4945309821405
 30
0.0
 10
334.6983243903248
 20
627.6269342192304
 30
0.0
 10
332.5803658657964
 20
627.0318704037932
 30
0.0
 10
330.7689465822688
 20
625.7848612948169
 30
0.0
 10
329.4414356079226
 20
624.0205162045168
 30
0.0
 10
328.8275663672211
 20
621.9822304167493
 30
0.0
 10
328.7882107177292
 20
620.328777610752
 30
0.0
 10
329.1646236898183
 20
619.5334250469937
 30
0.0
 10
329.2546184092308
 20
619.343268128617
 30
0.0
  0
SPLINE
  5
1C5
330
1F
100
AcDbEntity
  8
0
  6
Continuous
 62
     7
370
    25
100
AcDbSpline
210
0.0
220
0.0
230
1.0
 70
     8
 71
     3
 72
     9
 73
     5
 74
     0
 42
0.000000001
 43
0.00000001
 40
0.0
 40
0.0
 40
0.0
 40
0.0
 40
0.3154446431772758
 40
1.0
 40
1.0
 40
1.0
 40
1.0
 10
341.385863114885
 20
618.9981314260962
 30
0.0
 10
341.5032527598336
 20
619.2062342158422
 30
0.0
 10
341.8753929989775
 20
619.8659467652453
 30
0.0
 10
341.9002410964495
 20
620.6433398854117
 30
0.0
 10
341.9172509946807
 20
621.1755085101786
 30
0.0
  0
LINE
  5
1C6
330
1F
100
AcDbEntity
  8
0
  6
Continuous
 62
     7
370
    25
100
AcDbLine
 10
352.3922509947
 20
397.5512247305
 30
0.0
 11
352.3922509947
 21
395.9193994232
 31
0.0
  0
LINE
  5
1C7
330
1F
100
AcDbEntity
  8
0
  6
Continuous
 62
     7
370
    25
100
AcDbLine
 10
352.1301331767
 20
394.2856610348
 30
0.0
 11
352.3922509947
 21
395.9193994232
 31
0.0
  0
SPLINE
  5
1C8
330
1F
100
AcDbEntity
  8
0
  6
Continuous
 62
     7
370
    25
100
AcDbSpline
210
0.0
220
0.0
230
1.0
 70
     8
 71
     3
 72
    14
 73
    10
 74
     0
 42
0.000000001
 43
0.00000001
 40
0.0
 40
0.0
 40
0.0
 40
0.0
 40
0.1123642709119476
 40
0.2235785461663838
 40
0.3389459977337635
 40
0.4511848041708217
 40
0.5669085539175446
 40
0.7826112312694276
 40
1.0
 40
1.0
 40
1.0
 40
1.0
 10
318.3922509946808
 20
395.9193994231842
 30
0.0
 10
318.4268415771878
 20
395.292312392118
 30
0.0
 10
318.4956687237995
 20
394.0445562718878
 30
0.0
 10
319.0450758029678
 20
392.1547891151332
 30
0.0
 10
319.8924824435781
 20
390.3612284719785
 30
0.0
 10
321.0495710552755
 20
388.6958760010897
 30
0.0
 10
322.867816086372
 20
386.8234593199977
 30
0.0
 10
325.6266420147871
 20
384.9983428595268
 30
0.0
 10
328.1337944251829
 20
384.5914352504886
 30
0.0
 10
329.3922509946808
 20
384.3871893691256
 30
0.0
  0
LINE
  5
1C9
330
1F
100
AcDbEntity
  8
0
  6
Continuous
 62
     7
370
    25
100
AcDbLine
 10
318.3922509947
 20
395.9193994232
 30
0.0
 11
318.3922509947
 21
397.5512247305
 31
0.0
  0
LWPOLYLINE
  5
1CA
330
1F
100
AcDbEntity
  8
0
  6
Continuous
 62
     7
370
    25
100
AcDbPolyline
 90
       27
 70
   128
 43
0.0
 10
341.6922509947
 20
403.4012537782
 10
341.5091844445
 20
404.81801771
 10
340.9706239563
 20
406.1524444717
 10
340.1078687082
 20
407.3269820306
 10
338.9710588991
 20
408.2733705328
 10
337.626261783
 20
408.9366093187
 10
336.1516320803
 20
409.2781533608
 10
334.6328699091
 20
409.2781533608
 10
333.1582402063
 20
408.9366093187
 10
331.8134430903
 20
408.2733705328
 10
330.6766332812
 20
407.3269820306
 10
329.8138780331
 20
406.1524444717
 10
329.2753175449
 20
404.81801771
 10
329.0922509947
 20
403.4012537782
 10
329.2753175449
 20
401.9844898465
 10
329.8138780331
 20
400.6500630847
 10
330.6766332812
 20
399.4755255259
 10
331.8134430903
 20
398.5291370237
 10
333.1582402063
 20
397.8658982378
 10
334.6328699091
 20
397.5243541957
 10
336.1516320803
 20
397.5243541957
 10
337.626261783
 20
397.8658982378
 10
338.9710588991
 20
398.5291370237
 10
340.1078687082
 20
399.4755255259
 10
340.9706239563
 20
400.6500630847
 10
341.5091844445
 20
401.9844898465
 10
341.6922509947
 20
403.4012537782
  0
LWPOLYLINE
  5
1CB
330
1F
100
AcDbEntity
  8
0
  6
Continuous
 62
     7
370
    25
100
AcDbPolyline
 90
       28
 70
   128
 43
0.0
 10
341.8922509947
 20
403.3328497496
 10
341.7170426534
 20
401.9242475417
 10
341.2008631568
 20
400.5915834435
 10
340.371539875
 20
399.4067017215
 10
339.2737818407
 20
398.4334796558
 10
337.9667694739
 20
397.7243839001
 10
336.5209641495
 20
397.31764199
 10
335.0143096068
 20
397.2351814872
 10
333.5280299821
 20
397.4814478587
 10
332.1422509947
 20
398.0431648208
 10
330.9316803485
 20
398.8900500666
 10
329.9615802205
 20
399.9764477932
 10
329.2842489596
 20
401.2437900181
 10
328.9362016694
 20
402.6237539938
 10
328.9362016694
 20
404.0419455053
 10
329.2842489596
 20
405.421909481
 10
329.9615802205
 20
406.6892517059
 10
330.9316803485
 20
407.7756494326
 10
332.1422509947
 20
408.6225346783
 10
333.5280299821
 20
409.1842516404
 10
335.0143096068
 20
409.430518012
 10
336.5209641495
 20
409.3480575092
 10
337.9667694739
 20
408.9413155991
 10
339.2737818407
 20
408.2322198433
 10
340.371539875
 20
407.2589977777
 10
341.2008631568
 20
406.0741160556
 10
341.7170426534
 20
404.7414519574
 10
341.8922509947
 20
403.3328497496
  0
LINE
  5
1CC
330
1F
100
AcDbEntity
  8
0
  6
Continuous
 62
     7
370
    25
100
AcDbLine
 10
352.3922509947
 20
623.0774537191
 30
0.0
 11
352.3922509947
 21
397.5512247305
 31
0.0
  0
LINE
  5
1CD
330
1F
100
AcDbEntity
  8
0
  6
Continuous
 62
     7
370
    25
100
AcDbLine
 10
318.3922509947
 20
397.5512247305
 30
0.0
 11
318.3922509947
 21
623.0774537191
 31
0.0
  0
LWPOLYLINE
  5
1CE
330
1F
100
AcDbEntity
  8
0
  6
Continuous
 62
     7
370
    25
100
AcDbPolyline
 90
       27
 70
   128
 43
0.0
 10
341.6922509947
 20
512.4055977894
 10
341.5091844445
 20
513.8223617211
 10
340.9706239563
 20
515.1567884829
 10
340.1078687082
 20
516.3313260417
 10
338.9710588991
 20
517.277714544
 10
337.626261783
 20
517.9409533299
 10
336.1516320803
 20
518.2824973719
 10
334.6328699091
 20
518.2824973719
 10
333.1582402063
 20
517.9409533299
 10
331.8134430903
 20
517.277714544
 10
330.6766332812
 20
516.3313260417
 10
329.8138780331
 20
515.1567884829
 10
329.2753175449
 20
513.8223617211
 10
329.0922509947
 20
512.4055977894
 10
329.2753175449
 20
510.9888338576
 10
329.8138780331
 20
509.6544070959
 10
330.6766332812
 20
508.4798695371
 10
331.8134430903
 20
507.5334810348
 10
333.1582402063
 20
506.8702422489
 10
334.6328699091
 20
506.5286982069
 10
336.1516320803
 20
506.5286982069
 10
337.626261783
 20
506.8702422489
 10
338.9710588991
 20
507.5334810348
 10
340.1078687082
 20
508.4798695371
 10
340.9706239563
 20
509.6544070959
 10
341.5091844445
 20
510.9888338576
 10
341.6922509947
 20
512.4055977894
  0
LWPOLYLINE
  5
1CF
330
1F
100
AcDbEntity
  8
0
  6
Continuous
 62
     7
370
    25
100
AcDbPolyline
 90
       28
 70
   128
 43
0.0
 10
341.8922509947
 20
512.3371937607
 10
341.7170426534
 20
510.9285915529
 10
341.2008631568
 20
509.5959274547
 10
340.371539875
 20
508.4110457326
 10
339.2737818407
 20
507.437823667
 10
337.9667694739
 20
506.7287279112
 10
336.5209641495
 20
506.3219860011
 10
335.0143096068
 20
506.2395254983
 10
333.5280299821
 20
506.4857918699
 10
332.1422509947
 20
507.047508832
 10
330.9316803485
 20
507.8943940777
 10
329.9615802205
 20
508.9807918044
 10
329.2842489596
 20
510.2481340293
 10
328.9362016694
 20
511.628098005
 10
328.9362016694
 20
513.0462895165
 10
329.2842489596
 20
514.4262534922
 10
329.9615802205
 20
515.6935957171
 10
330.9316803485
 20
516.7799934437
 10
332.1422509947
 20
517.6268786895
 10
333.5280299821
 20
518.1885956516
 10
335.0143096068
 20
518.4348620231
 10
336.5209641495
 20
518.3524015203
 10
337.9667694739
 20
517.9456596102
 10
339.2737818407
 20
517.2365638545
 10
340.371539875
 20
516.2633417888
 10
341.2008631568
 20
515.0784600668
 10
341.7170426534
 20
513.7457959686
 10
341.8922509947
 20
512.3371937607
  0
LWPOLYLINE
  5
1D0
330
1F
100
AcDbEntity
  8
0
  6
Continuous
 62
     7
370
    25
100
AcDbPolyline
 90
       27
 70
   128
 43
0.0
 10
341.6922509947
 20
621.4099418006
 10
341.5091844445
 20
622.8267057323
 10
340.9706239563
 20
624.1611324941
 10
340.1078687082
 20
625.3356700529
 10
338.9710588991
 20
626.2820585551
 10
337.626261783
 20
626.945297341
 10
336.1516320803
 20
627.2868413831
 10
334.6328699091
 20
627.2868413831
 10
333.1582402063
 20
626.945297341
 10
331.8134430903
 20
626.2820585551
 10
330.6766332812
 20
625.3356700529
 10
329.8138780331
 20
624.1611324941
 10
329.2753175449
 20
622.8267057323
 10
329.0922509947
 20
621.4099418006
 10
329.2753175449
 20
619.9931778688
 10
329.8138780331
 20
618.6587511071
 10
330.6766332812
 20
617.4842135482
 10
331.8134430903
 20
616.537825046
 10
333.1582402063
 20
615.8745862601
 10
334.6328699091
 20
615.533042218
 10
336.1516320803
 20
615.533042218
 10
337.626261783
 20
615.8745862601
 10
338.9710588991
 20
616.537825046
 10
340.1078687082
 20
617.4842135482
 10
340.9706239563
 20
618.6587511071
 10
341.5091844445
 20
619.9931778688
 10
341.6922509947
 20
621.4099418006
  0
LWPOLYLINE
  5
1D1
330
1F
100
AcDbEntity
  8
0
  6
Continuous
 62
     7
370
    25
100
AcDbPolyline
 90
       28
 70
   128
 43
0.0
 10
341.8922509947
 20
621.3415377719
 10
341.7170426534
 20
619.9329355641
 10
341.2008631568
 20
618.6002714659
 10
340.371539875
 20
617.4153897438
 10
339.2737818407
 20
616.4421676781
 10
337.9667694739
 20
615.7330719224
 10
336.5209641495
 20
615.3263300123
 10
335.0143096068
 20
615.2438695095
 10
333.5280299821
 20
615.4901358811
 10
332.1422509947
 20
616.0518528431
 10
330.9316803485
 20
616.8987380889
 10
329.9615802205
 20
617.9851358155
 10
329.2842489596
 20
619.2524780404
 10
328.9362016694
 20
620.6324420162
 10
328.9362016694
 20
622.0506335276
 10
329.2842489596
 20
623.4305975034
 10
329.9615802205
 20
624.6979397283
 10
330.9316803485
 20
625.7843374549
 10
332.1422509947
 20
626.6312227007
 10
333.5280299821
 20
627.1929396627
 10
335.0143096068
 20
627.4392060343
 10
336.5209641495
 20
627.3567455315
 10
337.9667694739
 20
626.9500036214
 10
339.2737818407
 20
626.2409078657
 10
340.371539875
 20
625.2676858
 10
341.2008631568
 20
624.0828040779
 10
341.7170426534
 20
622.7501399797
 10
341.8922509947
 20
621.3415377719
  0
LINE
  5
1D2
330
1F
100
AcDbEntity
  8
0
  6
Continuous
 62
     7
370
    25
100
AcDbLine
 10
352.0213643932
 20
625.3891305185
 30
0.0
 11
352.3922509947
 21
623.0774537191
 31
0.0
  0
ARC
  5
1D3
330
1F
100
AcDbEntity
  8
0
  6
Continuous
 62
     7
370
    25
100
AcDbCircle
 10
346.3922509947
 20
649.5126270682
 30
0.0
 40
3.000000000000057
100
AcDbArc
 50
90.0
 51
180.0
  0
ARC
  5
1D4
330
1F
100
AcDbEntity
  8
0
  6
Continuous
 62
     7
370
    25
100
AcDbCircle
 10
346.3922509947
 20
649.5126270682
 30
0.0
 40
3.0
100
AcDbArc
 50
0.0
 51
90.0
  0
ARC
  5
1D5
330
1F
100
AcDbEntity
  8
0
  6
Continuous
 62
     7
370
    25
100
AcDbCircle
 10
159.392250996
 20
649.5126270682
 30
0.0
 40
3.0
100
AcDbArc
 50
90.0
 51
180.0
  0
ARC
  5
1D6
330
1F
100
AcDbEntity
  8
0
  6
Continuous
 62
     7
370
    25
100
AcDbCircle
 10
159.392250996
 20
649.5126270682
 30
0.0
 40
3.0
100
AcDbArc
 50
0.0
 51
90.0
  0
ARC
  5
1D7
330
1F
100
AcDbEntity
  8
0
  6
Continuous
 62
     7
370
    25
100
AcDbCircle
 10
324.3922509947
 20
649.5126270682
 30
0.0
 40
3.0
100
AcDbArc
 50
90.0
 51
180.0
  0
ARC
  5
1D8
330
1F
100
AcDbEntity
  8
0
  6
Continuous
 62
     7
370
    25
100
AcDbCircle
 10
324.3922509947
 20
649.5126270682
 30
0.0
 40
3.0
100
AcDbArc
 50
0.0
 51
90.0
  0
ARC
  5
1D9
330
1F
100
AcDbEntity
  8
0
  6
Continuous
 62
     7
370
    25
100
AcDbCircle
 10
181.392250996
 20
649.5126270682
 30
0.0
 40
3.0
100
AcDbArc
 50
90.0
 51
180.0
  0
ARC
  5
1DA
330
1F
100
AcDbEntity
  8
0
  6
Continuous
 62
     7
370
    25
100
AcDbCircle
 10
181.392250996
 20
649.5126270682
 30
0.0
 40
3.0
100
AcDbArc
 50
0.0
 51
90.0
  0
LINE
  5
1DB
330
1F
100
AcDbEntity
  8
0
  6
Continuous
 62
     7
370
    25
100
AcDbLine
 10
170.392250996
 20
655.2385261959
 30
0.0
 11
170.392250996
 21
652.5126270682
 31
0.0
  0
LINE
  5
1DC
330
1F
100
AcDbEntity
  8
0
  6
Continuous
 62
     7
370
    25
100
AcDbLine
 10
170.492250996
 20
655.2385261959
 30
0.0
 11
170.492250996
 21
652.5126270682
 31
0.0
  0
LINE
  5
1DD
330
1F
100
AcDbEntity
  8
0
  6
Continuous
 62
     7
370
    25
100
AcDbLine
 10
335.4922509947
 20
655.2385261959
 30
0.0
 11
335.4922509947
 21
652.5126270682
 31
0.0
  0
LINE
  5
1DE
330
1F
100
AcDbEntity
  8
0
  6
Continuous
 62
     7
370
    25
100
AcDbLine
 10
335.3922509947
 20
655.2385261959
 30
0.0
 11
335.3922509947
 21
652.5126270682
 31
0.0
  0
CIRCLE
  5
1DF
330
1F
100
AcDbEntity
  8
0
  6
Continuous
 62
     7
370
    25
100
AcDbCircle
 10
170.3922509988
 20
1118.9590006064
 30
0.0
 40
13.25
  0
CIRCLE
  5
1E0
330
1F
100
AcDbEntity
  8
0
  6
Continuous
 62
     7
370
    25
100
AcDbCircle
 10
335.3922509988
 20
1118.9590006064
 30
0.0
 40
13.25
  0
CIRCLE
  5
1E1
330
1F
100
AcDbEntity
  8
0
  6
Continuous
 62
     7
370
    25
100
AcDbCircle
 10
252.8922509988
 20
1118.9590006064
 30
0.0
 40
13.25
  0
LINE
  5
1E2
330
1F
100
AcDbEntity
  8
0
  6
Continuous
 62
     7
370
    25
100
AcDbLine
 10
210.2917459354
 20
946.1908765197
 30
0.0
 11
211.7413148368
 21
947.6404454211
 31
0.0
  0
LINE
  5
1E3
330
1F
100
AcDbEntity
  8
0
  6
Continuous
 62
     7
370
    25
100
AcDbLine
 10
211.7413148368
 20
947.6404454211
 30
0.0
 11
225.4287109284
 21
933.9530493295
 31
0.0
  0
LINE
  5
1E4
330
1F
100
AcDbEntity
  8
0
  6
Continuous
 62
     7
370
    25
100
AcDbLine
 10
183.3994556322
 20
957.0090006064
 30
0.0
 11
157.3994556322
 21
957.0090006064
 31
0.0
  0
LINE
  5
1E5
330
1F
100
AcDbEntity
  8
0
  6
Continuous
 62
     7
370
    25
100
AcDbLine
 10
170.6248356692
 20
636.5993852218
 30
0.0
 11
170.6248356692
 21
634.9285498718
 31
0.0
  0
LINE
  5
1E6
330
1F
100
AcDbEntity
  8
0
  6
Continuous
 62
     7
370
    25
100
AcDbLine
 10
153.6168100438
 20
631.9590006064
 30
0.0
 11
156.392250996
 21
634.7344415587
 31
0.0
  0
LINE
  5
1E7
330
1F
100
AcDbEntity
  8
0
  6
Continuous
 62
     7
370
    25
100
AcDbLine
 10
155.2524694264
 20
642.4464637067
 30
0.0
 11
152.8994556322
 21
642.4464637067
 31
0.0
  0
ARC
  5
1E8
330
1F
100
AcDbEntity
  8
0
  6
Continuous
 62
     7
370
    25
100
AcDbCircle
 10
148.5922509988
 20
653.9590006064
 30
0.0
 40
6.000000000000034
100
AcDbArc
 50
315.8786917625
 51
346.050755936
  0
ARC
  5
1E9
330
1F
100
AcDbEntity
  8
0
  6
Continuous
 62
     7
370
    25
100
AcDbCircle
 10
192.1922509987
 20
653.9590006064
 30
0.0
 40
6.000000000000034
100
AcDbArc
 50
193.949244064
 51
224.3186060806
  0
LINE
  5
1EA
330
1F
100
AcDbEntity
  8
0
  6
Continuous
 62
     7
370
    25
100
AcDbLine
 10
210.2917459354
 20
946.1908765197
 30
0.0
 11
209.7260605104
 21
945.6251910948
 31
0.0
  0
LINE
  5
1EB
330
1F
100
AcDbEntity
  8
0
  6
Continuous
 62
     7
370
    25
100
AcDbLine
 10
187.8994556322
 20
642.4464637067
 30
0.0
 11
185.5320325711
 21
642.4464637067
 31
0.0
  0
LINE
  5
1EC
330
1F
100
AcDbEntity
  8
0
  6
Continuous
 62
     7
370
    25
100
AcDbLine
 10
185.5320325711
 20
642.4464637067
 30
0.0
 11
185.5320325711
 21
635.518965145
 31
0.0
  0
LINE
  5
1ED
330
1F
100
AcDbEntity
  8
0
  6
Continuous
 62
     7
370
    25
100
AcDbLine
 10
187.1676919537
 20
631.9590006064
 30
0.0
 11
187.8994556322
 21
632.6907642849
 31
0.0
  0
LINE
  5
1EE
330
1F
100
AcDbEntity
  8
0
  6
Continuous
 62
     7
370
    25
100
AcDbLine
 10
152.8994556322
 20
632.676355018
 30
0.0
 11
153.6168100438
 21
631.9590006064
 31
0.0
  0
LINE
  5
1EF
330
1F
100
AcDbEntity
  8
0
  6
Continuous
 62
     7
370
    25
100
AcDbLine
 10
156.392250996
 20
635.518965145
 30
0.0
 11
155.2524694264
 21
635.518965145
 31
0.0
  0
LINE
  5
1F0
330
1F
100
AcDbEntity
  8
0
  6
Continuous
 62
     7
370
    25
100
AcDbLine
 10
155.2524694264
 20
635.518965145
 30
0.0
 11
155.2524694264
 21
642.4464637067
 31
0.0
  0
LINE
  5
1F1
330
1F
100
AcDbEntity
  8
0
  6
Continuous
 62
     7
370
    25
100
AcDbLine
 10
185.5320325711
 20
635.518965145
 30
0.0
 11
184.392250996
 21
635.518965145
 31
0.0
  0
LINE
  5
1F2
330
1F
100
AcDbEntity
  8
0
  6
Continuous
 62
     7
370
    25
100
AcDbLine
 10
184.392250996
 20
634.7344415641
 30
0.0
 11
187.1676919537
 21
631.9590006064
 31
0.0
  0
ARC
  5
1F3
330
1F
100
AcDbEntity
  8
0
  6
Continuous
 62
     7
370
    25
100
AcDbCircle
 10
170.3922509988
 20
927.9590006064
 30
0.0
 40
6.000000000000082
100
AcDbArc
 50
64.8410691931
 51
115.1135176235
  0
LINE
  5
1F4
330
1F
100
AcDbEntity
  8
0
  6
Continuous
 62
     7
370
    25
100
AcDbLine
 10
174.4104125923
 20
637.5763082987
 30
0.0
 11
174.4104125923
 21
636.5993852218
 31
0.0
  0
LINE
  5
1F5
330
1F
100
AcDbEntity
  8
0
  6
Continuous
 62
     7
370
    25
100
AcDbLine
 10
170.6248356692
 20
640.5070775295
 30
0.0
 11
170.6248356692
 21
637.5763082987
 31
0.0
  0
LINE
  5
1F6
330
1F
100
AcDbEntity
  8
0
  6
Continuous
 62
     7
370
    25
100
AcDbLine
 10
174.4104125923
 20
640.5070775295
 30
0.0
 11
170.6248356692
 21
640.5070775295
 31
0.0
  0
LINE
  5
1F7
330
1F
100
AcDbEntity
  8
0
  6
Continuous
 62
     7
370
    25
100
AcDbLine
 10
170.6248356692
 20
637.5763082987
 30
0.0
 11
174.4104125923
 21
637.5763082987
 31
0.0
  0
ARC
  5
1F8
330
1F
100
AcDbEntity
  8
0
  6
Continuous
 62
     7
370
    25
100
AcDbCircle
 10
170.3922509988
 20
653.9590006064
 30
0.0
 40
6.000000000000034
100
AcDbArc
 50
193.949244064
 51
346.050755936
  0
LINE
  5
1F9
330
1F
100
AcDbEntity
  8
0
  6
Continuous
 62
     7
370
    25
100
AcDbLine
 10
174.4104125923
 20
636.5993852218
 30
0.0
 11
170.6248356692
 21
636.5993852218
 31
0.0
  0
LINE
  5
1FA
330
1F
100
AcDbEntity
  8
0
  6
Continuous
 62
     7
370
    25
100
AcDbLine
 10
169.7700279769
 20
634.9272943319
 30
0.0
 11
169.7700279769
 21
641.4840006064
 31
0.0
  0
LINE
  5
1FB
330
1F
100
AcDbEntity
  8
0
  6
Continuous
 62
     7
370
    25
100
AcDbLine
 10
209.7260605104
 20
945.6251910948
 30
0.0
 11
207.8994556322
 21
947.451795973
 31
0.0
  0
LINE
  5
1FC
330
1F
100
AcDbEntity
  8
0
  6
Continuous
 62
     7
370
    25
100
AcDbLine
 10
169.7700279769
 20
641.4840006064
 30
0.0
 11
174.4104125923
 21
641.4840006064
 31
0.0
  0
LINE
  5
1FD
330
1F
100
AcDbEntity
  8
0
  6
Continuous
 62
     7
370
    25
100
AcDbLine
 10
174.4104125923
 20
641.4840006064
 30
0.0
 11
174.4104125923
 21
640.5070775295
 31
0.0
  0
LINE
  5
1FE
330
1F
100
AcDbEntity
  8
0
  6
Continuous
 62
     7
370
    25
100
AcDbLine
 10
335.6248356692
 20
636.5993852218
 30
0.0
 11
335.6248356692
 21
634.9285498718
 31
0.0
  0
LINE
  5
1FF
330
1F
100
AcDbEntity
  8
0
  6
Continuous
 62
     7
370
    25
100
AcDbLine
 10
339.4104125923
 20
636.5993852218
 30
0.0
 11
335.6248356692
 21
636.5993852218
 31
0.0
  0
LINE
  5
200
330
1F
100
AcDbEntity
  8
0
  6
Continuous
 62
     7
370
    25
100
AcDbLine
 10
339.4104125923
 20
637.5763082987
 30
0.0
 11
339.4104125923
 21
636.5993852218
 31
0.0
  0
LINE
  5
201
330
1F
100
AcDbEntity
  8
0
  6
Continuous
 62
     7
370
    25
100
AcDbLine
 10
335.6248356692
 20
637.5763082987
 30
0.0
 11
339.4104125923
 21
637.5763082987
 31
0.0
  0
LINE
  5
202
330
1F
100
AcDbEntity
  8
0
  6
Continuous
 62
     7
370
    25
100
AcDbLine
 10
335.6248356692
 20
640.5070775295
 30
0.0
 11
335.6248356692
 21
637.5763082987
 31
0.0
  0
LINE
  5
203
330
1F
100
AcDbEntity
  8
0
  6
Continuous
 62
     7
370
    25
100
AcDbLine
 10
339.4104125923
 20
640.5070775295
 30
0.0
 11
335.6248356692
 21
640.5070775295
 31
0.0
  0
LINE
  5
204
330
1F
100
AcDbEntity
  8
0
  6
Continuous
 62
     7
370
    25
100
AcDbLine
 10
339.4104125923
 20
641.4840006064
 30
0.0
 11
339.4104125923
 21
640.5070775295
 31
0.0
  0
LINE
  5
205
330
1F
100
AcDbEntity
  8
0
  6
Continuous
 62
     7
370
    25
100
AcDbLine
 10
334.7700279769
 20
641.4840006064
 30
0.0
 11
339.4104125923
 21
641.4840006064
 31
0.0
  0
LINE
  5
206
330
1F
100
AcDbEntity
  8
0
  6
Continuous
 62
     7
370
    25
100
AcDbLine
 10
334.7700279769
 20
634.9272943319
 30
0.0
 11
334.7700279769
 21
641.4840006064
 31
0.0
  0
LINE
  5
207
330
1F
100
AcDbEntity
  8
0
  6
Continuous
 62
     7
370
    25
100
AcDbLine
 10
318.6168100438
 20
631.9590006064
 30
0.0
 11
321.3922509947
 21
634.7344415573
 31
0.0
  0
LINE
  5
208
330
1F
100
AcDbEntity
  8
0
  6
Continuous
 62
     7
370
    25
100
AcDbLine
 10
320.2524694264
 20
642.4464637067
 30
0.0
 11
317.8994556322
 21
642.4464637067
 31
0.0
  0
LINE
  5
209
330
1F
100
AcDbEntity
  8
0
  6
Continuous
 62
     7
370
    25
100
AcDbLine
 10
352.1676919537
 20
631.9590006064
 30
0.0
 11
352.8994556322
 21
632.6907642849
 31
0.0
  0
LINE
  5
20A
330
1F
100
AcDbEntity
  8
0
  6
Continuous
 62
     7
370
    25
100
AcDbLine
 10
352.8994556322
 20
642.4464637067
 30
0.0
 11
350.5320325711
 21
642.4464637067
 31
0.0
  0
LINE
  5
20B
330
1F
100
AcDbEntity
  8
0
  6
Continuous
 62
     7
370
    25
100
AcDbLine
 10
350.5320325711
 20
642.4464637067
 30
0.0
 11
350.5320325711
 21
635.518965145
 31
0.0
  0
ARC
  5
20C
330
1F
100
AcDbEntity
  8
0
  6
Continuous
 62
     7
370
    25
100
AcDbCircle
 10
335.3922509988
 20
653.9590006064
 30
0.0
 40
6.00000000000006
100
AcDbArc
 50
193.949244064
 51
346.050755936
  0
ARC
  5
20D
330
1F
100
AcDbEntity
  8
0
  6
Continuous
 62
     7
370
    25
100
AcDbCircle
 10
357.1922509988
 20
653.9590006064
 30
0.0
 40
6.000000000000063
100
AcDbArc
 50
193.949244064
 51
224.3186060805
  0
ARC
  5
20E
330
1F
100
AcDbEntity
  8
0
  6
Continuous
 62
     7
370
    25
100
AcDbCircle
 10
335.3922509988
 20
927.9590006064
 30
0.0
 40
6.000000000000082
100
AcDbArc
 50
64.8410691921
 51
115.1135176242
  0
LINE
  5
20F
330
1F
100
AcDbEntity
  8
0
  6
Continuous
 62
     7
370
    25
100
AcDbLine
 10
349.3922509947
 20
634.7344415655
 30
0.0
 11
352.1676919537
 21
631.9590006064
 31
0.0
  0
LINE
  5
210
330
1F
100
AcDbEntity
  8
0
  6
Continuous
 62
     7
370
    25
100
AcDbLine
 10
350.5320325711
 20
635.518965145
 30
0.0
 11
349.3922509947
 21
635.518965145
 31
0.0
  0
ARC
  5
211
330
1F
100
AcDbEntity
  8
0
  6
Continuous
 62
     7
370
    25
100
AcDbCircle
 10
313.5922509988
 20
653.9590006064
 30
0.0
 40
6.00000000000006
100
AcDbArc
 50
315.8786917625
 51
346.050755936
  0
LINE
  5
212
330
1F
100
AcDbEntity
  8
0
  6
Continuous
 62
     7
370
    25
100
AcDbLine
 10
321.3922509947
 20
635.518965145
 30
0.0
 11
320.2524694264
 21
635.518965145
 31
0.0
  0
LINE
  5
213
330
1F
100
AcDbEntity
  8
0
  6
Continuous
 62
     7
370
    25
100
AcDbLine
 10
317.8994556322
 20
632.676355018
 30
0.0
 11
318.6168100438
 21
631.9590006064
 31
0.0
  0
LINE
  5
214
330
1F
100
AcDbEntity
  8
0
  6
Continuous
 62
     7
370
    25
100
AcDbLine
 10
320.2524694264
 20
635.518965145
 30
0.0
 11
320.2524694264
 21
642.4464637067
 31
0.0
  0
LINE
  5
215
330
1F
100
AcDbEntity
  8
0
  6
Continuous
 62
     7
370
    25
100
AcDbLine
 10
348.3994556322
 20
957.0090006064
 30
0.0
 11
322.3994556322
 21
957.0090006064
 31
0.0
  0
SPLINE
  5
216
330
1F
100
AcDbEntity
  8
0
  6
Continuous
 62
     7
370
    25
100
AcDbSpline
210
0.0
220
0.0
230
1.0
 70
     8
 71
     3
 72
     9
 73
     5
 74
     0
 42
0.000000001
 43
0.00000001
 40
0.0
 40
0.0
 40
0.0
 40
0.0
 40
0.6039699975944781
 40
1.0
 40
1.0
 40
1.0
 40
1.0
 10
351.5884738791572
 20
255.470541213279
 30
0.0
 10
351.4123712293415
 20
255.6763168821509
 30
0.0
 10
351.1207960674675
 20
256.0170219994441
 30
0.0
 10
350.7055217101518
 20
256.3336187819017
 30
0.0
 10
350.5410606054251
 20
256.4590006064201
 30
0.0
  0
SPLINE
  5
217
330
1F
100
AcDbEntity
  8
0
  6
Continuous
 62
     7
370
    25
100
AcDbSpline
210
0.0
220
0.0
230
1.0
 70
     8
 71
     3
 72
     9
 73
     5
 74
     0
 42
0.000000001
 43
0.00000001
 40
0.0
 40
0.0
 40
0.0
 40
0.0
 40
0.5609459988186127
 40
1.0
 40
1.0
 40
1.0
 40
1.0
 10
320.2587575008145
 20
256.4590006064201
 30
0.0
 10
320.0142970998244
 20
256.2741246041398
 30
0.0
 10
319.5784968596857
 20
255.9445456381258
 30
0.0
 10
319.2905249594605
 20
255.5874144827993
 30
0.0
 10
319.1640897444389
 20
255.4306146201066
 30
0.0
  0
LWPOLYLINE
  5
218
330
1F
100
AcDbEntity
  8
0
  6
Continuous
 62
     7
370
    25
100
AcDbPolyline
 90
        9
 70
   128
 43
0.0
 10
324.6911987361
 20
246.9548801709
 10
324.7492025324
 20
247.0781176742
 10
324.9143833689
 20
247.1825933848
 10
325.1615939607
 20
247.2524018228
 10
325.4531987361
 20
247.2769152863
 10
325.7448035116
 20
247.2524018228
 10
325.9920141034
 20
247.1825933848
 10
326.1571949399
 20
247.0781176742
 10
326.2151987361
 20
246.9548801709
  0
LWPOLYLINE
  5
219
330
1F
100
AcDbEntity
  8
0
  6
Continuous
 62
     7
370
    25
100
AcDbPolyline
 90
        9
 70
   128
 43
0.0
 10
326.9009987361
 20
246.9548801709
 10
326.9590025324
 20
247.0781176742
 10
327.1241833689
 20
247.1825933848
 10
327.3713939607
 20
247.2524018228
 10
327.6629987361
 20
247.2769152863
 10
327.9546035116
 20
247.2524018228
 10
328.2018141034
 20
247.1825933848
 10
328.3669949399
 20
247.0781176742
 10
328.4249987361
 20
246.9548801709
  0
LWPOLYLINE
  5
21A
330
1F
100
AcDbEntity
  8
0
  6
Continuous
 62
     7
370
    25
100
AcDbPolyline
 90
        9
 70
   128
 43
0.0
 10
325.7910509989
 20
246.1497923823
 10
325.8490547952
 20
246.2730298856
 10
326.0142356317
 20
246.3775055962
 10
326.2614462235
 20
246.4473140342
 10
326.5530509989
 20
246.4718274977
 10
326.8446557744
 20
246.4473140342
 10
327.0918663662
 20
246.3775055962
 10
327.2570472027
 20
246.2730298856
 10
327.3150509989
 20
246.1497923823
  0
LWPOLYLINE
  5
21B
330
1F
100
AcDbEntity
  8
0
  6
Continuous
 62
     7
370
    25
100
AcDbPolyline
 90
        9
 70
   128
 43
0.0
 10
326.7836811614
 20
245.2588285629
 10
326.8416849577
 20
245.3820660662
 10
327.0068657942
 20
245.4865417768
 10
327.254076386
 20
245.5563502148
 10
327.5456811614
 20
245.5808636783
 10
327.8372859369
 20
245.5563502148
 10
328.0844965287
 20
245.4865417768
 10
328.2496773652
 20
245.3820660662
 10
328.3076811614
 20
245.2588285629
  0
LWPOLYLINE
  5
21C
330
1F
100
AcDbEntity
  8
0
  6
Continuous
 62
     7
370
    25
100
AcDbPolyline
 90
        9
 70
   128
 43
0.0
 10
328.0008509989
 20
246.1497923823
 10
328.0588547952
 20
246.2730298856
 10
328.2240356317
 20
246.3775055962
 10
328.4712462235
 20
246.4473140342
 10
328.7628509989
 20
246.4718274977
 10
329.0544557744
 20
246.4473140342
 10
329.3016663662
 20
246.3775055962
 10
329.4668472027
 20
246.2730298856
 10
329.5248509989
 20
246.1497923823
  0
LWPOLYLINE
  5
21D
330
1F
100
AcDbEntity
  8
0
  6
Continuous
 62
     7
370
    25
100
AcDbPolyline
 90
        9
 70
   128
 43
0.0
 10
328.9934811614
 20
245.2588285629
 10
329.0514849577
 20
245.3820660662
 10
329.2166657942
 20
245.4865417768
 10
329.463876386
 20
245.5563502148
 10
329.7554811614
 20
245.5808636783
 10
330.0470859369
 20
245.5563502148
 10
330.2942965287
 20
245.4865417768
 10
330.4594773652
 20
245.3820660662
 10
330.5174811614
 20
245.2588285629
  0
LWPOLYLINE
  5
21E
330
1F
100
AcDbEntity
  8
0
  6
Continuous
 62
     7
370
    25
100
AcDbPolyline
 90
        9
 70
   128
 43
0.0
 10
331.2032811614
 20
245.2588285629
 10
331.2612849577
 20
245.3820660662
 10
331.4264657942
 20
245.4865417768
 10
331.673676386
 20
245.5563502148
 10
331.9652811614
 20
245.5808636783
 10
332.2568859369
 20
245.5563502148
 10
332.5040965287
 20
245.4865417768
 10
332.6692773652
 20
245.3820660662
 10
332.7272811614
 20
245.2588285629
  0
LWPOLYLINE
  5
21F
330
1F
100
AcDbEntity
  8
0
  6
Continuous
 62
     7
370
    25
100
AcDbPolyline
 90
       10
 70
   128
 43
0.0
 10
333.4130811614
 20
245.2588285629
 10
333.4710849577
 20
245.3820660662
 10
333.6362657942
 20
245.4865417768
 10
333.883476386
 20
245.5563502148
 10
334.1750811614
 20
245.5808636783
 10
334.4666859369
 20
245.5563502148
 10
334.7138965287
 20
245.4865417768
 10
334.8790773652
 20
245.3820660662
 10
334.9370811614
 20
245.2588285629
 10
334.9370811614
 20
245.2588285629
  0
LWPOLYLINE
  5
220
330
1F
100
AcDbEntity
  8
0
  6
Continuous
 62
     7
370
    25
100
AcDbPolyline
 90
        9
 70
   128
 43
0.0
 10
335.8474208365
 20
245.2588285629
 10
335.9054246327
 20
245.3820660662
 10
336.0706054692
 20
245.4865417768
 10
336.317816061
 20
245.5563502148
 10
336.6094208365
 20
245.5808636783
 10
336.9010256119
 20
245.5563502148
 10
337.1482362037
 20
245.4865417768
 10
337.3134170402
 20
245.3820660662
 10
337.3714208365
 20
245.2588285629
  0
LWPOLYLINE
  5
221
330
1F
100
AcDbEntity
  8
0
  6
Continuous
 62
     7
370
    25
100
AcDbPolyline
 90
        9
 70
   128
 43
0.0
 10
338.0572208365
 20
245.2588285629
 10
338.1152246327
 20
245.3820660662
 10
338.2804054692
 20
245.4865417768
 10
338.527616061
 20
245.5563502148
 10
338.8192208365
 20
245.5808636783
 10
339.1108256119
 20
245.5563502148
 10
339.3580362037
 20
245.4865417768
 10
339.5232170402
 20
245.3820660662
 10
339.5812208365
 20
245.2588285629
  0
LWPOLYLINE
  5
222
330
1F
100
AcDbEntity
  8
0
  6
Continuous
 62
     7
370
    25
100
AcDbPolyline
 90
        9
 70
   128
 43
0.0
 10
340.2670208365
 20
245.2588285629
 10
340.3250246327
 20
245.3820660662
 10
340.4902054692
 20
245.4865417768
 10
340.737416061
 20
245.5563502148
 10
341.0290208365
 20
245.5808636783
 10
341.3206256119
 20
245.5563502148
 10
341.5678362037
 20
245.4865417768
 10
341.7330170402
 20
245.3820660662
 10
341.7910208365
 20
245.2588285629
  0
LWPOLYLINE
  5
223
330
1F
100
AcDbEntity
  8
0
  6
Continuous
 62
     7
370
    25
100
AcDbPolyline
 90
        9
 70
   128
 43
0.0
 10
342.4768208365
 20
245.2588285629
 10
342.5348246327
 20
245.3820660662
 10
342.7000054692
 20
245.4865417768
 10
342.947216061
 20
245.5563502148
 10
343.2388208365
 20
245.5808636783
 10
343.5304256119
 20
245.5563502148
 10
343.7776362037
 20
245.4865417768
 10
343.9428170402
 20
245.3820660662
 10
344.0008208365
 20
245.2588285629
  0
LWPOLYLINE
  5
224
330
1F
100
AcDbEntity
  8
0
  6
Continuous
 62
     7
370
    25
100
AcDbPolyline
 90
        9
 70
   128
 43
0.0
 10
341.2596509989
 20
246.1497923823
 10
341.3176547952
 20
246.2730298856
 10
341.4828356317
 20
246.3775055962
 10
341.7300462235
 20
246.4473140342
 10
342.0216509989
 20
246.4718274977
 10
342.3132557744
 20
246.4473140342
 10
342.5604663662
 20
246.3775055962
 10
342.7256472027
 20
246.2730298856
 10
342.7836509989
 20
246.1497923823
  0
LWPOLYLINE
  5
225
330
1F
100
AcDbEntity
  8
0
  6
Continuous
 62
     7
370
    25
100
AcDbPolyline
 90
        9
 70
   128
 43
0.0
 10
343.4694509989
 20
246.1497923823
 10
343.5274547952
 20
246.2730298856
 10
343.6926356317
 20
246.3775055962
 10
343.9398462235
 20
246.4473140342
 10
344.2314509989
 20
246.4718274977
 10
344.5230557744
 20
246.4473140342
 10
344.7702663662
 20
246.3775055962
 10
344.9354472027
 20
246.2730298856
 10
344.9934509989
 20
246.1497923823
  0
LWPOLYLINE
  5
226
330
1F
100
AcDbEntity
  8
0
  6
Continuous
 62
     7
370
    25
100
AcDbPolyline
 90
        9
 70
   128
 43
0.0
 10
344.5693032617
 20
246.9548801709
 10
344.627307058
 20
247.0781176742
 10
344.7924878945
 20
247.1825933848
 10
345.0396984863
 20
247.2524018228
 10
345.3313032617
 20
247.2769152863
 10
345.6229080372
 20
247.2524018228
 10
345.870118629
 20
247.1825933848
 10
346.0352994655
 20
247.0781176742
 10
346.0933032617
 20
246.9548801709
  0
LWPOLYLINE
  5
227
330
1F
100
AcDbEntity
  8
0
  6
Continuous
 62
     7
370
    25
100
AcDbPolyline
 90
       10
 70
   128
 43
0.0
 10
342.3595032617
 20
246.9548801709
 10
342.417507058
 20
247.0781176742
 10
342.5826878945
 20
247.1825933848
 10
342.8298984863
 20
247.2524018228
 10
343.1215032617
 20
247.2769152863
 10
343.4131080372
 20
247.2524018228
 10
343.660318629
 20
247.1825933848
 10
343.8254994655
 20
247.0781176742
 10
343.8835032617
 20
246.9548801709
 10
343.8835032617
 20
246.9548801709
  0
LWPOLYLINE
  5
228
330
1F
100
AcDbEntity
  8
0
  6
Continuous
 62
     7
370
    25
100
AcDbPolyline
 90
        9
 70
   128
 43
0.0
 10
340.1497032617
 20
246.9548801709
 10
340.207707058
 20
247.0781176742
 10
340.3728878945
 20
247.1825933848
 10
340.6200984863
 20
247.2524018228
 10
340.9117032617
 20
247.2769152863
 10
341.2033080372
 20
247.2524018228
 10
341.450518629
 20
247.1825933848
 10
341.6156994655
 20
247.0781176742
 10
341.6737032617
 20
246.9548801709
  0
LWPOLYLINE
  5
229
330
1F
100
AcDbEntity
  8
0
  6
Continuous
 62
     7
370
    25
100
AcDbPolyline
 90
        9
 70
   128
 43
0.0
 10
337.9399032617
 20
246.9548801709
 10
337.997907058
 20
247.0781176742
 10
338.1630878945
 20
247.1825933848
 10
338.4102984863
 20
247.2524018228
 10
338.7019032617
 20
247.2769152863
 10
338.9935080372
 20
247.2524018228
 10
339.240718629
 20
247.1825933848
 10
339.4058994655
 20
247.0781176742
 10
339.4639032617
 20
246.9548801709
  0
LWPOLYLINE
  5
22A
330
1F
100
AcDbEntity
  8
0
  6
Continuous
 62
     7
370
    25
100
AcDbPolyline
 90
        9
 70
   128
 43
0.0
 10
335.7301032617
 20
246.9548801709
 10
335.788107058
 20
247.0781176742
 10
335.9532878945
 20
247.1825933848
 10
336.2004984863
 20
247.2524018228
 10
336.4921032617
 20
247.2769152863
 10
336.7837080372
 20
247.2524018228
 10
337.030918629
 20
247.1825933848
 10
337.1960994655
 20
247.0781176742
 10
337.2541032617
 20
246.9548801709
  0
LWPOLYLINE
  5
22B
330
1F
100
AcDbEntity
  8
0
  6
Continuous
 62
     7
370
    25
100
AcDbPolyline
 90
        9
 70
   128
 43
0.0
 10
333.5303987361
 20
246.9548801709
 10
333.5884025324
 20
247.0781176742
 10
333.7535833689
 20
247.1825933848
 10
334.0007939607
 20
247.2524018228
 10
334.2923987361
 20
247.2769152863
 10
334.5840035116
 20
247.2524018228
 10
334.8312141034
 20
247.1825933848
 10
334.9963949399
 20
247.0781176742
 10
335.0543987361
 20
246.9548801709
  0
LWPOLYLINE
  5
22C
330
1F
100
AcDbEntity
  8
0
  6
Continuous
 62
     7
370
    25
100
AcDbPolyline
 90
        9
 70
   128
 43
0.0
 10
331.3205987361
 20
246.9548801709
 10
331.3786025324
 20
247.0781176742
 10
331.5437833689
 20
247.1825933848
 10
331.7909939607
 20
247.2524018228
 10
332.0825987361
 20
247.2769152863
 10
332.3742035116
 20
247.2524018228
 10
332.6214141034
 20
247.1825933848
 10
332.7865949399
 20
247.0781176742
 10
332.8445987361
 20
246.9548801709
  0
LWPOLYLINE
  5
22D
330
1F
100
AcDbEntity
  8
0
  6
Continuous
 62
     7
370
    25
100
AcDbPolyline
 90
        9
 70
   128
 43
0.0
 10
329.1107987361
 20
246.9548801709
 10
329.1688025324
 20
247.0781176742
 10
329.3339833689
 20
247.1825933848
 10
329.5811939607
 20
247.2524018228
 10
329.8727987361
 20
247.2769152863
 10
330.1644035116
 20
247.2524018228
 10
330.4116141034
 20
247.1825933848
 10
330.5767949399
 20
247.0781176742
 10
330.6347987361
 20
246.9548801709
  0
LWPOLYLINE
  5
22E
330
1F
100
AcDbEntity
  8
0
  6
Continuous
 62
     7
370
    25
100
AcDbPolyline
 90
        9
 70
   128
 43
0.0
 10
330.2106509989
 20
246.1497923823
 10
330.2686547952
 20
246.2730298856
 10
330.4338356317
 20
246.3775055962
 10
330.6810462235
 20
246.4473140342
 10
330.9726509989
 20
246.4718274977
 10
331.2642557744
 20
246.4473140342
 10
331.5114663662
 20
246.3775055962
 10
331.6766472027
 20
246.2730298856
 10
331.7346509989
 20
246.1497923823
  0
LWPOLYLINE
  5
22F
330
1F
100
AcDbEntity
  8
0
  6
Continuous
 62
     7
370
    25
100
AcDbPolyline
 90
        9
 70
   128
 43
0.0
 10
332.4204509989
 20
246.1497923823
 10
332.4784547952
 20
246.2730298856
 10
332.6436356317
 20
246.3775055962
 10
332.8908462235
 20
246.4473140342
 10
333.1824509989
 20
246.4718274977
 10
333.4740557744
 20
246.4473140342
 10
333.7212663662
 20
246.3775055962
 10
333.8864472027
 20
246.2730298856
 10
333.9444509989
 20
246.1497923823
  0
LWPOLYLINE
  5
230
330
1F
100
AcDbEntity
  8
0
  6
Continuous
 62
     7
370
    25
100
AcDbPolyline
 90
        9
 70
   128
 43
0.0
 10
334.6302509989
 20
246.1497923823
 10
334.6882547952
 20
246.2730298856
 10
334.8534356317
 20
246.3775055962
 10
335.1006462235
 20
246.4473140342
 10
335.3922509989
 20
246.4718274977
 10
335.6838557744
 20
246.4473140342
 10
335.9310663662
 20
246.3775055962
 10
336.0962472027
 20
246.2730298856
 10
336.1542509989
 20
246.1497923823
  0
LWPOLYLINE
  5
231
330
1F
100
AcDbEntity
  8
0
  6
Continuous
 62
     7
370
    25
100
AcDbPolyline
 90
        9
 70
   128
 43
0.0
 10
336.8400509989
 20
246.1497923823
 10
336.8980547952
 20
246.2730298856
 10
337.0632356317
 20
246.3775055962
 10
337.3104462235
 20
246.4473140342
 10
337.6020509989
 20
246.4718274977
 10
337.8936557744
 20
246.4473140342
 10
338.1408663662
 20
246.3775055962
 10
338.3060472027
 20
246.2730298856
 10
338.3640509989
 20
246.1497923823
  0
LWPOLYLINE
  5
232
330
1F
100
AcDbEntity
  8
0
  6
Continuous
 62
     7
370
    25
100
AcDbPolyline
 90
        9
 70
   128
 43
0.0
 10
339.0498509989
 20
246.1497923823
 10
339.1078547952
 20
246.2730298856
 10
339.2730356317
 20
246.3775055962
 10
339.5202462235
 20
246.4473140342
 10
339.8118509989
 20
246.4718274977
 10
340.1034557744
 20
246.4473140342
 10
340.3506663662
 20
246.3775055962
 10
340.5158472027
 20
246.2730298856
 10
340.5738509989
 20
246.1497923823
  0
LWPOLYLINE
  5
233
330
1F
100
AcDbEntity
  8
0
  6
Continuous
 62
     7
370
    25
100
AcDbPolyline
 90
        8
 70
   128
 43
0.0
 10
350.6801974519
 20
249.5812655055
 10
351.8166875832
 20
250.5769893468
 10
352.5925298374
 20
251.6327577122
 10
352.9906882657
 20
252.7253880336
 10
353.002420103
 20
253.8308883279
 10
352.6274677413
 20
254.924984013
 10
351.8740643871
 20
255.9836509292
 10
351.3972986021
 20
256.4590006064
  0
ARC
  5
234
330
1F
100
AcDbEntity
  8
0
  6
Continuous
 62
     7
370
    25
100
AcDbCircle
 10
321.7134703014
 20
253.335740117
 30
0.0
 40
3.894390042240143
100
AcDbArc
 50
126.6794782461
 51
225.9310741683
  0
ARC
  5
235
330
1F
100
AcDbEntity
  8
0
  6
Continuous
 62
     7
370
    25
100
AcDbCircle
 10
349.4702781264
 20
254.6313669502
 30
0.0
 40
3.575499275894825
100
AcDbArc
 50
0.9831820111
 51
30.740781771
  0
ARC
  5
236
330
1F
100
AcDbEntity
  8
0
  6
Continuous
 62
     7
370
    25
100
AcDbCircle
 10
321.3142238715
 20
254.6313669502
 30
0.0
 40
3.5754992759065
100
AcDbArc
 50
149.2592182287
 51
179.016817989
  0
LWPOLYLINE
  5
237
330
1F
100
AcDbEntity
  8
0
  6
Continuous
 62
     7
370
    25
100
AcDbPolyline
 90
       17
 70
   128
 43
0.0
 10
324.6911987361
 20
246.724677993
 10
324.7492025324
 20
246.8479154963
 10
324.9143833689
 20
246.9523912069
 10
325.1615939607
 20
247.0221996449
 10
325.4531987361
 20
247.0467131084
 10
325.7448035116
 20
247.0221996449
 10
325.9920141034
 20
246.9523912069
 10
326.1571949399
 20
246.8479154963
 10
326.2151987361
 20
246.724677993
 10
326.1571949399
 20
246.6014404897
 10
325.9920141034
 20
246.4969647791
 10
325.7448035116
 20
246.4271563411
 10
325.4531987361
 20
246.4026428775
 10
325.1615939607
 20
246.4271563411
 10
324.9143833689
 20
246.4969647791
 10
324.7492025324
 20
246.6014404897
 10
324.6911987361
 20
246.724677993
  0
LWPOLYLINE
  5
238
330
1F
100
AcDbEntity
  8
0
  6
Continuous
 62
     7
370
    25
100
AcDbPolyline
 90
       17
 70
   128
 43
0.0
 10
326.9009987361
 20
246.724677993
 10
326.9590025324
 20
246.8479154963
 10
327.1241833689
 20
246.9523912069
 10
327.3713939607
 20
247.0221996449
 10
327.6629987361
 20
247.0467131084
 10
327.9546035116
 20
247.0221996449
 10
328.2018141034
 20
246.9523912069
 10
328.3669949399
 20
246.8479154963
 10
328.4249987361
 20
246.724677993
 10
328.3669949399
 20
246.6014404897
 10
328.2018141034
 20
246.4969647791
 10
327.9546035116
 20
246.4271563411
 10
327.6629987361
 20
246.4026428775
 10
327.3713939607
 20
246.4271563411
 10
327.1241833689
 20
246.4969647791
 10
326.9590025324
 20
246.6014404897
 10
326.9009987361
 20
246.724677993
  0
LWPOLYLINE
  5
239
330
1F
100
AcDbEntity
  8
0
  6
Continuous
 62
     7
370
    25
100
AcDbPolyline
 90
       17
 70
   128
 43
0.0
 10
329.1107987361
 20
246.724677993
 10
329.1688025324
 20
246.8479154963
 10
329.3339833689
 20
246.9523912069
 10
329.5811939607
 20
247.0221996449
 10
329.8727987361
 20
247.0467131084
 10
330.1644035116
 20
247.0221996449
 10
330.4116141034
 20
246.9523912069
 10
330.5767949399
 20
246.8479154963
 10
330.6347987361
 20
246.724677993
 10
330.5767949399
 20
246.6014404897
 10
330.4116141034
 20
246.4969647791
 10
330.1644035116
 20
246.4271563411
 10
329.8727987361
 20
246.4026428775
 10
329.5811939607
 20
246.4271563411
 10
329.3339833689
 20
246.4969647791
 10
329.1688025324
 20
246.6014404897
 10
329.1107987361
 20
246.724677993
  0
LWPOLYLINE
  5
23A
330
1F
100
AcDbEntity
  8
0
  6
Continuous
 62
     7
370
    25
100
AcDbPolyline
 90
       17
 70
   128
 43
0.0
 10
331.3205987361
 20
246.724677993
 10
331.3786025324
 20
246.8479154963
 10
331.5437833689
 20
246.9523912069
 10
331.7909939607
 20
247.0221996449
 10
332.0825987361
 20
247.0467131084
 10
332.3742035116
 20
247.0221996449
 10
332.6214141034
 20
246.9523912069
 10
332.7865949399
 20
246.8479154963
 10
332.8445987361
 20
246.724677993
 10
332.7865949399
 20
246.6014404897
 10
332.6214141034
 20
246.4969647791
 10
332.3742035116
 20
246.4271563411
 10
332.0825987361
 20
246.4026428775
 10
331.7909939607
 20
246.4271563411
 10
331.5437833689
 20
246.4969647791
 10
331.3786025324
 20
246.6014404897
 10
331.3205987361
 20
246.724677993
  0
LWPOLYLINE
  5
23B
330
1F
100
AcDbEntity
  8
0
  6
Continuous
 62
     7
370
    25
100
AcDbPolyline
 90
       17
 70
   128
 43
0.0
 10
333.5303987361
 20
246.724677993
 10
333.5884025324
 20
246.8479154963
 10
333.7535833689
 20
246.9523912069
 10
334.0007939607
 20
247.0221996449
 10
334.2923987361
 20
247.0467131084
 10
334.5840035116
 20
247.0221996449
 10
334.8312141034
 20
246.9523912069
 10
334.9963949399
 20
246.8479154963
 10
335.0543987361
 20
246.724677993
 10
334.9963949399
 20
246.6014404897
 10
334.8312141034
 20
246.4969647791
 10
334.5840035116
 20
246.4271563411
 10
334.2923987361
 20
246.4026428775
 10
334.0007939607
 20
246.4271563411
 10
333.7535833689
 20
246.4969647791
 10
333.5884025324
 20
246.6014404897
 10
333.5303987361
 20
246.724677993
  0
LWPOLYLINE
  5
23C
330
1F
100
AcDbEntity
  8
0
  6
Continuous
 62
     7
370
    25
100
AcDbPolyline
 90
       17
 70
   128
 43
0.0
 10
335.7301032617
 20
246.724677993
 10
335.788107058
 20
246.8479154963
 10
335.9532878945
 20
246.9523912069
 10
336.2004984863
 20
247.0221996449
 10
336.4921032617
 20
247.0467131084
 10
336.7837080372
 20
247.0221996449
 10
337.030918629
 20
246.9523912069
 10
337.1960994655
 20
246.8479154963
 10
337.2541032617
 20
246.724677993
 10
337.1960994655
 20
246.6014404897
 10
337.030918629
 20
246.4969647791
 10
336.7837080372
 20
246.4271563411
 10
336.4921032617
 20
246.4026428775
 10
336.2004984863
 20
246.4271563411
 10
335.9532878945
 20
246.4969647791
 10
335.788107058
 20
246.6014404897
 10
335.7301032617
 20
246.724677993
  0
LWPOLYLINE
  5
23D
330
1F
100
AcDbEntity
  8
0
  6
Continuous
 62
     7
370
    25
100
AcDbPolyline
 90
       17
 70
   128
 43
0.0
 10
337.9399032617
 20
246.724677993
 10
337.997907058
 20
246.8479154963
 10
338.1630878945
 20
246.9523912069
 10
338.4102984863
 20
247.0221996449
 10
338.7019032617
 20
247.0467131084
 10
338.9935080372
 20
247.0221996449
 10
339.240718629
 20
246.9523912069
 10
339.4058994655
 20
246.8479154963
 10
339.4639032617
 20
246.724677993
 10
339.4058994655
 20
246.6014404897
 10
339.240718629
 20
246.4969647791
 10
338.9935080372
 20
246.4271563411
 10
338.7019032617
 20
246.4026428775
 10
338.4102984863
 20
246.4271563411
 10
338.1630878945
 20
246.4969647791
 10
337.997907058
 20
246.6014404897
 10
337.9399032617
 20
246.724677993
  0
LWPOLYLINE
  5
23E
330
1F
100
AcDbEntity
  8
0
  6
Continuous
 62
     7
370
    25
100
AcDbPolyline
 90
       17
 70
   128
 43
0.0
 10
340.1497032617
 20
246.724677993
 10
340.207707058
 20
246.8479154963
 10
340.3728878945
 20
246.9523912069
 10
340.6200984863
 20
247.0221996449
 10
340.9117032617
 20
247.0467131084
 10
341.2033080372
 20
247.0221996449
 10
341.450518629
 20
246.9523912069
 10
341.6156994655
 20
246.8479154963
 10
341.6737032617
 20
246.724677993
 10
341.6156994655
 20
246.6014404897
 10
341.450518629
 20
246.4969647791
 10
341.2033080372
 20
246.4271563411
 10
340.9117032617
 20
246.4026428775
 10
340.6200984863
 20
246.4271563411
 10
340.3728878945
 20
246.4969647791
 10
340.207707058
 20
246.6014404897
 10
340.1497032617
 20
246.724677993
  0
LWPOLYLINE
  5
23F
330
1F
100
AcDbEntity
  8
0
  6
Continuous
 62
     7
370
    25
100
AcDbPolyline
 90
       17
 70
   128
 43
0.0
 10
342.3595032617
 20
246.724677993
 10
342.417507058
 20
246.8479154963
 10
342.5826878945
 20
246.9523912069
 10
342.8298984863
 20
247.0221996449
 10
343.1215032617
 20
247.0467131084
 10
343.4131080372
 20
247.0221996449
 10
343.660318629
 20
246.9523912069
 10
343.8254994655
 20
246.8479154963
 10
343.8835032617
 20
246.724677993
 10
343.8254994655
 20
246.6014404897
 10
343.660318629
 20
246.4969647791
 10
343.4131080372
 20
246.4271563411
 10
343.1215032617
 20
246.4026428775
 10
342.8298984863
 20
246.4271563411
 10
342.5826878945
 20
246.4969647791
 10
342.417507058
 20
246.6014404897
 10
342.3595032617
 20
246.724677993
  0
LWPOLYLINE
  5
240
330
1F
100
AcDbEntity
  8
0
  6
Continuous
 62
     7
370
    25
100
AcDbPolyline
 90
       17
 70
   128
 43
0.0
 10
344.5693032617
 20
246.724677993
 10
344.627307058
 20
246.8479154963
 10
344.7924878945
 20
246.9523912069
 10
345.0396984863
 20
247.0221996449
 10
345.3313032617
 20
247.0467131084
 10
345.6229080372
 20
247.0221996449
 10
345.870118629
 20
246.9523912069
 10
346.0352994655
 20
246.8479154963
 10
346.0933032617
 20
246.724677993
 10
346.0352994655
 20
246.6014404897
 10
345.870118629
 20
246.4969647791
 10
345.6229080372
 20
246.4271563411
 10
345.3313032617
 20
246.4026428775
 10
345.0396984863
 20
246.4271563411
 10
344.7924878945
 20
246.4969647791
 10
344.627307058
 20
246.6014404897
 10
344.5693032617
 20
246.724677993
  0
LWPOLYLINE
  5
241
330
1F
100
AcDbEntity
  8
0
  6
Continuous
 62
     7
370
    25
100
AcDbPolyline
 90
       17
 70
   128
 43
0.0
 10
325.7910509989
 20
245.9195902044
 10
325.8490547952
 20
246.0428277077
 10
326.0142356317
 20
246.1473034183
 10
326.2614462235
 20
246.2171118563
 10
326.5530509989
 20
246.2416253198
 10
326.8446557744
 20
246.2171118563
 10
327.0918663662
 20
246.1473034183
 10
327.2570472027
 20
246.0428277077
 10
327.3150509989
 20
245.9195902044
 10
327.2570472027
 20
245.796352701
 10
327.0918663662
 20
245.6918769905
 10
326.8446557744
 20
245.6220685525
 10
326.5530509989
 20
245.5975550889
 10
326.2614462235
 20
245.6220685525
 10
326.0142356317
 20
245.6918769905
 10
325.8490547952
 20
245.796352701
 10
325.7910509989
 20
245.9195902044
  0
LWPOLYLINE
  5
242
330
1F
100
AcDbEntity
  8
0
  6
Continuous
 62
     7
370
    25
100
AcDbPolyline
 90
       17
 70
   128
 43
0.0
 10
328.0008509989
 20
245.9195902044
 10
328.0588547952
 20
246.0428277077
 10
328.2240356317
 20
246.1473034183
 10
328.4712462235
 20
246.2171118563
 10
328.7628509989
 20
246.2416253198
 10
329.0544557744
 20
246.2171118563
 10
329.3016663662
 20
246.1473034183
 10
329.4668472027
 20
246.0428277077
 10
329.5248509989
 20
245.9195902044
 10
329.4668472027
 20
245.796352701
 10
329.3016663662
 20
245.6918769905
 10
329.0544557744
 20
245.6220685525
 10
328.7628509989
 20
245.5975550889
 10
328.4712462235
 20
245.6220685525
 10
328.2240356317
 20
245.6918769905
 10
328.0588547952
 20
245.796352701
 10
328.0008509989
 20
245.9195902044
  0
LWPOLYLINE
  5
243
330
1F
100
AcDbEntity
  8
0
  6
Continuous
 62
     7
370
    25
100
AcDbPolyline
 90
       17
 70
   128
 43
0.0
 10
330.2106509989
 20
245.9195902044
 10
330.2686547952
 20
246.0428277077
 10
330.4338356317
 20
246.1473034183
 10
330.6810462235
 20
246.2171118563
 10
330.9726509989
 20
246.2416253198
 10
331.2642557744
 20
246.2171118563
 10
331.5114663662
 20
246.1473034183
 10
331.6766472027
 20
246.0428277077
 10
331.7346509989
 20
245.9195902044
 10
331.6766472027
 20
245.796352701
 10
331.5114663662
 20
245.6918769905
 10
331.2642557744
 20
245.6220685525
 10
330.9726509989
 20
245.5975550889
 10
330.6810462235
 20
245.6220685525
 10
330.4338356317
 20
245.6918769905
 10
330.2686547952
 20
245.796352701
 10
330.2106509989
 20
245.9195902044
  0
LWPOLYLINE
  5
244
330
1F
100
AcDbEntity
  8
0
  6
Continuous
 62
     7
370
    25
100
AcDbPolyline
 90
       17
 70
   128
 43
0.0
 10
332.4204509989
 20
245.9195902044
 10
332.4784547952
 20
246.0428277077
 10
332.6436356317
 20
246.1473034183
 10
332.8908462235
 20
246.2171118563
 10
333.1824509989
 20
246.2416253198
 10
333.4740557744
 20
246.2171118563
 10
333.7212663662
 20
246.1473034183
 10
333.8864472027
 20
246.0428277077
 10
333.9444509989
 20
245.9195902044
 10
333.8864472027
 20
245.796352701
 10
333.7212663662
 20
245.6918769905
 10
333.4740557744
 20
245.6220685525
 10
333.1824509989
 20
245.5975550889
 10
332.8908462235
 20
245.6220685525
 10
332.6436356317
 20
245.6918769905
 10
332.4784547952
 20
245.796352701
 10
332.4204509989
 20
245.9195902044
  0
LWPOLYLINE
  5
245
330
1F
100
AcDbEntity
  8
0
  6
Continuous
 62
     7
370
    25
100
AcDbPolyline
 90
       17
 70
   128
 43
0.0
 10
334.6302509989
 20
245.9195902044
 10
334.6882547952
 20
246.0428277077
 10
334.8534356317
 20
246.1473034183
 10
335.1006462235
 20
246.2171118563
 10
335.3922509989
 20
246.2416253198
 10
335.6838557744
 20
246.2171118563
 10
335.9310663662
 20
246.1473034183
 10
336.0962472027
 20
246.0428277077
 10
336.1542509989
 20
245.9195902044
 10
336.0962472027
 20
245.796352701
 10
335.9310663662
 20
245.6918769905
 10
335.6838557744
 20
245.6220685525
 10
335.3922509989
 20
245.5975550889
 10
335.1006462235
 20
245.6220685525
 10
334.8534356317
 20
245.6918769905
 10
334.6882547952
 20
245.796352701
 10
334.6302509989
 20
245.9195902044
  0
LWPOLYLINE
  5
246
330
1F
100
AcDbEntity
  8
0
  6
Continuous
 62
     7
370
    25
100
AcDbPolyline
 90
       17
 70
   128
 43
0.0
 10
336.8400509989
 20
245.9195902044
 10
336.8980547952
 20
246.0428277077
 10
337.0632356317
 20
246.1473034183
 10
337.3104462235
 20
246.2171118563
 10
337.6020509989
 20
246.2416253198
 10
337.8936557744
 20
246.2171118563
 10
338.1408663662
 20
246.1473034183
 10
338.3060472027
 20
246.0428277077
 10
338.3640509989
 20
245.9195902044
 10
338.3060472027
 20
245.7963527011
 10
338.1408663662
 20
245.6918769905
 10
337.8936557744
 20
245.6220685525
 10
337.6020509989
 20
245.5975550889
 10
337.3104462235
 20
245.6220685525
 10
337.0632356317
 20
245.6918769905
 10
336.8980547952
 20
245.7963527011
 10
336.8400509989
 20
245.9195902044
  0
LWPOLYLINE
  5
247
330
1F
100
AcDbEntity
  8
0
  6
Continuous
 62
     7
370
    25
100
AcDbPolyline
 90
       17
 70
   128
 43
0.0
 10
339.0498509989
 20
245.9195902044
 10
339.1078547952
 20
246.0428277077
 10
339.2730356317
 20
246.1473034183
 10
339.5202462235
 20
246.2171118563
 10
339.8118509989
 20
246.2416253198
 10
340.1034557744
 20
246.2171118563
 10
340.3506663662
 20
246.1473034183
 10
340.5158472027
 20
246.0428277077
 10
340.5738509989
 20
245.9195902044
 10
340.5158472027
 20
245.7963527011
 10
340.3506663662
 20
245.6918769905
 10
340.1034557744
 20
245.6220685525
 10
339.8118509989
 20
245.5975550889
 10
339.5202462235
 20
245.6220685525
 10
339.2730356317
 20
245.6918769905
 10
339.1078547952
 20
245.7963527011
 10
339.0498509989
 20
245.9195902044
  0
LWPOLYLINE
  5
248
330
1F
100
AcDbEntity
  8
0
  6
Continuous
 62
     7
370
    25
100
AcDbPolyline
 90
       17
 70
   128
 43
0.0
 10
341.2596509989
 20
245.9195902044
 10
341.3176547952
 20
246.0428277077
 10
341.4828356317
 20
246.1473034183
 10
341.7300462235
 20
246.2171118563
 10
342.0216509989
 20
246.2416253198
 10
342.3132557744
 20
246.2171118563
 10
342.5604663662
 20
246.1473034183
 10
342.7256472027
 20
246.0428277077
 10
342.7836509989
 20
245.9195902044
 10
342.7256472027
 20
245.7963527011
 10
342.5604663662
 20
245.6918769905
 10
342.3132557744
 20
245.6220685525
 10
342.0216509989
 20
245.5975550889
 10
341.7300462235
 20
245.6220685525
 10
341.4828356317
 20
245.6918769905
 10
341.3176547952
 20
245.7963527011
 10
341.2596509989
 20
245.9195902044
  0
LWPOLYLINE
  5
249
330
1F
100
AcDbEntity
  8
0
  6
Continuous
 62
     7
370
    25
100
AcDbPolyline
 90
       17
 70
   128
 43
0.0
 10
343.4694509989
 20
245.9195902044
 10
343.5274547952
 20
246.0428277077
 10
343.6926356317
 20
246.1473034183
 10
343.9398462235
 20
246.2171118563
 10
344.2314509989
 20
246.2416253198
 10
344.5230557744
 20
246.2171118563
 10
344.7702663662
 20
246.1473034183
 10
344.9354472027
 20
246.0428277077
 10
344.9934509989
 20
245.9195902044
 10
344.9354472027
 20
245.7963527011
 10
344.7702663662
 20
245.6918769905
 10
344.5230557744
 20
245.6220685525
 10
344.2314509989
 20
245.5975550889
 10
343.9398462235
 20
245.6220685525
 10
343.6926356317
 20
245.6918769905
 10
343.5274547952
 20
245.7963527011
 10
343.4694509989
 20
245.9195902044
  0
LWPOLYLINE
  5
24A
330
1F
100
AcDbEntity
  8
0
  6
Continuous
 62
     7
370
    25
100
AcDbPolyline
 90
       17
 70
   128
 43
0.0
 10
326.7836811614
 20
245.028626385
 10
326.8416849577
 20
245.1518638883
 10
327.0068657942
 20
245.2563395989
 10
327.254076386
 20
245.3261480369
 10
327.5456811614
 20
245.3506615004
 10
327.8372859369
 20
245.3261480369
 10
328.0844965287
 20
245.2563395989
 10
328.2496773652
 20
245.1518638883
 10
328.3076811614
 20
245.028626385
 10
328.2496773652
 20
244.9053888816
 10
328.0844965287
 20
244.800913171
 10
327.8372859369
 20
244.731104733
 10
327.5456811614
 20
244.7065912695
 10
327.254076386
 20
244.731104733
 10
327.0068657942
 20
244.800913171
 10
326.8416849577
 20
244.9053888816
 10
326.7836811614
 20
245.028626385
  0
LWPOLYLINE
  5
24B
330
1F
100
AcDbEntity
  8
0
  6
Continuous
 62
     7
370
    25
100
AcDbPolyline
 90
       17
 70
   128
 43
0.0
 10
328.9934811614
 20
245.028626385
 10
329.0514849577
 20
245.1518638883
 10
329.2166657942
 20
245.2563395989
 10
329.463876386
 20
245.3261480369
 10
329.7554811614
 20
245.3506615004
 10
330.0470859369
 20
245.3261480369
 10
330.2942965287
 20
245.2563395989
 10
330.4594773652
 20
245.1518638883
 10
330.5174811614
 20
245.028626385
 10
330.4594773652
 20
244.9053888816
 10
330.2942965287
 20
244.800913171
 10
330.0470859369
 20
244.731104733
 10
329.7554811614
 20
244.7065912695
 10
329.463876386
 20
244.731104733
 10
329.2166657942
 20
244.800913171
 10
329.0514849577
 20
244.9053888816
 10
328.9934811614
 20
245.028626385
  0
LWPOLYLINE
  5
24C
330
1F
100
AcDbEntity
  8
0
  6
Continuous
 62
     7
370
    25
100
AcDbPolyline
 90
       17
 70
   128
 43
0.0
 10
331.2032811614
 20
245.028626385
 10
331.2612849577
 20
245.1518638883
 10
331.4264657942
 20
245.2563395989
 10
331.673676386
 20
245.3261480369
 10
331.9652811614
 20
245.3506615004
 10
332.2568859369
 20
245.3261480369
 10
332.5040965287
 20
245.2563395989
 10
332.6692773652
 20
245.1518638883
 10
332.7272811614
 20
245.028626385
 10
332.6692773652
 20
244.9053888816
 10
332.5040965287
 20
244.800913171
 10
332.2568859369
 20
244.731104733
 10
331.9652811614
 20
244.7065912695
 10
331.673676386
 20
244.731104733
 10
331.4264657942
 20
244.800913171
 10
331.2612849577
 20
244.9053888816
 10
331.2032811614
 20
245.028626385
  0
LWPOLYLINE
  5
24D
330
1F
100
AcDbEntity
  8
0
  6
Continuous
 62
     7
370
    25
100
AcDbPolyline
 90
       17
 70
   128
 43
0.0
 10
333.4130811614
 20
245.028626385
 10
333.4710849577
 20
245.1518638883
 10
333.6362657942
 20
245.2563395989
 10
333.883476386
 20
245.3261480369
 10
334.1750811614
 20
245.3506615004
 10
334.4666859369
 20
245.3261480369
 10
334.7138965287
 20
245.2563395989
 10
334.8790773652
 20
245.1518638883
 10
334.9370811614
 20
245.028626385
 10
334.8790773652
 20
244.9053888816
 10
334.7138965287
 20
244.800913171
 10
334.4666859369
 20
244.7311047331
 10
334.1750811614
 20
244.7065912695
 10
333.883476386
 20
244.7311047331
 10
333.6362657942
 20
244.800913171
 10
333.4710849577
 20
244.9053888816
 10
333.4130811614
 20
245.028626385
  0
LWPOLYLINE
  5
24E
330
1F
100
AcDbEntity
  8
0
  6
Continuous
 62
     7
370
    25
100
AcDbPolyline
 90
       17
 70
   128
 43
0.0
 10
335.8474208365
 20
245.028626385
 10
335.9054246327
 20
245.1518638883
 10
336.0706054692
 20
245.2563395989
 10
336.317816061
 20
245.3261480369
 10
336.6094208365
 20
245.3506615004
 10
336.9010256119
 20
245.3261480369
 10
337.1482362037
 20
245.2563395989
 10
337.3134170402
 20
245.1518638883
 10
337.3714208365
 20
245.028626385
 10
337.3134170402
 20
244.9053888816
 10
337.1482362037
 20
244.8009131711
 10
336.9010256119
 20
244.7311047331
 10
336.6094208365
 20
244.7065912695
 10
336.317816061
 20
244.7311047331
 10
336.0706054692
 20
244.8009131711
 10
335.9054246327
 20
244.9053888816
 10
335.8474208365
 20
245.028626385
  0
LWPOLYLINE
  5
24F
330
1F
100
AcDbEntity
  8
0
  6
Continuous
 62
     7
370
    25
100
AcDbPolyline
 90
       17
 70
   128
 43
0.0
 10
338.0572208365
 20
245.028626385
 10
338.1152246327
 20
245.1518638883
 10
338.2804054692
 20
245.2563395989
 10
338.527616061
 20
245.3261480369
 10
338.8192208365
 20
245.3506615004
 10
339.1108256119
 20
245.3261480369
 10
339.3580362037
 20
245.2563395989
 10
339.5232170402
 20
245.1518638883
 10
339.5812208365
 20
245.028626385
 10
339.5232170402
 20
244.9053888816
 10
339.3580362037
 20
244.8009131711
 10
339.1108256119
 20
244.7311047331
 10
338.8192208365
 20
244.7065912695
 10
338.527616061
 20
244.7311047331
 10
338.2804054692
 20
244.8009131711
 10
338.1152246327
 20
244.9053888816
 10
338.0572208365
 20
245.028626385
  0
LWPOLYLINE
  5
250
330
1F
100
AcDbEntity
  8
0
  6
Continuous
 62
     7
370
    25
100
AcDbPolyline
 90
       17
 70
   128
 43
0.0
 10
340.2670208365
 20
245.028626385
 10
340.3250246327
 20
245.1518638883
 10
340.4902054692
 20
245.2563395989
 10
340.737416061
 20
245.3261480369
 10
341.0290208365
 20
245.3506615004
 10
341.3206256119
 20
245.3261480369
 10
341.5678362037
 20
245.2563395989
 10
341.7330170402
 20
245.1518638883
 10
341.7910208365
 20
245.028626385
 10
341.7330170402
 20
244.9053888816
 10
341.5678362037
 20
244.8009131711
 10
341.3206256119
 20
244.7311047331
 10
341.0290208365
 20
244.7065912695
 10
340.737416061
 20
244.7311047331
 10
340.4902054692
 20
244.8009131711
 10
340.3250246327
 20
244.9053888816
 10
340.2670208365
 20
245.028626385
  0
LWPOLYLINE
  5
251
330
1F
100
AcDbEntity
  8
0
  6
Continuous
 62
     7
370
    25
100
AcDbPolyline
 90
       17
 70
   128
 43
0.0
 10
342.4768208365
 20
245.028626385
 10
342.5348246327
 20
245.1518638883
 10
342.7000054692
 20
245.2563395989
 10
342.947216061
 20
245.3261480369
 10
343.2388208365
 20
245.3506615004
 10
343.5304256119
 20
245.3261480369
 10
343.7776362037
 20
245.2563395989
 10
343.9428170402
 20
245.1518638883
 10
344.0008208365
 20
245.028626385
 10
343.9428170402
 20
244.9053888816
 10
343.7776362037
 20
244.8009131711
 10
343.5304256119
 20
244.7311047331
 10
343.2388208365
 20
244.7065912695
 10
342.947216061
 20
244.7311047331
 10
342.7000054692
 20
244.8009131711
 10
342.5348246327
 20
244.9053888816
 10
342.4768208365
 20
245.028626385
  0
LINE
  5
252
330
1F
100
AcDbEntity
  8
0
  6
Continuous
 62
     7
370
    25
100
AcDbLine
 10
328.7931374221
 20
243.6808564972
 30
0.0
 11
328.7931374221
 21
243.645159764
 31
0.0
  0
LINE
  5
253
330
1F
100
AcDbEntity
  8
0
  6
Continuous
 62
     7
370
    25
100
AcDbLine
 10
341.9913645758
 20
243.6808564972
 30
0.0
 11
341.9913645758
 21
243.6451597641
 31
0.0
  0
SPLINE
  5
254
330
1F
100
AcDbEntity
  8
0
  6
Continuous
 62
     7
370
    25
100
AcDbSpline
210
0.0
220
0.0
230
1.0
 70
     8
 71
     3
 72
     9
 73
     5
 74
     0
 42
0.000000001
 43
0.00000001
 40
0.0
 40
0.0
 40
0.0
 40
0.0
 40
0.6039699975834031
 40
1.0
 40
1.0
 40
1.0
 40
1.0
 10
186.5884738789727
 20
255.4705412132599
 30
0.0
 10
186.4123712291566
 20
255.6763168821321
 30
0.0
 10
186.1207960672765
 20
256.0170219994319
 30
0.0
 10
185.7055217099524
 20
256.3336187818958
 30
0.0
 10
185.5410606052177
 20
256.4590006064201
 30
0.0
  0
SPLINE
  5
255
330
1F
100
AcDbEntity
  8
0
  6
Continuous
 62
     7
370
    25
100
AcDbSpline
210
0.0
220
0.0
230
1.0
 70
     8
 71
     3
 72
     9
 73
     5
 74
     0
 42
0.000000001
 43
0.00000001
 40
0.0
 40
0.0
 40
0.0
 40
0.0
 40
0.5609459988201202
 40
0.9999999999999999
 40
0.9999999999999999
 40
0.9999999999999999
 40
0.9999999999999999
 10
155.2587575006325
 20
256.4590006064201
 30
0.0
 10
155.0142970996413
 20
256.2741246041391
 30
0.0
 10
154.5784968595018
 20
255.9445456381249
 30
0.0
 10
154.290524959276
 20
255.5874144827978
 30
0.0
 10
154.1640897442545
 20
255.4306146201054
 30
0.0
  0
LWPOLYLINE
  5
256
330
1F
100
AcDbEntity
  8
0
  6
Continuous
 62
     7
370
    25
100
AcDbPolyline
 90
       10
 70
   128
 43
0.0
 10
159.6911987359
 20
246.9548801709
 10
159.7492025322
 20
247.0781176742
 10
159.9143833687
 20
247.1825933848
 10
160.1615939605
 20
247.2524018228
 10
160.4531987359
 20
247.2769152863
 10
160.7448035114
 20
247.2524018228
 10
160.9920141032
 20
247.1825933848
 10
161.1571949397
 20
247.0781176742
 10
161.2151987359
 20
246.9548801709
 10
161.2151987359
 20
246.9548801709
  0
LWPOLYLINE
  5
257
330
1F
100
AcDbEntity
  8
0
  6
Continuous
 62
     7
370
    25
100
AcDbPolyline
 90
       10
 70
   128
 43
0.0
 10
161.9009987359
 20
246.9548801709
 10
161.9590025322
 20
247.0781176742
 10
162.1241833687
 20
247.1825933848
 10
162.3713939605
 20
247.2524018228
 10
162.6629987359
 20
247.2769152863
 10
162.9546035114
 20
247.2524018228
 10
163.2018141032
 20
247.1825933848
 10
163.3669949397
 20
247.0781176742
 10
163.4249987359
 20
246.9548801709
 10
163.4249987359
 20
246.9548801709
  0
LWPOLYLINE
  5
258
330
1F
100
AcDbEntity
  8
0
  6
Continuous
 62
     7
370
    25
100
AcDbPolyline
 90
       10
 70
   128
 43
0.0
 10
160.7910509988
 20
246.1497923823
 10
160.849054795
 20
246.2730298856
 10
161.0142356315
 20
246.3775055962
 10
161.2614462233
 20
246.4473140342
 10
161.5530509988
 20
246.4718274977
 10
161.8446557742
 20
246.4473140342
 10
162.091866366
 20
246.3775055962
 10
162.2570472025
 20
246.2730298856
 10
162.3150509988
 20
246.1497923823
 10
162.3150509988
 20
246.1497923823
  0
LWPOLYLINE
  5
259
330
1F
100
AcDbEntity
  8
0
  6
Continuous
 62
     7
370
    25
100
AcDbPolyline
 90
       10
 70
   128
 43
0.0
 10
161.7836811612
 20
245.2588285629
 10
161.8416849575
 20
245.3820660662
 10
162.006865794
 20
245.4865417768
 10
162.2540763858
 20
245.5563502148
 10
162.5456811612
 20
245.5808636783
 10
162.8372859367
 20
245.5563502148
 10
163.0844965285
 20
245.4865417768
 10
163.249677365
 20
245.3820660662
 10
163.3076811612
 20
245.2588285629
 10
163.3076811612
 20
245.2588285629
  0
LWPOLYLINE
  5
25A
330
1F
100
AcDbEntity
  8
0
  6
Continuous
 62
     7
370
    25
100
AcDbPolyline
 90
       10
 70
   128
 43
0.0
 10
163.0008509988
 20
246.1497923823
 10
163.058854795
 20
246.2730298856
 10
163.2240356315
 20
246.3775055962
 10
163.4712462233
 20
246.4473140342
 10
163.7628509988
 20
246.4718274977
 10
164.0544557742
 20
246.4473140342
 10
164.301666366
 20
246.3775055962
 10
164.4668472025
 20
246.2730298856
 10
164.5248509988
 20
246.1497923823
 10
164.5248509988
 20
246.1497923823
  0
LWPOLYLINE
  5
25B
330
1F
100
AcDbEntity
  8
0
  6
Continuous
 62
     7
370
    25
100
AcDbPolyline
 90
       10
 70
   128
 43
0.0
 10
163.9934811612
 20
245.2588285629
 10
164.0514849575
 20
245.3820660662
 10
164.216665794
 20
245.4865417768
 10
164.4638763858
 20
245.5563502148
 10
164.7554811612
 20
245.5808636783
 10
165.0470859367
 20
245.5563502148
 10
165.2942965285
 20
245.4865417768
 10
165.459477365
 20
245.3820660662
 10
165.5174811612
 20
245.2588285629
 10
165.5174811612
 20
245.2588285629
  0
LWPOLYLINE
  5
25C
330
1F
100
AcDbEntity
  8
0
  6
Continuous
 62
     7
370
    25
100
AcDbPolyline
 90
       10
 70
   128
 43
0.0
 10
166.2032811612
 20
245.2588285629
 10
166.2612849575
 20
245.3820660662
 10
166.426465794
 20
245.4865417768
 10
166.6736763858
 20
245.5563502148
 10
166.9652811612
 20
245.5808636783
 10
167.2568859367
 20
245.5563502148
 10
167.5040965285
 20
245.4865417768
 10
167.669277365
 20
245.3820660662
 10
167.7272811612
 20
245.2588285629
 10
167.7272811612
 20
245.2588285629
  0
LWPOLYLINE
  5
25D
330
1F
100
AcDbEntity
  8
0
  6
Continuous
 62
     7
370
    25
100
AcDbPolyline
 90
       10
 70
   128
 43
0.0
 10
168.4130811612
 20
245.2588285629
 10
168.4710849575
 20
245.3820660662
 10
168.636265794
 20
245.4865417768
 10
168.8834763858
 20
245.5563502148
 10
169.1750811612
 20
245.5808636783
 10
169.4666859367
 20
245.5563502148
 10
169.7138965285
 20
245.4865417768
 10
169.879077365
 20
245.3820660662
 10
169.9370811612
 20
245.2588285629
 10
169.9370811612
 20
245.2588285629
  0
LWPOLYLINE
  5
25E
330
1F
100
AcDbEntity
  8
0
  6
Continuous
 62
     7
370
    25
100
AcDbPolyline
 90
       10
 70
   128
 43
0.0
 10
170.8474208363
 20
245.2588285629
 10
170.9054246325
 20
245.3820660662
 10
171.070605469
 20
245.4865417768
 10
171.3178160608
 20
245.5563502148
 10
171.6094208363
 20
245.5808636783
 10
171.9010256117
 20
245.5563502148
 10
172.1482362035
 20
245.4865417768
 10
172.31341704
 20
245.3820660662
 10
172.3714208363
 20
245.2588285629
 10
172.3714208363
 20
245.2588285629
  0
LWPOLYLINE
  5
25F
330
1F
100
AcDbEntity
  8
0
  6
Continuous
 62
     7
370
    25
100
AcDbPolyline
 90
       10
 70
   128
 43
0.0
 10
173.0572208363
 20
245.2588285629
 10
173.1152246325
 20
245.3820660662
 10
173.280405469
 20
245.4865417768
 10
173.5276160608
 20
245.5563502148
 10
173.8192208363
 20
245.5808636783
 10
174.1108256117
 20
245.5563502148
 10
174.3580362035
 20
245.4865417768
 10
174.52321704
 20
245.3820660662
 10
174.5812208363
 20
245.2588285629
 10
174.5812208363
 20
245.2588285629
  0
LWPOLYLINE
  5
260
330
1F
100
AcDbEntity
  8
0
  6
Continuous
 62
     7
370
    25
100
AcDbPolyline
 90
       10
 70
   128
 43
0.0
 10
175.2670208363
 20
245.2588285629
 10
175.3250246325
 20
245.3820660662
 10
175.490205469
 20
245.4865417768
 10
175.7374160608
 20
245.5563502148
 10
176.0290208363
 20
245.5808636783
 10
176.3206256117
 20
245.5563502148
 10
176.5678362035
 20
245.4865417768
 10
176.73301704
 20
245.3820660662
 10
176.7910208363
 20
245.2588285629
 10
176.7910208363
 20
245.2588285629
  0
LWPOLYLINE
  5
261
330
1F
100
AcDbEntity
  8
0
  6
Continuous
 62
     7
370
    25
100
AcDbPolyline
 90
       10
 70
   128
 43
0.0
 10
177.4768208363
 20
245.2588285629
 10
177.5348246325
 20
245.3820660662
 10
177.700005469
 20
245.4865417768
 10
177.9472160608
 20
245.5563502148
 10
178.2388208363
 20
245.5808636783
 10
178.5304256117
 20
245.5563502148
 10
178.7776362035
 20
245.4865417768
 10
178.94281704
 20
245.3820660662
 10
179.0008208363
 20
245.2588285629
 10
179.0008208363
 20
245.2588285629
  0
LWPOLYLINE
  5
262
330
1F
100
AcDbEntity
  8
0
  6
Continuous
 62
     7
370
    25
100
AcDbPolyline
 90
       10
 70
   128
 43
0.0
 10
176.2596509988
 20
246.1497923823
 10
176.317654795
 20
246.2730298856
 10
176.4828356315
 20
246.3775055962
 10
176.7300462233
 20
246.4473140342
 10
177.0216509988
 20
246.4718274977
 10
177.3132557742
 20
246.4473140342
 10
177.560466366
 20
246.3775055962
 10
177.7256472025
 20
246.2730298856
 10
177.7836509988
 20
246.1497923823
 10
177.7836509988
 20
246.1497923823
  0
LWPOLYLINE
  5
263
330
1F
100
AcDbEntity
  8
0
  6
Continuous
 62
     7
370
    25
100
AcDbPolyline
 90
       10
 70
   128
 43
0.0
 10
178.4694509988
 20
246.1497923823
 10
178.527454795
 20
246.2730298856
 10
178.6926356315
 20
246.3775055962
 10
178.9398462233
 20
246.4473140342
 10
179.2314509988
 20
246.4718274977
 10
179.5230557742
 20
246.4473140342
 10
179.770266366
 20
246.3775055962
 10
179.9354472025
 20
246.2730298856
 10
179.9934509988
 20
246.1497923823
 10
179.9934509988
 20
246.1497923823
  0
LWPOLYLINE
  5
264
330
1F
100
AcDbEntity
  8
0
  6
Continuous
 62
     7
370
    25
100
AcDbPolyline
 90
       10
 70
   128
 43
0.0
 10
179.5693032616
 20
246.9548801709
 10
179.6273070578
 20
247.0781176742
 10
179.7924878943
 20
247.1825933848
 10
180.0396984861
 20
247.2524018228
 10
180.3313032616
 20
247.2769152863
 10
180.622908037
 20
247.2524018228
 10
180.8701186288
 20
247.1825933848
 10
181.0352994653
 20
247.0781176742
 10
181.0933032616
 20
246.9548801709
 10
181.0933032616
 20
246.9548801709
  0
LWPOLYLINE
  5
265
330
1F
100
AcDbEntity
  8
0
  6
Continuous
 62
     7
370
    25
100
AcDbPolyline
 90
       10
 70
   128
 43
0.0
 10
177.3595032616
 20
246.9548801709
 10
177.4175070578
 20
247.0781176742
 10
177.5826878943
 20
247.1825933848
 10
177.8298984861
 20
247.2524018228
 10
178.1215032616
 20
247.2769152863
 10
178.413108037
 20
247.2524018228
 10
178.6603186288
 20
247.1825933848
 10
178.8254994653
 20
247.0781176742
 10
178.8835032616
 20
246.9548801709
 10
178.8835032616
 20
246.9548801709
  0
LWPOLYLINE
  5
266
330
1F
100
AcDbEntity
  8
0
  6
Continuous
 62
     7
370
    25
100
AcDbPolyline
 90
       10
 70
   128
 43
0.0
 10
175.1497032616
 20
246.9548801709
 10
175.2077070578
 20
247.0781176742
 10
175.3728878943
 20
247.1825933848
 10
175.6200984861
 20
247.2524018228
 10
175.9117032616
 20
247.2769152863
 10
176.203308037
 20
247.2524018228
 10
176.4505186288
 20
247.1825933848
 10
176.6156994653
 20
247.0781176742
 10
176.6737032616
 20
246.9548801709
 10
176.6737032616
 20
246.9548801709
  0
LWPOLYLINE
  5
267
330
1F
100
AcDbEntity
  8
0
  6
Continuous
 62
     7
370
    25
100
AcDbPolyline
 90
       10
 70
   128
 43
0.0
 10
172.9399032616
 20
246.9548801709
 10
172.9979070578
 20
247.0781176742
 10
173.1630878943
 20
247.1825933848
 10
173.4102984861
 20
247.2524018228
 10
173.7019032616
 20
247.2769152863
 10
173.993508037
 20
247.2524018228
 10
174.2407186288
 20
247.1825933848
 10
174.4058994653
 20
247.0781176742
 10
174.4639032616
 20
246.9548801709
 10
174.4639032616
 20
246.9548801709
  0
LWPOLYLINE
  5
268
330
1F
100
AcDbEntity
  8
0
  6
Continuous
 62
     7
370
    25
100
AcDbPolyline
 90
       10
 70
   128
 43
0.0
 10
170.7301032616
 20
246.9548801709
 10
170.7881070578
 20
247.0781176742
 10
170.9532878943
 20
247.1825933848
 10
171.2004984861
 20
247.2524018228
 10
171.4921032616
 20
247.2769152863
 10
171.783708037
 20
247.2524018228
 10
172.0309186288
 20
247.1825933848
 10
172.1960994653
 20
247.0781176742
 10
172.2541032616
 20
246.9548801709
 10
172.2541032616
 20
246.9548801709
  0
LWPOLYLINE
  5
269
330
1F
100
AcDbEntity
  8
0
  6
Continuous
 62
     7
370
    25
100
AcDbPolyline
 90
       10
 70
   128
 43
0.0
 10
168.5303987359
 20
246.9548801709
 10
168.5884025322
 20
247.0781176742
 10
168.7535833687
 20
247.1825933848
 10
169.0007939605
 20
247.2524018228
 10
169.2923987359
 20
247.2769152863
 10
169.5840035114
 20
247.2524018228
 10
169.8312141032
 20
247.1825933848
 10
169.9963949397
 20
247.0781176742
 10
170.0543987359
 20
246.9548801709
 10
170.0543987359
 20
246.9548801709
  0
LWPOLYLINE
  5
26A
330
1F
100
AcDbEntity
  8
0
  6
Continuous
 62
     7
370
    25
100
AcDbPolyline
 90
       10
 70
   128
 43
0.0
 10
166.3205987359
 20
246.9548801709
 10
166.3786025322
 20
247.0781176742
 10
166.5437833687
 20
247.1825933848
 10
166.7909939605
 20
247.2524018228
 10
167.0825987359
 20
247.2769152863
 10
167.3742035114
 20
247.2524018228
 10
167.6214141032
 20
247.1825933848
 10
167.7865949397
 20
247.0781176742
 10
167.8445987359
 20
246.9548801709
 10
167.8445987359
 20
246.9548801709
  0
LWPOLYLINE
  5
26B
330
1F
100
AcDbEntity
  8
0
  6
Continuous
 62
     7
370
    25
100
AcDbPolyline
 90
       10
 70
   128
 43
0.0
 10
164.1107987359
 20
246.9548801709
 10
164.1688025322
 20
247.0781176742
 10
164.3339833687
 20
247.1825933848
 10
164.5811939605
 20
247.2524018228
 10
164.8727987359
 20
247.2769152863
 10
165.1644035114
 20
247.2524018228
 10
165.4116141032
 20
247.1825933848
 10
165.5767949397
 20
247.0781176742
 10
165.6347987359
 20
246.9548801709
 10
165.6347987359
 20
246.9548801709
  0
LWPOLYLINE
  5
26C
330
1F
100
AcDbEntity
  8
0
  6
Continuous
 62
     7
370
    25
100
AcDbPolyline
 90
       10
 70
   128
 43
0.0
 10
165.2106509988
 20
246.1497923823
 10
165.268654795
 20
246.2730298856
 10
165.4338356315
 20
246.3775055962
 10
165.6810462233
 20
246.4473140342
 10
165.9726509988
 20
246.4718274977
 10
166.2642557742
 20
246.4473140342
 10
166.511466366
 20
246.3775055962
 10
166.6766472025
 20
246.2730298856
 10
166.7346509988
 20
246.1497923823
 10
166.7346509988
 20
246.1497923823
  0
LWPOLYLINE
  5
26D
330
1F
100
AcDbEntity
  8
0
  6
Continuous
 62
     7
370
    25
100
AcDbPolyline
 90
       10
 70
   128
 43
0.0
 10
167.4204509988
 20
246.1497923823
 10
167.478454795
 20
246.2730298856
 10
167.6436356315
 20
246.3775055962
 10
167.8908462233
 20
246.4473140342
 10
168.1824509988
 20
246.4718274977
 10
168.4740557742
 20
246.4473140342
 10
168.721266366
 20
246.3775055962
 10
168.8864472025
 20
246.2730298856
 10
168.9444509988
 20
246.1497923823
 10
168.9444509988
 20
246.1497923823
  0
LWPOLYLINE
  5
26E
330
1F
100
AcDbEntity
  8
0
  6
Continuous
 62
     7
370
    25
100
AcDbPolyline
 90
       10
 70
   128
 43
0.0
 10
169.6302509988
 20
246.1497923823
 10
169.688254795
 20
246.2730298856
 10
169.8534356315
 20
246.3775055962
 10
170.1006462233
 20
246.4473140342
 10
170.3922509988
 20
246.4718274977
 10
170.6838557742
 20
246.4473140342
 10
170.931066366
 20
246.3775055962
 10
171.0962472025
 20
246.2730298856
 10
171.1542509988
 20
246.1497923823
 10
171.1542509988
 20
246.1497923823
  0
LWPOLYLINE
  5
26F
330
1F
100
AcDbEntity
  8
0
  6
Continuous
 62
     7
370
    25
100
AcDbPolyline
 90
       10
 70
   128
 43
0.0
 10
171.8400509988
 20
246.1497923823
 10
171.898054795
 20
246.2730298856
 10
172.0632356315
 20
246.3775055962
 10
172.3104462233
 20
246.4473140342
 10
172.6020509988
 20
246.4718274977
 10
172.8936557742
 20
246.4473140342
 10
173.140866366
 20
246.3775055962
 10
173.3060472025
 20
246.2730298856
 10
173.3640509988
 20
246.1497923823
 10
173.3640509988
 20
246.1497923823
  0
LWPOLYLINE
  5
270
330
1F
100
AcDbEntity
  8
0
  6
Continuous
 62
     7
370
    25
100
AcDbPolyline
 90
       10
 70
   128
 43
0.0
 10
174.0498509988
 20
246.1497923823
 10
174.107854795
 20
246.2730298856
 10
174.2730356315
 20
246.3775055962
 10
174.5202462233
 20
246.4473140342
 10
174.8118509988
 20
246.4718274977
 10
175.1034557742
 20
246.4473140342
 10
175.350666366
 20
246.3775055962
 10
175.5158472025
 20
246.2730298856
 10
175.5738509988
 20
246.1497923823
 10
175.5738509988
 20
246.1497923823
  0
LWPOLYLINE
  5
271
330
1F
100
AcDbEntity
  8
0
  6
Continuous
 62
     7
370
    25
100
AcDbPolyline
 90
        8
 70
   128
 43
0.0
 10
185.6801974518
 20
249.5812655055
 10
186.816687583
 20
250.5769893467
 10
187.5925298372
 20
251.6327577121
 10
187.9906882655
 20
252.7253880336
 10
188.0024201028
 20
253.8308883279
 10
187.6274677412
 20
254.9249840129
 10
186.8740643869
 20
255.9836509292
 10
186.3972986019
 20
256.4590006064
  0
ARC
  5
272
330
1F
100
AcDbEntity
  8
0
  6
Continuous
 62
     7
370
    25
100
AcDbCircle
 10
156.7134703012
 20
253.335740117
 30
0.0
 40
3.89439004224025
100
AcDbArc
 50
126.6794782461
 51
225.9310741683
  0
ARC
  5
273
330
1F
100
AcDbEntity
  8
0
  6
Continuous
 62
     7
370
    25
100
AcDbCircle
 10
184.4702781262
 20
254.6313669502
 30
0.0
 40
3.575499275896826
100
AcDbArc
 50
0.983182011
 51
30.7407817713
  0
ARC
  5
274
330
1F
100
AcDbEntity
  8
0
  6
Continuous
 62
     7
370
    25
100
AcDbCircle
 10
156.3142238713
 20
254.6313669502
 30
0.0
 40
3.575499275909477
100
AcDbArc
 50
149.2592182287
 51
179.0168179889
  0
LWPOLYLINE
  5
275
330
1F
100
AcDbEntity
  8
0
  6
Continuous
 62
     7
370
    25
100
AcDbPolyline
 90
       17
 70
   128
 43
0.0
 10
179.5693032616
 20
246.724677993
 10
179.6273070578
 20
246.8479154963
 10
179.7924878943
 20
246.9523912069
 10
180.0396984861
 20
247.0221996449
 10
180.3313032616
 20
247.0467131084
 10
180.622908037
 20
247.0221996449
 10
180.8701186288
 20
246.9523912069
 10
181.0352994653
 20
246.8479154963
 10
181.0933032616
 20
246.724677993
 10
181.0352994653
 20
246.6014404897
 10
180.8701186288
 20
246.4969647791
 10
180.622908037
 20
246.4271563411
 10
180.3313032616
 20
246.4026428775
 10
180.0396984861
 20
246.4271563411
 10
179.7924878943
 20
246.4969647791
 10
179.6273070578
 20
246.6014404897
 10
179.5693032616
 20
246.724677993
  0
LWPOLYLINE
  5
276
330
1F
100
AcDbEntity
  8
0
  6
Continuous
 62
     7
370
    25
100
AcDbPolyline
 90
       17
 70
   128
 43
0.0
 10
161.9009987359
 20
246.724677993
 10
161.9590025322
 20
246.8479154963
 10
162.1241833687
 20
246.9523912069
 10
162.3713939605
 20
247.0221996449
 10
162.6629987359
 20
247.0467131084
 10
162.9546035114
 20
247.0221996449
 10
163.2018141032
 20
246.9523912069
 10
163.3669949397
 20
246.8479154963
 10
163.4249987359
 20
246.724677993
 10
163.3669949397
 20
246.6014404897
 10
163.2018141032
 20
246.4969647791
 10
162.9546035114
 20
246.4271563411
 10
162.6629987359
 20
246.4026428775
 10
162.3713939605
 20
246.4271563411
 10
162.1241833687
 20
246.4969647791
 10
161.9590025322
 20
246.6014404897
 10
161.9009987359
 20
246.724677993
  0
LWPOLYLINE
  5
277
330
1F
100
AcDbEntity
  8
0
  6
Continuous
 62
     7
370
    25
100
AcDbPolyline
 90
       17
 70
   128
 43
0.0
 10
177.3595032616
 20
246.724677993
 10
177.4175070578
 20
246.8479154963
 10
177.5826878943
 20
246.9523912069
 10
177.8298984861
 20
247.0221996449
 10
178.1215032616
 20
247.0467131084
 10
178.413108037
 20
247.0221996449
 10
178.6603186288
 20
246.9523912069
 10
178.8254994653
 20
246.8479154963
 10
178.8835032616
 20
246.724677993
 10
178.8254994653
 20
246.6014404897
 10
178.6603186288
 20
246.4969647791
 10
178.413108037
 20
246.4271563411
 10
178.1215032616
 20
246.4026428775
 10
177.8298984861
 20
246.4271563411
 10
177.5826878943
 20
246.4969647791
 10
177.4175070578
 20
246.6014404897
 10
177.3595032616
 20
246.724677993
  0
LWPOLYLINE
  5
278
330
1F
100
AcDbEntity
  8
0
  6
Continuous
 62
     7
370
    25
100
AcDbPolyline
 90
       17
 70
   128
 43
0.0
 10
164.1107987359
 20
246.724677993
 10
164.1688025322
 20
246.8479154963
 10
164.3339833687
 20
246.9523912069
 10
164.5811939605
 20
247.0221996449
 10
164.8727987359
 20
247.0467131084
 10
165.1644035114
 20
247.0221996449
 10
165.4116141032
 20
246.9523912069
 10
165.5767949397
 20
246.8479154963
 10
165.6347987359
 20
246.724677993
 10
165.5767949397
 20
246.6014404897
 10
165.4116141032
 20
246.4969647791
 10
165.1644035114
 20
246.4271563411
 10
164.8727987359
 20
246.4026428775
 10
164.5811939605
 20
246.4271563411
 10
164.3339833687
 20
246.4969647791
 10
164.1688025322
 20
246.6014404897
 10
164.1107987359
 20
246.724677993
  0
LWPOLYLINE
  5
279
330
1F
100
AcDbEntity
  8
0
  6
Continuous
 62
     7
370
    25
100
AcDbPolyline
 90
       17
 70
   128
 43
0.0
 10
166.3205987359
 20
246.724677993
 10
166.3786025322
 20
246.8479154963
 10
166.5437833687
 20
246.9523912069
 10
166.7909939605
 20
247.0221996449
 10
167.0825987359
 20
247.0467131084
 10
167.3742035114
 20
247.0221996449
 10
167.6214141032
 20
246.9523912069
 10
167.7865949397
 20
246.8479154963
 10
167.8445987359
 20
246.724677993
 10
167.7865949397
 20
246.6014404897
 10
167.6214141032
 20
246.4969647791
 10
167.3742035114
 20
246.4271563411
 10
167.0825987359
 20
246.4026428775
 10
166.7909939605
 20
246.4271563411
 10
166.5437833687
 20
246.4969647791
 10
166.3786025322
 20
246.6014404897
 10
166.3205987359
 20
246.724677993
  0
LWPOLYLINE
  5
27A
330
1F
100
AcDbEntity
  8
0
  6
Continuous
 62
     7
370
    25
100
AcDbPolyline
 90
       17
 70
   128
 43
0.0
 10
159.6911987359
 20
246.724677993
 10
159.7492025322
 20
246.8479154963
 10
159.9143833687
 20
246.9523912069
 10
160.1615939605
 20
247.0221996449
 10
160.4531987359
 20
247.0467131084
 10
160.7448035114
 20
247.0221996449
 10
160.9920141032
 20
246.9523912069
 10
161.1571949397
 20
246.8479154963
 10
161.2151987359
 20
246.724677993
 10
161.1571949397
 20
246.6014404897
 10
160.9920141032
 20
246.4969647791
 10
160.7448035114
 20
246.4271563411
 10
160.4531987359
 20
246.4026428775
 10
160.1615939605
 20
246.4271563411
 10
159.9143833687
 20
246.4969647791
 10
159.7492025322
 20
246.6014404897
 10
159.6911987359
 20
246.724677993
  0
LWPOLYLINE
  5
27B
330
1F
100
AcDbEntity
  8
0
  6
Continuous
 62
     7
370
    25
100
AcDbPolyline
 90
       17
 70
   128
 43
0.0
 10
168.5303987359
 20
246.724677993
 10
168.5884025322
 20
246.8479154963
 10
168.7535833687
 20
246.9523912069
 10
169.0007939605
 20
247.0221996449
 10
169.2923987359
 20
247.0467131084
 10
169.5840035114
 20
247.0221996449
 10
169.8312141032
 20
246.9523912069
 10
169.9963949397
 20
246.8479154963
 10
170.0543987359
 20
246.724677993
 10
169.9963949397
 20
246.6014404897
 10
169.8312141032
 20
246.4969647791
 10
169.5840035114
 20
246.4271563411
 10
169.2923987359
 20
246.4026428775
 10
169.0007939605
 20
246.4271563411
 10
168.7535833687
 20
246.4969647791
 10
168.5884025322
 20
246.6014404897
 10
168.5303987359
 20
246.724677993
  0
LWPOLYLINE
  5
27C
330
1F
100
AcDbEntity
  8
0
  6
Continuous
 62
     7
370
    25
100
AcDbPolyline
 90
       17
 70
   128
 43
0.0
 10
172.9399032616
 20
246.724677993
 10
172.9979070578
 20
246.8479154963
 10
173.1630878943
 20
246.9523912069
 10
173.4102984861
 20
247.0221996449
 10
173.7019032616
 20
247.0467131084
 10
173.993508037
 20
247.0221996449
 10
174.2407186288
 20
246.9523912069
 10
174.4058994653
 20
246.8479154963
 10
174.4639032616
 20
246.724677993
 10
174.4058994653
 20
246.6014404897
 10
174.2407186288
 20
246.4969647791
 10
173.993508037
 20
246.4271563411
 10
173.7019032616
 20
246.4026428775
 10
173.4102984861
 20
246.4271563411
 10
173.1630878943
 20
246.4969647791
 10
172.9979070578
 20
246.6014404897
 10
172.9399032616
 20
246.724677993
  0
LWPOLYLINE
  5
27D
330
1F
100
AcDbEntity
  8
0
  6
Continuous
 62
     7
370
    25
100
AcDbPolyline
 90
       17
 70
   128
 43
0.0
 10
175.1497032616
 20
246.724677993
 10
175.2077070578
 20
246.8479154963
 10
175.3728878943
 20
246.9523912069
 10
175.6200984861
 20
247.0221996449
 10
175.9117032616
 20
247.0467131084
 10
176.203308037
 20
247.0221996449
 10
176.4505186288
 20
246.9523912069
 10
176.6156994653
 20
246.8479154963
 10
176.6737032616
 20
246.724677993
 10
176.6156994653
 20
246.6014404897
 10
176.4505186288
 20
246.4969647791
 10
176.203308037
 20
246.4271563411
 10
175.9117032616
 20
246.4026428775
 10
175.6200984861
 20
246.4271563411
 10
175.3728878943
 20
246.4969647791
 10
175.2077070578
 20
246.6014404897
 10
175.1497032616
 20
246.724677993
  0
LWPOLYLINE
  5
27E
330
1F
100
AcDbEntity
  8
0
  6
Continuous
 62
     7
370
    25
100
AcDbPolyline
 90
       17
 70
   128
 43
0.0
 10
170.7301032616
 20
246.724677993
 10
170.7881070578
 20
246.8479154963
 10
170.9532878943
 20
246.9523912069
 10
171.2004984861
 20
247.0221996449
 10
171.4921032616
 20
247.0467131084
 10
171.783708037
 20
247.0221996449
 10
172.0309186288
 20
246.9523912069
 10
172.1960994653
 20
246.8479154963
 10
172.2541032616
 20
246.724677993
 10
172.1960994653
 20
246.6014404897
 10
172.0309186288
 20
246.4969647791
 10
171.783708037
 20
246.4271563411
 10
171.4921032616
 20
246.4026428775
 10
171.2004984861
 20
246.4271563411
 10
170.9532878943
 20
246.4969647791
 10
170.7881070578
 20
246.6014404897
 10
170.7301032616
 20
246.724677993
  0
LWPOLYLINE
  5
27F
330
1F
100
AcDbEntity
  8
0
  6
Continuous
 62
     7
370
    25
100
AcDbPolyline
 90
       17
 70
   128
 43
0.0
 10
178.4694509988
 20
245.9195902044
 10
178.527454795
 20
246.0428277077
 10
178.6926356315
 20
246.1473034183
 10
178.9398462233
 20
246.2171118563
 10
179.2314509988
 20
246.2416253198
 10
179.5230557742
 20
246.2171118563
 10
179.770266366
 20
246.1473034183
 10
179.9354472025
 20
246.0428277077
 10
179.9934509988
 20
245.9195902044
 10
179.9354472025
 20
245.796352701
 10
179.770266366
 20
245.6918769904
 10
179.5230557742
 20
245.6220685524
 10
179.2314509988
 20
245.5975550889
 10
178.9398462233
 20
245.6220685524
 10
178.6926356315
 20
245.6918769904
 10
178.527454795
 20
245.796352701
 10
178.4694509988
 20
245.9195902044
  0
LWPOLYLINE
  5
280
330
1F
100
AcDbEntity
  8
0
  6
Continuous
 62
     7
370
    25
100
AcDbPolyline
 90
       17
 70
   128
 43
0.0
 10
167.4204509988
 20
245.9195902044
 10
167.478454795
 20
246.0428277077
 10
167.6436356315
 20
246.1473034183
 10
167.8908462233
 20
246.2171118563
 10
168.1824509988
 20
246.2416253198
 10
168.4740557742
 20
246.2171118563
 10
168.721266366
 20
246.1473034183
 10
168.8864472025
 20
246.0428277077
 10
168.9444509988
 20
245.9195902044
 10
168.8864472025
 20
245.796352701
 10
168.721266366
 20
245.6918769904
 10
168.4740557742
 20
245.6220685524
 10
168.1824509988
 20
245.5975550889
 10
167.8908462233
 20
245.6220685524
 10
167.6436356315
 20
245.6918769904
 10
167.478454795
 20
245.796352701
 10
167.4204509988
 20
245.9195902044
  0
LWPOLYLINE
  5
281
330
1F
100
AcDbEntity
  8
0
  6
Continuous
 62
     7
370
    25
100
AcDbPolyline
 90
       17
 70
   128
 43
0.0
 10
176.2596509988
 20
245.9195902044
 10
176.317654795
 20
246.0428277077
 10
176.4828356315
 20
246.1473034183
 10
176.7300462233
 20
246.2171118563
 10
177.0216509988
 20
246.2416253198
 10
177.3132557742
 20
246.2171118563
 10
177.560466366
 20
246.1473034183
 10
177.7256472025
 20
246.0428277077
 10
177.7836509988
 20
245.9195902044
 10
177.7256472025
 20
245.796352701
 10
177.560466366
 20
245.6918769904
 10
177.3132557742
 20
245.6220685524
 10
177.0216509988
 20
245.5975550889
 10
176.7300462233
 20
245.6220685524
 10
176.4828356315
 20
245.6918769904
 10
176.317654795
 20
245.796352701
 10
176.2596509988
 20
245.9195902044
  0
LWPOLYLINE
  5
282
330
1F
100
AcDbEntity
  8
0
  6
Continuous
 62
     7
370
    25
100
AcDbPolyline
 90
       17
 70
   128
 43
0.0
 10
165.2106509988
 20
245.9195902044
 10
165.268654795
 20
246.0428277077
 10
165.4338356315
 20
246.1473034183
 10
165.6810462233
 20
246.2171118563
 10
165.9726509988
 20
246.2416253198
 10
166.2642557742
 20
246.2171118563
 10
166.511466366
 20
246.1473034183
 10
166.6766472025
 20
246.0428277077
 10
166.7346509988
 20
245.9195902044
 10
166.6766472025
 20
245.796352701
 10
166.511466366
 20
245.6918769904
 10
166.2642557742
 20
245.6220685524
 10
165.9726509988
 20
245.5975550889
 10
165.6810462233
 20
245.6220685524
 10
165.4338356315
 20
245.6918769904
 10
165.268654795
 20
245.796352701
 10
165.2106509988
 20
245.9195902044
  0
LWPOLYLINE
  5
283
330
1F
100
AcDbEntity
  8
0
  6
Continuous
 62
     7
370
    25
100
AcDbPolyline
 90
       17
 70
   128
 43
0.0
 10
171.8400509988
 20
245.9195902044
 10
171.898054795
 20
246.0428277077
 10
172.0632356315
 20
246.1473034183
 10
172.3104462233
 20
246.2171118563
 10
172.6020509988
 20
246.2416253198
 10
172.8936557742
 20
246.2171118563
 10
173.140866366
 20
246.1473034183
 10
173.3060472025
 20
246.0428277077
 10
173.3640509988
 20
245.9195902044
 10
173.3060472025
 20
245.796352701
 10
173.140866366
 20
245.6918769904
 10
172.8936557742
 20
245.6220685524
 10
172.6020509988
 20
245.5975550889
 10
172.3104462233
 20
245.6220685524
 10
172.0632356315
 20
245.6918769904
 10
171.898054795
 20
245.796352701
 10
171.8400509988
 20
245.9195902044
  0
LWPOLYLINE
  5
284
330
1F
100
AcDbEntity
  8
0
  6
Continuous
 62
     7
370
    25
100
AcDbPolyline
 90
       17
 70
   128
 43
0.0
 10
174.0498509988
 20
245.9195902044
 10
174.107854795
 20
246.0428277077
 10
174.2730356315
 20
246.1473034183
 10
174.5202462233
 20
246.2171118563
 10
174.8118509988
 20
246.2416253198
 10
175.1034557742
 20
246.2171118563
 10
175.350666366
 20
246.1473034183
 10
175.5158472025
 20
246.0428277077
 10
175.5738509988
 20
245.9195902044
 10
175.5158472025
 20
245.796352701
 10
175.350666366
 20
245.6918769904
 10
175.1034557742
 20
245.6220685524
 10
174.8118509988
 20
245.5975550889
 10
174.5202462233
 20
245.6220685524
 10
174.2730356315
 20
245.6918769904
 10
174.107854795
 20
245.796352701
 10
174.0498509988
 20
245.9195902044
  0
LWPOLYLINE
  5
285
330
1F
100
AcDbEntity
  8
0
  6
Continuous
 62
     7
370
    25
100
AcDbPolyline
 90
       17
 70
   128
 43
0.0
 10
160.7910509988
 20
245.9195902044
 10
160.849054795
 20
246.0428277077
 10
161.0142356315
 20
246.1473034183
 10
161.2614462233
 20
246.2171118563
 10
161.5530509988
 20
246.2416253198
 10
161.8446557742
 20
246.2171118563
 10
162.091866366
 20
246.1473034183
 10
162.2570472025
 20
246.0428277077
 10
162.3150509988
 20
245.9195902044
 10
162.2570472025
 20
245.796352701
 10
162.091866366
 20
245.6918769904
 10
161.8446557742
 20
245.6220685524
 10
161.5530509988
 20
245.5975550889
 10
161.2614462233
 20
245.6220685524
 10
161.0142356315
 20
245.6918769904
 10
160.849054795
 20
245.796352701
 10
160.7910509988
 20
245.9195902044
  0
LWPOLYLINE
  5
286
330
1F
100
AcDbEntity
  8
0
  6
Continuous
 62
     7
370
    25
100
AcDbPolyline
 90
       17
 70
   128
 43
0.0
 10
169.6302509988
 20
245.9195902044
 10
169.688254795
 20
246.0428277077
 10
169.8534356315
 20
246.1473034183
 10
170.1006462233
 20
246.2171118563
 10
170.3922509988
 20
246.2416253198
 10
170.6838557742
 20
246.2171118563
 10
170.931066366
 20
246.1473034183
 10
171.0962472025
 20
246.0428277077
 10
171.1542509988
 20
245.9195902044
 10
171.0962472025
 20
245.796352701
 10
170.931066366
 20
245.6918769904
 10
170.6838557742
 20
245.6220685524
 10
170.3922509988
 20
245.5975550889
 10
170.1006462233
 20
245.6220685524
 10
169.8534356315
 20
245.6918769904
 10
169.688254795
 20
245.796352701
 10
169.6302509988
 20
245.9195902044
  0
LWPOLYLINE
  5
287
330
1F
100
AcDbEntity
  8
0
  6
Continuous
 62
     7
370
    25
100
AcDbPolyline
 90
       17
 70
   128
 43
0.0
 10
163.0008509988
 20
245.9195902044
 10
163.058854795
 20
246.0428277077
 10
163.2240356315
 20
246.1473034183
 10
163.4712462233
 20
246.2171118563
 10
163.7628509988
 20
246.2416253198
 10
164.0544557742
 20
246.2171118563
 10
164.301666366
 20
246.1473034183
 10
164.4668472025
 20
246.0428277077
 10
164.5248509988
 20
245.9195902044
 10
164.4668472025
 20
245.796352701
 10
164.301666366
 20
245.6918769904
 10
164.0544557742
 20
245.6220685524
 10
163.7628509988
 20
245.5975550889
 10
163.4712462233
 20
245.6220685524
 10
163.2240356315
 20
245.6918769904
 10
163.058854795
 20
245.796352701
 10
163.0008509988
 20
245.9195902044
  0
LWPOLYLINE
  5
288
330
1F
100
AcDbEntity
  8
0
  6
Continuous
 62
     7
370
    25
100
AcDbPolyline
 90
       17
 70
   128
 43
0.0
 10
177.4768208363
 20
245.028626385
 10
177.5348246325
 20
245.1518638883
 10
177.700005469
 20
245.2563395989
 10
177.9472160608
 20
245.3261480369
 10
178.2388208363
 20
245.3506615004
 10
178.5304256117
 20
245.3261480369
 10
178.7776362035
 20
245.2563395989
 10
178.94281704
 20
245.1518638883
 10
179.0008208363
 20
245.028626385
 10
178.94281704
 20
244.9053888816
 10
178.7776362035
 20
244.800913171
 10
178.5304256117
 20
244.731104733
 10
178.2388208363
 20
244.7065912695
 10
177.9472160608
 20
244.731104733
 10
177.700005469
 20
244.800913171
 10
177.5348246325
 20
244.9053888816
 10
177.4768208363
 20
245.028626385
  0
LWPOLYLINE
  5
289
330
1F
100
AcDbEntity
  8
0
  6
Continuous
 62
     7
370
    25
100
AcDbPolyline
 90
       17
 70
   128
 43
0.0
 10
175.2670208363
 20
245.028626385
 10
175.3250246325
 20
245.1518638883
 10
175.490205469
 20
245.2563395989
 10
175.7374160608
 20
245.3261480369
 10
176.0290208363
 20
245.3506615004
 10
176.3206256117
 20
245.3261480369
 10
176.5678362035
 20
245.2563395989
 10
176.73301704
 20
245.1518638883
 10
176.7910208363
 20
245.028626385
 10
176.73301704
 20
244.9053888816
 10
176.5678362035
 20
244.800913171
 10
176.3206256117
 20
244.731104733
 10
176.0290208363
 20
244.7065912695
 10
175.7374160608
 20
244.731104733
 10
175.490205469
 20
244.800913171
 10
175.3250246325
 20
244.9053888816
 10
175.2670208363
 20
245.028626385
  0
LWPOLYLINE
  5
28A
330
1F
100
AcDbEntity
  8
0
  6
Continuous
 62
     7
370
    25
100
AcDbPolyline
 90
       17
 70
   128
 43
0.0
 10
173.0572208363
 20
245.028626385
 10
173.1152246325
 20
245.1518638883
 10
173.280405469
 20
245.2563395989
 10
173.5276160608
 20
245.3261480369
 10
173.8192208363
 20
245.3506615004
 10
174.1108256117
 20
245.3261480369
 10
174.3580362035
 20
245.2563395989
 10
174.52321704
 20
245.1518638883
 10
174.5812208363
 20
245.028626385
 10
174.52321704
 20
244.9053888816
 10
174.3580362035
 20
244.800913171
 10
174.1108256117
 20
244.731104733
 10
173.8192208363
 20
244.7065912695
 10
173.5276160608
 20
244.731104733
 10
173.280405469
 20
244.800913171
 10
173.1152246325
 20
244.9053888816
 10
173.0572208363
 20
245.028626385
  0
LWPOLYLINE
  5
28B
330
1F
100
AcDbEntity
  8
0
  6
Continuous
 62
     7
370
    25
100
AcDbPolyline
 90
       17
 70
   128
 43
0.0
 10
168.4130811612
 20
245.028626385
 10
168.4710849575
 20
245.1518638883
 10
168.636265794
 20
245.2563395989
 10
168.8834763858
 20
245.3261480369
 10
169.1750811612
 20
245.3506615004
 10
169.4666859367
 20
245.3261480369
 10
169.7138965285
 20
245.2563395989
 10
169.879077365
 20
245.1518638883
 10
169.9370811612
 20
245.028626385
 10
169.879077365
 20
244.9053888816
 10
169.7138965285
 20
244.800913171
 10
169.4666859367
 20
244.731104733
 10
169.1750811612
 20
244.7065912695
 10
168.8834763858
 20
244.731104733
 10
168.636265794
 20
244.800913171
 10
168.4710849575
 20
244.9053888816
 10
168.4130811612
 20
245.028626385
  0
LWPOLYLINE
  5
28C
330
1F
100
AcDbEntity
  8
0
  6
Continuous
 62
     7
370
    25
100
AcDbPolyline
 90
       17
 70
   128
 43
0.0
 10
161.7836811612
 20
245.028626385
 10
161.8416849575
 20
245.1518638883
 10
162.006865794
 20
245.2563395989
 10
162.2540763858
 20
245.3261480369
 10
162.5456811612
 20
245.3506615004
 10
162.8372859367
 20
245.3261480369
 10
163.0844965285
 20
245.2563395989
 10
163.249677365
 20
245.1518638883
 10
163.3076811612
 20
245.028626385
 10
163.249677365
 20
244.9053888816
 10
163.0844965285
 20
244.800913171
 10
162.8372859367
 20
244.731104733
 10
162.5456811612
 20
244.7065912695
 10
162.2540763858
 20
244.731104733
 10
162.006865794
 20
244.800913171
 10
161.8416849575
 20
244.9053888816
 10
161.7836811612
 20
245.028626385
  0
LWPOLYLINE
  5
28D
330
1F
100
AcDbEntity
  8
0
  6
Continuous
 62
     7
370
    25
100
AcDbPolyline
 90
       17
 70
   128
 43
0.0
 10
166.2032811612
 20
245.028626385
 10
166.2612849575
 20
245.1518638883
 10
166.426465794
 20
245.2563395989
 10
166.6736763858
 20
245.3261480369
 10
166.9652811612
 20
245.3506615004
 10
167.2568859367
 20
245.3261480369
 10
167.5040965285
 20
245.2563395989
 10
167.669277365
 20
245.1518638883
 10
167.7272811612
 20
245.028626385
 10
167.669277365
 20
244.9053888816
 10
167.5040965285
 20
244.800913171
 10
167.2568859367
 20
244.731104733
 10
166.9652811612
 20
244.7065912695
 10
166.6736763858
 20
244.731104733
 10
166.426465794
 20
244.800913171
 10
166.2612849575
 20
244.9053888816
 10
166.2032811612
 20
245.028626385
  0
LWPOLYLINE
  5
28E
330
1F
100
AcDbEntity
  8
0
  6
Continuous
 62
     7
370
    25
100
AcDbPolyline
 90
       17
 70
   128
 43
0.0
 10
170.8474208363
 20
245.028626385
 10
170.9054246325
 20
245.1518638883
 10
171.070605469
 20
245.2563395989
 10
171.3178160608
 20
245.3261480369
 10
171.6094208363
 20
245.3506615004
 10
171.9010256117
 20
245.3261480369
 10
172.1482362035
 20
245.2563395989
 10
172.31341704
 20
245.1518638883
 10
172.3714208363
 20
245.028626385
 10
172.31341704
 20
244.9053888816
 10
172.1482362035
 20
244.800913171
 10
171.9010256117
 20
244.731104733
 10
171.6094208363
 20
244.7065912695
 10
171.3178160608
 20
244.731104733
 10
171.070605469
 20
244.800913171
 10
170.9054246325
 20
244.9053888816
 10
170.8474208363
 20
245.028626385
  0
LWPOLYLINE
  5
28F
330
1F
100
AcDbEntity
  8
0
  6
Continuous
 62
     7
370
    25
100
AcDbPolyline
 90
       17
 70
   128
 43
0.0
 10
163.9934811612
 20
245.028626385
 10
164.0514849575
 20
245.1518638883
 10
164.216665794
 20
245.2563395989
 10
164.4638763858
 20
245.3261480369
 10
164.7554811612
 20
245.3506615004
 10
165.0470859367
 20
245.3261480369
 10
165.2942965285
 20
245.2563395989
 10
165.459477365
 20
245.1518638883
 10
165.5174811612
 20
245.028626385
 10
165.459477365
 20
244.9053888816
 10
165.2942965285
 20
244.800913171
 10
165.0470859367
 20
244.731104733
 10
164.7554811612
 20
244.7065912695
 10
164.4638763858
 20
244.731104733
 10
164.216665794
 20
244.800913171
 10
164.0514849575
 20
244.9053888816
 10
163.9934811612
 20
245.028626385
  0
LINE
  5
290
330
1F
100
AcDbEntity
  8
0
  6
Continuous
 62
     7
370
    25
100
AcDbLine
 10
176.9913645756
 20
243.6808564972
 30
0.0
 11
176.9913645756
 21
243.645159764
 31
0.0
  0
LINE
  5
291
330
1F
100
AcDbEntity
  8
0
  6
Continuous
 62
     7
370
    25
100
AcDbLine
 10
163.7931374219
 20
243.6808564972
 30
0.0
 11
163.7931374219
 21
243.645159764
 31
0.0
  0
ARC
  5
292
330
1F
100
AcDbEntity
  8
0
  6
Continuous
 62
     7
370
    25
100
AcDbCircle
 10
181.7850779618
 20
251.3655864527
 30
0.0
 40
11.43261654827087
100
AcDbArc
 50
341.0816364259
 51
22.7581991796
  0
ARC
  5
293
330
1F
100
AcDbEntity
  8
0
  6
Continuous
 62
     7
370
    25
100
AcDbCircle
 10
223.9381087073
 20
251.3621650214
 30
0.0
 40
11.37281884456897
100
AcDbArc
 50
159.9581675297
 51
197.7084809908
  0
LWPOLYLINE
  5
294
330
1F
100
AcDbEntity
  8
0
  6
Continuous
 62
     7
370
    25
100
AcDbPolyline
 90
        9
 70
   128
 43
0.0
 10
201.3922509988
 20
243.2847192299
 10
201.5064317
 20
243.0421257194
 10
201.831590827
 20
242.8364648718
 10
202.3182258502
 20
242.6990466867
 10
202.8922509988
 20
242.6507918373
 10
203.4662761473
 20
242.6990466867
 10
203.9529111705
 20
242.8364648718
 10
204.2780702975
 20
243.0421257194
 10
204.3922509988
 20
243.2847192299
  0
LINE
  5
295
330
1F
100
AcDbEntity
  8
0
  6
Continuous
 62
     7
370
    25
100
AcDbLine
 10
201.3922509988
 20
256.4590006064
 30
0.0
 11
201.3922509988
 21
243.2847192299
 31
0.0
  0
LINE
  5
296
330
1F
100
AcDbEntity
  8
0
  6
Continuous
 62
     7
370
    25
100
AcDbLine
 10
204.3922509988
 20
243.2847192299
 30
0.0
 11
204.3922509988
 21
256.4590006064
 31
0.0
  0
LINE
  5
297
330
1F
100
AcDbEntity
  8
0
  6
Continuous
 62
     7
370
    25
100
AcDbLine
 10
191.2746911772
 20
244.6114538002
 30
0.0
 11
191.2715497977
 21
244.6298006789
 31
0.0
  0
ARC
  5
298
330
1F
100
AcDbEntity
  8
0
  6
Continuous
 62
     7
370
    25
100
AcDbCircle
 10
281.7850779618
 20
251.3655864527
 30
0.0
 40
11.43261654826979
100
AcDbArc
 50
341.0816364259
 51
22.7581991796
  0
ARC
  5
299
330
1F
100
AcDbEntity
  8
0
  6
Continuous
 62
     7
370
    25
100
AcDbCircle
 10
323.9381087073
 20
251.3621650214
 30
0.0
 40
11.37281884457079
100
AcDbArc
 50
159.9581675297
 51
197.7084809908
  0
LWPOLYLINE
  5
29A
330
1F
100
AcDbEntity
  8
0
  6
Continuous
 62
     7
370
    25
100
AcDbPolyline
 90
        9
 70
   128
 43
0.0
 10
301.3922509988
 20
243.2847192299
 10
301.5064317
 20
243.0421257194
 10
301.831590827
 20
242.8364648718
 10
302.3182258502
 20
242.6990466867
 10
302.8922509988
 20
242.6507918373
 10
303.4662761473
 20
242.6990466867
 10
303.9529111705
 20
242.8364648718
 10
304.2780702975
 20
243.0421257194
 10
304.3922509988
 20
243.2847192299
  0
LINE
  5
29B
330
1F
100
AcDbEntity
  8
0
  6
Continuous
 62
     7
370
    25
100
AcDbLine
 10
301.3922509988
 20
256.4590006064
 30
0.0
 11
301.3922509988
 21
243.2847192299
 31
0.0
  0
LINE
  5
29C
330
1F
100
AcDbEntity
  8
0
  6
Continuous
 62
     7
370
    25
100
AcDbLine
 10
304.3922509988
 20
243.2847192299
 30
0.0
 11
304.3922509988
 21
256.4590006064
 31
0.0
  0
LINE
  5
29D
330
1F
100
AcDbEntity
  8
0
  6
Continuous
 62
     7
370
    25
100
AcDbLine
 10
291.2746911772
 20
244.6114538002
 30
0.0
 11
291.2715497977
 21
244.6298006789
 31
0.0
  0
LINE
  5
29E
330
1F
100
AcDbEntity
  8
0
  6
Continuous
 62
     7
370
    25
100
AcDbLine
 10
452.8922509988
 20
256.3967687673
 30
0.0
 11
452.8922509988
 21
256.4590006064
 31
0.0
  0
LINE
  5
29F
330
1F
100
AcDbEntity
  8
0
  6
Continuous
 62
     7
370
    25
100
AcDbLine
 10
52.8922509988
 20
256.4590006064
 30
0.0
 11
52.8922509988
 21
256.3967687673
 31
0.0
  0
CIRCLE
  5
2A0
330
1F
100
AcDbEntity
  8
0
  6
Continuous
 62
     7
370
    25
100
AcDbCircle
 10
442.8922509988
 20
1118.9590006064
 30
0.0
 40
9.499999999999773
  0
CIRCLE
  5
2A1
330
1F
100
AcDbEntity
  8
0
  6
Continuous
 62
     7
370
    25
100
AcDbCircle
 10
62.8922509988
 20
1118.9590006064
 30
0.0
 40
9.499999999999773
  0
ARC
  5
2A2
330
1F
100
AcDbEntity
  8
0
  6
Continuous
 62
     7
370
    25
100
AcDbCircle
 10
402.8922509988
 20
1000.9590006064
 30
0.0
 40
4.999999999970157
100
AcDbArc
 50
323.1683165354
 51
0.0
  0
ARC
  5
2A3
330
1F
100
AcDbEntity
  8
0
  6
Continuous
 62
     7
370
    25
100
AcDbCircle
 10
402.8922509988
 20
1000.9590006064
 30
0.0
 40
4.999999999970189
100
AcDbArc
 50
0.0
 51
216.8316834646
  0
ARC
  5
2A4
330
1F
100
AcDbEntity
  8
0
  6
Continuous
 62
     7
370
    25
100
AcDbCircle
 10
402.8922509988
 20
1000.9590006064
 30
0.0
 40
9.99999999476131
100
AcDbArc
 50
180.0
 51
246.409317949
  0
ARC
  5
2A5
330
1F
100
AcDbEntity
  8
0
  6
Continuous
 62
     7
370
    25
100
AcDbCircle
 10
402.8922509988
 20
1000.9590006064
 30
0.0
 40
9.99999999476131
100
AcDbArc
 50
293.590682051
 51
180.0
  0
ARC
  5
2A6
330
1F
100
AcDbEntity
  8
0
  6
Continuous
 62
     7
370
    25
100
AcDbCircle
 10
102.8922509988
 20
1000.9590006064
 30
0.0
 40
9.999999994761472
100
AcDbArc
 50
180.0
 51
246.409317949
  0
ARC
  5
2A7
330
1F
100
AcDbEntity
  8
0
  6
Continuous
 62
     7
370
    25
100
AcDbCircle
 10
102.8922509988
 20
1000.9590006064
 30
0.0
 40
9.999999994761454
100
AcDbArc
 50
293.590682051
 51
180.0
  0
ARC
  5
2A8
330
1F
100
AcDbEntity
  8
0
  6
Continuous
 62
     7
370
    25
100
AcDbCircle
 10
102.8922509988
 20
1000.9590006064
 30
0.0
 40
4.999999999970302
100
AcDbArc
 50
323.1683165354
 51
0.0
  0
ARC
  5
2A9
330
1F
100
AcDbEntity
  8
0
  6
Continuous
 62
     7
370
    25
100
AcDbCircle
 10
102.8922509988
 20
1000.9590006064
 30
0.0
 40
4.999999999970234
100
AcDbArc
 50
0.0
 51
216.8316834646
  0
ARC
  5
2AA
330
1F
100
AcDbEntity
  8
0
  6
Continuous
 62
     7
370
    25
100
AcDbCircle
 10
402.8922509988
 20
1000.9590006064
 30
0.0
 40
4.00200000000001
100
AcDbArc
 50
90.0
 51
180.0
  0
ARC
  5
2AB
330
1F
100
AcDbEntity
  8
0
  6
Continuous
 62
     7
370
    25
100
AcDbCircle
 10
402.8922509988
 20
1000.9590006064
 30
0.0
 40
4.00200000000001
100
AcDbArc
 50
0.0
 51
90.0
  0
ARC
  5
2AC
330
1F
100
AcDbEntity
  8
0
  6
Continuous
 62
     7
370
    25
100
AcDbCircle
 10
102.8922509988
 20
1000.9590006064
 30
0.0
 40
4.002000000000066
100
AcDbArc
 50
90.0
 51
180.0
  0
ARC
  5
2AD
330
1F
100
AcDbEntity
  8
0
  6
Continuous
 62
     7
370
    25
100
AcDbCircle
 10
102.8922509988
 20
1000.9590006064
 30
0.0
 40
4.002000000000066
100
AcDbArc
 50
0.0
 51
90.0
  0
LINE
  5
2AE
330
1F
100
AcDbEntity
  8
0
  6
Continuous
 62
     7
370
    25
100
AcDbLine
 10
152.8994556322
 20
624.9590006064
 30
0.0
 11
153.5891878122
 21
624.9590006064
 31
0.0
  0
SPLINE
  5
2AF
330
1F
100
AcDbEntity
  8
0
  6
Continuous
 62
     7
370
    25
100
AcDbSpline
210
0.0
220
0.0
230
1.0
 70
    24
 71
     3
 72
     9
 73
     5
 74
     0
 42
0.000000001
 43
0.00000001
 40
0.0
 40
0.0
 40
0.0
 40
0.0
 40
0.10827206622935
 40
1.0
 40
1.0
 40
1.0
 40
1.0
 10
187.0903746564227
 20
624.9590006064201
 30
0.0
 10
187.1210559971413
 20
624.95900060642
 30
0.0
 10
187.4044286322733
 20
624.9590006064201
 30
0.0
 10
187.6661084388969
 20
624.9590006064201
 30
0.0
 10
187.8994556321668
 20
624.9590006064201
 30
0.0
  0
LINE
  5
2B0
330
1F
100
AcDbEntity
  8
0
  6
Continuous
 62
     7
370
    25
100
AcDbLine
 10
317.8994556322
 20
624.9590006064
 30
0.0
 11
318.5891878108
 21
624.9590006064
 31
0.0
  0
SPLINE
  5
2B1
330
1F
100
AcDbEntity
  8
0
  6
Continuous
 62
     7
370
    25
100
AcDbSpline
210
0.0
220
0.0
230
1.0
 70
    24
 71
     3
 72
     9
 73
     5
 74
     0
 42
0.000000001
 43
0.00000001
 40
0.0
 40
0.0
 40
0.0
 40
0.0
 40
0.1082720676443979
 40
1.0
 40
1.0
 40
1.0
 40
1.0
 10
352.0903746550774
 20
624.9590006064201
 30
0.0
 10
352.1210559962468
 20
624.9590006064201
 30
0.0
 10
352.4044286318389
 20
624.9590006064203
 30
0.0
 10
352.6661084388878
 20
624.9590006064201
 30
0.0
 10
352.8994556321667
 20
624.9590006064201
 30
0.0
  0
LINE
  5
2B2
330
1F
100
AcDbEntity
  8
0
  6
Continuous
 62
     7
370
    25
100
AcDbLine
 10
317.8994556322
 20
619.9590006064
 30
0.0
 11
318.3922509947
 21
619.9590006064
 31
0.0
  0
LINE
  5
2B3
330
1F
100
AcDbEntity
  8
0
  6
Continuous
 62
     7
370
    25
100
AcDbLine
 10
352.3922509947
 20
619.9590006064
 30
0.0
 11
352.8994556322
 21
619.9590006064
 31
0.0
  0
LINE
  5
2B4
330
1F
100
AcDbEntity
  8
0
  6
Continuous
 62
     7
370
    25
100
AcDbLine
 10
152.8994556322
 20
619.9590006064
 30
0.0
 11
153.392250996
 21
619.9590006064
 31
0.0
  0
LINE
  5
2B5
330
1F
100
AcDbEntity
  8
0
  6
Continuous
 62
     7
370
    25
100
AcDbLine
 10
187.392250996
 20
619.9590006064
 30
0.0
 11
187.8994556322
 21
619.9590006064
 31
0.0
  0
ARC
  5
2B6
330
1F
100
AcDbEntity
  8
0
  6
Continuous
 62
     7
370
    25
100
AcDbCircle
 10
205.3922509988
 20
926.9590006064
 30
0.0
 40
35.00000000000003
100
AcDbArc
 50
35.4628804295
 51
70.5272252916
  0
LINE
  5
2B7
330
1F
100
AcDbEntity
  8
0
  6
Continuous
 62
     7
370
    25
100
AcDbLine
 10
52.8922509988
 20
1085.7090006064
 30
0.0
 11
52.8922509988
 21
1081.4590006064
 31
0.0
  0
LINE
  5
2B8
330
1F
100
AcDbEntity
  8
0
  6
Continuous
 62
     7
370
    25
100
AcDbLine
 10
452.8922509988
 20
1085.7090006064
 30
0.0
 11
452.8922509988
 21
1081.4590006064
 31
0.0
  0
LINE
  5
2B9
330
1F
100
AcDbEntity
  8
0
  6
Continuous
 62
     7
370
    25
100
AcDbLine
 10
52.8922509988
 20
1081.4590006064
 30
0.0
 11
452.8922509988
 21
1081.4590006064
 31
0.0
  0
LINE
  5
2BA
330
1F
100
AcDbEntity
  8
0
  6
Continuous
 62
     7
370
    25
100
AcDbLine
 10
52.8922509988
 20
1152.2090006064
 30
0.0
 11
52.8922509988
 21
1085.7090006064
 31
0.0
  0
LINE
  5
2BB
330
1F
100
AcDbEntity
  8
0
  6
Continuous
 62
     7
370
    25
100
AcDbLine
 10
452.8922509988
 20
1152.2090006064
 30
0.0
 11
452.8922509988
 21
1085.7090006064
 31
0.0
  0
LINE
  5
2BC
330
1F
100
AcDbEntity
  8
0
  6
Continuous
 62
     7
370
    25
100
AcDbLine
 10
52.8922509988
 20
1156.4590006064
 30
0.0
 11
452.8922509988
 21
1156.4590006064
 31
0.0
  0
LINE
  5
2BD
330
1F
100
AcDbEntity
  8
0
  6
Continuous
 62
     7
370
    25
100
AcDbLine
 10
52.8922509988
 20
1156.4590006064
 30
0.0
 11
52.8922509988
 21
1152.2090006064
 31
0.0
  0
LINE
  5
2BE
330
1F
100
AcDbEntity
  8
0
  6
Continuous
 62
     7
370
    25
100
AcDbLine
 10
452.8922509988
 20
1156.4590006064
 30
0.0
 11
452.8922509988
 21
1152.2090006064
 31
0.0
  0
LINE
  5
2BF
330
1F
100
AcDbEntity
  8
0
  6
Continuous
 62
     7
370
    25
100
AcDbLine
 10
52.8922509988
 20
1081.4590006064
 30
0.0
 11
52.8922509988
 21
1079.2090006064
 31
0.0
  0
LINE
  5
2C0
330
1F
100
AcDbEntity
  8
0
  6
Continuous
 62
     7
370
    25
100
AcDbLine
 10
452.8922509988
 20
1081.4590006064
 30
0.0
 11
452.8922509988
 21
1079.2090006064
 31
0.0
  0
LINE
  5
2C1
330
1F
100
AcDbEntity
  8
0
  6
Continuous
 62
     7
370
    25
100
AcDbLine
 10
122.8922509988
 20
1043.9590006064
 30
0.0
 11
382.8922509988
 21
1043.9590006064
 31
0.0
  0
LINE
  5
2C2
330
1F
100
AcDbEntity
  8
0
  6
Continuous
 62
     7
370
    25
100
AcDbLine
 10
82.8922509988
 20
1003.9590006064
 30
0.0
 11
82.8922509988
 21
369.9590006064
 31
0.0
  0
LINE
  5
2C3
330
1F
100
AcDbEntity
  8
0
  6
Continuous
 62
     7
370
    25
100
AcDbLine
 10
122.8922509988
 20
329.9590006064
 30
0.0
 11
382.8922509988
 21
329.9590006064
 31
0.0
  0
LINE
  5
2C4
330
1F
100
AcDbEntity
  8
0
  6
Continuous
 62
     7
370
    25
100
AcDbLine
 10
422.8922509988
 20
1003.9590006064
 30
0.0
 11
422.8922509988
 21
369.9590006064
 31
0.0
  0
ARC
  5
2C5
330
1F
100
AcDbEntity
  8
0
  6
Continuous
 62
     7
370
    25
100
AcDbCircle
 10
382.8922509988
 20
369.9590006064
 30
0.0
 40
39.99999999999999
100
AcDbArc
 50
270.0
 51
320.66669498
  0
ARC
  5
2C6
330
1F
100
AcDbEntity
  8
0
  6
Continuous
 62
     7
370
    25
100
AcDbCircle
 10
382.8922509988
 20
369.9590006064
 30
0.0
 40
39.99999999999999
100
AcDbArc
 50
320.66669498
 51
0.0
  0
ARC
  5
2C7
330
1F
100
AcDbEntity
  8
0
  6
Continuous
 62
     7
370
    25
100
AcDbCircle
 10
122.8922509988
 20
1003.9590006064
 30
0.0
 40
40.00000000000011
100
AcDbArc
 50
90.0
 51
180.0
  0
LINE
  5
2C8
330
1F
100
AcDbEntity
  8
0
  6
Continuous
 62
     7
370
    25
100
AcDbLine
 10
52.8922509988
 20
1079.2090006064
 30
0.0
 11
52.8922509988
 21
268.4590006064
 31
0.0
  0
LINE
  5
2C9
330
1F
100
AcDbEntity
  8
0
  6
Continuous
 62
     7
370
    25
100
AcDbLine
 10
452.8922509988
 20
1079.2090006064
 30
0.0
 11
452.8922509988
 21
268.4590006064
 31
0.0
  0
LINE
  5
2CA
330
1F
100
AcDbEntity
  8
0
  6
Continuous
 62
     7
370
    25
100
AcDbLine
 10
52.8922509988
 20
268.4590006064
 30
0.0
 11
52.8922509988
 21
256.4590006064
 31
0.0
  0
LINE
  5
2CB
330
1F
100
AcDbEntity
  8
0
  6
Continuous
 62
     7
370
    25
100
AcDbLine
 10
452.8922509988
 20
268.4590006064
 30
0.0
 11
452.8922509988
 21
256.4590006064
 31
0.0
  0
ARC
  5
2CC
330
1F
100
AcDbEntity
  8
0
  6
Continuous
 62
     7
370
    25
100
AcDbCircle
 10
382.8922509988
 20
1003.9590006064
 30
0.0
 40
40.00000000000011
100
AcDbArc
 50
0.0
 51
90.0
  0
ARC
  5
2CD
330
1F
100
AcDbEntity
  8
0
  6
Continuous
 62
     7
370
    25
100
AcDbCircle
 10
122.8922509988
 20
369.9590006064
 30
0.0
 40
40.00000000000002
100
AcDbArc
 50
180.0
 51
219.33330502
  0
ARC
  5
2CE
330
1F
100
AcDbEntity
  8
0
  6
Continuous
 62
     7
370
    25
100
AcDbCircle
 10
122.8922509988
 20
369.9590006064
 30
0.0
 40
40.00000000000002
100
AcDbArc
 50
219.33330502
 51
270.0
  0
ELLIPSE
  5
2CF
330
1F
100
AcDbEntity
  8
0
  6
Continuous
 62
     7
370
    25
100
AcDbEllipse
 10
411.2848337619
 20
566.1579048548
 30
0.0
 11
-1.591058419013223
 21
125.1988520140709
 31
0.0
210
0.0
220
0.0
230
1.0
 40
0.0718798391
 41
3.140679186816515
 42
3.141135347065507
  0
ELLIPSE
  5
2D0
330
1F
100
AcDbEntity
  8
0
  6
Continuous
 62
     7
370
    25
100
AcDbEllipse
 10
412.8717765882
 20
441.2829048548
 30
0.0
 11
8.999999764729637
 21
0.05718481864482784
 31
0.0
210
0.0
220
0.0
230
1.0
 40
0.0359864627
 41
4.712160327122552
 42
6.108423728718241
  0
ELLIPSE
  5
2D1
330
1F
100
AcDbEntity
  8
0
  6
Continuous
 62
     7
370
    25
100
AcDbEllipse
 10
92.9127254093
 20
441.2829048548
 30
0.0
 11
8.99999976472958
 21
-0.05718481864477099
 31
0.0
210
0.0
220
0.0
230
1.0
 40
0.0359864627
 41
3.316354232053587
 42
4.712617633646828
  0
ELLIPSE
  5
2D2
330
1F
100
AcDbEntity
  8
0
  6
Continuous
 62
     7
370
    25
100
AcDbEllipse
 10
94.4996682356
 20
566.1579048548
 30
0.0
 11
1.591058419013138
 21
125.1988520140709
 31
0.0
210
0.0
220
0.0
230
1.0
 40
0.0718798391
 41
3.142049960114267
 42
3.142506120363253
  0
LINE
  5
2D3
330
1F
100
AcDbEntity
  8
0
  6
Continuous
 62
     7
370
    25
100
AcDbLine
 10
92.9168310165
 20
440.9590006064
 30
0.0
 11
153.392250996
 21
440.9590006064
 31
0.0
  0
LINE
  5
2D4
330
1F
100
AcDbEntity
  8
0
  6
Continuous
 62
     7
370
    25
100
AcDbLine
 10
187.392250996
 20
440.9590006064
 30
0.0
 11
318.3922509947
 21
440.9590006064
 31
0.0
  0
LINE
  5
2D5
330
1F
100
AcDbEntity
  8
0
  6
Continuous
 62
     7
370
    25
100
AcDbLine
 10
352.3922509947
 20
440.9590006064
 30
0.0
 11
412.867670981
 21
440.9590006064
 31
0.0
  0
LINE
  5
2D6
330
1F
100
AcDbEntity
  8
0
  6
Continuous
 62
     7
370
    25
100
AcDbLine
 10
152.8994556322
 20
616.9590006064
 30
0.0
 11
153.392250996
 21
616.9590006064
 31
0.0
  0
LINE
  5
2D7
330
1F
100
AcDbEntity
  8
0
  6
Continuous
 62
     7
370
    25
100
AcDbLine
 10
187.392250996
 20
616.9590006064
 30
0.0
 11
187.8994556322
 21
616.9590006064
 31
0.0
  0
ARC
  5
2D8
330
1F
100
AcDbEntity
  8
0
  6
Continuous
 62
     7
370
    25
100
AcDbCircle
 10
205.3922509988
 20
926.9590006064
 30
0.0
 40
38.00000000000006
100
AcDbArc
 50
41.3931960837
 51
60.2695895297
  0
LINE
  5
2D9
330
1F
100
AcDbEntity
  8
0
  6
Continuous
 62
     7
370
    25
100
AcDbLine
 10
317.8994556322
 20
616.9590006064
 30
0.0
 11
318.3922509947
 21
616.9590006064
 31
0.0
  0
LINE
  5
2DA
330
1F
100
AcDbEntity
  8
0
  6
Continuous
 62
     7
370
    25
100
AcDbLine
 10
352.3922509947
 20
616.9590006064
 30
0.0
 11
352.8994556322
 21
616.9590006064
 31
0.0
  0
ENDSEC
  0
SECTION
  2
OBJECTS
  0
DICTIONARY
  5
C
330
0
100
AcDbDictionary
281
     1
  3
ACAD_GROUP
350
D
  3
ACAD_LAYOUT
350
1A
  3
ACAD_MLINESTYLE
350
17
  3
ACAD_PLOTSETTINGS
350
19
  3
ACAD_PLOTSTYLENAME
350
E
  3
ACAD_SCALELIST
350
47
  0
DICTIONARY
  5
D
102
{ACAD_REACTORS
330
C
102
}
330
C
100
AcDbDictionary
281
     1
  0
DICTIONARY
  5
1A
102
{ACAD_REACTORS
330
C
102
}
330
C
100
AcDbDictionary
281
     1
  3
Layout1
350
1E
  3
Layout2
350
26
  3
Model
350
22
  0
DICTIONARY
  5
17
102
{ACAD_REACTORS
330
C
102
}
330
C
100
AcDbDictionary
281
     1
  3
Standard
350
18
  0
DICTIONARY
  5
19
102
{ACAD_REACTORS
330
C
102
}
330
C
100
AcDbDictionary
281
     1
  0
ACDBDICTIONARYWDFLT
  5
E
102
{ACAD_REACTORS
330
C
102
}
330
C
100
AcDbDictionary
281
     1
  3
Normal
350
F
100
AcDbDictionaryWithDefault
340
F
  0
DICTIONARY
  5
47
102
{ACAD_REACTORS
330
C
102
}
330
C
100
AcDbDictionary
281
     1
  3
A0
350
48
  3
A1
350
49
  3
A2
350
4A
  3
A3
350
4B
  3
A4
350
4C
  3
A5
350
4D
  3
A6
350
4E
  3
A7
350
4F
  3
A8
350
50
  3
A9
350
51
  3
B0
350
52
  3
B1
350
53
  3
B2
350
54
  3
B3
350
55
  3
B4
350
56
  3
B5
350
57
  3
B6
350
58
  3
B7
350
59
  3
B8
350
5A
  3
B9
350
5B
  3
C0
350
5C
  3
C1
350
5D
  3
C2
350
5E
  3
C3
350
5F
  3
C4
350
60
  3
C5
350
61
  3
C6
350
62
  3
C7
350
63
  3
C8
350
64
  3
C9
350
65
  3
D0
350
66
  3
D1
350
67
  3
D2
350
68
  0
LAYOUT
  5
1E
102
{ACAD_REACTORS
330
1A
102
}
330
1A
100
AcDbPlotSettings
  1

  2
none_device
  4

  6

 40
0.0
 41
0.0
 42
0.0
 43
0.0
 44
0.0
 45
0.0
 46
0.0
 47
0.0
 48
0.0
 49
0.0
140
0.0
141
0.0
142
1.0
143
1.0
 70
   688
 72
     1
 73
     0
 74
     5
  7

 75
    16
147
1.0
148
0.0
149
0.0
100
AcDbLayout
  1
Layout1
 70
     1
 71
     1
 10
0.0
 20
0.0
 11
420.0
 21
297.0
 12
0.0
 22
0.0
 32
0.0
 14
1.0000000000E+20
 24
1.0000000000E+20
 34
1.0000000000E+20
 15
-1.0000000000E+20
 25
-1.0000000000E+20
 35
-1.0000000000E+20
146
0.0
 13
0.0
 23
0.0
 33
0.0
 16
1.0
 26
0.0
 36
0.0
 17
0.0
 27
1.0
 37
0.0
 76
     0
330
1B
  0
LAYOUT
  5
26
102
{ACAD_REACTORS
330
1A
102
}
330
1A
100
AcDbPlotSettings
  1

  2
none_device
  4

  6

 40
0.0
 41
0.0
 42
0.0
 43
0.0
 44
0.0
 45
0.0
 46
0.0
 47
0.0
 48
0.0
 49
0.0
140
0.0
141
0.0
142
1.0
143
1.0
 70
   688
 72
     1
 73
     0
 74
     5
  7

 75
    16
147
1.0
148
0.0
149
0.0
100
AcDbLayout
  1
Layout2
 70
     1
 71
     2
 10
0.0
 20
0.0
 11
0.0
 21
0.0
 12
0.0
 22
0.0
 32
0.0
 14
0.0
 24
0.0
 34
0.0
 15
0.0
 25
0.0
 35
0.0
146
0.0
 13
0.0
 23
0.0
 33
0.0
 16
1.0
 26
0.0
 36
0.0
 17
0.0
 27
1.0
 37
0.0
 76
     0
330
23
  0
LAYOUT
  5
22
102
{ACAD_REACTORS
330
1A
102
}
330
1A
100
AcDbPlotSettings
  1

  2
none_device
  4
Letter_(8.50_x_11.00_Inches)
  6

 40
6.35
 41
6.35
 42
6.35000508
 43
6.35000508
 44
215.9
 45
279.4
 46
0.0
 47
0.0
 48
0.0
 49
0.0
140
0.0
141
0.0
142
1.0
143
1.0
 70
  1712
 72
     1
 73
     0
 74
     0
  7

 75
     0
147
1.0
148
0.0
149
0.0
100
AcDbLayout
  1
Model
 70
     1
 71
     0
 10
0.0
 20
0.0
 11
500.0
 21
1400.0
 12
0.0
 22
0.0
 32
0.0
 14
0.0
 24
0.0
 34
0.0
 15
500.0
 25
1400.0
 35
0.0
146
0.0
 13
0.0
 23
0.0
 33
0.0
 16
1.0
 26
0.0
 36
0.0
 17
0.0
 27
1.0
 37
0.0
 76
     0
330
1F
331
29
  0
MLINESTYLE
  5
18
102
{ACAD_REACTORS
330
17
102
}
330
17
100
AcDbMlineStyle
  2
Standard
 70
     0
  3

 62
   256
 51
90.0
 52
90.0
 71
     2
 49
0.5
 62
   256
  6
BYLAYER
 49
-0.5
 62
   256
  6
BYLAYER
  0
ACDBPLACEHOLDER
  5
F
102
{ACAD_REACTORS
330
E
102
}
330
E
  0
SCALE
  5
48
102
{ACAD_REACTORS
330
47
102
}
330
47
100
AcDbScale
 70
     0
300
1:1
140
1.0
141
1.0
290
     1
  0
SCALE
  5
49
102
{ACAD_REACTORS
330
47
102
}
330
47
100
AcDbScale
 70
     0
300
1:2
140
1.0
141
2.0
290
     0
  0
SCALE
  5
4A
102
{ACAD_REACTORS
330
47
102
}
330
47
100
AcDbScale
 70
     0
300
1:4
140
1.0
141
4.0
290
     0
  0
SCALE
  5
4B
102
{ACAD_REACTORS
330
47
102
}
330
47
100
AcDbScale
 70
     0
300
1:5
140
1.0
141
5.0
290
     0
  0
SCALE
  5
4C
102
{ACAD_REACTORS
330
47
102
}
330
47
100
AcDbScale
 70
     0
300
1:8
140
1.0
141
8.0
290
     0
  0
SCALE
  5
4D
102
{ACAD_REACTORS
330
47
102
}
330
47
100
AcDbScale
 70
     0
300
1:10
140
1.0
141
10.0
290
     0
  0
SCALE
  5
4E
102
{ACAD_REACTORS
330
47
102
}
330
47
100
AcDbScale
 70
     0
300
1:16
140
1.0
141
16.0
290
     0
  0
SCALE
  5
4F
102
{ACAD_REACTORS
330
47
102
}
330
47
100
AcDbScale
 70
     0
300
1:20
140
1.0
141
20.0
290
     0
  0
SCALE
  5
50
102
{ACAD_REACTORS
330
47
102
}
330
47
100
AcDbScale
 70
     0
300
1:30
140
1.0
141
30.0
290
     0
  0
SCALE
  5
51
102
{ACAD_REACTORS
330
47
102
}
330
47
100
AcDbScale
 70
     0
300
1:40
140
1.0
141
40.0
290
     0
  0
SCALE
  5
52
102
{ACAD_REACTORS
330
47
102
}
330
47
100
AcDbScale
 70
     0
300
1:50
140
1.0
141
50.0
290
     0
  0
SCALE
  5
53
102
{ACAD_REACTORS
330
47
102
}
330
47
100
AcDbScale
 70
     0
300
1:100
140
1.0
141
100.0
290
     0
  0
SCALE
  5
54
102
{ACAD_REACTORS
330
47
102
}
330
47
100
AcDbScale
 70
     0
300
2:1
140
2.0
141
1.0
290
     0
  0
SCALE
  5
55
102
{ACAD_REACTORS
330
47
102
}
330
47
100
AcDbScale
 70
     0
300
4:1
140
4.0
141
1.0
290
     0
  0
SCALE
  5
56
102
{ACAD_REACTORS
330
47
102
}
330
47
100
AcDbScale
 70
     0
300
8:1
140
8.0
141
1.0
290
     0
  0
SCALE
  5
57
102
{ACAD_REACTORS
330
47
102
}
330
47
100
AcDbScale
 70
     0
300
10:1
140
10.0
141
1.0
290
     0
  0
SCALE
  5
58
102
{ACAD_REACTORS
330
47
102
}
330
47
100
AcDbScale
 70
     0
300
100:1
140
100.0
141
1.0
290
     0
  0
SCALE
  5
59
102
{ACAD_REACTORS
330
47
102
}
330
47
100
AcDbScale
 70
     0
300
1/128" = 1'-0"
140
0.0078125
141
12.0
290
     0
  0
SCALE
  5
5A
102
{ACAD_REACTORS
330
47
102
}
330
47
100
AcDbScale
 70
     0
300
1/64" = 1'-0"
140
0.015625
141
12.0
290
     0
  0
SCALE
  5
5B
102
{ACAD_REACTORS
330
47
102
}
330
47
100
AcDbScale
 70
     0
300
1/32" = 1'-0"
140
0.03125
141
12.0
290
     0
  0
SCALE
  5
5C
102
{ACAD_REACTORS
330
47
102
}
330
47
100
AcDbScale
 70
     0
300
1/16" = 1'-0"
140
0.0625
141
12.0
290
     0
  0
SCALE
  5
5D
102
{ACAD_REACTORS
330
47
102
}
330
47
100
AcDbScale
 70
     0
300
3/32" = 1'-0"
140
0.09375
141
12.0
290
     0
  0
SCALE
  5
5E
102
{ACAD_REACTORS
330
47
102
}
330
47
100
AcDbScale
 70
     0
300
1/8" = 1'-0"
140
0.125
141
12.0
290
     0
  0
SCALE
  5
5F
102
{ACAD_REACTORS
330
47
102
}
330
47
100
AcDbScale
 70
     0
300
3/16" = 1'-0"
140
0.1875
141
12.0
290
     0
  0
SCALE
  5
60
102
{ACAD_REACTORS
330
47
102
}
330
47
100
AcDbScale
 70
     0
300
1/4" = 1'-0"
140
0.25
141
12.0
290
     0
  0
SCALE
  5
61
102
{ACAD_REACTORS
330
47
102
}
330
47
100
AcDbScale
 70
     0
300
3/8" = 1'-0"
140
0.375
141
12.0
290
     0
  0
SCALE
  5
62
102
{ACAD_REACTORS
330
47
102
}
330
47
100
AcDbScale
 70
     0
300
1/2" = 1'-0"
140
0.5
141
12.0
290
     0
  0
SCALE
  5
63
102
{ACAD_REACTORS
330
47
102
}
330
47
100
AcDbScale
 70
     0
300
3/4" = 1'-0"
140
0.75
141
12.0
290
     0
  0
SCALE
  5
64
102
{ACAD_REACTORS
330
47
102
}
330
47
100
AcDbScale
 70
     0
300
1" = 1'-0"
140
1.0
141
12.0
290
     0
  0
SCALE
  5
65
102
{ACAD_REACTORS
330
47
102
}
330
47
100
AcDbScale
 70
     0
300
1-1/2" = 1'-0"
140
1.5
141
12.0
290
     0
  0
SCALE
  5
66
102
{ACAD_REACTORS
330
47
102
}
330
47
100
AcDbScale
 70
     0
300
3" = 1'-0"
140
3.0
141
12.0
290
     0
  0
SCALE
  5
67
102
{ACAD_REACTORS
330
47
102
}
330
47
100
AcDbScale
 70
     0
300
6" = 1'-0"
140
6.0
141
12.0
290
     0
  0
SCALE
  5
68
102
{ACAD_REACTORS
330
47
102
}
330
47
100
AcDbScale
 70
     0
300
1'-0" = 1'-0"
140
12.0
141
12.0
290
     0
  0
ENDSEC
  0
EOF
