  0
SECTION
  2
HEADER
  9
$ACADVER
  1
AC1015
  9
$ACADMAINTVER
 70
     6
  9
$DWGCODEPAGE
  3
ANSI_1252
  9
$INSBASE
 10
0.0
 20
0.0
 30
0.0
  9
$EXTMIN
 10
0.0
 20
0.0
 30
0.0
  9
$EXTMAX
 10
500.0
 20
1400.0
 30
0.0
  9
$LIMMIN
 10
0.0
 20
0.0
  9
$LIMMAX
 10
500.0
 20
1400.0
  9
$ORTHOMODE
 70
     0
  9
$REGENMODE
 70
     1
  9
$FILLMODE
 70
     1
  9
$QTEXTMODE
 70
     0
  9
$MIRRTEXT
 70
     1
  9
$LTSCALE
 40
1.0
  9
$ATTMODE
 70
     1
  9
$TEXTSIZE
 40
3.5
  9
$TRACEWID
 40
1.0
  9
$TEXTSTYLE
  7
Standard
  9
$CLAYER
  8
0
  9
$CELTYPE
  6
ByLayer
  9
$CECOLOR
 62
   256
  9
$CELTSCALE
 40
1.0
  9
$DISPSILH
 70
     0
  9
$DIMSCALE
 40
1.0
  9
$DIMASZ
 40
3.302
  9
$DIMEXO
 40
1.0
  9
$DIMDLI
 40
3.75
  9
$DIMRND
 40
0.0
  9
$DIMDLE
 40
0.0
  9
$DIMEXE
 40
1.0
  9
$DIMTP
 40
0.0
  9
$DIMTM
 40
0.0
  9
$DIMTXT
 40
3.5
  9
$DIMCEN
 40
2.5
  9
$DIMTSZ
 40
0.0
  9
$DIMTOL
 70
     0
  9
$DIMLIM
 70
     0
  9
$DIMTIH
 70
     1
  9
$DIMTOH
 70
     1
  9
$DIMSE1
 70
     0
  9
$DIMSE2
 70
     0
  9
$DIMTAD
 70
     1
  9
$DIMZIN
 70
     0
  9
$DIMBLK
  1

  9
$DIMASO
 70
     1
  9
$DIMSHO
 70
     1
  9
$DIMPOST
  1

  9
$DIMAPOST
  1

  9
$DIMALT
 70
     0
  9
$DIMALTD
 70
     3
  9
$DIMALTF
 40
0.0393700787
  9
$DIMLFAC
 40
1.0
  9
$DIMTOFL
 70
     1
  9
$DIMTVP
 40
0.0
  9
$DIMTIX
 70
     0
  9
$DIMSOXD
 70
     0
  9
$DIMSAH
 70
     0
  9
$DIMBLK1
  1

  9
$DIMBLK2
  1

  9
$DIMSTYLE
  2
ISO-25
  9
$DIMCLRD
 70
     0
  9
$DIMCLRE
 70
     0
  9
$DIMCLRT
 70
     0
  9
$DIMTFAC
 40
1.0
  9
$DIMGAP
 40
1.524
  9
$DIMJUST
 70
     0
  9
$DIMSD1
 70
     0
  9
$DIMSD2
 70
     0
  9
$DIMTOLJ
 70
     0
  9
$DIMTZIN
 70
     0
  9
$DIMALTZ
 70
     0
  9
$DIMALTTZ
 70
     0
  9
$DIMUPT
 70
     0
  9
$DIMDEC
 70
     3
  9
$DIMTDEC
 70
     3
  9
$DIMALTU
 70
     2
  9
$DIMALTTD
 70
     3
  9
$DIMTXSTY
  7
Standard
  9
$DIMAUNIT
 70
     0
  9
$DIMADEC
 70
     2
  9
$DIMALTRND
 40
0.0
  9
$DIMAZIN
 70
     0
  9
$DIMDSEP
 70
    44
  9
$DIMATFIT
 70
     3
  9
$DIMFRAC
 70
     0
  9
$DIMLDRBLK
  1

  9
$DIMLUNIT
 70
     2
  9
$DIMLWD
 70
    -2
  9
$DIMLWE
 70
    -2
  9
$DIMTMOVE
 70
     0
  9
$LUNITS
 70
     2
  9
$LUPREC
 70
     8
  9
$SKETCHINC
 40
1.0
  9
$FILLETRAD
 40
10.0
  9
$AUNITS
 70
     0
  9
$AUPREC
 70
     8
  9
$MENU
  1
.
  9
$ELEVATION
 40
0.0
  9
$PELEVATION
 40
0.0
  9
$THICKNESS
 40
0.0
  9
$LIMCHECK
 70
     0
  9
$CHAMFERA
 40
0.0
  9
$CHAMFERB
 40
0.0
  9
$CHAMFERC
 40
0.0
  9
$CHAMFERD
 40
0.0
  9
$SKPOLY
 70
     0
  9
$TDCREATE
 40
2458136.396157477
  9
$TDUCREATE
 40
2458136.396157477
  9
$TDUPDATE
 40
2458136.396158923
  9
$TDUUPDATE
 40
2458136.396158923
  9
$TDINDWG
 40
0.0000000116
  9
$TDUSRTIMER
 40
0.0000000116
  9
$USRTIMER
 70
     1
  9
$ANGBASE
 50
0.0
  9
$ANGDIR
 70
     0
  9
$PDMODE
 70
     0
  9
$PDSIZE
 40
-1.0
  9
$PLINEWID
 40
0.0
  9
$SPLFRAME
 70
     0
  9
$SPLINETYPE
 70
     6
  9
$SPLINESEGS
 70
     8
  9
$HANDSEED
  5
33E
  9
$SURFTAB1
 70
     6
  9
$SURFTAB2
 70
     6
  9
$SURFTYPE
 70
     6
  9
$SURFU
 70
     6
  9
$SURFV
 70
     6
  9
$UCSBASE
  2

  9
$UCSNAME
  2

  9
$UCSORG
 10
0.0
 20
0.0
 30
0.0
  9
$UCSXDIR
 10
1.0
 20
0.0
 30
0.0
  9
$UCSYDIR
 10
0.0
 20
1.0
 30
0.0
  9
$UCSORTHOREF
  2

  9
$UCSORTHOVIEW
 70
     0
  9
$UCSORGTOP
 10
0.0
 20
0.0
 30
0.0
  9
$UCSORGBOTTOM
 10
0.0
 20
0.0
 30
0.0
  9
$UCSORGLEFT
 10
0.0
 20
0.0
 30
0.0
  9
$UCSORGRIGHT
 10
0.0
 20
0.0
 30
0.0
  9
$UCSORGFRONT
 10
0.0
 20
0.0
 30
0.0
  9
$UCSORGBACK
 10
0.0
 20
0.0
 30
0.0
  9
$PUCSBASE
  2

  9
$PUCSNAME
  2

  9
$PUCSORG
 10
0.0
 20
0.0
 30
0.0
  9
$PUCSXDIR
 10
1.0
 20
0.0
 30
0.0
  9
$PUCSYDIR
 10
0.0
 20
1.0
 30
0.0
  9
$PUCSORTHOREF
  2

  9
$PUCSORTHOVIEW
 70
     0
  9
$PUCSORGTOP
 10
0.0
 20
0.0
 30
0.0
  9
$PUCSORGBOTTOM
 10
0.0
 20
0.0
 30
0.0
  9
$PUCSORGLEFT
 10
0.0
 20
0.0
 30
0.0
  9
$PUCSORGRIGHT
 10
0.0
 20
0.0
 30
0.0
  9
$PUCSORGFRONT
 10
0.0
 20
0.0
 30
0.0
  9
$PUCSORGBACK
 10
0.0
 20
0.0
 30
0.0
  9
$USERI1
 70
     0
  9
$USERI2
 70
     0
  9
$USERI3
 70
     0
  9
$USERI4
 70
     0
  9
$USERI5
 70
     0
  9
$USERR1
 40
0.0
  9
$USERR2
 40
0.0
  9
$USERR3
 40
0.0
  9
$USERR4
 40
0.0
  9
$USERR5
 40
0.0
  9
$WORLDVIEW
 70
     1
  9
$SHADEDGE
 70
     3
  9
$SHADEDIF
 70
    70
  9
$TILEMODE
 70
     1
  9
$MAXACTVP
 70
    64
  9
$PINSBASE
 10
0.0
 20
0.0
 30
0.0
  9
$PLIMCHECK
 70
     0
  9
$PEXTMIN
 10
1.0000000000E+20
 20
1.0000000000E+20
 30
1.0000000000E+20
  9
$PEXTMAX
 10
-1.0000000000E+20
 20
-1.0000000000E+20
 30
-1.0000000000E+20
  9
$PLIMMIN
 10
0.0
 20
0.0
  9
$PLIMMAX
 10
420.0
 20
297.0
  9
$UNITMODE
 70
     0
  9
$VISRETAIN
 70
     1
  9
$PLINEGEN
 70
     0
  9
$PSLTSCALE
 70
     1
  9
$TREEDEPTH
 70
  3020
  9
$CMLSTYLE
  2
Standard
  9
$CMLJUST
 70
     0
  9
$CMLSCALE
 40
20.0
  9
$PROXYGRAPHICS
 70
     1
  9
$MEASUREMENT
 70
     1
  9
$CELWEIGHT
370
    -1
  9
$ENDCAPS
280
     0
  9
$JOINSTYLE
280
     0
  9
$LWDISPLAY
290
     1
  9
$INSUNITS
 70
     4
  9
$HYPERLINKBASE
  1

  9
$STYLESHEET
  1

  9
$XEDIT
290
     1
  9
$CEPSNTYPE
380
     0
  9
$PSTYLEMODE
290
     1
  9
$FINGERPRINTGUID
  2
{0688CB4E-B315-42DC-8126-A4E46A2FF7FE}
  9
$VERSIONGUID
  2
{FAEB1C32-E019-11D5-929B-00C0DF256EC4}
  9
$EXTNAMES
290
     1
  9
$PSVPSCALE
 40
0.0
  9
$OLESTARTUP
290
     0
  0
ENDSEC
  0
SECTION
  2
CLASSES
  0
CLASS
  1
ACDBDICTIONARYWDFLT
  2
AcDbDictionaryWithDefault
  3
ObjectDBX Classes
 90
        0
280
     0
281
     0
  0
CLASS
  1
VISUALSTYLE
  2
AcDbVisualStyle
  3
ObjectDBX Classes
 90
     4095
280
     0
281
     0
  0
CLASS
  1
MATERIAL
  2
AcDbMaterial
  3
ObjectDBX Classes
 90
     1153
280
     0
281
     0
  0
CLASS
  1
SCALE
  2
AcDbScale
  3
ObjectDBX Classes
 90
     1153
280
     0
281
     0
  0
CLASS
  1
TABLESTYLE
  2
AcDbTableStyle
  3
ObjectDBX Classes
 90
     4095
280
     0
281
     0
  0
CLASS
  1
MLEADERSTYLE
  2
AcDbMLeaderStyle
  3
ACDB_MLEADERSTYLE_CLASS
 90
     4095
280
     0
281
     0
  0
CLASS
  1
SUN
  2
AcDbSun
  3
SCENEOE
 90
     1153
280
     0
281
     0
  0
CLASS
  1
ACDBPLACEHOLDER
  2
AcDbPlaceHolder
  3
ObjectDBX Classes
 90
        0
280
     0
281
     0
  0
CLASS
  1
LAYOUT
  2
AcDbLayout
  3
ObjectDBX Classes
 90
        0
280
     0
281
     0
  0
ENDSEC
  0
SECTION
  2
TABLES
  0
TABLE
  2
VPORT
  5
8
330
0
100
AcDbSymbolTable
 70
     1
  0
VPORT
  5
29
330
8
100
AcDbSymbolTableRecord
100
AcDbViewportTableRecord
  2
*Active
 70
     0
 10
0.0
 20
0.0
 11
1.0
 21
1.0
 12
250.0
 22
700.0
 13
0.0
 23
0.0
 14
10.0
 24
10.0
 15
10.0
 25
10.0
 16
0.0
 26
0.0
 36
1.0
 17
0.0
 27
0.0
 37
0.0
 40
1400.0
 41
0.3571428571
 42
50.0
 43
0.0
 44
0.0
 50
0.0
 51
0.0
 71
     0
 72
  2000
 73
     1
 74
     3
 75
     0
 76
     0
 77
     0
 78
     0
281
     0
 65
     1
110
0.0
120
0.0
130
0.0
111
1.0
121
0.0
131
0.0
112
0.0
122
1.0
132
0.0
 79
     0
146
0.0
  0
ENDTAB
  0
TABLE
  2
LTYPE
  5
5
330
0
100
AcDbSymbolTable
 70
     6
  0
LTYPE
  5
14
330
5
100
AcDbSymbolTableRecord
100
AcDbLinetypeTableRecord
  2
ByBlock
 70
     0
  3

 72
    65
 73
     0
 40
0.0
  0
LTYPE
  5
15
330
5
100
AcDbSymbolTableRecord
100
AcDbLinetypeTableRecord
  2
ByLayer
 70
     0
  3

 72
    65
 73
     0
 40
0.0
  0
LTYPE
  5
16
330
5
100
AcDbSymbolTableRecord
100
AcDbLinetypeTableRecord
  2
Continuous
 70
     0
  3
Solid line
 72
    65
 73
     0
 40
0.0
  0
LTYPE
  5
6E
330
5
100
AcDbSymbolTableRecord
100
AcDbLinetypeTableRecord
  2
HIDDEN
 70
     0
  3
Hidden __ __ __ __ __ __ __ __ __ __ __ __ __ __
 72
    65
 73
     2
 40
1.905
 49
1.27
 74
     0
 49
-0.635
 74
     0
  0
LTYPE
  5
6F
330
5
100
AcDbSymbolTableRecord
100
AcDbLinetypeTableRecord
  2
PHANTOM
 70
     0
  3
Phantom ______  __  __  ______  __  __  ______
 72
    65
 73
     6
 40
12.7
 49
6.35
 74
     0
 49
-1.27
 74
     0
 49
1.27
 74
     0
 49
-1.27
 74
     0
 49
1.27
 74
     0
 49
-1.27
 74
     0
  0
LTYPE
  5
70
330
5
100
AcDbSymbolTableRecord
100
AcDbLinetypeTableRecord
  2
CENTER
 70
     0
  3
Center ____ _ ____ _ ____ _ ____ _ ____ _ ____
 72
    65
 73
     4
 40
10.16
 49
6.35
 74
     0
 49
-1.27
 74
     0
 49
1.27
 74
     0
 49
-1.27
 74
     0
  0
LTYPE
  5
71
330
5
100
AcDbSymbolTableRecord
100
AcDbLinetypeTableRecord
  2
CENTERX2
 70
     0
  3
Center (2x) ________  __  ________  __  _____
 72
    65
 73
     4
 40
20.32
 49
12.7
 74
     0
 49
-2.54
 74
     0
 49
2.54
 74
     0
 49
-2.54
 74
     0
  0
LTYPE
  5
72
330
5
100
AcDbSymbolTableRecord
100
AcDbLinetypeTableRecord
  2
DOT2
 70
     0
  3
Dot (.5x) ........................................
 72
    65
 73
     2
 40
0.635
 49
0.0
 74
     0
 49
-0.635
 74
     0
  0
ENDTAB
  0
TABLE
  2
LAYER
  5
2
330
0
100
AcDbSymbolTable
 70
     1
  0
LAYER
  5
10
330
2
100
AcDbSymbolTableRecord
100
AcDbLayerTableRecord
  2
0
 70
     0
 62
     7
  6
Continuous
370
    -3
390
F
  0
ENDTAB
  0
TABLE
  2
STYLE
  5
3
330
0
100
AcDbSymbolTable
 70
     1
  0
STYLE
  5
11
330
3
100
AcDbSymbolTableRecord
100
AcDbTextStyleTableRecord
  2
Standard
 70
     0
 40
0.0
 41
1.0
 50
0.0
 71
     0
 42
3.5
  3
txt
  4

  0
ENDTAB
  0
TABLE
  2
VIEW
  5
6
330
0
100
AcDbSymbolTable
 70
     0
  0
ENDTAB
  0
TABLE
  2
UCS
  5
7
330
0
100
AcDbSymbolTable
 70
     0
  0
ENDTAB
  0
TABLE
  2
APPID
  5
9
330
0
100
AcDbSymbolTable
 70
     1
  0
APPID
  5
12
330
9
100
AcDbSymbolTableRecord
100
AcDbRegAppTableRecord
  2
ACAD
 70
     0
  0
ENDTAB
  0
TABLE
  2
DIMSTYLE
  5
A
330
0
100
AcDbSymbolTable
 70
     1
100
AcDbDimStyleTable
  0
DIMSTYLE
105
27
330
A
100
AcDbSymbolTableRecord
100
AcDbDimStyleTableRecord
  2
ISO-25
 70
     0
 41
2.5
 42
0.625
 43
3.75
 44
1.25
 73
     0
 74
     0
 77
     1
 78
     8
140
2.5
141
2.5
143
0.0393700787
147
0.625
171
     3
172
     1
178
     0
271
     2
272
     2
274
     3
278
    44
283
     0
284
     8
340
11
  0
ENDTAB
  0
TABLE
  2
BLOCK_RECORD
  5
1
330
0
100
AcDbSymbolTable
 70
     1
  0
BLOCK_RECORD
  5
1F
330
1
100
AcDbSymbolTableRecord
100
AcDbBlockTableRecord
  2
*Model_Space
340
22
  0
BLOCK_RECORD
  5
1B
330
1
100
AcDbSymbolTableRecord
100
AcDbBlockTableRecord
  2
*Paper_Space
340
1E
  0
BLOCK_RECORD
  5
23
330
1
100
AcDbSymbolTableRecord
100
AcDbBlockTableRecord
  2
*Paper_Space0
340
26
  0
ENDTAB
  0
ENDSEC
  0
SECTION
  2
BLOCKS
  0
BLOCK
  5
20
330
1F
100
AcDbEntity
  8
0
100
AcDbBlockBegin
  2
*Model_Space
 70
     0
 10
0.0
 20
0.0
 30
0.0
  3
*Model_Space
  1

  0
ENDBLK
  5
21
330
1F
100
AcDbEntity
  8
0
100
AcDbBlockEnd
  0
BLOCK
  5
1C
330
1B
100
AcDbEntity
 67
     1
  8
0
100
AcDbBlockBegin
  2
*Paper_Space
 70
     0
 10
0.0
 20
0.0
 30
0.0
  3
*Paper_Space
  1

  0
ENDBLK
  5
1D
330
1B
100
AcDbEntity
 67
     1
  8
0
100
AcDbBlockEnd
  0
BLOCK
  5
24
330
23
100
AcDbEntity
  8
0
100
AcDbBlockBegin
  2
*Paper_Space0
 70
     0
 10
0.0
 20
0.0
 30
0.0
  3
*Paper_Space0
  1

  0
ENDBLK
  5
25
330
23
100
AcDbEntity
  8
0
100
AcDbBlockEnd
  0
ENDSEC
  0
SECTION
  2
ENTITIES
  0
LINE
  5
73
330
1F
100
AcDbEntity
  8
0
  6
Continuous
 62
     7
370
    25
100
AcDbLine
 10
235.8478375348
 20
1116.4219332905
 30
0.0
 11
223.8929153057
 21
1060.178394434
 31
0.0
  0
LINE
  5
74
330
1F
100
AcDbEntity
  8
0
  6
Continuous
 62
     7
370
    25
100
AcDbLine
 10
222.6454459699
 20
1054.3095422955
 30
0.0
 11
216.0962254377
 21
1023.4978748532
 31
0.0
  0
LINE
  5
75
330
1F
100
AcDbEntity
  8
0
  6
Continuous
 62
     7
370
    25
100
AcDbLine
 10
227.8339986326
 20
1021.0029436322
 30
0.0
 11
234.3832163709
 21
1051.8146110745
 31
0.0
  0
LINE
  5
76
330
1F
100
AcDbEntity
  8
0
  6
Continuous
 62
     7
370
    25
100
AcDbLine
 10
235.630686638
 20
1057.683463213
 30
0.0
 11
247.5856089834
 21
1113.9269424649
 31
0.0
  0
LWPOLYLINE
  5
77
330
1F
100
AcDbEntity
  8
0
  6
Continuous
 62
     7
370
    25
100
AcDbPolyline
 90
       18
 70
   128
 43
0.0
 10
216.0962254377
 20
1023.4978748532
 10
215.2329601916
 20
1019.4365335675
 10
214.3770635696
 20
1015.4098225804
 10
213.5358296903
 20
1011.4521337719
 10
212.7164409133
 20
1007.5972629757
 10
211.9258858832
 20
1003.8779927464
 10
211.170914826
 20
1000.3260923596
 10
210.4579613181
 20
996.9719601841
 10
209.7931124838
 20
993.8440872403
 10
209.1820419403
 20
990.9691764088
 10
208.6299576434
 20
988.3718444081
 10
208.1415720852
 20
986.0742045613
 10
207.7210575911
 20
984.0958071919
 10
207.3719941648
 20
982.453580019
 10
207.0973620387
 20
981.1615301342
 10
206.8995044204
 20
980.2306843968
 10
206.7801125916
 20
979.6690298291
 10
206.7401998313
 20
979.4812155934
  0
LWPOLYLINE
  5
78
330
1F
100
AcDbEntity
  8
0
  6
Continuous
 62
     7
370
    25
100
AcDbPolyline
 90
       18
 70
   128
 43
0.0
 10
218.4779730263
 20
976.9862843724
 10
218.5178839239
 20
977.174098608
 10
218.6372757526
 20
977.7357531758
 10
218.835133371
 20
978.6665989132
 10
219.1097636344
 20
979.958648798
 10
219.4588270607
 20
981.6008759709
 10
219.8793452801
 20
983.5792137356
 10
220.3677289756
 20
985.8769131871
 10
220.9198114099
 20
988.4742451878
 10
221.5308838161
 20
991.3491560192
 10
222.1957326504
 20
994.4769693585
 10
222.9086861583
 20
997.8311611386
 10
223.6636590781
 20
1001.3830615254
 10
224.4542122456
 20
1005.1022721501
 10
225.2736010226
 20
1008.9572025509
 10
226.1148330393
 20
1012.9148913594
 10
226.9707333865
 20
1016.9416023465
 10
227.8339986326
 20
1021.0029436322
  0
SPLINE
  5
79
330
1F
100
AcDbEntity
  8
0
  6
Continuous
 62
     7
370
    25
100
AcDbSpline
210
0.0
220
0.0
230
1.0
 70
     8
 71
     3
 72
    12
 73
     8
 74
     0
 42
0.000000001
 43
0.00000001
 40
0.0
 40
0.0
 40
0.0
 40
0.0
 40
0.250837453004073
 40
0.5356757572170001
 40
0.705932154628006
 40
0.8486517790124689
 40
1.0
 40
1.0
 40
1.0
 40
1.0
 10
216.8809243114949
 20
974.0059925289466
 30
0.0
 10
217.0243190063624
 20
974.134379369689
 30
0.0
 10
217.3305454523503
 20
974.4085558027043
 30
0.0
 10
217.6545821550721
 20
974.506963432183
 30
0.0
 10
218.1390165066071
 20
974.5117743846521
 30
0.0
 10
218.6645844615499
 20
974.383335433263
 30
0.0
 10
218.9332531225654
 20
974.3144401916796
 30
0.0
 10
219.0715291174413
 20
974.2789818020179
 30
0.0
  0
SPLINE
  5
7A
330
1F
100
AcDbEntity
  8
0
  6
Continuous
 62
     7
370
    25
100
AcDbSpline
210
0.0
220
0.0
230
1.0
 70
     8
 71
     3
 72
    10
 73
     6
 74
     0
 42
0.000000001
 43
0.00000001
 40
0.0
 40
0.0
 40
0.0
 40
0.0
 40
0.2503256419607645
 40
0.6141643539362555
 40
1.0
 40
1.0
 40
1.0
 40
1.0
 10
207.2700366946221
 20
981.9739414425209
 30
0.0
 10
207.1943565921281
 20
981.9723836328617
 30
0.0
 10
207.0086783655988
 20
981.9685616066585
 30
0.0
 10
206.5501783930243
 20
982.0864245694769
 30
0.0
 10
206.2837622589813
 20
982.1538670697765
 30
0.0
 10
206.1466456027986
 20
982.188577768357
 30
0.0
  0
SPLINE
  5
7B
330
1F
100
AcDbEntity
  8
0
  6
Continuous
 62
     7
370
    25
100
AcDbSpline
210
0.0
220
0.0
230
1.0
 70
     8
 71
     3
 72
    13
 73
     9
 74
     0
 42
0.000000001
 43
0.00000001
 40
0.0
 40
0.0
 40
0.0
 40
0.0
 40
0.1701564951613239
 40
0.3340098962751681
 40
0.4905775739780056
 40
0.6367135350314262
 40
0.8882243671429843
 40
1.0
 40
1.0
 40
1.0
 40
1.0
 10
206.2137753339769
 20
982.1740342350319
 30
0.0
 10
205.9942291239674
 20
982.2131075082474
 30
0.0
 10
205.563269337429
 20
982.2898066664051
 30
0.0
 10
204.9194801121927
 20
982.1890586280655
 30
0.0
 10
204.3472946641471
 20
981.9571801382031
 30
0.0
 10
203.7588980683738
 20
981.5255815892644
 30
0.0
 10
203.3192995953576
 20
980.9781726664631
 30
0.0
 10
203.2045077505622
 20
980.5097524100315
 30
0.0
 10
203.1691887053014
 20
980.3656293125465
 30
0.0
  0
SPLINE
  5
7C
330
1F
100
AcDbEntity
  8
0
  6
Continuous
 62
     7
370
    25
100
AcDbSpline
210
0.0
220
0.0
230
1.0
 70
     8
 71
     3
 72
    12
 73
     8
 74
     0
 42
0.000000001
 43
0.00000001
 40
0.0
 40
0.0
 40
0.0
 40
0.0
 40
0.1120395265069646
 40
0.284617954952286
 40
0.4726601328454237
 40
0.6734539688683272
 40
1.0
 40
1.0
 40
1.0
 40
1.0
 10
203.1691887053014
 20
979.0359688968972
 30
0.0
 10
203.2095127074684
 20
978.902327665258
 30
0.0
 10
203.3119491902891
 20
978.5628341379974
 30
0.0
 10
203.6449446502399
 20
978.0727472957655
 30
0.0
 10
204.1524406100835
 20
977.604962824689
 30
0.0
 10
204.9617227569527
 20
977.2245984527343
 30
0.0
 10
205.5324438377822
 20
977.1559379194457
 30
0.0
 10
205.8858529301644
 20
977.1134210796669
 30
0.0
  0
SPLINE
  5
7D
330
1F
100
AcDbEntity
  8
0
  6
Continuous
 62
     7
370
    25
100
AcDbSpline
210
0.0
220
0.0
230
1.0
 70
     8
 71
     3
 72
     9
 73
     5
 74
     0
 42
0.000000001
 43
0.00000001
 40
0.0
 40
0.0
 40
0.0
 40
0.0
 40
0.5632061680377947
 40
0.9999999999999999
 40
0.9999999999999999
 40
0.9999999999999999
 40
0.9999999999999999
 10
205.9557282002927
 20
977.1025730343177
 30
0.0
 10
206.2291784072831
 20
977.012207929189
 30
0.0
 10
206.7147025767768
 20
976.8517602809618
 30
0.0
 10
206.9102354389606
 20
976.3236188680368
 30
0.0
 10
206.9956429871083
 20
976.0929299564674
 30
0.0
  0
SPLINE
  5
7E
330
1F
100
AcDbEntity
  8
0
  6
Continuous
 62
     7
370
    25
100
AcDbSpline
210
0.0
220
0.0
230
1.0
 70
     8
 71
     3
 72
    19
 73
    15
 74
     0
 42
0.000000001
 43
0.00000001
 40
0.0
 40
0.0
 40
0.0
 40
0.0
 40
0.0741262295219144
 40
0.1455067998347571
 40
0.2137136287275012
 40
0.2773758302582522
 40
0.3869430821367434
 40
0.4697499780156341
 40
0.5678101662816681
 40
0.631459888615773
 40
0.7030817452423537
 40
0.781131625851619
 40
0.8644695700629704
 40
1.0
 40
1.0
 40
1.0
 40
1.0
 10
219.004399386263
 20
974.2935253353431
 30
0.0
 10
219.2239160683839
 20
974.2544599945811
 30
0.0
 10
219.654818464631
 20
974.1777763057518
 30
0.0
 10
220.2990150654921
 20
974.2784130845984
 30
0.0
 10
220.8697631671652
 20
974.5106850684699
 30
0.0
 10
221.464312315686
 20
974.9405969457086
 30
0.0
 10
221.9356987770143
 20
975.5819639620775
 30
0.0
 10
222.187678694994
 20
976.4395829443438
 30
0.0
 10
222.1544921159392
 20
977.1945944196905
 30
0.0
 10
221.9241749439478
 20
977.8578912286357
 30
0.0
 10
221.5766356442631
 20
978.3959849627842
 30
0.0
 10
221.0647486774926
 20
978.8622454522268
 30
0.0
 10
220.2568983426399
 20
979.243116731569
 30
0.0
 10
219.6859004380848
 20
979.3116811613518
 30
0.0
 10
219.3323199274303
 20
979.3541384907081
 30
0.0
  0
LINE
  5
7F
330
1F
100
AcDbEntity
  8
0
  6
Continuous
 62
     7
370
    25
100
AcDbLine
 10
236.3380177515
 20
1136.7645217152
 30
0.0
 11
235.636255947
 21
1133.4630204411
 31
0.0
  0
LINE
  5
80
330
1F
100
AcDbEntity
  8
0
  6
Continuous
 62
     7
370
    25
100
AcDbLine
 10
254.7101338962
 20
1129.4087125035
 30
0.0
 11
255.4118961664
 21
1132.7102733822
 31
0.0
  0
LINE
  5
81
330
1F
100
AcDbEntity
  8
0
  6
Continuous
 62
     7
370
    25
100
AcDbLine
 10
255.4118961664
 20
1132.7102733822
 30
0.0
 11
253.9210801581
 21
1134.0312911244
 31
0.0
  0
LINE
  5
82
330
1F
100
AcDbEntity
  8
0
  6
Continuous
 62
     7
370
    25
100
AcDbLine
 10
238.2237662198
 20
1137.3607469769
 30
0.0
 11
236.3380177515
 21
1136.7645217152
 31
0.0
  0
ARC
  5
83
330
1F
100
AcDbEntity
  8
0
  6
Continuous
 62
     7
370
    25
100
AcDbCircle
 10
240.5269935705
 20
1132.4234382263
 30
0.0
 40
4.999999999999991
100
AcDbArc
 50
168.0
 51
182.2434605735
  0
ARC
  5
84
330
1F
100
AcDbEntity
  8
0
  6
Continuous
 62
     7
370
    25
100
AcDbCircle
 10
249.8193957774
 20
1130.4482771635
 30
0.0
 40
4.999999999999972
100
AcDbArc
 50
333.7565394265
 51
348.0
  0
LINE
  5
85
330
1F
100
AcDbEntity
  8
0
  6
Continuous
 62
     7
370
    25
100
AcDbLine
 10
235.5308255749
 20
1132.2277141781
 30
0.0
 11
235.7444337206
 21
1126.7751408787
 31
0.0
  0
LINE
  5
86
330
1F
100
AcDbEntity
  8
0
  6
Continuous
 62
     7
370
    25
100
AcDbLine
 10
251.8911175533
 20
1123.3430458279
 30
0.0
 11
254.3040120611
 21
1128.2373620243
 31
0.0
  0
ARC
  5
87
330
1F
100
AcDbEntity
  8
0
  6
Continuous
 62
     7
370
    25
100
AcDbCircle
 10
230.7482666056
 20
1126.5794266935
 30
0.0
 40
4.999999999999987
100
AcDbArc
 50
348.0
 51
2.2434605735
  0
ARC
  5
88
330
1F
100
AcDbEntity
  8
0
  6
Continuous
 62
     7
370
    25
100
AcDbCircle
 10
256.3757337448
 20
1121.132140394
 30
0.0
 40
5.0
100
AcDbArc
 50
153.7565394265
 51
168.0
  0
LINE
  5
89
330
1F
100
AcDbEntity
  8
0
  6
Continuous
 62
     7
370
    25
100
AcDbLine
 10
235.6390042799
 20
1125.5398942204
 30
0.0
 11
234.3135068761
 21
1119.30387747
 31
0.0
  0
LINE
  5
8A
330
1F
100
AcDbEntity
  8
0
  6
Continuous
 62
     7
370
    25
100
AcDbLine
 10
250.1594980816
 20
1115.9357382031
 30
0.0
 11
251.4849957181
 21
1122.1716953488
 31
0.0
  0
LINE
  5
8B
330
1F
100
AcDbEntity
  8
0
  6
Continuous
 62
     7
370
    25
100
AcDbLine
 10
234.4113218235
 20
1119.283075449
 30
0.0
 11
233.9435203569
 21
1117.08229315
 31
0.0
  0
LINE
  5
8C
330
1F
100
AcDbEntity
  8
0
  6
Continuous
 62
     7
370
    25
100
AcDbLine
 10
249.5938821333
 20
1113.7556983204
 30
0.0
 11
250.061683367
 21
1115.9565402241
 31
0.0
  0
LINE
  5
8D
330
1F
100
AcDbEntity
  8
0
  6
Continuous
 62
     7
370
    25
100
AcDbLine
 10
233.9435203569
 20
1117.08229315
 30
0.0
 11
234.1360796811
 21
1116.7857600422
 31
0.0
  0
LINE
  5
8E
330
1F
100
AcDbEntity
  8
0
  6
Continuous
 62
     7
370
    25
100
AcDbLine
 10
249.2973673027
 20
1113.5631157132
 30
0.0
 11
249.5938821333
 21
1113.7556983204
 31
0.0
  0
ARC
  5
8F
330
1F
100
AcDbEntity
  8
0
  6
Continuous
 62
     7
370
    25
100
AcDbCircle
 10
254.5753223193
 20
1134.7872418043
 30
0.0
 40
0.9998739683567505
100
AcDbArc
 50
168.3122960046
 51
229.3103056702
  0
ARC
  5
90
330
1F
100
AcDbEntity
  8
0
  6
Continuous
 62
     7
370
    25
100
AcDbCircle
 10
237.9468671514
 20
1138.3221005158
 30
0.0
 40
1.000147692375102
100
AcDbArc
 50
285.7860410566
 51
347.9820512409
  0
LINE
  5
91
330
1F
100
AcDbEntity
  8
0
  6
Continuous
 62
     7
370
    25
100
AcDbLine
 10
165.3210960897
 20
676.1245084973
 30
0.0
 11
165.3210960897
 21
674.488062975
 31
0.0
  0
LINE
  5
92
330
1F
100
AcDbEntity
  8
0
  6
Continuous
 62
     7
370
    25
100
AcDbLine
 10
165.3210960897
 20
668.0033756466
 30
0.0
 11
165.3210960897
 21
661.4470733376
 31
0.0
  0
LINE
  5
93
330
1F
100
AcDbEntity
  8
0
  6
Continuous
 62
     7
370
    25
100
AcDbLine
 10
166.3210981163
 20
663.1187750073
 30
0.0
 11
166.3210981163
 21
664.0956951351
 31
0.0
  0
LINE
  5
94
330
1F
100
AcDbEntity
  8
0
  6
Continuous
 62
     7
370
    25
100
AcDbLine
 10
166.3210981163
 20
667.0264555188
 30
0.0
 11
166.3210981163
 21
668.0033756466
 31
0.0
  0
LINE
  5
95
330
1F
100
AcDbEntity
  8
0
  6
Continuous
 62
     7
370
    25
100
AcDbLine
 10
166.3210981163
 20
674.5146764489
 30
0.0
 11
166.3210981163
 21
676.1245084973
 31
0.0
  0
SPLINE
  5
96
330
1F
100
AcDbEntity
  8
0
  6
Continuous
 62
     7
370
    25
100
AcDbSpline
210
0.0
220
0.0
230
1.0
 70
     8
 71
     3
 72
    10
 73
     6
 74
     0
 42
0.000000001
 43
0.00000001
 40
0.0
 40
0.0
 40
0.0
 40
0.0
 40
0.2987219175446064
 40
0.8831954642560327
 40
0.9999999999999999
 40
0.9999999999999999
 40
0.9999999999999999
 40
0.9999999999999999
 10
166.3210981162549
 20
676.1245084972694
 30
0.0
 10
166.3311355293177
 20
676.4187268413791
 30
0.0
 10
166.360811951332
 20
677.2886071272135
 30
0.0
 10
166.5036542759368
 20
678.28179351292
 30
0.0
 10
166.7604657018621
 20
678.9248809387611
 30
0.0
 10
166.803240087843
 20
679.0319932670906
 30
0.0
  0
SPLINE
  5
97
330
1F
100
AcDbEntity
  8
0
  6
Continuous
 62
     7
370
    25
100
AcDbSpline
210
0.0
220
0.0
230
1.0
 70
     8
 71
     3
 72
     9
 73
     5
 74
     0
 42
0.000000001
 43
0.00000001
 40
0.0
 40
0.0
 40
0.0
 40
0.0
 40
0.4873570362295159
 40
1.0
 40
1.0
 40
1.0
 40
1.0
 10
165.7822125228406
 20
679.1199101181343
 30
0.0
 10
165.64792189887
 20
678.6425740555723
 30
0.0
 10
165.3723731451071
 20
677.6631359289476
 30
0.0
 10
165.3384741638946
 20
676.6459577391631
 30
0.0
 10
165.321096089697
 20
676.1245084972694
 30
0.0
  0
LINE
  5
98
330
1F
100
AcDbEntity
  8
0
  6
Continuous
 62
     7
370
    25
100
AcDbLine
 10
330.3619839819
 20
677.2637320729
 30
0.0
 11
330.3619839819
 21
674.4858874054
 31
0.0
  0
LINE
  5
99
330
1F
100
AcDbEntity
  8
0
  6
Continuous
 62
     7
370
    25
100
AcDbLine
 10
330.3619839819
 20
668.0033756466
 30
0.0
 11
330.3619839819
 21
661.4471329422
 31
0.0
  0
LINE
  5
9A
330
1F
100
AcDbEntity
  8
0
  6
Continuous
 62
     7
370
    25
100
AcDbLine
 10
331.3619860085
 20
663.1187750073
 30
0.0
 11
331.3619860085
 21
664.0956951351
 31
0.0
  0
LINE
  5
9B
330
1F
100
AcDbEntity
  8
0
  6
Continuous
 62
     7
370
    25
100
AcDbLine
 10
331.3619860085
 20
667.0264555188
 30
0.0
 11
331.3619860085
 21
668.0033756466
 31
0.0
  0
LINE
  5
9C
330
1F
100
AcDbEntity
  8
0
  6
Continuous
 62
     7
370
    25
100
AcDbLine
 10
331.3619860085
 20
674.5193554135
 30
0.0
 11
331.3619860085
 21
677.2637320729
 31
0.0
  0
SPLINE
  5
9D
330
1F
100
AcDbEntity
  8
0
  6
Continuous
 62
     7
370
    25
100
AcDbSpline
210
0.0
220
0.0
230
1.0
 70
     8
 71
     3
 72
     9
 73
     5
 74
     0
 42
0.000000001
 43
0.00000001
 40
0.0
 40
0.0
 40
0.0
 40
0.0
 40
0.4957526831982123
 40
0.9999999999999999
 40
0.9999999999999999
 40
0.9999999999999999
 40
0.9999999999999999
 10
331.3619860085012
 20
677.2637320728614
 30
0.0
 10
331.365700831537
 20
677.559458059132
 30
0.0
 10
331.3731941304374
 20
678.1559772435824
 30
0.0
 10
331.5020455522385
 20
678.7383389428345
 30
0.0
 10
331.567018535948
 20
679.0319932670906
 30
0.0
  0
LINE
  5
9E
330
1F
100
AcDbEntity
  8
0
  6
Continuous
 62
     7
370
    25
100
AcDbLine
 10
330.7619833025
 20
680.0098968716
 30
0.0
 11
330.6619890603
 21
679.5931709977
 31
0.0
  0
SPLINE
  5
9F
330
1F
100
AcDbEntity
  8
0
  6
Continuous
 62
     7
370
    25
100
AcDbSpline
210
0.0
220
0.0
230
1.0
 70
     8
 71
     3
 72
     9
 73
     5
 74
     0
 42
0.000000001
 43
0.00000001
 40
0.0
 40
0.0
 40
0.0
 40
0.0
 40
0.1165778226608187
 40
1.0
 40
1.0
 40
1.0
 40
1.0
 10
330.5273272665502
 20
679.0319932670906
 30
0.0
 10
330.5105669798276
 20
678.9649097815204
 30
0.0
 10
330.3667978963088
 20
678.3894702679063
 30
0.0
 10
330.3642419561572
 20
677.7917613693972
 30
0.0
 10
330.3619839819433
 20
677.2637320728614
 30
0.0
  0
LINE
  5
A0
330
1F
100
AcDbEntity
  8
0
  6
Continuous
 62
     7
370
    25
100
AcDbLine
 10
164.7619970711
 20
679.0319932671
 30
0.0
 11
164.7621013793
 21
674.6669961186
 31
0.0
  0
LINE
  5
A1
330
1F
100
AcDbEntity
  8
0
  6
Continuous
 62
     7
370
    25
100
AcDbLine
 10
331.4622931751
 20
663.1187750073
 30
0.0
 11
331.4622708233
 21
664.0956951351
 31
0.0
  0
LINE
  5
A2
330
1F
100
AcDbEntity
  8
0
  6
Continuous
 62
     7
370
    25
100
AcDbLine
 10
331.4622112187
 20
667.0264555188
 30
0.0
 11
331.4621888669
 21
668.0033756466
 31
0.0
  0
LINE
  5
A3
330
1F
100
AcDbEntity
  8
0
  6
Continuous
 62
     7
370
    25
100
AcDbLine
 10
331.4620547565
 20
674.6253920765
 30
0.0
 11
331.4619877013
 21
678.0278636189
 31
0.0
  0
LINE
  5
A4
330
1F
100
AcDbEntity
  8
0
  6
Continuous
 62
     7
370
    25
100
AcDbLine
 10
329.9619846614
 20
678.0278636189
 30
0.0
 11
329.9620740684
 21
674.6329916687
 31
0.0
  0
LINE
  5
A5
330
1F
100
AcDbEntity
  8
0
  6
Continuous
 62
     7
370
    25
100
AcDbLine
 10
331.4619877013
 20
678.0278636189
 30
0.0
 11
331.303796974
 21
679.0319932671
 31
0.0
  0
LINE
  5
A6
330
1F
100
AcDbEntity
  8
0
  6
Continuous
 62
     7
370
    25
100
AcDbLine
 10
329.8038386377
 20
679.0319932671
 30
0.0
 11
329.9619846614
 21
678.0278636189
 31
0.0
  0
LINE
  5
A7
330
1F
100
AcDbEntity
  8
0
  6
Continuous
 62
     7
370
    25
100
AcDbLine
 10
165.6619825037
 20
681.2820090027
 30
0.0
 11
165.7619841965
 21
681.2820090027
 31
0.0
  0
LINE
  5
A8
330
1F
100
AcDbEntity
  8
0
  6
Continuous
 62
     7
370
    25
100
AcDbLine
 10
330.6619890603
 20
681.2820090027
 30
0.0
 11
330.7619833025
 21
681.2820090027
 31
0.0
  0
LINE
  5
A9
330
1F
100
AcDbEntity
  8
0
  6
Continuous
 62
     7
370
    25
100
AcDbLine
 10
172.1619882258
 20
429.5059433253
 30
0.0
 11
172.1619882258
 21
429.852227685
 31
0.0
  0
SPLINE
  5
AA
330
1F
100
AcDbEntity
  8
0
  6
Continuous
 62
     7
370
    25
100
AcDbSpline
210
0.0
220
0.0
230
1.0
 70
     8
 71
     3
 72
    15
 73
    11
 74
     0
 42
0.000000001
 43
0.00000001
 40
0.0
 40
0.0
 40
0.0
 40
0.0
 40
0.0509667365713656
 40
0.1846227691076937
 40
0.3213244969689095
 40
0.4623372575901833
 40
0.6057219918440133
 40
0.7497046664975147
 40
0.8908211871407347
 40
1.0
 40
1.0
 40
1.0
 40
1.0
 10
149.3873142274381
 20
418.677578684838
 30
0.0
 10
149.4598816233771
 20
418.4593539922517
 30
0.0
 10
149.7227509865436
 20
417.668853172633
 30
0.0
 10
150.4457874158432
 20
416.3848967463031
 30
0.0
 10
151.5468730611628
 20
414.8707629492776
 30
0.0
 10
152.9049200054725
 20
413.5155732916821
 30
0.0
 10
154.4768788868549
 20
412.3707454436135
 30
0.0
 10
156.2106944673253
 20
411.5084527144763
 30
0.0
 10
157.9124210167737
 20
410.9627608774135
 30
0.0
 10
159.0338290722038
 20
410.8633012676941
 30
0.0
 10
159.5229872139455
 20
410.8199169905498
 30
0.0
  0
SPLINE
  5
AB
330
1F
100
AcDbEntity
  8
0
  6
Continuous
 62
     7
370
    25
100
AcDbSpline
210
0.0
220
0.0
230
1.0
 70
     8
 71
     3
 72
    16
 73
    12
 74
     0
 42
0.000000001
 43
0.00000001
 40
0.0
 40
0.0
 40
0.0
 40
0.0
 40
0.0687018172258995
 40
0.1843643896035547
 40
0.3023867893464939
 40
0.4215914109367484
 40
0.543911175621898
 40
0.6665983897744553
 40
0.7888730844405414
 40
0.9088645650931193
 40
1.0
 40
1.0
 40
1.0
 40
1.0
 10
171.8010150464536
 20
410.8289768965556
 30
0.0
 10
172.1591598856218
 20
410.8503118405096
 30
0.0
 10
173.1202575294554
 20
410.9075651138309
 30
0.0
 10
174.6518906541855
 20
411.342470751511
 30
0.0
 10
176.3457383486876
 20
412.0858297367216
 30
0.0
 10
177.9322629760016
 20
413.1215932099294
 30
0.0
 10
179.3604949037409
 20
414.4098836815485
 30
0.0
 10
180.5907500145256
 20
415.9196751995653
 30
0.0
 10
181.5565161307825
 20
417.5924959044279
 30
0.0
 10
182.2223119416057
 20
419.2307886079283
 30
0.0
 10
182.4156627458342
 20
420.3083981772003
 30
0.0
 10
182.4991249116422
 20
420.7735611172034
 30
0.0
  0
SPLINE
  5
AC
330
1F
100
AcDbEntity
  8
0
  6
Continuous
 62
     7
370
    25
100
AcDbSpline
210
0.0
220
0.0
230
1.0
 70
     8
 71
     3
 72
    12
 73
     8
 74
     0
 42
0.000000001
 43
0.00000001
 40
0.0
 40
0.0
 40
0.0
 40
0.0
 40
0.1325768618867913
 40
0.3844995943736355
 40
0.6363928131052838
 40
0.8882996975504287
 40
1.0
 40
1.0
 40
1.0
 40
1.0
 10
159.5197462113858
 20
410.7910161884143
 30
0.0
 10
160.0568727638027
 20
410.7558640189864
 30
0.0
 10
161.6146479184746
 20
410.6539156496102
 30
0.0
 10
164.2320851402758
 20
410.5682230962422
 30
0.0
 10
167.3503430827125
 20
410.5726793384146
 30
0.0
 10
169.8795532070852
 20
410.663394679596
 30
0.0
 10
171.3519157625092
 20
410.7610243169339
 30
0.0
 10
171.8042262466908
 20
410.7910161884143
 30
0.0
  0
LINE
  5
AD
330
1F
100
AcDbEntity
  8
0
  6
Continuous
 62
     7
370
    25
100
AcDbLine
 10
172.1619882258
 20
538.5102881165
 30
0.0
 11
172.1619882258
 21
538.8565762015
 31
0.0
  0
LINE
  5
AE
330
1F
100
AcDbEntity
  8
0
  6
Continuous
 62
     7
370
    25
100
AcDbLine
 10
172.1619882258
 20
647.514636633
 30
0.0
 11
172.1619882258
 21
647.8609098168
 31
0.0
  0
SPLINE
  5
AF
330
1F
100
AcDbEntity
  8
0
  6
Continuous
 62
     7
370
    25
100
AcDbSpline
210
0.0
220
0.0
230
1.0
 70
     8
 71
     3
 72
    17
 73
    13
 74
     0
 42
0.000000001
 43
0.00000001
 40
0.0
 40
0.0
 40
0.0
 40
0.0
 40
0.0445335386520585
 40
0.1486896365261639
 40
0.2550963963763829
 40
0.362638149921125
 40
0.4723274626415206
 40
0.5827819898789218
 40
0.6934704406070917
 40
0.8012330542742897
 40
0.9078320110407634
 40
1.0
 40
1.0
 40
1.0
 40
1.0
 10
159.5220335396291
 20
661.2059427471473
 30
0.0
 10
159.264426132343
 20
661.1967402662777
 30
0.0
 10
158.4043204027024
 20
661.1660148045905
 30
0.0
 10
156.9628167207454
 20
660.7863325957434
 30
0.0
 10
155.2494144495122
 20
660.0954439586133
 30
0.0
 10
153.6420208222445
 20
659.1000984774555
 30
0.0
 10
152.1841227833563
 20
657.8536201701779
 30
0.0
 10
150.9221093975387
 20
656.3764573682876
 30
0.0
 10
149.902488672181
 20
654.7313930723725
 30
0.0
 10
149.1736313628115
 20
652.9750121229171
 30
0.0
 10
148.732047483081
 20
651.2438643758447
 30
0.0
 10
148.6942494535322
 20
650.11961080636
 30
0.0
 10
148.676722553587
 20
649.5982958050087
 30
0.0
  0
SPLINE
  5
B0
330
1F
100
AcDbEntity
  8
0
  6
Continuous
 62
     7
370
    25
100
AcDbSpline
210
0.0
220
0.0
230
1.0
 70
     8
 71
     3
 72
    16
 73
    12
 74
     0
 42
0.000000001
 43
0.00000001
 40
0.0
 40
0.0
 40
0.0
 40
0.0
 40
0.112729545416492
 40
0.2309958742303607
 40
0.3536897124517258
 40
0.479403617631463
 40
0.6083462454093841
 40
0.7377396551884141
 40
0.8666695170432248
 40
0.9929751826339088
 40
1.0
 40
1.0
 40
1.0
 40
1.0
 10
182.3844455750943
 20
651.9517255993202
 30
0.0
 10
182.2369493096144
 20
652.494783788713
 30
0.0
 10
181.9347124056654
 20
653.6075728162323
 30
0.0
 10
181.1454435359841
 20
655.2167646889285
 30
0.0
 10
180.1117362015308
 20
656.7557715221726
 30
0.0
 10
178.8209361320798
 20
658.1613088473654
 30
0.0
 10
177.3075656955824
 20
659.3650454300155
 30
0.0
 10
175.6119607800615
 20
660.3272041301111
 30
0.0
 10
173.795164513446
 20
660.9448183975
 30
0.0
 10
172.5025965133724
 20
661.243949059901
 30
0.0
 10
171.8389321319215
 20
661.2362406134007
 30
0.0
 10
171.8039654763699
 20
661.2358344765022
 30
0.0
  0
SPLINE
  5
B1
330
1F
100
AcDbEntity
  8
0
  6
Continuous
 62
     7
370
    25
100
AcDbSpline
210
0.0
220
0.0
230
1.0
 70
     8
 71
     3
 72
    12
 73
     8
 74
     0
 42
0.000000001
 43
0.00000001
 40
0.0
 40
0.0
 40
0.0
 40
0.0
 40
0.1325767545938026
 40
0.3844998772729884
 40
0.6363930172176046
 40
0.8882998353347606
 40
1.0
 40
1.0
 40
1.0
 40
1.0
 10
171.8042262466909
 20
661.2445963592842
 30
0.0
 10
171.2670993963063
 20
661.2797432258604
 30
0.0
 10
169.7093209706265
 20
661.3816763733914
 30
0.0
 10
167.0918917447914
 20
661.467409326791
 30
0.0
 10
163.9736283188176
 20
661.4629263595677
 30
0.0
 10
161.4444206298326
 20
661.3721863263723
 30
0.0
 10
159.9720567870251
 20
661.2745808028379
 30
0.0
 10
159.5197462113858
 20
661.2445963592842
 30
0.0
  0
LINE
  5
B2
330
1F
100
AcDbEntity
  8
0
  6
Continuous
 62
     7
370
    25
100
AcDbLine
 10
337.1619873317
 20
429.5059433253
 30
0.0
 11
337.1619873317
 21
429.852227685
 31
0.0
  0
SPLINE
  5
B3
330
1F
100
AcDbEntity
  8
0
  6
Continuous
 62
     7
370
    25
100
AcDbSpline
210
0.0
220
0.0
230
1.0
 70
     8
 71
     3
 72
    15
 73
    11
 74
     0
 42
0.000000001
 43
0.00000001
 40
0.0
 40
0.0
 40
0.0
 40
0.0
 40
0.0509667123836346
 40
0.1846226814896479
 40
0.3213246686048369
 40
0.462336976719699
 40
0.6057216429261788
 40
0.7497042492485602
 40
0.890820702920876
 40
1.0
 40
1.0
 40
1.0
 40
1.0
 10
314.3873133333685
 20
418.677578684838
 30
0.0
 10
314.4598807649674
 20
418.4593540199855
 30
0.0
 10
314.7227502573091
 20
417.6688533008302
 30
0.0
 10
315.4457851975859
 20
416.3848938540399
 30
0.0
 10
316.5468807026924
 20
414.8707680712355
 30
0.0
 10
317.9049185434112
 20
413.5155704220063
 30
0.0
 10
319.4768785252402
 20
412.3707459316556
 30
0.0
 10
321.2106934537561
 20
411.5084526268338
 30
0.0
 10
322.9124223884497
 20
410.9627600142548
 30
0.0
 10
324.0338331111994
 20
410.8633010891538
 30
0.0
 10
324.5229937704565
 20
410.8199169905498
 30
0.0
  0
SPLINE
  5
B4
330
1F
100
AcDbEntity
  8
0
  6
Continuous
 62
     7
370
    25
100
AcDbSpline
210
0.0
220
0.0
230
1.0
 70
     8
 71
     3
 72
    16
 73
    12
 74
     0
 42
0.000000001
 43
0.00000001
 40
0.0
 40
0.0
 40
0.0
 40
0.0
 40
0.0687013814269352
 40
0.1843639995744086
 40
0.3023864460209934
 40
0.4215911147827205
 40
0.5439109278720623
 40
0.6665981905742185
 40
0.7888731701765811
 40
0.9088645290291428
 40
1.0
 40
1.0
 40
1.0
 40
1.0
 10
336.8010216029646
 20
410.8289768965556
 30
0.0
 10
337.1591639295961
 20
410.850311985993
 30
0.0
 10
338.120258894257
 20
410.9075658917843
 30
0.0
 10
339.6518897757664
 20
411.342470721331
 30
0.0
 10
341.3457374975754
 20
412.0858297197316
 30
0.0
 10
342.9322618902269
 20
413.1215933106847
 30
0.0
 10
344.3604947544308
 20
414.409883284162
 30
0.0
 10
345.590747128406
 20
415.9196776592042
 30
0.0
 10
346.5565262290366
 20
417.5924918659198
 30
0.0
 10
347.2223092822171
 20
419.2307902847031
 30
0.0
 10
347.4156612727578
 20
420.3083984222509
 30
0.0
 10
347.4991240175726
 20
420.7735611172034
 30
0.0
  0
SPLINE
  5
B5
330
1F
100
AcDbEntity
  8
0
  6
Continuous
 62
     7
370
    25
100
AcDbSpline
210
0.0
220
0.0
230
1.0
 70
     8
 71
     3
 72
    12
 73
     8
 74
     0
 42
0.000000001
 43
0.00000001
 40
0.0
 40
0.0
 40
0.0
 40
0.0
 40
0.1325768618867913
 40
0.3844995943736355
 40
0.6363928131052838
 40
0.8882996975504287
 40
1.0
 40
1.0
 40
1.0
 40
1.0
 10
324.5197453173162
 20
410.7910161884143
 30
0.0
 10
325.056871869733
 20
410.7558640189864
 30
0.0
 10
326.6146470244048
 20
410.6539156496102
 30
0.0
 10
329.2320842462061
 20
410.5682230962422
 30
0.0
 10
332.3503421886428
 20
410.5726793384146
 30
0.0
 10
334.8795523130156
 20
410.663394679596
 30
0.0
 10
336.3519148684395
 20
410.7610243169339
 30
0.0
 10
336.8042253526212
 20
410.7910161884143
 30
0.0
  0
LINE
  5
B6
330
1F
100
AcDbEntity
  8
0
  6
Continuous
 62
     7
370
    25
100
AcDbLine
 10
337.1619873317
 20
538.5102881165
 30
0.0
 11
337.1619873317
 21
538.8565762015
 31
0.0
  0
LINE
  5
B7
330
1F
100
AcDbEntity
  8
0
  6
Continuous
 62
     7
370
    25
100
AcDbLine
 10
337.1619873317
 20
647.514636633
 30
0.0
 11
337.1619873317
 21
647.8609098168
 31
0.0
  0
SPLINE
  5
B8
330
1F
100
AcDbEntity
  8
0
  6
Continuous
 62
     7
370
    25
100
AcDbSpline
210
0.0
220
0.0
230
1.0
 70
     8
 71
     3
 72
    17
 73
    13
 74
     0
 42
0.000000001
 43
0.00000001
 40
0.0
 40
0.0
 40
0.0
 40
0.0
 40
0.0445335418947576
 40
0.1486892386428139
 40
0.2550963948613027
 40
0.3626381562366721
 40
0.4723274769440692
 40
0.5827817366463924
 40
0.6934704182872142
 40
0.8012330398011215
 40
0.907832004329573
 40
1.0
 40
1.0
 40
1.0
 40
1.0
 10
324.5220326455595
 20
661.2059427471473
 30
0.0
 10
324.2644252092286
 20
661.1967403527832
 30
0.0
 10
323.4043217468256
 20
661.166015264379
 30
0.0
 10
321.9628195847054
 20
660.7863295163565
 30
0.0
 10
320.2494148845677
 20
660.095446277845
 30
0.0
 10
318.6420206180169
 20
659.100097749884
 30
0.0
 10
317.1841209189685
 20
657.8536230186573
 30
0.0
 10
315.9221178119754
 20
656.3764524166963
 30
0.0
 10
314.9024860163303
 20
654.7313957757576
 30
0.0
 10
314.1736310606564
 20
652.9750117305158
 30
0.0
 10
313.7320464647353
 20
651.2438644582317
 30
0.0
 10
313.694248520092
 20
650.1196108324602
 30
0.0
 10
313.6767216595175
 20
649.5982958050087
 30
0.0
  0
SPLINE
  5
B9
330
1F
100
AcDbEntity
  8
0
  6
Continuous
 62
     7
370
    25
100
AcDbSpline
210
0.0
220
0.0
230
1.0
 70
     8
 71
     3
 72
    16
 73
    12
 74
     0
 42
0.000000001
 43
0.00000001
 40
0.0
 40
0.0
 40
0.0
 40
0.0
 40
0.1127295405986864
 40
0.2309958643581198
 40
0.3536896973358278
 40
0.4794035971428373
 40
0.6083458357209282
 40
0.7377396663968276
 40
0.8666695227414679
 40
0.9929751829341336
 40
1.0
 40
1.0
 40
1.0
 40
1.0
 10
347.3844446810247
 20
651.9517255993202
 30
0.0
 10
347.2369484212863
 20
652.494783796133
 30
0.0
 10
346.9347115291026
 20
653.6075728388572
 30
0.0
 10
346.145442566695
 20
655.2167645917191
 30
0.0
 10
345.1117356039319
 20
656.755771905315
 30
0.0
 10
343.8209354024784
 20
658.1613059345879
 30
0.0
 10
342.3075706561017
 20
659.3650501753212
 30
0.0
 10
340.6119608597646
 20
660.3272018075581
 30
0.0
 10
338.795163907528
 20
660.9448188510906
 30
0.0
 10
337.5025956165192
 20
661.2439490555196
 30
0.0
 10
336.8389312377125
 20
661.2362406131815
 30
0.0
 10
336.8039645823004
 20
661.2358344765022
 30
0.0
  0
SPLINE
  5
BA
330
1F
100
AcDbEntity
  8
0
  6
Continuous
 62
     7
370
    25
100
AcDbSpline
210
0.0
220
0.0
230
1.0
 70
     8
 71
     3
 72
    12
 73
     8
 74
     0
 42
0.000000001
 43
0.00000001
 40
0.0
 40
0.0
 40
0.0
 40
0.0
 40
0.1325767545938026
 40
0.3844998772729884
 40
0.6363930172176046
 40
0.8882998353347606
 40
1.0
 40
1.0
 40
1.0
 40
1.0
 10
336.8042253526212
 20
661.2445963592842
 30
0.0
 10
336.2670985022367
 20
661.2797432258604
 30
0.0
 10
334.7093200765568
 20
661.3816763733914
 30
0.0
 10
332.0918908507218
 20
661.467409326791
 30
0.0
 10
328.9736274247479
 20
661.4629263595677
 30
0.0
 10
326.4444197357629
 20
661.3721863263723
 30
0.0
 10
324.9720558929554
 20
661.2745808028379
 30
0.0
 10
324.5197453173162
 20
661.2445963592842
 30
0.0
  0
LINE
  5
BB
330
1F
100
AcDbEntity
  8
0
  6
Continuous
 62
     7
370
    25
100
AcDbLine
 10
344.6619876297
 20
657.1737481327
 30
0.0
 11
344.6619876297
 21
670.7681668969
 31
0.0
  0
LINE
  5
BC
330
1F
100
AcDbEntity
  8
0
  6
Continuous
 62
     7
370
    25
100
AcDbLine
 10
338.661982921
 20
670.7681668969
 30
0.0
 11
338.661982921
 21
660.9370959969
 31
0.0
  0
LINE
  5
BD
330
1F
100
AcDbEntity
  8
0
  6
Continuous
 62
     7
370
    25
100
AcDbLine
 10
338.661982921
 20
676.0320020886
 30
0.0
 11
338.661982921
 21
670.7681668969
 31
0.0
  0
LINE
  5
BE
330
1F
100
AcDbEntity
  8
0
  6
Continuous
 62
     7
370
    25
100
AcDbLine
 10
344.6619876297
 20
670.7681668969
 30
0.0
 11
344.6619876297
 21
676.0320020886
 31
0.0
  0
LINE
  5
BF
330
1F
100
AcDbEntity
  8
0
  6
Continuous
 62
     7
370
    25
100
AcDbLine
 10
179.6619885238
 20
657.1737481327
 30
0.0
 11
179.6619885238
 21
670.7681668969
 31
0.0
  0
LINE
  5
C0
330
1F
100
AcDbEntity
  8
0
  6
Continuous
 62
     7
370
    25
100
AcDbLine
 10
173.6619838151
 20
670.7681668969
 30
0.0
 11
173.6619838151
 21
660.9370959969
 31
0.0
  0
LINE
  5
C1
330
1F
100
AcDbEntity
  8
0
  6
Continuous
 62
     7
370
    25
100
AcDbLine
 10
173.6619838151
 20
676.0320020886
 30
0.0
 11
173.6619838151
 21
670.7681668969
 31
0.0
  0
LINE
  5
C2
330
1F
100
AcDbEntity
  8
0
  6
Continuous
 62
     7
370
    25
100
AcDbLine
 10
179.6619885238
 20
670.7681668969
 30
0.0
 11
179.6619885238
 21
676.0320020886
 31
0.0
  0
LINE
  5
C3
330
1F
100
AcDbEntity
  8
0
  6
Continuous
 62
     7
370
    25
100
AcDbLine
 10
322.661987749
 20
660.9098268719
 30
0.0
 11
322.661987749
 21
670.7681668969
 31
0.0
  0
LINE
  5
C4
330
1F
100
AcDbEntity
  8
0
  6
Continuous
 62
     7
370
    25
100
AcDbLine
 10
316.6619830402
 20
670.7681668969
 30
0.0
 11
316.6619830402
 21
657.1655822964
 31
0.0
  0
LINE
  5
C5
330
1F
100
AcDbEntity
  8
0
  6
Continuous
 62
     7
370
    25
100
AcDbLine
 10
316.6619830402
 20
676.0320020886
 30
0.0
 11
316.6619830402
 21
670.7681668969
 31
0.0
  0
LINE
  5
C6
330
1F
100
AcDbEntity
  8
0
  6
Continuous
 62
     7
370
    25
100
AcDbLine
 10
322.661987749
 20
670.7681668969
 30
0.0
 11
322.661987749
 21
676.0320020886
 31
0.0
  0
LINE
  5
C7
330
1F
100
AcDbEntity
  8
0
  6
Continuous
 62
     7
370
    25
100
AcDbLine
 10
157.661988643
 20
660.9098268719
 30
0.0
 11
157.661988643
 21
670.7681668969
 31
0.0
  0
LINE
  5
C8
330
1F
100
AcDbEntity
  8
0
  6
Continuous
 62
     7
370
    25
100
AcDbLine
 10
151.6619839343
 20
670.7681668969
 30
0.0
 11
151.6619839343
 21
657.1655822964
 31
0.0
  0
LINE
  5
C9
330
1F
100
AcDbEntity
  8
0
  6
Continuous
 62
     7
370
    25
100
AcDbLine
 10
151.6619839343
 20
676.0320020886
 30
0.0
 11
151.6619839343
 21
670.7681668969
 31
0.0
  0
LINE
  5
CA
330
1F
100
AcDbEntity
  8
0
  6
Continuous
 62
     7
370
    25
100
AcDbLine
 10
157.661988643
 20
670.7681668969
 30
0.0
 11
157.661988643
 21
676.0320020886
 31
0.0
  0
LINE
  5
CB
330
1F
100
AcDbEntity
  8
0
  6
Continuous
 62
     7
370
    25
100
AcDbLine
 10
152.6691906723
 20
983.5320068569
 30
0.0
 11
178.6691912087
 21
983.5320068569
 31
0.0
  0
LINE
  5
CC
330
1F
100
AcDbEntity
  8
0
  6
Continuous
 62
     7
370
    25
100
AcDbLine
 10
317.6691897782
 20
983.5320068569
 30
0.0
 11
343.6691903146
 21
983.5320068569
 31
0.0
  0
SPLINE
  5
CD
330
1F
100
AcDbEntity
  8
0
  6
Continuous
 62
     7
370
    25
100
AcDbSpline
210
0.0
220
0.0
230
1.0
 70
     8
 71
     3
 72
    18
 73
    14
 74
     0
 42
0.000000001
 43
0.00000001
 40
0.0
 40
0.0
 40
0.0
 40
0.0
 40
0.0218130753358313
 40
0.1316690597999782
 40
0.2434028298463844
 40
0.355210816714577
 40
0.4670188068091098
 40
0.5788266971479704
 40
0.6906343727501898
 40
0.8000103539352714
 40
0.9024749698734632
 40
0.9669544205728188
 40
1.0
 40
1.0
 40
1.0
 40
1.0
 10
153.0963622601987
 20
970.0808478565529
 30
0.0
 10
153.2474625659945
 20
970.2099811016295
 30
0.0
 10
154.159540981959
 20
970.9894609643446
 30
0.0
 10
156.0613867744371
 20
972.1594540871881
 30
0.0
 10
158.8294416663989
 20
973.4253320901486
 30
0.0
 10
161.7884866428423
 20
974.2396418212087
 30
0.0
 10
164.8340528581846
 20
974.5992345437393
 30
0.0
 10
167.9000776411979
 20
974.489637403939
 30
0.0
 10
170.890558823088
 20
973.91779429347
 30
0.0
 10
173.6835264917188
 20
972.9349288772103
 30
0.0
 10
175.9095401618089
 20
971.7471555495887
 30
0.0
 10
177.4348424447294
 20
970.7418066875807
 30
0.0
 10
178.1090937373448
 20
970.1625161184866
 30
0.0
 10
178.3375584157468
 20
969.9662281246498
 30
0.0
  0
SPLINE
  5
CE
330
1F
100
AcDbEntity
  8
0
  6
Continuous
 62
     7
370
    25
100
AcDbSpline
210
0.0
220
0.0
230
1.0
 70
     8
 71
     3
 72
    15
 73
    11
 74
     0
 42
0.000000001
 43
0.00000001
 40
0.0
 40
0.0
 40
0.0
 40
0.0
 40
0.0442231235901998
 40
0.183656711275663
 40
0.3231827905708062
 40
0.4627094116641678
 40
0.6022357836017805
 40
0.7417619692631389
 40
0.8782540810768619
 40
0.9999999999999999
 40
0.9999999999999999
 40
0.9999999999999999
 40
0.9999999999999999
 10
178.6691912086965
 20
975.7982445926979
 30
0.0
 10
178.334193024919
 20
976.0234853821473
 30
0.0
 10
176.9429601195725
 20
976.958900596567
 30
0.0
 10
174.1965538262333
 20
978.0989140629138
 30
0.0
 10
170.522451263806
 20
979.1544409634462
 30
0.0
 10
166.712497201824
 20
979.6005839769771
 30
0.0
 10
162.8820058177983
 20
979.4739254324362
 30
0.0
 10
159.1480000593284
 20
978.7578717261705
 30
0.0
 10
155.6957119930798
 20
977.5781193511908
 30
0.0
 10
153.6388806280384
 20
976.4229135929846
 30
0.0
 10
152.6691906722547
 20
975.8782936306312
 30
0.0
  0
SPLINE
  5
CF
330
1F
100
AcDbEntity
  8
0
  6
Continuous
 62
     7
370
    25
100
AcDbSpline
210
0.0
220
0.0
230
1.0
 70
     8
 71
     3
 72
    18
 73
    14
 74
     0
 42
0.000000001
 43
0.00000001
 40
0.0
 40
0.0
 40
0.0
 40
0.0
 40
0.0218130704253137
 40
0.1316690301588925
 40
0.2434027750520071
 40
0.3552107367502007
 40
0.4670187016747335
 40
0.5788265668436167
 40
0.690634217275907
 40
0.8000104308718259
 40
0.9024747825146567
 40
0.9669542186985223
 40
1.0
 40
1.0
 40
1.0
 40
1.0
 10
318.0963613661291
 20
970.0808478565529
 30
0.0
 10
318.2474616719213
 20
970.2099811016195
 30
0.0
 10
319.1595400878645
 20
970.9894609642756
 30
0.0
 10
321.0613858810185
 20
972.1594540890046
 30
0.0
 10
323.8294407699528
 20
973.4253320835167
 30
0.0
 10
326.7884857576167
 20
974.2396418458893
 30
0.0
 10
329.8340519311176
 20
974.5992344516554
 30
0.0
 10
332.9000768702735
 20
974.4896377475939
 30
0.0
 10
335.8905597819873
 20
973.9177925813248
 30
0.0
 10
338.6835295244829
 20
972.9349323960078
 30
0.0
 10
340.9095417094998
 20
971.7471547546764
 30
0.0
 10
342.4348414218089
 20
970.7418035911395
 30
0.0
 10
343.1090976609789
 20
970.1625159487957
 30
0.0
 10
343.3375649722578
 20
969.9662281246498
 30
0.0
  0
SPLINE
  5
D0
330
1F
100
AcDbEntity
  8
0
  6
Continuous
 62
     7
370
    25
100
AcDbSpline
210
0.0
220
0.0
230
1.0
 70
     8
 71
     3
 72
    15
 73
    11
 74
     0
 42
0.000000001
 43
0.00000001
 40
0.0
 40
0.0
 40
0.0
 40
0.0
 40
0.0442231235124164
 40
0.1836567109526321
 40
0.3231827900023651
 40
0.4627091404737017
 40
0.6022357843014017
 40
0.7417619697173496
 40
0.8782540812909989
 40
1.0
 40
1.0
 40
1.0
 40
1.0
 10
343.6691903146269
 20
975.7982445926979
 30
0.0
 10
343.3341921307918
 20
976.0234853816519
 30
0.0
 10
341.9429592252064
 20
976.9589005940137
 30
0.0
 10
339.1965529366855
 20
978.0989141018607
 30
0.0
 10
335.5224527271265
 20
979.1544401403827
 30
0.0
 10
331.7124988573607
 20
979.6005844129978
 30
0.0
 10
327.8820073635499
 20
979.4739257548573
 30
0.0
 10
324.147999166705
 20
978.7578717644413
 30
0.0
 10
320.6957110986966
 20
977.5781193428969
 30
0.0
 10
318.6388797338683
 20
976.4229135903273
 30
0.0
 10
317.6691897781851
 20
975.8782936306312
 30
0.0
  0
LINE
  5
D1
330
1F
100
AcDbEntity
  8
0
  6
Continuous
 62
     7
370
    25
100
AcDbLine
 10
330.7619833025
 20
679.0319932671
 30
0.0
 11
348.1566452058
 21
679.0319932671
 31
0.0
  0
LINE
  5
D2
330
1F
100
AcDbEntity
  8
0
  6
Continuous
 62
     7
370
    25
100
AcDbLine
 10
313.181734887
 20
679.0319932671
 30
0.0
 11
330.6619890603
 21
679.0319932671
 31
0.0
  0
LINE
  5
D3
330
1F
100
AcDbEntity
  8
0
  6
Continuous
 62
     7
370
    25
100
AcDbLine
 10
148.181735781
 20
679.0319932671
 30
0.0
 11
165.6619825037
 21
679.0319932671
 31
0.0
  0
LINE
  5
D4
330
1F
100
AcDbEntity
  8
0
  6
Continuous
 62
     7
370
    25
100
AcDbLine
 10
165.7619841965
 20
679.0319932671
 30
0.0
 11
183.1566386493
 21
679.0319932671
 31
0.0
  0
LINE
  5
D5
330
1F
100
AcDbEntity
  8
0
  6
Continuous
 62
     7
370
    25
100
AcDbLine
 10
348.3149849447
 20
279.8308832617
 30
0.0
 11
348.3149849447
 21
281.2120942445
 31
0.0
  0
LINE
  5
D6
330
1F
100
AcDbEntity
  8
0
  6
Continuous
 62
     7
370
    25
100
AcDbLine
 10
313.0089857253
 20
281.2120942445
 30
0.0
 11
313.0089857253
 21
279.8308832617
 31
0.0
  0
LINE
  5
D7
330
1F
100
AcDbEntity
  8
0
  6
Continuous
 62
     7
370
    25
100
AcDbLine
 10
313.1359883221
 20
282.9783735843
 30
0.0
 11
313.1359883221
 21
281.4694671007
 31
0.0
  0
LINE
  5
D8
330
1F
100
AcDbEntity
  8
0
  6
Continuous
 62
     7
370
    25
100
AcDbLine
 10
348.1879823478
 20
282.1053816052
 30
0.0
 11
348.1879823478
 21
282.9783735843
 31
0.0
  0
LINE
  5
D9
330
1F
100
AcDbEntity
  8
0
  6
Continuous
 62
     7
370
    25
100
AcDbLine
 10
315.4789500507
 20
275.8737159939
 30
0.0
 11
322.8479616912
 21
270.4796297522
 31
0.0
  0
LINE
  5
DA
330
1F
100
AcDbEntity
  8
0
  6
Continuous
 62
     7
370
    25
100
AcDbLine
 10
338.4760089787
 20
270.4796297522
 30
0.0
 11
345.8450206192
 21
275.8737159939
 31
0.0
  0
LINE
  5
DB
330
1F
100
AcDbEntity
  8
0
  6
Continuous
 62
     7
370
    25
100
AcDbLine
 10
321.4849301251
 20
273.244055924
 30
0.0
 11
321.4849301251
 21
273.4742565127
 31
0.0
  0
LINE
  5
DC
330
1F
100
AcDbEntity
  8
0
  6
Continuous
 62
     7
370
    25
100
AcDbLine
 10
319.9609362157
 20
273.4742565127
 30
0.0
 11
319.9609362157
 21
273.244055924
 31
0.0
  0
LINE
  5
DD
330
1F
100
AcDbEntity
  8
0
  6
Continuous
 62
     7
370
    25
100
AcDbLine
 10
323.6947350772
 20
273.244055924
 30
0.0
 11
323.6947350772
 21
273.4742565127
 31
0.0
  0
LINE
  5
DE
330
1F
100
AcDbEntity
  8
0
  6
Continuous
 62
     7
370
    25
100
AcDbLine
 10
322.1707337173
 20
273.4742565127
 30
0.0
 11
322.1707337173
 21
273.244055924
 31
0.0
  0
LINE
  5
DF
330
1F
100
AcDbEntity
  8
0
  6
Continuous
 62
     7
370
    25
100
AcDbLine
 10
325.9045325788
 20
273.244055924
 30
0.0
 11
325.9045325788
 21
273.4742565127
 31
0.0
  0
LINE
  5
E0
330
1F
100
AcDbEntity
  8
0
  6
Continuous
 62
     7
370
    25
100
AcDbLine
 10
324.3805312189
 20
273.4742565127
 30
0.0
 11
324.3805312189
 21
273.244055924
 31
0.0
  0
LINE
  5
E1
330
1F
100
AcDbEntity
  8
0
  6
Continuous
 62
     7
370
    25
100
AcDbLine
 10
328.1143300804
 20
273.244055924
 30
0.0
 11
328.1143300804
 21
273.4742565127
 31
0.0
  0
LINE
  5
E2
330
1F
100
AcDbEntity
  8
0
  6
Continuous
 62
     7
370
    25
100
AcDbLine
 10
326.590336171
 20
273.4742565127
 30
0.0
 11
326.590336171
 21
273.244055924
 31
0.0
  0
LINE
  5
E3
330
1F
100
AcDbEntity
  8
0
  6
Continuous
 62
     7
370
    25
100
AcDbLine
 10
330.3241350325
 20
273.244055924
 30
0.0
 11
330.3241350325
 21
273.4742565127
 31
0.0
  0
LINE
  5
E4
330
1F
100
AcDbEntity
  8
0
  6
Continuous
 62
     7
370
    25
100
AcDbLine
 10
328.8001336726
 20
273.4742565127
 30
0.0
 11
328.8001336726
 21
273.244055924
 31
0.0
  0
LINE
  5
E5
330
1F
100
AcDbEntity
  8
0
  6
Continuous
 62
     7
370
    25
100
AcDbLine
 10
332.5238369974
 20
273.244055924
 30
0.0
 11
332.5238369974
 21
273.4742565127
 31
0.0
  0
LINE
  5
E6
330
1F
100
AcDbEntity
  8
0
  6
Continuous
 62
     7
370
    25
100
AcDbLine
 10
330.9998356374
 20
273.4742565127
 30
0.0
 11
330.9998356374
 21
273.244055924
 31
0.0
  0
LINE
  5
E7
330
1F
100
AcDbEntity
  8
0
  6
Continuous
 62
     7
370
    25
100
AcDbLine
 10
334.7336344989
 20
273.244055924
 30
0.0
 11
334.7336344989
 21
273.4742565127
 31
0.0
  0
LINE
  5
E8
330
1F
100
AcDbEntity
  8
0
  6
Continuous
 62
     7
370
    25
100
AcDbLine
 10
333.2096405896
 20
273.4742565127
 30
0.0
 11
333.2096405896
 21
273.244055924
 31
0.0
  0
LINE
  5
E9
330
1F
100
AcDbEntity
  8
0
  6
Continuous
 62
     7
370
    25
100
AcDbLine
 10
336.9434394511
 20
273.244055924
 30
0.0
 11
336.9434394511
 21
273.4742565127
 31
0.0
  0
LINE
  5
EA
330
1F
100
AcDbEntity
  8
0
  6
Continuous
 62
     7
370
    25
100
AcDbLine
 10
335.4194380911
 20
273.4742565127
 30
0.0
 11
335.4194380911
 21
273.244055924
 31
0.0
  0
LINE
  5
EB
330
1F
100
AcDbEntity
  8
0
  6
Continuous
 62
     7
370
    25
100
AcDbLine
 10
339.1532369526
 20
273.244055924
 30
0.0
 11
339.1532369526
 21
273.4742565127
 31
0.0
  0
LINE
  5
EC
330
1F
100
AcDbEntity
  8
0
  6
Continuous
 62
     7
370
    25
100
AcDbLine
 10
337.6292355927
 20
273.4742565127
 30
0.0
 11
337.6292355927
 21
273.244055924
 31
0.0
  0
LINE
  5
ED
330
1F
100
AcDbEntity
  8
0
  6
Continuous
 62
     7
370
    25
100
AcDbLine
 10
341.3630344542
 20
273.244055924
 30
0.0
 11
341.3630344542
 21
273.4742565127
 31
0.0
  0
LINE
  5
EE
330
1F
100
AcDbEntity
  8
0
  6
Continuous
 62
     7
370
    25
100
AcDbLine
 10
339.8390405448
 20
273.4742565127
 30
0.0
 11
339.8390405448
 21
273.244055924
 31
0.0
  0
LINE
  5
EF
330
1F
100
AcDbEntity
  8
0
  6
Continuous
 62
     7
370
    25
100
AcDbLine
 10
322.5847848328
 20
272.4389685364
 30
0.0
 11
322.5847848328
 21
272.6691691251
 31
0.0
  0
LINE
  5
F0
330
1F
100
AcDbEntity
  8
0
  6
Continuous
 62
     7
370
    25
100
AcDbLine
 10
321.0607834729
 20
272.6691691251
 30
0.0
 11
321.0607834729
 21
272.4389685364
 31
0.0
  0
LINE
  5
F1
330
1F
100
AcDbEntity
  8
0
  6
Continuous
 62
     7
370
    25
100
AcDbLine
 10
324.7945823344
 20
272.4389685364
 30
0.0
 11
324.7945823344
 21
272.6691691251
 31
0.0
  0
LINE
  5
F2
330
1F
100
AcDbEntity
  8
0
  6
Continuous
 62
     7
370
    25
100
AcDbLine
 10
323.270588425
 20
272.6691691251
 30
0.0
 11
323.270588425
 21
272.4389685364
 31
0.0
  0
LINE
  5
F3
330
1F
100
AcDbEntity
  8
0
  6
Continuous
 62
     7
370
    25
100
AcDbLine
 10
327.0043872865
 20
272.4389685364
 30
0.0
 11
327.0043872865
 21
272.6691691251
 31
0.0
  0
LINE
  5
F4
330
1F
100
AcDbEntity
  8
0
  6
Continuous
 62
     7
370
    25
100
AcDbLine
 10
325.4803859266
 20
272.6691691251
 30
0.0
 11
325.4803859266
 21
272.4389685364
 31
0.0
  0
LINE
  5
F5
330
1F
100
AcDbEntity
  8
0
  6
Continuous
 62
     7
370
    25
100
AcDbLine
 10
329.2141847881
 20
272.4389685364
 30
0.0
 11
329.2141847881
 21
272.6691691251
 31
0.0
  0
LINE
  5
F6
330
1F
100
AcDbEntity
  8
0
  6
Continuous
 62
     7
370
    25
100
AcDbLine
 10
327.6901834281
 20
272.6691691251
 30
0.0
 11
327.6901834281
 21
272.4389685364
 31
0.0
  0
LINE
  5
F7
330
1F
100
AcDbEntity
  8
0
  6
Continuous
 62
     7
370
    25
100
AcDbLine
 10
331.4239822896
 20
272.4389685364
 30
0.0
 11
331.4239822896
 21
272.6691691251
 31
0.0
  0
LINE
  5
F8
330
1F
100
AcDbEntity
  8
0
  6
Continuous
 62
     7
370
    25
100
AcDbLine
 10
329.8999883803
 20
272.6691691251
 30
0.0
 11
329.8999883803
 21
272.4389685364
 31
0.0
  0
LINE
  5
F9
330
1F
100
AcDbEntity
  8
0
  6
Continuous
 62
     7
370
    25
100
AcDbLine
 10
333.6337872418
 20
272.4389685364
 30
0.0
 11
333.6337872418
 21
272.6691691251
 31
0.0
  0
LINE
  5
FA
330
1F
100
AcDbEntity
  8
0
  6
Continuous
 62
     7
370
    25
100
AcDbLine
 10
332.1097858819
 20
272.6691691251
 30
0.0
 11
332.1097858819
 21
272.4389685364
 31
0.0
  0
LINE
  5
FB
330
1F
100
AcDbEntity
  8
0
  6
Continuous
 62
     7
370
    25
100
AcDbLine
 10
335.8435847434
 20
272.4389685364
 30
0.0
 11
335.8435847434
 21
272.6691691251
 31
0.0
  0
LINE
  5
FC
330
1F
100
AcDbEntity
  8
0
  6
Continuous
 62
     7
370
    25
100
AcDbLine
 10
334.3195833834
 20
272.6691691251
 30
0.0
 11
334.3195833834
 21
272.4389685364
 31
0.0
  0
LINE
  5
FD
330
1F
100
AcDbEntity
  8
0
  6
Continuous
 62
     7
370
    25
100
AcDbLine
 10
338.0533822449
 20
272.4389685364
 30
0.0
 11
338.0533822449
 21
272.6691691251
 31
0.0
  0
LINE
  5
FE
330
1F
100
AcDbEntity
  8
0
  6
Continuous
 62
     7
370
    25
100
AcDbLine
 10
336.5293883356
 20
272.6691691251
 30
0.0
 11
336.5293883356
 21
272.4389685364
 31
0.0
  0
LINE
  5
FF
330
1F
100
AcDbEntity
  8
0
  6
Continuous
 62
     7
370
    25
100
AcDbLine
 10
340.2631871971
 20
272.4389685364
 30
0.0
 11
340.2631871971
 21
272.6691691251
 31
0.0
  0
LINE
  5
100
330
1F
100
AcDbEntity
  8
0
  6
Continuous
 62
     7
370
    25
100
AcDbLine
 10
338.7391858371
 20
272.6691691251
 30
0.0
 11
338.7391858371
 21
272.4389685364
 31
0.0
  0
LINE
  5
101
330
1F
100
AcDbEntity
  8
0
  6
Continuous
 62
     7
370
    25
100
AcDbLine
 10
323.5774182352
 20
271.5480057569
 30
0.0
 11
323.5774182352
 21
271.7782063456
 31
0.0
  0
LINE
  5
102
330
1F
100
AcDbEntity
  8
0
  6
Continuous
 62
     7
370
    25
100
AcDbLine
 10
322.0534168752
 20
271.7782063456
 30
0.0
 11
322.0534168752
 21
271.5480057569
 31
0.0
  0
LINE
  5
103
330
1F
100
AcDbEntity
  8
0
  6
Continuous
 62
     7
370
    25
100
AcDbLine
 10
325.7872157367
 20
271.5480057569
 30
0.0
 11
325.7872157367
 21
271.7782063456
 31
0.0
  0
LINE
  5
104
330
1F
100
AcDbEntity
  8
0
  6
Continuous
 62
     7
370
    25
100
AcDbLine
 10
324.2632143768
 20
271.7782063456
 30
0.0
 11
324.2632143768
 21
271.5480057569
 31
0.0
  0
LINE
  5
105
330
1F
100
AcDbEntity
  8
0
  6
Continuous
 62
     7
370
    25
100
AcDbLine
 10
327.9970132383
 20
271.5480057569
 30
0.0
 11
327.9970132383
 21
271.7782063456
 31
0.0
  0
LINE
  5
106
330
1F
100
AcDbEntity
  8
0
  6
Continuous
 62
     7
370
    25
100
AcDbLine
 10
326.4730193289
 20
271.7782063456
 30
0.0
 11
326.4730193289
 21
271.5480057569
 31
0.0
  0
LINE
  5
107
330
1F
100
AcDbEntity
  8
0
  6
Continuous
 62
     7
370
    25
100
AcDbLine
 10
330.2068181904
 20
271.5480057569
 30
0.0
 11
330.2068181904
 21
271.7782063456
 31
0.0
  0
LINE
  5
108
330
1F
100
AcDbEntity
  8
0
  6
Continuous
 62
     7
370
    25
100
AcDbLine
 10
328.6828168305
 20
271.7782063456
 30
0.0
 11
328.6828168305
 21
271.5480057569
 31
0.0
  0
LINE
  5
109
330
1F
100
AcDbEntity
  8
0
  6
Continuous
 62
     7
370
    25
100
AcDbLine
 10
332.6411538394
 20
271.5480057569
 30
0.0
 11
332.6411538394
 21
271.7782063456
 31
0.0
  0
LINE
  5
10A
330
1F
100
AcDbEntity
  8
0
  6
Continuous
 62
     7
370
    25
100
AcDbLine
 10
331.1171524795
 20
271.7782063456
 30
0.0
 11
331.1171524795
 21
271.5480057569
 31
0.0
  0
LINE
  5
10B
330
1F
100
AcDbEntity
  8
0
  6
Continuous
 62
     7
370
    25
100
AcDbLine
 10
334.8509587916
 20
271.5480057569
 30
0.0
 11
334.8509587916
 21
271.7782063456
 31
0.0
  0
LINE
  5
10C
330
1F
100
AcDbEntity
  8
0
  6
Continuous
 62
     7
370
    25
100
AcDbLine
 10
333.3269574317
 20
271.7782063456
 30
0.0
 11
333.3269574317
 21
271.5480057569
 31
0.0
  0
LINE
  5
10D
330
1F
100
AcDbEntity
  8
0
  6
Continuous
 62
     7
370
    25
100
AcDbLine
 10
337.0607562932
 20
271.5480057569
 30
0.0
 11
337.0607562932
 21
271.7782063456
 31
0.0
  0
LINE
  5
10E
330
1F
100
AcDbEntity
  8
0
  6
Continuous
 62
     7
370
    25
100
AcDbLine
 10
335.5367549332
 20
271.7782063456
 30
0.0
 11
335.5367549332
 21
271.5480057569
 31
0.0
  0
LINE
  5
10F
330
1F
100
AcDbEntity
  8
0
  6
Continuous
 62
     7
370
    25
100
AcDbLine
 10
339.2705537947
 20
271.5480057569
 30
0.0
 11
339.2705537947
 21
271.7782063456
 31
0.0
  0
LINE
  5
110
330
1F
100
AcDbEntity
  8
0
  6
Continuous
 62
     7
370
    25
100
AcDbLine
 10
337.7465524348
 20
271.7782063456
 30
0.0
 11
337.7465524348
 21
271.5480057569
 31
0.0
  0
SPLINE
  5
111
330
1F
100
AcDbEntity
  8
0
  6
Continuous
 62
     7
370
    25
100
AcDbSpline
210
0.0
220
0.0
230
1.0
 70
     8
 71
     3
 72
    10
 73
     6
 74
     0
 42
0.000000001
 43
0.00000001
 40
0.0
 40
0.0
 40
0.0
 40
0.0
 40
0.2651624655896293
 40
0.6929831410204197
 40
1.0
 40
1.0
 40
1.0
 40
1.0
 10
322.8479616912367
 20
270.4796297521903
 30
0.0
 10
322.9318296008968
 20
270.4282916105354
 30
0.0
 10
323.1510123850736
 20
270.2941230487103
 30
0.0
 10
323.5766656756358
 20
270.185582052884
 30
0.0
 10
323.9195978443551
 20
270.1707387959861
 30
0.0
 10
324.0628757151129
 20
270.1645372481658
 30
0.0
  0
SPLINE
  5
112
330
1F
100
AcDbEntity
  8
0
  6
Continuous
 62
     7
370
    25
100
AcDbSpline
210
0.0
220
0.0
230
1.0
 70
     8
 71
     3
 72
    10
 73
     6
 74
     0
 42
0.000000001
 43
0.00000001
 40
0.0
 40
0.0
 40
0.0
 40
0.0
 40
0.2476687409191424
 40
0.6400747448374037
 40
1.0
 40
1.0
 40
1.0
 40
1.0
 10
337.2611024054052
 20
270.1645372481658
 30
0.0
 10
337.3765564335988
 20
270.1686294098804
 30
0.0
 10
337.674935661281
 20
270.1792051868458
 30
0.0
 10
338.1153700966792
 20
270.2707744790291
 30
0.0
 10
338.3593065454303
 20
270.4120443647172
 30
0.0
 10
338.4760089787008
 20
270.4796297521903
 30
0.0
  0
LINE
  5
113
330
1F
100
AcDbEntity
  8
0
  6
Continuous
 62
     7
370
    25
100
AcDbLine
 10
324.0628757151
 20
270.1645372482
 30
0.0
 11
337.2611024054
 21
270.1645372482
 31
0.0
  0
LINE
  5
114
330
1F
100
AcDbEntity
  8
0
  6
Continuous
 62
     7
370
    25
100
AcDbLine
 10
183.3149858387
 20
279.8308832617
 30
0.0
 11
183.3149858387
 21
281.2120942445
 31
0.0
  0
LINE
  5
115
330
1F
100
AcDbEntity
  8
0
  6
Continuous
 62
     7
370
    25
100
AcDbLine
 10
148.0089866193
 20
281.2120942445
 30
0.0
 11
148.0089866193
 21
279.8308832617
 31
0.0
  0
LINE
  5
116
330
1F
100
AcDbEntity
  8
0
  6
Continuous
 62
     7
370
    25
100
AcDbLine
 10
148.1359892162
 20
282.9783735843
 30
0.0
 11
148.1359892162
 21
281.4694671007
 31
0.0
  0
LINE
  5
117
330
1F
100
AcDbEntity
  8
0
  6
Continuous
 62
     7
370
    25
100
AcDbLine
 10
183.1879832419
 20
282.1053816052
 30
0.0
 11
183.1879832419
 21
282.9783735843
 31
0.0
  0
LINE
  5
118
330
1F
100
AcDbEntity
  8
0
  6
Continuous
 62
     7
370
    25
100
AcDbLine
 10
150.4789509448
 20
275.8737159939
 30
0.0
 11
157.8479625853
 21
270.4796297522
 31
0.0
  0
LINE
  5
119
330
1F
100
AcDbEntity
  8
0
  6
Continuous
 62
     7
370
    25
100
AcDbLine
 10
173.4760098728
 20
270.4796297522
 30
0.0
 11
180.8450215133
 21
275.8737159939
 31
0.0
  0
LINE
  5
11A
330
1F
100
AcDbEntity
  8
0
  6
Continuous
 62
     7
370
    25
100
AcDbLine
 10
171.9434403451
 20
273.244055924
 30
0.0
 11
171.9434403451
 21
273.4742565127
 31
0.0
  0
LINE
  5
11B
330
1F
100
AcDbEntity
  8
0
  6
Continuous
 62
     7
370
    25
100
AcDbLine
 10
170.4194389852
 20
273.4742565127
 30
0.0
 11
170.4194389852
 21
273.244055924
 31
0.0
  0
LINE
  5
11C
330
1F
100
AcDbEntity
  8
0
  6
Continuous
 62
     7
370
    25
100
AcDbLine
 10
156.4849310192
 20
273.244055924
 30
0.0
 11
156.4849310192
 21
273.4742565127
 31
0.0
  0
LINE
  5
11D
330
1F
100
AcDbEntity
  8
0
  6
Continuous
 62
     7
370
    25
100
AcDbLine
 10
154.9609371098
 20
273.4742565127
 30
0.0
 11
154.9609371098
 21
273.244055924
 31
0.0
  0
LINE
  5
11E
330
1F
100
AcDbEntity
  8
0
  6
Continuous
 62
     7
370
    25
100
AcDbLine
 10
174.1532378467
 20
273.244055924
 30
0.0
 11
174.1532378467
 21
273.4742565127
 31
0.0
  0
LINE
  5
11F
330
1F
100
AcDbEntity
  8
0
  6
Continuous
 62
     7
370
    25
100
AcDbLine
 10
172.6292364868
 20
273.4742565127
 30
0.0
 11
172.6292364868
 21
273.244055924
 31
0.0
  0
LINE
  5
120
330
1F
100
AcDbEntity
  8
0
  6
Continuous
 62
     7
370
    25
100
AcDbLine
 10
158.6947359713
 20
273.244055924
 30
0.0
 11
158.6947359713
 21
273.4742565127
 31
0.0
  0
LINE
  5
121
330
1F
100
AcDbEntity
  8
0
  6
Continuous
 62
     7
370
    25
100
AcDbLine
 10
157.1707346114
 20
273.4742565127
 30
0.0
 11
157.1707346114
 21
273.244055924
 31
0.0
  0
LINE
  5
122
330
1F
100
AcDbEntity
  8
0
  6
Continuous
 62
     7
370
    25
100
AcDbLine
 10
160.9045334729
 20
273.244055924
 30
0.0
 11
160.9045334729
 21
273.4742565127
 31
0.0
  0
LINE
  5
123
330
1F
100
AcDbEntity
  8
0
  6
Continuous
 62
     7
370
    25
100
AcDbLine
 10
159.3805321129
 20
273.4742565127
 30
0.0
 11
159.3805321129
 21
273.244055924
 31
0.0
  0
LINE
  5
124
330
1F
100
AcDbEntity
  8
0
  6
Continuous
 62
     7
370
    25
100
AcDbLine
 10
176.3630353483
 20
273.244055924
 30
0.0
 11
176.3630353483
 21
273.4742565127
 31
0.0
  0
LINE
  5
125
330
1F
100
AcDbEntity
  8
0
  6
Continuous
 62
     7
370
    25
100
AcDbLine
 10
174.8390414389
 20
273.4742565127
 30
0.0
 11
174.8390414389
 21
273.244055924
 31
0.0
  0
LINE
  5
126
330
1F
100
AcDbEntity
  8
0
  6
Continuous
 62
     7
370
    25
100
AcDbLine
 10
165.3241359266
 20
273.244055924
 30
0.0
 11
165.3241359266
 21
273.4742565127
 31
0.0
  0
LINE
  5
127
330
1F
100
AcDbEntity
  8
0
  6
Continuous
 62
     7
370
    25
100
AcDbLine
 10
163.8001345666
 20
273.4742565127
 30
0.0
 11
163.8001345666
 21
273.244055924
 31
0.0
  0
LINE
  5
128
330
1F
100
AcDbEntity
  8
0
  6
Continuous
 62
     7
370
    25
100
AcDbLine
 10
167.5238378914
 20
273.244055924
 30
0.0
 11
167.5238378914
 21
273.4742565127
 31
0.0
  0
LINE
  5
129
330
1F
100
AcDbEntity
  8
0
  6
Continuous
 62
     7
370
    25
100
AcDbLine
 10
165.9998365315
 20
273.4742565127
 30
0.0
 11
165.9998365315
 21
273.244055924
 31
0.0
  0
LINE
  5
12A
330
1F
100
AcDbEntity
  8
0
  6
Continuous
 62
     7
370
    25
100
AcDbLine
 10
163.1143309744
 20
273.244055924
 30
0.0
 11
163.1143309744
 21
273.4742565127
 31
0.0
  0
LINE
  5
12B
330
1F
100
AcDbEntity
  8
0
  6
Continuous
 62
     7
370
    25
100
AcDbLine
 10
161.5903370651
 20
273.4742565127
 30
0.0
 11
161.5903370651
 21
273.244055924
 31
0.0
  0
LINE
  5
12C
330
1F
100
AcDbEntity
  8
0
  6
Continuous
 62
     7
370
    25
100
AcDbLine
 10
169.733635393
 20
273.244055924
 30
0.0
 11
169.733635393
 21
273.4742565127
 31
0.0
  0
LINE
  5
12D
330
1F
100
AcDbEntity
  8
0
  6
Continuous
 62
     7
370
    25
100
AcDbLine
 10
168.2096414836
 20
273.4742565127
 30
0.0
 11
168.2096414836
 21
273.244055924
 31
0.0
  0
LINE
  5
12E
330
1F
100
AcDbEntity
  8
0
  6
Continuous
 62
     7
370
    25
100
AcDbLine
 10
175.2631880911
 20
272.4389685364
 30
0.0
 11
175.2631880911
 21
272.6691691251
 31
0.0
  0
LINE
  5
12F
330
1F
100
AcDbEntity
  8
0
  6
Continuous
 62
     7
370
    25
100
AcDbLine
 10
173.7391867312
 20
272.6691691251
 30
0.0
 11
173.7391867312
 21
272.4389685364
 31
0.0
  0
LINE
  5
130
330
1F
100
AcDbEntity
  8
0
  6
Continuous
 62
     7
370
    25
100
AcDbLine
 10
166.4239831837
 20
272.4389685364
 30
0.0
 11
166.4239831837
 21
272.6691691251
 31
0.0
  0
LINE
  5
131
330
1F
100
AcDbEntity
  8
0
  6
Continuous
 62
     7
370
    25
100
AcDbLine
 10
164.8999892744
 20
272.6691691251
 30
0.0
 11
164.8999892744
 21
272.4389685364
 31
0.0
  0
LINE
  5
132
330
1F
100
AcDbEntity
  8
0
  6
Continuous
 62
     7
370
    25
100
AcDbLine
 10
168.6337881359
 20
272.4389685364
 30
0.0
 11
168.6337881359
 21
272.6691691251
 31
0.0
  0
LINE
  5
133
330
1F
100
AcDbEntity
  8
0
  6
Continuous
 62
     7
370
    25
100
AcDbLine
 10
167.1097867759
 20
272.6691691251
 30
0.0
 11
167.1097867759
 21
272.4389685364
 31
0.0
  0
LINE
  5
134
330
1F
100
AcDbEntity
  8
0
  6
Continuous
 62
     7
370
    25
100
AcDbLine
 10
162.0043881806
 20
272.4389685364
 30
0.0
 11
162.0043881806
 21
272.6691691251
 31
0.0
  0
LINE
  5
135
330
1F
100
AcDbEntity
  8
0
  6
Continuous
 62
     7
370
    25
100
AcDbLine
 10
160.4803868207
 20
272.6691691251
 30
0.0
 11
160.4803868207
 21
272.4389685364
 31
0.0
  0
LINE
  5
136
330
1F
100
AcDbEntity
  8
0
  6
Continuous
 62
     7
370
    25
100
AcDbLine
 10
170.8435856374
 20
272.4389685364
 30
0.0
 11
170.8435856374
 21
272.6691691251
 31
0.0
  0
LINE
  5
137
330
1F
100
AcDbEntity
  8
0
  6
Continuous
 62
     7
370
    25
100
AcDbLine
 10
169.3195842775
 20
272.6691691251
 30
0.0
 11
169.3195842775
 21
272.4389685364
 31
0.0
  0
LINE
  5
138
330
1F
100
AcDbEntity
  8
0
  6
Continuous
 62
     7
370
    25
100
AcDbLine
 10
173.053383139
 20
272.4389685364
 30
0.0
 11
173.053383139
 21
272.6691691251
 31
0.0
  0
LINE
  5
139
330
1F
100
AcDbEntity
  8
0
  6
Continuous
 62
     7
370
    25
100
AcDbLine
 10
171.5293892296
 20
272.6691691251
 30
0.0
 11
171.5293892296
 21
272.4389685364
 31
0.0
  0
LINE
  5
13A
330
1F
100
AcDbEntity
  8
0
  6
Continuous
 62
     7
370
    25
100
AcDbLine
 10
164.2141856822
 20
272.4389685364
 30
0.0
 11
164.2141856822
 21
272.6691691251
 31
0.0
  0
LINE
  5
13B
330
1F
100
AcDbEntity
  8
0
  6
Continuous
 62
     7
370
    25
100
AcDbLine
 10
162.6901843222
 20
272.6691691251
 30
0.0
 11
162.6901843222
 21
272.4389685364
 31
0.0
  0
LINE
  5
13C
330
1F
100
AcDbEntity
  8
0
  6
Continuous
 62
     7
370
    25
100
AcDbLine
 10
159.7945832284
 20
272.4389685364
 30
0.0
 11
159.7945832284
 21
272.6691691251
 31
0.0
  0
LINE
  5
13D
330
1F
100
AcDbEntity
  8
0
  6
Continuous
 62
     7
370
    25
100
AcDbLine
 10
158.2705893191
 20
272.6691691251
 30
0.0
 11
158.2705893191
 21
272.4389685364
 31
0.0
  0
LINE
  5
13E
330
1F
100
AcDbEntity
  8
0
  6
Continuous
 62
     7
370
    25
100
AcDbLine
 10
157.5847857269
 20
272.4389685364
 30
0.0
 11
157.5847857269
 21
272.6691691251
 31
0.0
  0
LINE
  5
13F
330
1F
100
AcDbEntity
  8
0
  6
Continuous
 62
     7
370
    25
100
AcDbLine
 10
156.0607843669
 20
272.6691691251
 30
0.0
 11
156.0607843669
 21
272.4389685364
 31
0.0
  0
LINE
  5
140
330
1F
100
AcDbEntity
  8
0
  6
Continuous
 62
     7
370
    25
100
AcDbLine
 10
174.2705546888
 20
271.5480057569
 30
0.0
 11
174.2705546888
 21
271.7782063456
 31
0.0
  0
LINE
  5
141
330
1F
100
AcDbEntity
  8
0
  6
Continuous
 62
     7
370
    25
100
AcDbLine
 10
172.7465533288
 20
271.7782063456
 30
0.0
 11
172.7465533288
 21
271.5480057569
 31
0.0
  0
LINE
  5
142
330
1F
100
AcDbEntity
  8
0
  6
Continuous
 62
     7
370
    25
100
AcDbLine
 10
158.5774191292
 20
271.5480057569
 30
0.0
 11
158.5774191292
 21
271.7782063456
 31
0.0
  0
LINE
  5
143
330
1F
100
AcDbEntity
  8
0
  6
Continuous
 62
     7
370
    25
100
AcDbLine
 10
157.0534177693
 20
271.7782063456
 30
0.0
 11
157.0534177693
 21
271.5480057569
 31
0.0
  0
LINE
  5
144
330
1F
100
AcDbEntity
  8
0
  6
Continuous
 62
     7
370
    25
100
AcDbLine
 10
162.9970141324
 20
271.5480057569
 30
0.0
 11
162.9970141324
 21
271.7782063456
 31
0.0
  0
LINE
  5
145
330
1F
100
AcDbEntity
  8
0
  6
Continuous
 62
     7
370
    25
100
AcDbLine
 10
161.4730127724
 20
271.7782063456
 30
0.0
 11
161.4730127724
 21
271.5480057569
 31
0.0
  0
LINE
  5
146
330
1F
100
AcDbEntity
  8
0
  6
Continuous
 62
     7
370
    25
100
AcDbLine
 10
165.2068190845
 20
271.5480057569
 30
0.0
 11
165.2068190845
 21
271.7782063456
 31
0.0
  0
LINE
  5
147
330
1F
100
AcDbEntity
  8
0
  6
Continuous
 62
     7
370
    25
100
AcDbLine
 10
163.6828177246
 20
271.7782063456
 30
0.0
 11
163.6828177246
 21
271.5480057569
 31
0.0
  0
LINE
  5
148
330
1F
100
AcDbEntity
  8
0
  6
Continuous
 62
     7
370
    25
100
AcDbLine
 10
172.0607571872
 20
271.5480057569
 30
0.0
 11
172.0607571872
 21
271.7782063456
 31
0.0
  0
LINE
  5
149
330
1F
100
AcDbEntity
  8
0
  6
Continuous
 62
     7
370
    25
100
AcDbLine
 10
170.5367558273
 20
271.7782063456
 30
0.0
 11
170.5367558273
 21
271.5480057569
 31
0.0
  0
LINE
  5
14A
330
1F
100
AcDbEntity
  8
0
  6
Continuous
 62
     7
370
    25
100
AcDbLine
 10
167.6411547335
 20
271.5480057569
 30
0.0
 11
167.6411547335
 21
271.7782063456
 31
0.0
  0
LINE
  5
14B
330
1F
100
AcDbEntity
  8
0
  6
Continuous
 62
     7
370
    25
100
AcDbLine
 10
166.1171533736
 20
271.7782063456
 30
0.0
 11
166.1171533736
 21
271.5480057569
 31
0.0
  0
LINE
  5
14C
330
1F
100
AcDbEntity
  8
0
  6
Continuous
 62
     7
370
    25
100
AcDbLine
 10
169.8509522351
 20
271.5480057569
 30
0.0
 11
169.8509522351
 21
271.7782063456
 31
0.0
  0
LINE
  5
14D
330
1F
100
AcDbEntity
  8
0
  6
Continuous
 62
     7
370
    25
100
AcDbLine
 10
168.3269583257
 20
271.7782063456
 30
0.0
 11
168.3269583257
 21
271.5480057569
 31
0.0
  0
LINE
  5
14E
330
1F
100
AcDbEntity
  8
0
  6
Continuous
 62
     7
370
    25
100
AcDbLine
 10
160.7872166308
 20
271.5480057569
 30
0.0
 11
160.7872166308
 21
271.7782063456
 31
0.0
  0
LINE
  5
14F
330
1F
100
AcDbEntity
  8
0
  6
Continuous
 62
     7
370
    25
100
AcDbLine
 10
159.2632152709
 20
271.7782063456
 30
0.0
 11
159.2632152709
 21
271.5480057569
 31
0.0
  0
SPLINE
  5
150
330
1F
100
AcDbEntity
  8
0
  6
Continuous
 62
     7
370
    25
100
AcDbSpline
210
0.0
220
0.0
230
1.0
 70
     8
 71
     3
 72
    10
 73
     6
 74
     0
 42
0.000000001
 43
0.00000001
 40
0.0
 40
0.0
 40
0.0
 40
0.0
 40
0.2651638631280123
 40
0.6929867933870403
 40
1.0
 40
1.0
 40
1.0
 40
1.0
 10
157.8479625853062
 20
270.4796297521903
 30
0.0
 10
157.9318304952938
 20
270.4282916083358
 30
0.0
 10
158.1510132803262
 20
270.2941230407621
 30
0.0
 10
158.57666431905
 20
270.18558267374
 30
0.0
 10
158.9195938301727
 20
270.170738935224
 30
0.0
 10
159.0628691586019
 20
270.1645372481658
 30
0.0
  0
SPLINE
  5
151
330
1F
100
AcDbEntity
  8
0
  6
Continuous
 62
     7
370
    25
100
AcDbSpline
210
0.0
220
0.0
230
1.0
 70
     8
 71
     3
 72
    10
 73
     6
 74
     0
 42
0.000000001
 43
0.00000001
 40
0.0
 40
0.0
 40
0.0
 40
0.0
 40
0.2476675366036219
 40
0.6400764950121305
 40
1.0
 40
1.0
 40
1.0
 40
1.0
 10
172.2610958488942
 20
270.1645372481658
 30
0.0
 10
172.3765497955882
 20
270.1686295078949
 30
0.0
 10
172.6749310794197
 20
270.1792056185147
 30
0.0
 10
173.1153696833128
 20
270.2707732534922
 30
0.0
 10
173.3593075266211
 20
270.4120442636089
 30
0.0
 10
173.4760098727704
 20
270.4796297521903
 30
0.0
  0
LINE
  5
152
330
1F
100
AcDbEntity
  8
0
  6
Continuous
 62
     7
370
    25
100
AcDbLine
 10
159.0628691586
 20
270.1645372482
 30
0.0
 11
172.2610958489
 21
270.1645372482
 31
0.0
  0
LINE
  5
153
330
1F
100
AcDbEntity
  8
0
  6
Continuous
 62
     7
370
    25
100
AcDbLine
 10
187.2103393646
 20
282.9783735843
 30
0.0
 11
187.6208738061
 21
282.0153338881
 31
0.0
  0
SPLINE
  5
154
330
1F
100
AcDbEntity
  8
0
  6
Continuous
 62
     7
370
    25
100
AcDbSpline
210
0.0
220
0.0
230
1.0
 70
     8
 71
     3
 72
     9
 73
     5
 74
     0
 42
0.000000001
 43
0.00000001
 40
0.0
 40
0.0
 40
0.0
 40
0.0
 40
0.0361630571491724
 40
0.9999999999999999
 40
0.9999999999999999
 40
0.9999999999999999
 40
0.9999999999999999
 10
208.4812962087155
 20
281.5213454933478
 30
0.0
 10
208.4860710855655
 20
281.5389165851686
 30
0.0
 10
208.6181085079056
 20
282.0248017178404
 30
0.0
 10
208.8805009861311
 20
282.5103674212114
 30
0.0
 10
209.133404550171
 20
282.9783735843017
 30
0.0
  0
ARC
  5
155
330
1F
100
AcDbEntity
  8
0
  6
Continuous
 62
     7
370
    25
100
AcDbCircle
 10
208.7967890424
 20
271.315734124
 30
0.0
 40
1.000000000000007
100
AcDbArc
 50
286.1036910378
 51
349.3444562998
  0
ARC
  5
156
330
1F
100
AcDbEntity
  8
0
  6
Continuous
 62
     7
370
    25
100
AcDbCircle
 10
187.5271825216
 20
271.315734124
 30
0.0
 40
1.000000000000017
100
AcDbArc
 50
190.6555437002
 51
253.8963089622
  0
SPLINE
  5
157
330
1F
100
AcDbEntity
  8
0
  6
Continuous
 62
     7
370
    25
100
AcDbSpline
210
0.0
220
0.0
230
1.0
 70
     8
 71
     3
 72
    17
 73
    13
 74
     0
 42
0.000000001
 43
0.00000001
 40
0.0
 40
0.0
 40
0.0
 40
0.0
 40
0.0568454937138937
 40
0.1651283314137871
 40
0.2731854797458901
 40
0.381046374803052
 40
0.4887964001235673
 40
0.5965119643862644
 40
0.704256360932757
 40
0.8120888206082834
 40
0.9200910672337996
 40
1.0
 40
1.0
 40
1.0
 40
1.0
 10
187.249805090046
 20
270.3549740882232
 30
0.0
 10
187.6195799936744
 20
270.2528561158039
 30
0.0
 10
188.6937251694061
 20
269.956217467931
 30
0.0
 10
190.5939165740337
 20
269.5570060089531
 30
0.0
 10
192.9613442012219
 20
269.2050811489132
 30
0.0
 10
195.4110289966044
 20
268.9875871086078
 30
0.0
 10
197.901833636976
 20
268.9050871921555
 30
0.0
 10
200.395888030917
 20
268.9592235782309
 30
0.0
 10
202.8553529178904
 20
269.1483727335069
 30
0.0
 10
205.2386181282304
 20
269.4725002219183
 30
0.0
 10
207.3231930431696
 20
269.879481508159
 30
0.0
 10
208.5517311085263
 20
270.2131023508655
 30
0.0
 10
209.0741649838449
 20
270.3549740882232
 30
0.0
  0
SPLINE
  5
158
330
1F
100
AcDbEntity
  8
0
  6
Continuous
 62
     7
370
    25
100
AcDbSpline
210
0.0
220
0.0
230
1.0
 70
     8
 71
     3
 72
    10
 73
     6
 74
     0
 42
0.000000001
 43
0.00000001
 40
0.0
 40
0.0
 40
0.0
 40
0.0
 40
0.1102519061057478
 40
0.7179884023088564
 40
1.0
 40
1.0
 40
1.0
 40
1.0
 10
184.0197288068296
 20
282.7046690554931
 30
0.0
 10
184.1279111328935
 20
282.2734866572754
 30
0.0
 10
184.8324219045638
 20
279.4655174154277
 30
0.0
 10
185.7005674691405
 20
275.5810234267782
 30
0.0
 10
186.3173829921972
 20
272.2139773652337
 30
0.0
 10
186.5128867896558
 20
271.1467696400001
 30
0.0
  0
SPLINE
  5
159
330
1F
100
AcDbEntity
  8
0
  6
Continuous
 62
     7
370
    25
100
AcDbSpline
210
0.0
220
0.0
230
1.0
 70
     8
 71
     3
 72
     9
 73
     5
 74
     0
 42
0.000000001
 43
0.00000001
 40
0.0
 40
0.0
 40
0.0
 40
0.0
 40
0.5245016397419244
 40
1.0
 40
1.0
 40
1.0
 40
1.0
 10
209.7804204197885
 20
271.1311830253913
 30
0.0
 10
210.1701465857504
 20
273.131724543929
 30
0.0
 10
210.9131874772025
 20
276.9459004529347
 30
0.0
 10
211.8608543067294
 20
280.8506848436335
 30
0.0
 10
212.3114683302404
 20
282.7074034185721
 30
0.0
  0
SPLINE
  5
15A
330
1F
100
AcDbEntity
  8
0
  6
Continuous
 62
     7
370
    25
100
AcDbSpline
210
0.0
220
0.0
230
1.0
 70
     8
 71
     3
 72
     9
 73
     5
 74
     0
 42
0.000000001
 43
0.00000001
 40
0.0
 40
0.0
 40
0.0
 40
0.0
 40
0.35797474577053
 40
1.0
 40
1.0
 40
1.0
 40
1.0
 10
212.3016894432069
 20
282.7071724505736
 30
0.0
 10
212.3060406421327
 20
282.7339462061345
 30
0.0
 10
212.3181956865241
 20
282.8087385088797
 30
0.0
 10
212.3712227200103
 20
282.9120469537316
 30
0.0
 10
212.4052674146653
 20
282.9783735843017
 30
0.0
  0
LINE
  5
15B
330
1F
100
AcDbEntity
  8
0
  6
Continuous
 62
     7
370
    25
100
AcDbLine
 10
183.9194216403
 20
282.9783735843
 30
0.0
 11
184.0201758417
 21
282.7072693081
 31
0.0
  0
SPLINE
  5
15C
330
1F
100
AcDbEntity
  8
0
  6
Continuous
 62
     7
370
    25
100
AcDbSpline
210
0.0
220
0.0
230
1.0
 70
     8
 71
     3
 72
     9
 73
     5
 74
     0
 42
0.000000001
 43
0.00000001
 40
0.0
 40
0.0
 40
0.0
 40
0.0
 40
0.0361630507287732
 40
0.9999999999999999
 40
0.9999999999999999
 40
0.9999999999999999
 40
0.9999999999999999
 10
308.4812939735414
 20
281.5213454933478
 30
0.0
 10
308.4860688495855
 20
281.5389165852271
 30
0.0
 10
308.6181062730855
 20
282.0248018057802
 30
0.0
 10
308.8805006472177
 20
282.5103674627841
 30
0.0
 10
309.1334060402872
 20
282.9783735843017
 30
0.0
  0
LINE
  5
15D
330
1F
100
AcDbEntity
  8
0
  6
Continuous
 62
     7
370
    25
100
AcDbLine
 10
287.2103371295
 20
282.9783735843
 30
0.0
 11
287.6208715709
 21
282.0153338881
 31
0.0
  0
ARC
  5
15E
330
1F
100
AcDbEntity
  8
0
  6
Continuous
 62
     7
370
    25
100
AcDbCircle
 10
308.7967890424
 20
271.315734124
 30
0.0
 40
1.000000000000017
100
AcDbArc
 50
286.1036910378
 51
349.3444562998
  0
ARC
  5
15F
330
1F
100
AcDbEntity
  8
0
  6
Continuous
 62
     7
370
    25
100
AcDbCircle
 10
287.5271825216
 20
271.315734124
 30
0.0
 40
1.000000000000017
100
AcDbArc
 50
190.6555437002
 51
253.8963089622
  0
SPLINE
  5
160
330
1F
100
AcDbEntity
  8
0
  6
Continuous
 62
     7
370
    25
100
AcDbSpline
210
0.0
220
0.0
230
1.0
 70
     8
 71
     3
 72
    17
 73
    13
 74
     0
 42
0.000000001
 43
0.00000001
 40
0.0
 40
0.0
 40
0.0
 40
0.0
 40
0.0568454944130336
 40
0.1651281888416257
 40
0.273185490927614
 40
0.3810463873113519
 40
0.4887962532873378
 40
0.5965119798146206
 40
0.7042562190646395
 40
0.812088680066392
 40
0.9200909280202227
 40
1.0
 40
1.0
 40
1.0
 40
1.0
 10
287.2498065801622
 20
270.3549740882232
 30
0.0
 10
287.6195815152568
 20
270.2528561452965
 30
0.0
 10
288.6937258417632
 20
269.9562178428623
 30
0.0
 10
290.5939160263693
 20
269.5570051988707
 30
0.0
 10
292.9613447730354
 20
269.2050815225398
 30
0.0
 10
295.4110292148893
 20
268.9875871446325
 30
0.0
 10
297.9018338689188
 20
268.9050872166882
 30
0.0
 10
300.3958871276246
 20
268.9592233330109
 30
0.0
 10
302.8553517886692
 20
269.1483729951048
 30
0.0
 10
305.2386160189313
 20
269.4725001148504
 30
0.0
 10
307.3231913897756
 20
269.879481986736
 30
0.0
 10
308.5517312962759
 20
270.2131023946897
 30
0.0
 10
309.074166473961
 20
270.3549740882232
 30
0.0
  0
SPLINE
  5
161
330
1F
100
AcDbEntity
  8
0
  6
Continuous
 62
     7
370
    25
100
AcDbSpline
210
0.0
220
0.0
230
1.0
 70
     8
 71
     3
 72
    10
 73
     6
 74
     0
 42
0.000000001
 43
0.00000001
 40
0.0
 40
0.0
 40
0.0
 40
0.0
 40
0.1102519095063516
 40
0.7179883936105059
 40
1.0
 40
1.0
 40
1.0
 40
1.0
 10
284.0197302969457
 20
282.7046690554931
 30
0.0
 10
284.1279126495865
 20
282.2734866598722
 30
0.0
 10
284.8324235640673
 20
279.465517555563
 30
0.0
 10
285.700564638328
 20
275.5810232489811
 30
0.0
 10
286.3173806085223
 20
272.2139773505345
 30
0.0
 10
286.5128845544817
 20
271.1467696400001
 30
0.0
  0
SPLINE
  5
162
330
1F
100
AcDbEntity
  8
0
  6
Continuous
 62
     7
370
    25
100
AcDbSpline
210
0.0
220
0.0
230
1.0
 70
     8
 71
     3
 72
     9
 73
     5
 74
     0
 42
0.000000001
 43
0.00000001
 40
0.0
 40
0.0
 40
0.0
 40
0.0
 40
0.5245016702311864
 40
1.0
 40
1.0
 40
1.0
 40
1.0
 10
309.7804219099046
 20
271.1311830253913
 30
0.0
 10
310.1701499860167
 20
273.1317244780258
 30
0.0
 10
310.9131944761139
 20
276.9459000396645
 30
0.0
 10
311.860857591708
 20
280.8506847911392
 30
0.0
 10
312.3114698203565
 20
282.7074034185721
 30
0.0
  0
SPLINE
  5
163
330
1F
100
AcDbEntity
  8
0
  6
Continuous
 62
     7
370
    25
100
AcDbSpline
210
0.0
220
0.0
230
1.0
 70
     8
 71
     3
 72
     9
 73
     5
 74
     0
 42
0.000000001
 43
0.00000001
 40
0.0
 40
0.0
 40
0.0
 40
0.0
 40
0.35797474577053
 40
1.0
 40
1.0
 40
1.0
 40
1.0
 10
312.3016872080328
 20
282.7071724505736
 30
0.0
 10
312.3060384069585
 20
282.7339462061345
 30
0.0
 10
312.3181934513499
 20
282.8087385088797
 30
0.0
 10
312.3712204848361
 20
282.9120469537316
 30
0.0
 10
312.4052651794912
 20
282.9783735843017
 30
0.0
  0
LINE
  5
164
330
1F
100
AcDbEntity
  8
0
  6
Continuous
 62
     7
370
    25
100
AcDbLine
 10
283.9194194051
 20
282.9783735843
 30
0.0
 11
284.0201736065
 21
282.7072693081
 31
0.0
  0
LINE
  5
165
330
1F
100
AcDbEntity
  8
0
  6
Continuous
 62
     7
370
    25
100
AcDbLine
 10
48.1619828018
 20
282.9161463352
 30
0.0
 11
148.1359892162
 21
282.9161463352
 31
0.0
  0
LINE
  5
166
330
1F
100
AcDbEntity
  8
0
  6
Continuous
 62
     7
370
    25
100
AcDbLine
 10
183.1879832419
 20
282.9161463352
 30
0.0
 11
183.9425482424
 21
282.9161463352
 31
0.0
  0
LINE
  5
167
330
1F
100
AcDbEntity
  8
0
  6
Continuous
 62
     7
370
    25
100
AcDbLine
 10
212.3769179555
 20
282.9161463352
 30
0.0
 11
283.9425497325
 21
282.9161463352
 31
0.0
  0
LINE
  5
168
330
1F
100
AcDbEntity
  8
0
  6
Continuous
 62
     7
370
    25
100
AcDbLine
 10
312.3769231709
 20
282.9161463352
 30
0.0
 11
313.1359883221
 21
282.9161463352
 31
0.0
  0
LINE
  5
169
330
1F
100
AcDbEntity
  8
0
  6
Continuous
 62
     7
370
    25
100
AcDbLine
 10
348.1879823478
 20
282.9161463352
 30
0.0
 11
448.1619887622
 21
282.9161463352
 31
0.0
  0
ARC
  5
16A
330
1F
100
AcDbEntity
  8
0
  6
Continuous
 62
     7
370
    25
100
AcDbCircle
 10
388.161985782
 20
1000.4783767886
 30
0.0
 40
14.00199999999995
100
AcDbArc
 50
270.0
 51
0.0
  0
ARC
  5
16B
330
1F
100
AcDbEntity
  8
0
  6
Continuous
 62
     7
370
    25
100
AcDbCircle
 10
388.161985782
 20
1000.4783767886
 30
0.0
 40
5.99799999999999
100
AcDbArc
 50
270.0
 51
0.0
  0
LINE
  5
16C
330
1F
100
AcDbEntity
  8
0
  6
Continuous
 62
     7
370
    25
100
AcDbLine
 10
402.1639817031
 20
1000.478382227
 30
0.0
 11
402.1639817031
 21
1017.4784017773
 31
0.0
  0
LINE
  5
16D
330
1F
100
AcDbEntity
  8
0
  6
Continuous
 62
     7
370
    25
100
AcDbLine
 10
394.1599868806
 20
1017.4784017773
 30
0.0
 11
394.1599868806
 21
1000.478382227
 31
0.0
  0
LINE
  5
16E
330
1F
100
AcDbEntity
  8
0
  6
Continuous
 62
     7
370
    25
100
AcDbLine
 10
108.161985186
 20
986.4763570996
 30
0.0
 11
208.2270637723
 21
986.4763570996
 31
0.0
  0
LINE
  5
16F
330
1F
100
AcDbEntity
  8
0
  6
Continuous
 62
     7
370
    25
100
AcDbLine
 10
220.495148805
 20
986.4763570996
 30
0.0
 11
388.1619863781
 21
986.4763570996
 31
0.0
  0
LINE
  5
170
330
1F
100
AcDbEntity
  8
0
  6
Continuous
 62
     7
370
    25
100
AcDbLine
 10
388.1619863781
 20
994.4803668232
 30
0.0
 11
222.1964516314
 21
994.4803668232
 31
0.0
  0
LINE
  5
171
330
1F
100
AcDbEntity
  8
0
  6
Continuous
 62
     7
370
    25
100
AcDbLine
 10
209.9283665987
 20
994.4803668232
 30
0.0
 11
108.161985186
 21
994.4803668232
 31
0.0
  0
LINE
  5
172
330
1F
100
AcDbEntity
  8
0
  6
Continuous
 62
     7
370
    25
100
AcDbLine
 10
402.1639817031
 20
1017.4784017773
 30
0.0
 11
402.1639817031
 21
1027.4783922406
 31
0.0
  0
LINE
  5
173
330
1F
100
AcDbEntity
  8
0
  6
Continuous
 62
     7
370
    25
100
AcDbLine
 10
394.1599868806
 20
1027.4783922406
 30
0.0
 11
394.1599868806
 21
1017.4784017773
 31
0.0
  0
ARC
  5
174
330
1F
100
AcDbEntity
  8
0
  6
Continuous
 62
     7
370
    25
100
AcDbCircle
 10
108.161985782
 20
1000.4783767886
 30
0.0
 40
14.002
100
AcDbArc
 50
180.0
 51
270.0
  0
ARC
  5
175
330
1F
100
AcDbEntity
  8
0
  6
Continuous
 62
     7
370
    25
100
AcDbCircle
 10
108.161985782
 20
1000.4783767886
 30
0.0
 40
5.997999999999976
100
AcDbArc
 50
180.0
 51
270.0
  0
LINE
  5
176
330
1F
100
AcDbEntity
  8
0
  6
Continuous
 62
     7
370
    25
100
AcDbLine
 10
94.1599898609
 20
1027.4783922406
 30
0.0
 11
94.1599898609
 21
1017.4784017773
 31
0.0
  0
LINE
  5
177
330
1F
100
AcDbEntity
  8
0
  6
Continuous
 62
     7
370
    25
100
AcDbLine
 10
102.1639846834
 20
1017.4784017773
 30
0.0
 11
102.1639846834
 21
1027.4783922406
 31
0.0
  0
LINE
  5
178
330
1F
100
AcDbEntity
  8
0
  6
Continuous
 62
     7
370
    25
100
AcDbLine
 10
94.1599898609
 20
1017.4784017773
 30
0.0
 11
94.1599898609
 21
1000.478382227
 31
0.0
  0
LINE
  5
179
330
1F
100
AcDbEntity
  8
0
  6
Continuous
 62
     7
370
    25
100
AcDbLine
 10
102.1639846834
 20
1000.478382227
 30
0.0
 11
102.1639846834
 21
1017.4784017773
 31
0.0
  0
LINE
  5
17A
330
1F
100
AcDbEntity
  8
0
  6
Continuous
 62
     7
370
    25
100
AcDbLine
 10
150.4119851264
 20
666.47839081
 30
0.0
 11
150.4119851264
 21
660.003806469
 31
0.0
  0
LWPOLYLINE
  5
17B
330
1F
100
AcDbEntity
  8
0
  6
Continuous
 62
     7
370
    25
100
AcDbPolyline
 90
        3
 70
   128
 43
0.0
 10
150.1202352913
 20
668.9658416481
 10
150.2849601778
 20
668.1260718079
 10
150.4119851264
 20
666.47839081
  0
LINE
  5
17C
330
1F
100
AcDbEntity
  8
0
  6
Continuous
 62
     7
370
    25
100
AcDbLine
 10
180.9119873317
 20
660.003806469
 30
0.0
 11
180.9119873317
 21
666.47839081
 31
0.0
  0
LWPOLYLINE
  5
17D
330
1F
100
AcDbEntity
  8
0
  6
Continuous
 62
     7
370
    25
100
AcDbPolyline
 90
        3
 70
   128
 43
0.0
 10
180.9119873317
 20
666.47839081
 10
181.0390122803
 20
668.1260718079
 10
181.2037371667
 20
668.9658416481
  0
LINE
  5
17E
330
1F
100
AcDbEntity
  8
0
  6
Continuous
 62
     7
370
    25
100
AcDbLine
 10
315.4119842323
 20
666.47839081
 30
0.0
 11
315.4119842323
 21
660.003806469
 31
0.0
  0
LWPOLYLINE
  5
17F
330
1F
100
AcDbEntity
  8
0
  6
Continuous
 62
     7
370
    25
100
AcDbPolyline
 90
        3
 70
   128
 43
0.0
 10
315.1202343973
 20
668.9658416481
 10
315.2849592837
 20
668.1260718079
 10
315.4119842323
 20
666.47839081
  0
LINE
  5
180
330
1F
100
AcDbEntity
  8
0
  6
Continuous
 62
     7
370
    25
100
AcDbLine
 10
345.9119864377
 20
660.003806469
 30
0.0
 11
345.9119864377
 21
666.47839081
 31
0.0
  0
LWPOLYLINE
  5
181
330
1F
100
AcDbEntity
  8
0
  6
Continuous
 62
     7
370
    25
100
AcDbPolyline
 90
        3
 70
   128
 43
0.0
 10
345.9119864377
 20
666.47839081
 10
346.0390113863
 20
668.1260718079
 10
346.2037362727
 20
668.9658416481
  0
LINE
  5
182
330
1F
100
AcDbEntity
  8
0
  6
Continuous
 62
     7
370
    25
100
AcDbLine
 10
48.1619828018
 20
282.9783735843
 30
0.0
 11
448.1619887622
 21
282.9783735843
 31
0.0
  0
CIRCLE
  5
183
330
1F
100
AcDbEntity
  8
0
  6
Continuous
 62
     7
370
    25
100
AcDbCircle
 10
248.1691904154
 20
821.1079023781
 30
0.0
 40
19.00000000000003
  0
SPLINE
  5
184
330
1F
100
AcDbEntity
  8
0
  6
Continuous
 62
     7
370
    25
100
AcDbSpline
210
0.0
220
0.0
230
1.0
 70
     8
 71
     3
 72
    12
 73
     8
 74
     0
 42
0.000000001
 43
0.00000001
 40
0.0
 40
0.0
 40
0.0
 40
0.0
 40
0.2096828817967245
 40
0.4420471485049757
 40
0.6744297835554217
 40
0.9068177811972423
 40
1.0
 40
1.0
 40
1.0
 40
1.0
 10
86.97625925860416
 20
625.7578982086494
 30
0.0
 10
87.08054683832131
 20
625.7822426458767
 30
0.0
 10
87.30040277908019
 20
625.8335648566654
 30
0.0
 10
87.63635526511953
 20
626.2544800220753
 30
0.0
 10
87.98328883967014
 20
626.9062853861008
 30
0.0
 10
88.26164223614474
 20
627.5557140114698
 30
0.0
 10
88.42300708409284
 20
627.9461575693596
 30
0.0
 10
88.46919169745456
 20
628.057907340081
 30
0.0
  0
LINE
  5
185
330
1F
100
AcDbEntity
  8
0
  6
Continuous
 62
     7
370
    25
100
AcDbLine
 10
86.9762592586
 20
625.7578982086
 30
0.0
 11
86.9762592586
 21
626.5578968497
 31
0.0
  0
SPLINE
  5
186
330
1F
100
AcDbEntity
  8
0
  6
Continuous
 62
     7
370
    25
100
AcDbSpline
210
0.0
220
0.0
230
1.0
 70
     8
 71
     3
 72
    11
 73
     7
 74
     0
 42
0.000000001
 43
0.00000001
 40
0.0
 40
0.0
 40
0.0
 40
0.0
 40
0.2543122779064396
 40
0.5088629304700076
 40
0.7634135698517923
 40
1.0
 40
1.0
 40
1.0
 40
1.0
 10
86.97625925860416
 20
626.5578968496635
 30
0.0
 10
87.10284186484435
 20
626.5812565439293
 30
0.0
 10
87.35612572706347
 20
626.6279978282149
 30
0.0
 10
87.73607103407008
 20
626.9868695435853
 30
0.0
 10
88.1072724065137
 20
627.486098122915
 30
0.0
 10
88.35152998516504
 20
627.8720093974215
 30
0.0
 10
88.46919169745456
 20
628.057907340081
 30
0.0
  0
SPLINE
  5
187
330
1F
100
AcDbEntity
  8
0
  6
Continuous
 62
     7
370
    25
100
AcDbSpline
210
0.0
220
0.0
230
1.0
 70
     8
 71
     3
 72
    12
 73
     8
 74
     0
 42
0.000000001
 43
0.00000001
 40
0.0
 40
0.0
 40
0.0
 40
0.0
 40
0.2096824620539044
 40
0.4420469057031899
 40
0.6744282488270343
 40
0.9068212380786906
 40
1.0
 40
1.0
 40
1.0
 40
1.0
 10
410.1691835196974
 20
626.5649749012306
 30
0.0
 10
410.1448450966
 20
626.669262188229
 30
0.0
 10
410.093535490091
 20
626.8891178312348
 30
0.0
 10
409.6726179862813
 20
627.2250752391228
 30
0.0
 10
409.0208036669673
 20
627.5719862414126
 30
0.0
 10
408.3713762254012
 20
627.8503512149016
 30
0.0
 10
407.9809340049172
 20
628.0117227452718
 30
0.0
 10
407.869189289427
 20
628.057907340081
 30
0.0
  0
LINE
  5
188
330
1F
100
AcDbEntity
  8
0
  6
Continuous
 62
     7
370
    25
100
AcDbLine
 10
410.1691835197
 20
626.5649749012
 30
0.0
 11
409.3691848787
 21
626.5649749012
 31
0.0
  0
SPLINE
  5
189
330
1F
100
AcDbEntity
  8
0
  6
Continuous
 62
     7
370
    25
100
AcDbSpline
210
0.0
220
0.0
230
1.0
 70
     8
 71
     3
 72
    11
 73
     7
 74
     0
 42
0.000000001
 43
0.00000001
 40
0.0
 40
0.0
 40
0.0
 40
0.0
 40
0.2543116083319173
 40
0.5088596034376309
 40
0.7634133574036761
 40
1.0
 40
1.0
 40
1.0
 40
1.0
 10
409.3691848786833
 20
626.5649749012306
 30
0.0
 10
409.3458320731227
 20
626.6915591421674
 30
0.0
 10
409.2991047551891
 20
626.9448452861509
 30
0.0
 10
408.9402193740412
 20
627.3247669384177
 30
0.0
 10
408.4410029478772
 20
627.6959908143341
 30
0.0
 10
408.0550879387335
 20
627.9402469933863
 30
0.0
 10
407.869189289427
 20
628.057907340081
 30
0.0
  0
LINE
  5
18A
330
1F
100
AcDbEntity
  8
0
  6
Continuous
 62
     7
370
    25
100
AcDbLine
 10
183.1691928776
 20
625.7578982086
 30
0.0
 11
313.1691881093
 21
625.7578982086
 31
0.0
  0
LINE
  5
18B
330
1F
100
AcDbEntity
  8
0
  6
Continuous
 62
     7
370
    25
100
AcDbLine
 10
183.1691928776
 20
625.7578982086
 30
0.0
 11
183.1691928776
 21
628.0579073401
 31
0.0
  0
LINE
  5
18C
330
1F
100
AcDbEntity
  8
0
  6
Continuous
 62
     7
370
    25
100
AcDbLine
 10
313.1691881093
 20
628.0579073401
 30
0.0
 11
313.1691881093
 21
625.7578982086
 31
0.0
  0
SPLINE
  5
18D
330
1F
100
AcDbEntity
  8
0
  6
Continuous
 62
     7
370
    25
100
AcDbSpline
210
0.0
220
0.0
230
1.0
 70
     8
 71
     3
 72
    12
 73
     8
 74
     0
 42
0.000000001
 43
0.00000001
 40
0.0
 40
0.0
 40
0.0
 40
0.0
 40
0.2096817265580597
 40
0.442044713065548
 40
0.6744305880907476
 40
0.9068150245374902
 40
1.0
 40
1.0
 40
1.0
 40
1.0
 10
407.869189289427
 20
628.057907340081
 30
0.0
 10
407.9734766412763
 20
627.8055766268347
 30
0.0
 10
408.1933321016512
 20
627.2736206020276
 30
0.0
 10
408.5292907418473
 20
626.5522304584858
 30
0.0
 10
408.8762102948342
 20
626.0088738614417
 30
0.0
 10
409.1545792295015
 20
625.7802430545113
 30
0.0
 10
409.3159375132838
 20
625.762870583808
 30
0.0
 10
409.3621217282774
 20
625.7578982086494
 30
0.0
  0
LINE
  5
18E
330
1F
100
AcDbEntity
  8
0
  6
Continuous
 62
     7
370
    25
100
AcDbLine
 10
348.1691919836
 20
625.7578982086
 30
0.0
 11
409.3621217283
 21
625.7578982086
 31
0.0
  0
LINE
  5
18F
330
1F
100
AcDbEntity
  8
0
  6
Continuous
 62
     7
370
    25
100
AcDbLine
 10
348.1691919836
 20
625.7578982086
 30
0.0
 11
348.1691919836
 21
628.0579073401
 31
0.0
  0
SPLINE
  5
190
330
1F
100
AcDbEntity
  8
0
  6
Continuous
 62
     7
370
    25
100
AcDbSpline
210
0.0
220
0.0
230
1.0
 70
     8
 71
     3
 72
    12
 73
     8
 74
     0
 42
0.000000001
 43
0.00000001
 40
0.0
 40
0.0
 40
0.0
 40
0.0
 40
0.2096819656679667
 40
0.4420452171498667
 40
0.6744313571755787
 40
0.9068149182742922
 40
1.0
 40
1.0
 40
1.0
 40
1.0
 10
88.46919169745456
 20
628.057907340081
 30
0.0
 10
88.21686087759775
 20
627.9536200013033
 30
0.0
 10
87.68490462803733
 20
627.7337645684858
 30
0.0
 10
86.96351631030986
 20
627.397805704424
 30
0.0
 10
86.42015352201246
 20
627.0508875870111
 30
0.0
 10
86.19154383159369
 20
626.772516629135
 30
0.0
 10
86.1741701938053
 20
626.6111590704509
 30
0.0
 10
86.16919746718418
 20
626.5649749012306
 30
0.0
  0
LINE
  5
191
330
1F
100
AcDbEntity
  8
0
  6
Continuous
 62
     7
370
    25
100
AcDbLine
 10
86.1691974672
 20
1015.6508041592
 30
0.0
 11
86.1691974672
 21
626.5649749012
 31
0.0
  0
SPLINE
  5
192
330
1F
100
AcDbEntity
  8
0
  6
Continuous
 62
     7
370
    25
100
AcDbSpline
210
0.0
220
0.0
230
1.0
 70
     8
 71
     3
 72
    12
 73
     8
 74
     0
 42
0.000000001
 43
0.00000001
 40
0.0
 40
0.0
 40
0.0
 40
0.0
 40
0.2096813022236532
 40
0.4420446180471068
 40
0.6744277710644128
 40
0.9068211013428423
 40
0.9999999999999999
 40
0.9999999999999999
 40
0.9999999999999999
 40
0.9999999999999999
 10
86.16919746718416
 20
1015.650804159196
 30
0.0
 10
86.1935357111365
 20
1015.546521349472
 30
0.0
 10
86.24484495825466
 20
1015.326675067021
 30
0.0
 10
86.66576768224158
 20
1014.99074040283
 30
0.0
 10
87.31757399416101
 20
1014.643802701835
 30
0.0
 10
87.96700490038461
 20
1014.365443241015
 30
0.0
 10
88.35744701287271
 20
1014.204071326312
 30
0.0
 10
88.46919169745455
 20
1014.157886621506
 30
0.0
  0
SPLINE
  5
193
330
1F
100
AcDbEntity
  8
0
  6
Continuous
 62
     7
370
    25
100
AcDbSpline
210
0.0
220
0.0
230
1.0
 70
     8
 71
     3
 72
    11
 73
     7
 74
     0
 42
0.000000001
 43
0.00000001
 40
0.0
 40
0.0
 40
0.0
 40
0.0
 40
0.2543200368503259
 40
0.5088718471004356
 40
0.7634173797285505
 40
1.0
 40
1.0
 40
1.0
 40
1.0
 10
407.869189289427
 20
628.057907340081
 30
0.0
 10
407.9957712480622
 20
627.8579312565217
 30
0.0
 10
408.2490505252204
 20
627.4577968421163
 30
0.0
 10
408.6289958624512
 20
626.9561845376138
 30
0.0
 10
409.0002037621985
 20
626.620107909287
 30
0.0
 10
409.2444602837928
 20
626.5781219941002
 30
0.0
 10
409.3621217282774
 20
626.5578968496635
 30
0.0
  0
LINE
  5
194
330
1F
100
AcDbEntity
  8
0
  6
Continuous
 62
     7
370
    25
100
AcDbLine
 10
409.3621217283
 20
625.7578982086
 30
0.0
 11
409.3621217283
 21
626.5578968497
 31
0.0
  0
SPLINE
  5
195
330
1F
100
AcDbEntity
  8
0
  6
Continuous
 62
     7
370
    25
100
AcDbSpline
210
0.0
220
0.0
230
1.0
 70
     8
 71
     3
 72
    12
 73
     8
 74
     0
 42
0.000000001
 43
0.00000001
 40
0.0
 40
0.0
 40
0.0
 40
0.0
 40
0.209680800669471
 40
0.4420487941272118
 40
0.6744352694297169
 40
0.9068206346561534
 40
1.0
 40
1.0
 40
1.0
 40
1.0
 10
407.869189289427
 20
1014.157886621506
 30
0.0
 10
408.1215217980549
 20
1014.262163847618
 30
0.0
 10
408.6534888680106
 20
1014.48200096151
 30
0.0
 10
409.3748552244143
 20
1014.81803579798
 30
0.0
 10
409.9182308272022
 20
1015.164914265269
 30
0.0
 10
410.1468340128923
 20
1015.443357693397
 30
0.0
 10
410.1642102845398
 20
1015.604642959039
 30
0.0
 10
410.1691835196974
 20
1015.650804159196
 30
0.0
  0
LINE
  5
196
330
1F
100
AcDbEntity
  8
0
  6
Continuous
 62
     7
370
    25
100
AcDbLine
 10
410.1691835197
 20
626.5649749012
 30
0.0
 11
410.1691835197
 21
1015.6508041592
 31
0.0
  0
LINE
  5
197
330
1F
100
AcDbEntity
  8
0
  6
Continuous
 62
     7
370
    25
100
AcDbLine
 10
229.1691911044
 20
972.6579142781
 30
0.0
 11
229.1691911044
 21
986.4763570996
 31
0.0
  0
LINE
  5
198
330
1F
100
AcDbEntity
  8
0
  6
Continuous
 62
     7
370
    25
100
AcDbLine
 10
229.1691911044
 20
994.4803668232
 30
0.0
 11
229.1691911044
 21
1014.1578866215
 31
0.0
  0
LINE
  5
199
330
1F
100
AcDbEntity
  8
0
  6
Continuous
 62
     7
370
    25
100
AcDbLine
 10
317.6691897782
 20
1014.1578866215
 30
0.0
 11
317.6691897782
 21
994.4803668232
 31
0.0
  0
LINE
  5
19A
330
1F
100
AcDbEntity
  8
0
  6
Continuous
 62
     7
370
    25
100
AcDbLine
 10
317.6691897782
 20
986.4763570996
 30
0.0
 11
317.6691897782
 21
972.6579142781
 31
0.0
  0
ARC
  5
19B
330
1F
100
AcDbEntity
  8
0
  6
Continuous
 62
     7
370
    25
100
AcDbCircle
 10
330.6691904154
 20
972.6579023781
 30
0.0
 40
13.0
100
AcDbArc
 50
180.0
 51
360.0
  0
LINE
  5
19C
330
1F
100
AcDbEntity
  8
0
  6
Continuous
 62
     7
370
    25
100
AcDbLine
 10
343.6691903146
 20
972.6579142781
 30
0.0
 11
343.6691903146
 21
986.4763570996
 31
0.0
  0
LINE
  5
19D
330
1F
100
AcDbEntity
  8
0
  6
Continuous
 62
     7
370
    25
100
AcDbLine
 10
343.6691903146
 20
994.4803668232
 30
0.0
 11
343.6691903146
 21
1014.1578866215
 31
0.0
  0
LINE
  5
19E
330
1F
100
AcDbEntity
  8
0
  6
Continuous
 62
     7
370
    25
100
AcDbLine
 10
348.1691919836
 20
628.0579073401
 30
0.0
 11
348.1691919836
 21
678.7579013081
 31
0.0
  0
ARC
  5
19F
330
1F
100
AcDbEntity
  8
0
  6
Continuous
 62
     7
370
    25
100
AcDbCircle
 10
345.1691904154
 20
678.7579023781
 30
0.0
 40
3.0
100
AcDbArc
 50
0.0
 51
90.0
  0
LINE
  5
1A0
330
1F
100
AcDbEntity
  8
0
  6
Continuous
 62
     7
370
    25
100
AcDbLine
 10
345.1691933545
 20
681.7578924866
 30
0.0
 11
316.1691867383
 21
681.7578924866
 31
0.0
  0
ARC
  5
1A1
330
1F
100
AcDbEntity
  8
0
  6
Continuous
 62
     7
370
    25
100
AcDbCircle
 10
316.1691904154
 20
678.7579023781
 30
0.0
 40
3.0
100
AcDbArc
 50
90.0
 51
180.0
  0
LINE
  5
1A2
330
1F
100
AcDbEntity
  8
0
  6
Continuous
 62
     7
370
    25
100
AcDbLine
 10
313.1691881093
 20
678.7579013081
 30
0.0
 11
313.1691881093
 21
628.0579073401
 31
0.0
  0
ARC
  5
1A3
330
1F
100
AcDbEntity
  8
0
  6
Continuous
 62
     7
370
    25
100
AcDbCircle
 10
180.1691904154
 20
678.7579023781
 30
0.0
 40
3.000000000000114
100
AcDbArc
 50
0.0
 51
90.0
  0
LINE
  5
1A4
330
1F
100
AcDbEntity
  8
0
  6
Continuous
 62
     7
370
    25
100
AcDbLine
 10
180.169186798
 20
681.7578924866
 30
0.0
 11
151.1691876324
 21
681.7578924866
 31
0.0
  0
ARC
  5
1A5
330
1F
100
AcDbEntity
  8
0
  6
Continuous
 62
     7
370
    25
100
AcDbCircle
 10
151.1691904154
 20
678.7579023781
 30
0.0
 40
3.000000000000114
100
AcDbArc
 50
90.0
 51
180.0
  0
LINE
  5
1A6
330
1F
100
AcDbEntity
  8
0
  6
Continuous
 62
     7
370
    25
100
AcDbLine
 10
148.1691890033
 20
678.7579013081
 30
0.0
 11
148.1691890033
 21
628.0579073401
 31
0.0
  0
LINE
  5
1A7
330
1F
100
AcDbEntity
  8
0
  6
Continuous
 62
     7
370
    25
100
AcDbLine
 10
152.6691906723
 20
1014.1578866215
 30
0.0
 11
152.6691906723
 21
994.4803668232
 31
0.0
  0
LINE
  5
1A8
330
1F
100
AcDbEntity
  8
0
  6
Continuous
 62
     7
370
    25
100
AcDbLine
 10
152.6691906723
 20
986.4763570996
 30
0.0
 11
152.6691906723
 21
972.6579142781
 31
0.0
  0
ARC
  5
1A9
330
1F
100
AcDbEntity
  8
0
  6
Continuous
 62
     7
370
    25
100
AcDbCircle
 10
165.6691904154
 20
972.6579023781
 30
0.0
 40
13.0
100
AcDbArc
 50
180.0
 51
0.0
  0
LINE
  5
1AA
330
1F
100
AcDbEntity
  8
0
  6
Continuous
 62
     7
370
    25
100
AcDbLine
 10
178.6691912087
 20
972.6579142781
 30
0.0
 11
178.6691912087
 21
986.4763570996
 31
0.0
  0
LINE
  5
1AB
330
1F
100
AcDbEntity
  8
0
  6
Continuous
 62
     7
370
    25
100
AcDbLine
 10
178.6691912087
 20
994.4803668232
 30
0.0
 11
178.6691912087
 21
1014.1578866215
 31
0.0
  0
LINE
  5
1AC
330
1F
100
AcDbEntity
  8
0
  6
Continuous
 62
     7
370
    25
100
AcDbLine
 10
203.1691887053
 20
972.6579142781
 30
0.0
 11
203.1691887053
 21
986.4763570996
 31
0.0
  0
LINE
  5
1AD
330
1F
100
AcDbEntity
  8
0
  6
Continuous
 62
     7
370
    25
100
AcDbLine
 10
203.1691887053
 20
994.4803668232
 30
0.0
 11
203.1691887053
 21
1014.1578866215
 31
0.0
  0
ARC
  5
1AE
330
1F
100
AcDbEntity
  8
0
  6
Continuous
 62
     7
370
    25
100
AcDbCircle
 10
216.1691904154
 20
972.6579023781
 30
0.0
 40
13.00000000000003
100
AcDbArc
 50
180.0
 51
0.0
  0
LINE
  5
1AF
330
1F
100
AcDbEntity
  8
0
  6
Continuous
 62
     7
370
    25
100
AcDbLine
 10
183.1691928776
 20
628.0579073401
 30
0.0
 11
183.1691928776
 21
678.7579013081
 31
0.0
  0
SPLINE
  5
1B0
330
1F
100
AcDbEntity
  8
0
  6
Continuous
 62
     7
370
    25
100
AcDbSpline
210
0.0
220
0.0
230
1.0
 70
     8
 71
     3
 72
    11
 73
     7
 74
     0
 42
0.000000001
 43
0.00000001
 40
0.0
 40
0.0
 40
0.0
 40
0.0
 40
0.254320659159383
 40
0.5088730922856882
 40
0.7634168008221098
 40
1.0
 40
1.0
 40
1.0
 40
1.0
 10
88.46919169745456
 20
628.057907340081
 30
0.0
 10
88.26921598402492
 20
627.9313252717668
 30
0.0
 10
87.8690823102159
 20
627.6780457751507
 30
0.0
 10
87.36746605521797
 20
627.2981033028057
 30
0.0
 10
87.03141041804629
 20
626.9268905090215
 30
0.0
 10
86.98942237731161
 20
626.6826359746617
 30
0.0
 10
86.96919610819828
 20
626.5649749012306
 30
0.0
  0
LINE
  5
1B1
330
1F
100
AcDbEntity
  8
0
  6
Continuous
 62
     7
370
    25
100
AcDbLine
 10
86.1691974672
 20
626.5649749012
 30
0.0
 11
86.9691961082
 21
626.5649749012
 31
0.0
  0
LINE
  5
1B2
330
1F
100
AcDbEntity
  8
0
  6
Continuous
 62
     7
370
    25
100
AcDbLine
 10
86.9762592586
 20
625.7578982086
 30
0.0
 11
148.1691890033
 21
625.7578982086
 31
0.0
  0
LINE
  5
1B3
330
1F
100
AcDbEntity
  8
0
  6
Continuous
 62
     7
370
    25
100
AcDbLine
 10
148.1691890033
 20
628.0579073401
 30
0.0
 11
148.1691890033
 21
625.7578982086
 31
0.0
  0
LINE
  5
1B4
330
1F
100
AcDbEntity
  8
0
  6
Continuous
 62
     7
370
    25
100
AcDbLine
 10
317.6691897782
 20
1016.4579106541
 30
0.0
 11
229.1691911044
 21
1016.4579106541
 31
0.0
  0
LINE
  5
1B5
330
1F
100
AcDbEntity
  8
0
  6
Continuous
 62
     7
370
    25
100
AcDbLine
 10
317.6691897782
 20
1016.4579106541
 30
0.0
 11
317.6691897782
 21
1014.1578866215
 31
0.0
  0
LINE
  5
1B6
330
1F
100
AcDbEntity
  8
0
  6
Continuous
 62
     7
370
    25
100
AcDbLine
 10
229.1691911044
 20
1014.1578866215
 30
0.0
 11
229.1691911044
 21
1016.4579106541
 31
0.0
  0
SPLINE
  5
1B7
330
1F
100
AcDbEntity
  8
0
  6
Continuous
 62
     7
370
    25
100
AcDbSpline
210
0.0
220
0.0
230
1.0
 70
     8
 71
     3
 72
    11
 73
     7
 74
     0
 42
0.000000001
 43
0.00000001
 40
0.0
 40
0.0
 40
0.0
 40
0.0
 40
0.2543213911409244
 40
0.5088774430284654
 40
0.7634276564655862
 40
1.0
 40
1.0
 40
1.0
 40
1.0
 10
407.869189289427
 20
1014.157886621506
 30
0.0
 10
408.0691654038056
 20
1014.284468410466
 30
0.0
 10
408.4693021492649
 20
1014.537748784605
 30
0.0
 10
408.97091751256
 20
1014.917699761119
 30
0.0
 10
409.3069622873189
 20
1015.288957607071
 30
0.0
 10
409.3489564227058
 20
1015.533168475922
 30
0.0
 10
409.3691848786833
 20
1015.650804159196
 30
0.0
  0
LINE
  5
1B8
330
1F
100
AcDbEntity
  8
0
  6
Continuous
 62
     7
370
    25
100
AcDbLine
 10
410.1691835197
 20
1015.6508041592
 30
0.0
 11
409.3691848787
 21
1015.6508041592
 31
0.0
  0
LINE
  5
1B9
330
1F
100
AcDbEntity
  8
0
  6
Continuous
 62
     7
370
    25
100
AcDbLine
 10
86.1691974672
 20
1015.6508041592
 30
0.0
 11
86.9691961082
 21
1015.6508041592
 31
0.0
  0
SPLINE
  5
1BA
330
1F
100
AcDbEntity
  8
0
  6
Continuous
 62
     7
370
    25
100
AcDbSpline
210
0.0
220
0.0
230
1.0
 70
     8
 71
     3
 72
    11
 73
     7
 74
     0
 42
0.000000001
 43
0.00000001
 40
0.0
 40
0.0
 40
0.0
 40
0.0
 40
0.2543123422133022
 40
0.5088553000324909
 40
0.7634126746722268
 40
1.0
 40
1.0
 40
1.0
 40
1.0
 10
86.96919610819828
 20
1015.650804159196
 30
0.0
 10
86.99254767500578
 20
1015.524217206016
 30
0.0
 10
87.03927198429656
 20
1015.270928508033
 30
0.0
 10
87.39817133627147
 20
1014.891049022254
 30
0.0
 10
87.89737357936967
 20
1014.519799533481
 30
0.0
 10
88.28329233556131
 20
1014.27554532673
 30
0.0
 10
88.46919169745456
 20
1014.157886621506
 30
0.0
  0
SPLINE
  5
1BB
330
1F
100
AcDbEntity
  8
0
  6
Continuous
 62
     7
370
    25
100
AcDbSpline
210
0.0
220
0.0
230
1.0
 70
     8
 71
     3
 72
    12
 73
     8
 74
     0
 42
0.000000001
 43
0.00000001
 40
0.0
 40
0.0
 40
0.0
 40
0.0
 40
0.209681202857519
 40
0.4420436090158102
 40
0.674433424064352
 40
0.9068149994802766
 40
1.0
 40
1.0
 40
1.0
 40
1.0
 10
88.46919169745456
 20
1014.157886621506
 30
0.0
 10
88.36490455094199
 20
1014.410218163599
 30
0.0
 10
88.14504952345187
 20
1014.942175935755
 30
0.0
 10
87.8090851148342
 20
1015.66355671956
 30
0.0
 10
87.46217808736279
 20
1016.20696813948
 30
0.0
 10
87.18379958766356
 20
1016.435536452886
 30
0.0
 10
87.02244331320516
 20
1016.452931711765
 30
0.0
 10
86.97625925860416
 20
1016.457910654099
 30
0.0
  0
LINE
  5
1BC
330
1F
100
AcDbEntity
  8
0
  6
Continuous
 62
     7
370
    25
100
AcDbLine
 10
152.6691906723
 20
1016.4579106541
 30
0.0
 11
102.1639846834
 21
1016.4579106541
 31
0.0
  0
LINE
  5
1BD
330
1F
100
AcDbEntity
  8
0
  6
Continuous
 62
     7
370
    25
100
AcDbLine
 10
94.1599898609
 20
1016.4579106541
 30
0.0
 11
86.9762592586
 21
1016.4579106541
 31
0.0
  0
LINE
  5
1BE
330
1F
100
AcDbEntity
  8
0
  6
Continuous
 62
     7
370
    25
100
AcDbLine
 10
152.6691906723
 20
1016.4579106541
 30
0.0
 11
152.6691906723
 21
1014.1578866215
 31
0.0
  0
SPLINE
  5
1BF
330
1F
100
AcDbEntity
  8
0
  6
Continuous
 62
     7
370
    25
100
AcDbSpline
210
0.0
220
0.0
230
1.0
 70
     8
 71
     3
 72
    12
 73
     8
 74
     0
 42
0.000000001
 43
0.00000001
 40
0.0
 40
0.0
 40
0.0
 40
0.0
 40
0.209682142067701
 40
0.4420455890304839
 40
0.6744274042706611
 40
0.9068145820832944
 40
1.0
 40
1.0
 40
1.0
 40
1.0
 10
409.3621217282774
 20
1016.457910654099
 30
0.0
 10
409.2578341749423
 20
1016.433566205936
 30
0.0
 10
409.0379782898014
 20
1016.382243972093
 30
0.0
 10
408.7020253519448
 20
1015.961328993968
 30
0.0
 10
408.355093529417
 20
1015.309522903701
 30
0.0
 10
408.0767331377637
 20
1014.660092342155
 30
0.0
 10
407.9153736240858
 20
1014.269641497673
 30
0.0
 10
407.869189289427
 20
1014.157886621506
 30
0.0
  0
LINE
  5
1C0
330
1F
100
AcDbEntity
  8
0
  6
Continuous
 62
     7
370
    25
100
AcDbLine
 10
409.3621217283
 20
1016.4579106541
 30
0.0
 11
409.3621217283
 21
1015.6578971119
 31
0.0
  0
SPLINE
  5
1C1
330
1F
100
AcDbEntity
  8
0
  6
Continuous
 62
     7
370
    25
100
AcDbSpline
210
0.0
220
0.0
230
1.0
 70
     8
 71
     3
 72
    11
 73
     7
 74
     0
 42
0.000000001
 43
0.00000001
 40
0.0
 40
0.0
 40
0.0
 40
0.0
 40
0.2543107876385058
 40
0.5088659531853507
 40
0.7634007767341077
 40
0.9999999999999999
 40
0.9999999999999999
 40
0.9999999999999999
 40
0.9999999999999999
 10
409.3621217282774
 20
1015.657897111924
 30
0.0
 10
409.235537326152
 20
1015.634546929337
 30
0.0
 10
408.9822468816371
 20
1015.587824125994
 30
0.0
 10
408.6023326860461
 20
1015.228899574045
 30
0.0
 10
408.2310808330387
 20
1014.729735330533
 30
0.0
 10
407.9868467631818
 20
1014.34380495992
 30
0.0
 10
407.869189289427
 20
1014.157886621506
 30
0.0
  0
LINE
  5
1C2
330
1F
100
AcDbEntity
  8
0
  6
Continuous
 62
     7
370
    25
100
AcDbLine
 10
203.1691887053
 20
1016.4579106541
 30
0.0
 11
178.6691912087
 21
1016.4579106541
 31
0.0
  0
LINE
  5
1C3
330
1F
100
AcDbEntity
  8
0
  6
Continuous
 62
     7
370
    25
100
AcDbLine
 10
203.1691887053
 20
1016.4579106541
 30
0.0
 11
203.1691887053
 21
1014.1578866215
 31
0.0
  0
LINE
  5
1C4
330
1F
100
AcDbEntity
  8
0
  6
Continuous
 62
     7
370
    25
100
AcDbLine
 10
178.6691912087
 20
1014.1578866215
 30
0.0
 11
178.6691912087
 21
1016.4579106541
 31
0.0
  0
SPLINE
  5
1C5
330
1F
100
AcDbEntity
  8
0
  6
Continuous
 62
     7
370
    25
100
AcDbSpline
210
0.0
220
0.0
230
1.0
 70
     8
 71
     3
 72
    11
 73
     7
 74
     0
 42
0.000000001
 43
0.00000001
 40
0.0
 40
0.0
 40
0.0
 40
0.0
 40
0.2543284684582676
 40
0.508868634087094
 40
0.7634186226851568
 40
1.0
 40
1.0
 40
1.0
 40
1.0
 10
88.46919169745456
 20
1014.157886621506
 30
0.0
 10
88.34261303999853
 20
1014.357877366419
 30
0.0
 10
88.08935036392188
 20
1014.758025323943
 30
0.0
 10
87.70936743255834
 20
1015.259584544533
 30
0.0
 10
87.3381843131133
 20
1015.595713261836
 30
0.0
 10
87.09392207085718
 20
1015.637680974392
 30
0.0
 10
86.97625925860416
 20
1015.657897111924
 30
0.0
  0
LINE
  5
1C6
330
1F
100
AcDbEntity
  8
0
  6
Continuous
 62
     7
370
    25
100
AcDbLine
 10
86.9762592586
 20
1016.4579106541
 30
0.0
 11
86.9762592586
 21
1015.6578971119
 31
0.0
  0
LINE
  5
1C7
330
1F
100
AcDbEntity
  8
0
  6
Continuous
 62
     7
370
    25
100
AcDbLine
 10
409.3621217283
 20
1016.4579106541
 30
0.0
 11
402.1639817031
 21
1016.4579106541
 31
0.0
  0
LINE
  5
1C8
330
1F
100
AcDbEntity
  8
0
  6
Continuous
 62
     7
370
    25
100
AcDbLine
 10
394.1599868806
 20
1016.4579106541
 30
0.0
 11
343.6691903146
 21
1016.4579106541
 31
0.0
  0
LINE
  5
1C9
330
1F
100
AcDbEntity
  8
0
  6
Continuous
 62
     7
370
    25
100
AcDbLine
 10
343.6691903146
 20
1014.1578866215
 30
0.0
 11
343.6691903146
 21
1016.4579106541
 31
0.0
  0
LINE
  5
1CA
330
1F
100
AcDbEntity
  8
0
  6
Continuous
 62
     7
370
    25
100
AcDbLine
 10
247.2172551891
 20
1155.9212161274
 30
0.0
 11
247.5808435222
 21
1156.1311436863
 31
0.0
  0
ARC
  5
1CB
330
1F
100
AcDbEntity
  8
0
  6
Continuous
 62
     7
370
    25
100
AcDbCircle
 10
248.161985782
 20
1145.4970143327
 30
0.0
 40
11.50000000000031
100
AcDbArc
 50
48.4081542061
 51
107.5918457939
  0
ARC
  5
1CC
330
1F
100
AcDbEntity
  8
0
  6
Continuous
 62
     7
370
    25
100
AcDbCircle
 10
248.161985782
 20
1145.4970143327
 30
0.0
 40
11.49999999999997
100
AcDbArc
 50
151.0425737058
 51
184.9574262942
  0
ARC
  5
1CD
330
1F
100
AcDbEntity
  8
0
  6
Continuous
 62
     7
370
    25
100
AcDbCircle
 10
248.161985782
 20
1145.4970143327
 30
0.0
 40
11.5
100
AcDbArc
 50
331.0425737058
 51
4.9574262942
  0
ARC
  5
1CE
330
1F
100
AcDbEntity
  8
0
  6
Continuous
 62
     7
370
    25
100
AcDbCircle
 10
248.161985782
 20
1145.4970143327
 30
0.0
 40
11.00000000000008
100
AcDbArc
 50
84.8432428649
 51
102.6199773287
  0
ARC
  5
1CF
330
1F
100
AcDbEntity
  8
0
  6
Continuous
 62
     7
370
    25
100
AcDbCircle
 10
248.161985782
 20
1145.4970143327
 30
0.0
 40
11.00000000000017
100
AcDbArc
 50
53.3800226713
 51
70.5131389795
  0
LWPOLYLINE
  5
1D0
330
1F
100
AcDbEntity
  8
0
  6
Continuous
 62
     7
370
    25
100
AcDbPolyline
 90
        6
 70
   128
 43
0.0
 10
240.4420094202
 20
1056.27029669
 10
240.4531410532
 20
1056.3226891728
 10
240.5791657614
 20
1056.9155765744
 10
240.7229466001
 20
1057.5920296879
 10
240.8789575668
 20
1058.3260012837
 10
241.0412042039
 20
1059.0892983647
  0
LWPOLYLINE
  5
1D1
330
1F
100
AcDbEntity
  8
0
  6
Continuous
 62
     7
370
    25
100
AcDbPolyline
 90
        6
 70
   128
 43
0.0
 10
219.5219576927
 20
1063.6633588047
 10
219.3597101243
 20
1062.9000617237
 10
219.2036986919
 20
1062.166090128
 10
219.0599192502
 20
1061.4896370144
 10
218.9338945421
 20
1060.8967496128
 10
218.922761512
 20
1060.8443571301
  0
ARC
  5
1D2
330
1F
100
AcDbEntity
  8
0
  6
Continuous
 62
     7
370
    25
100
AcDbCircle
 10
255.0704298405
 20
1149.1402821915
 30
0.0
 40
5.000000000000152
100
AcDbArc
 50
348.0
 51
78.0
  0
LINE
  5
1D3
330
1F
100
AcDbEntity
  8
0
  6
Continuous
 62
     7
370
    25
100
AcDbLine
 10
241.0412042039
 20
1059.0892983647
 30
0.0
 11
259.9611675935
 21
1148.100729105
 31
0.0
  0
LINE
  5
1D4
330
1F
100
AcDbEntity
  8
0
  6
Continuous
 62
     7
370
    25
100
AcDbLine
 10
256.10998856
 20
1154.0310336323
 30
0.0
 11
252.8620411279
 21
1154.7213746281
 31
0.0
  0
LINE
  5
1D5
330
1F
100
AcDbEntity
  8
0
  6
Continuous
 62
     7
370
    25
100
AcDbLine
 10
247.6201640778
 20
1155.8355642529
 30
0.0
 11
244.3722169949
 21
1156.5259648533
 31
0.0
  0
LINE
  5
1D6
330
1F
100
AcDbEntity
  8
0
  6
Continuous
 62
     7
370
    25
100
AcDbLine
 10
233.7602118599
 20
1107.5623584957
 30
0.0
 11
233.9558417546
 21
1107.5207544537
 31
0.0
  0
ARC
  5
1D7
330
1F
100
AcDbEntity
  8
0
  6
Continuous
 62
     7
370
    25
100
AcDbCircle
 10
233.9681235465
 20
1108.5404956271
 30
0.0
 40
0.9999999999999966
100
AcDbArc
 50
168.0
 51
258.0
  0
LINE
  5
1D8
330
1F
100
AcDbEntity
  8
0
  6
Continuous
 62
     7
370
    25
100
AcDbLine
 10
234.6740609603
 20
1116.6713787289
 30
0.0
 11
232.9899754944
 21
1108.7484313221
 31
0.0
  0
LINE
  5
1D9
330
1F
100
AcDbEntity
  8
0
  6
Continuous
 62
     7
370
    25
100
AcDbLine
 10
238.4419210824
 20
1152.6747895451
 30
0.0
 11
219.5219576927
 21
1063.6633588047
 31
0.0
  0
ARC
  5
1DA
330
1F
100
AcDbEntity
  8
0
  6
Continuous
 62
     7
370
    25
100
AcDbCircle
 10
243.3326586317
 20
1151.6352224813
 30
0.0
 40
4.999999999999999
100
AcDbArc
 50
78.0
 51
168.0
  0
LWPOLYLINE
  5
1DB
330
1F
100
AcDbEntity
  8
0
  6
Continuous
 62
     7
370
    25
100
AcDbPolyline
 90
        9
 70
   128
 43
0.0
 10
234.652539027
 20
1057.891364214
 10
235.606674348
 20
1057.6885892124
 10
236.5241434994
 20
1057.4935628147
 10
237.3696875396
 20
1057.3138548107
 10
238.1108135553
 20
1057.1563197346
 10
238.7190389084
 20
1057.0270372601
 10
239.1709920587
 20
1056.9309545727
 10
239.449302909
 20
1056.8718267651
 10
239.5432770821
 20
1056.8518592091
  0
ARC
  5
1DC
330
1F
100
AcDbEntity
  8
0
  6
Continuous
 62
     7
370
    25
100
AcDbCircle
 10
239.2314096157
 20
1055.3846133585
 30
0.0
 40
1.500000000000205
100
AcDbArc
 50
348.0
 51
78.0
  0
LINE
  5
1DD
330
1F
100
AcDbEntity
  8
0
  6
Continuous
 62
     7
370
    25
100
AcDbLine
 10
240.0748955654
 20
1052.1383239003
 30
0.0
 11
240.6986311646
 21
1055.0727201672
 31
0.0
  0
LINE
  5
1DE
330
1F
100
AcDbEntity
  8
0
  6
Continuous
 62
     7
370
    25
100
AcDbLine
 10
217.5775014432
 20
1056.9202853413
 30
0.0
 11
218.2012361111
 21
1059.8547412129
 31
0.0
  0
LINE
  5
1DF
330
1F
100
AcDbEntity
  8
0
  6
Continuous
 62
     7
370
    25
100
AcDbLine
 10
233.4050687598
 20
1052.0225120755
 30
0.0
 11
223.6235935809
 21
1054.1016412945
 31
0.0
  0
LWPOLYLINE
  5
1E0
330
1F
100
AcDbEntity
  8
0
  6
Continuous
 62
     7
370
    25
100
AcDbPolyline
 90
        9
 70
   128
 43
0.0
 10
223.6235935809
 20
1054.1016412945
 10
222.6694573285
 20
1054.304416296
 10
221.7519891085
 20
1054.4994426937
 10
220.9064450683
 20
1054.6791506977
 10
220.1653190526
 20
1054.8366857739
 10
219.5570927682
 20
1054.9659682484
 10
219.1051405492
 20
1055.0620509358
 10
218.8268296989
 20
1055.1211787434
 10
218.7328555258
 20
1055.141205904
  0
ARC
  5
1E1
330
1F
100
AcDbEntity
  8
0
  6
Continuous
 62
     7
370
    25
100
AcDbCircle
 10
219.0447225286
 20
1056.6084043726
 30
0.0
 40
1.499999999999999
100
AcDbArc
 50
168.0
 51
258.0
  0
LWPOLYLINE
  5
1E2
330
1F
100
AcDbEntity
  8
0
  6
Continuous
 62
     7
370
    25
100
AcDbPolyline
 90
        9
 70
   128
 43
0.0
 10
219.9803248616
 20
1061.0100580426
 10
220.0742990347
 20
1060.9900904866
 10
220.352609885
 20
1060.9309626789
 10
220.8045639666
 20
1060.8348799916
 10
221.4127883883
 20
1060.705597517
 10
222.1539144041
 20
1060.5480624409
 10
222.9994584443
 20
1060.3683544369
 10
223.9169266643
 20
1060.1733280392
 10
224.8710629167
 20
1059.970493433
  0
ARC
  5
1E3
330
1F
100
AcDbEntity
  8
0
  6
Continuous
 62
     7
370
    25
100
AcDbCircle
 10
219.6684576011
 20
1059.5428471748
 30
0.0
 40
1.499999999999999
100
AcDbArc
 50
78.0
 51
168.0
  0
LINE
  5
1E4
330
1F
100
AcDbEntity
  8
0
  6
Continuous
 62
     7
370
    25
100
AcDbLine
 10
224.8710629167
 20
1059.970493433
 30
0.0
 11
234.652539027
 21
1057.891364214
 31
0.0
  0
LWPOLYLINE
  5
1E5
330
1F
100
AcDbEntity
  8
0
  6
Continuous
 62
     7
370
    25
100
AcDbPolyline
 90
        9
 70
   128
 43
0.0
 10
238.2958068149
 20
1050.9829474659
 10
238.2018326419
 20
1051.0029150219
 10
237.9235217916
 20
1051.0621024342
 10
237.4715686413
 20
1051.1581255169
 10
236.8633432882
 20
1051.2874079914
 10
236.1222172724
 20
1051.4449430676
 10
235.2766732322
 20
1051.6247106762
 10
234.3592050122
 20
1051.8196774693
 10
233.4050687598
 20
1052.0225120755
  0
ARC
  5
1E6
330
1F
100
AcDbEntity
  8
0
  6
Continuous
 62
     7
370
    25
100
AcDbCircle
 10
238.6076745433
 20
1052.4501705563
 30
0.0
 40
1.499999999999983
100
AcDbArc
 50
258.0
 51
348.0
  0
ARC
  5
1E7
330
1F
100
AcDbEntity
  8
0
  6
Continuous
 62
     7
370
    25
100
AcDbCircle
 10
212.6090866522
 20
978.2337746072
 30
0.0
 40
6.00000000000002
100
AcDbArc
 50
168.0
 51
348.0
  0
LINE
  5
1E8
330
1F
100
AcDbEntity
  8
0
  6
Continuous
 62
     7
370
    25
100
AcDbLine
 10
205.9203006896
 20
977.0996524067
 30
0.0
 11
205.7491049739
 21
977.1360708447
 31
0.0
  0
SPLINE
  5
1E9
330
1F
100
AcDbEntity
  8
0
  6
Continuous
 62
     7
370
    25
100
AcDbSpline
210
0.0
220
0.0
230
1.0
 70
     8
 71
     3
 72
     9
 73
     5
 74
     0
 42
0.000000001
 43
0.00000001
 40
0.0
 40
0.0
 40
0.0
 40
0.0
 40
0.1902934728272962
 40
1.0
 40
1.0
 40
1.0
 40
1.0
 10
207.003764119959
 20
976.0935260029152
 30
0.0
 10
206.9883804444353
 20
976.1330372446953
 30
0.0
 10
206.9075385989679
 20
976.3406704398498
 30
0.0
 10
206.8827199049574
 20
976.5636676297358
 30
0.0
 10
206.8626240464212
 20
976.7442299099281
 30
0.0
  0
SPLINE
  5
1EA
330
1F
100
AcDbEntity
  8
0
  6
Continuous
 62
     7
370
    25
100
AcDbSpline
210
0.0
220
0.0
230
1.0
 70
     8
 71
     3
 72
     9
 73
     5
 74
     0
 42
0.000000001
 43
0.00000001
 40
0.0
 40
0.0
 40
0.0
 40
0.0
 40
0.7993837120583653
 40
1.0
 40
1.0
 40
1.0
 40
1.0
 10
206.7397453459264
 20
979.4310284824684
 30
0.0
 10
206.7487447793012
 20
979.6461698181636
 30
0.0
 10
206.7600027437044
 20
979.9153038178308
 30
0.0
 10
206.8715247313012
 20
980.1560429522708
 30
0.0
 10
206.8938978584767
 20
980.2043391437843
 30
0.0
  0
SPLINE
  5
1EB
330
1F
100
AcDbEntity
  8
0
  6
Continuous
 62
     7
370
    25
100
AcDbSpline
210
0.0
220
0.0
230
1.0
 70
     8
 71
     3
 72
     9
 73
     5
 74
     0
 42
0.000000001
 43
0.00000001
 40
0.0
 40
0.0
 40
0.0
 40
0.0
 40
0.5922672311426382
 40
0.9999999999999999
 40
0.9999999999999999
 40
0.9999999999999999
 40
0.9999999999999999
 10
218.4937310042144
 20
977.1187854976968
 30
0.0
 10
218.449165617598
 20
976.7631906874661
 30
0.0
 10
218.3739202143864
 20
976.1627947993725
 30
0.0
 10
218.0150441096185
 20
975.6816272102952
 30
0.0
 10
217.8687185617448
 20
975.4854394169166
 30
0.0
  0
SPLINE
  5
1EC
330
1F
100
AcDbEntity
  8
0
  6
Continuous
 62
     7
370
    25
100
AcDbSpline
210
0.0
220
0.0
230
1.0
 70
     8
 71
     3
 72
     9
 73
     5
 74
     0
 42
0.000000001
 43
0.00000001
 40
0.0
 40
0.0
 40
0.0
 40
0.0
 40
0.753938683196203
 40
1.0
 40
1.0
 40
1.0
 40
1.0
 10
217.3914269181253
 20
974.7443748684242
 30
0.0
 10
217.2795435904959
 20
974.5396884334785
 30
0.0
 10
217.1311451462683
 20
974.2681989350518
 30
0.0
 10
216.9129748268222
 20
974.0518871261725
 30
0.0
 10
216.8592915507318
 20
973.9986611576393
 30
0.0
  0
ARC
  5
1ED
330
1F
100
AcDbEntity
  8
0
  6
Continuous
 62
     7
370
    25
100
AcDbCircle
 10
248.161985782
 20
1145.4970143327
 30
0.0
 40
10.0000000000001
100
AcDbArc
 50
48.0
 51
108.0
  0
ARC
  5
1EE
330
1F
100
AcDbEntity
  8
0
  6
Continuous
 62
     7
370
    25
100
AcDbCircle
 10
248.161985782
 20
1145.4970143327
 30
0.0
 40
10.0000000000001
100
AcDbArc
 50
348.0
 51
48.0
  0
ARC
  5
1EF
330
1F
100
AcDbEntity
  8
0
  6
Continuous
 62
     7
370
    25
100
AcDbCircle
 10
248.161985782
 20
1145.4970143327
 30
0.0
 40
10.00000000000012
100
AcDbArc
 50
306.5903778907
 51
348.0
  0
ARC
  5
1F0
330
1F
100
AcDbEntity
  8
0
  6
Continuous
 62
     7
370
    25
100
AcDbCircle
 10
248.161985782
 20
1145.4970143327
 30
0.0
 40
10.00000000000006
100
AcDbArc
 50
168.0
 51
209.4096221093
  0
ARC
  5
1F1
330
1F
100
AcDbEntity
  8
0
  6
Continuous
 62
     7
370
    25
100
AcDbCircle
 10
248.161985782
 20
1145.4970143327
 30
0.0
 40
10.00000000000006
100
AcDbArc
 50
108.0
 51
168.0
  0
ARC
  5
1F2
330
1F
100
AcDbEntity
  8
0
  6
Continuous
 62
     7
370
    25
100
AcDbCircle
 10
248.161985782
 20
1145.4970143327
 30
0.0
 40
11.0
100
AcDbArc
 50
192.6199773287
 51
203.3800226713
  0
SPLINE
  5
1F3
330
1F
100
AcDbEntity
  8
0
  6
Continuous
 62
     7
370
    25
100
AcDbSpline
210
0.0
220
0.0
230
1.0
 70
     8
 71
     3
 72
    11
 73
     7
 74
     0
 42
0.000000001
 43
0.00000001
 40
0.0
 40
0.0
 40
0.0
 40
0.0
 40
0.0888930707635905
 40
0.5220917517711154
 40
0.9681759340858717
 40
1.0
 40
1.0
 40
1.0
 40
1.0
 10
237.4277387382747
 20
1143.093700525315
 30
0.0
 10
237.4546458966081
 20
1143.220285916345
 30
0.0
 10
237.6126785228724
 20
1143.963754310266
 30
0.0
 10
237.9160420357069
 20
1145.391063133819
 30
0.0
 10
238.213962246625
 20
1146.792344116707
 30
0.0
 10
238.370111633266
 20
1147.527213438836
 30
0.0
 10
238.3805096717836
 20
1147.576148626359
 30
0.0
  0
SPLINE
  5
1F4
330
1F
100
AcDbEntity
  8
0
  6
Continuous
 62
     7
370
    25
100
AcDbSpline
210
0.0
220
0.0
230
1.0
 70
     8
 71
     3
 72
     9
 73
     5
 74
     0
 42
0.000000001
 43
0.00000001
 40
0.0
 40
0.0
 40
0.0
 40
0.0
 40
0.4794081977685355
 40
1.0
 40
1.0
 40
1.0
 40
1.0
 10
239.3254053416015
 20
1139.997179624589
 30
0.0
 10
239.1188222756082
 20
1140.183188714078
 30
0.0
 10
238.6879096067076
 20
1140.571186020664
 30
0.0
 10
238.2783666771587
 20
1140.939954831817
 30
0.0
 10
238.0651619853736
 20
1141.131932851823
 30
0.0
  0
ARC
  5
1F5
330
1F
100
AcDbEntity
  8
0
  6
Continuous
 62
     7
370
    25
100
AcDbCircle
 10
248.161985782
 20
1145.4970143327
 30
0.0
 40
11.00000000000014
100
AcDbArc
 50
132.6199773287
 51
143.3800226713
  0
SPLINE
  5
1F6
330
1F
100
AcDbEntity
  8
0
  6
Continuous
 62
     7
370
    25
100
AcDbSpline
210
0.0
220
0.0
230
1.0
 70
     8
 71
     3
 72
    10
 73
     6
 74
     0
 42
0.000000001
 43
0.00000001
 40
0.0
 40
0.0
 40
0.0
 40
0.0
 40
0.4567387424609325
 40
0.9273700080125424
 40
1.0
 40
1.0
 40
1.0
 40
1.0
 10
240.7135272035659
 20
1153.591508981736
 30
0.0
 10
241.3540700870012
 20
1153.799621925798
 30
0.0
 10
242.6546391075819
 20
1154.222177940124
 30
0.0
 10
244.1513211546439
 20
1154.708387519428
 30
0.0
 10
244.963264952302
 20
1154.97231146286
 30
0.0
 10
245.0718158027441
 20
1155.00759613231
 30
0.0
  0
SPLINE
  5
1F7
330
1F
100
AcDbEntity
  8
0
  6
Continuous
 62
     7
370
    25
100
AcDbSpline
210
0.0
220
0.0
230
1.0
 70
     8
 71
     3
 72
    10
 73
     6
 74
     0
 42
0.000000001
 43
0.00000001
 40
0.0
 40
0.0
 40
0.0
 40
0.0
 40
0.3993970090223364
 40
0.8113050665576407
 40
1.0
 40
1.0
 40
1.0
 40
1.0
 10
238.3805096717836
 20
1147.576148626359
 30
0.0
 10
238.5111935772343
 20
1148.190960266887
 30
0.0
 10
238.7766550409272
 20
1149.439842425919
 30
0.0
 10
239.0935163281493
 20
1150.930541941702
 30
0.0
 10
239.2759609254635
 20
1151.788870918112
 30
0.0
 10
239.3332806052924
 20
1152.058537122758
 30
0.0
  0
LINE
  5
1F8
330
1F
100
AcDbEntity
  8
0
  6
Continuous
 62
     7
370
    25
100
AcDbLine
 10
255.6104443604
 20
1137.4025298329
 30
0.0
 11
253.9976195069
 21
1136.878485796
 31
0.0
  0
SPLINE
  5
1F9
330
1F
100
AcDbEntity
  8
0
  6
Continuous
 62
     7
370
    25
100
AcDbSpline
210
0.0
220
0.0
230
1.0
 70
     8
 71
     3
 72
    11
 73
     7
 74
     0
 42
0.000000001
 43
0.00000001
 40
0.0
 40
0.0
 40
0.0
 40
0.0
 40
0.0318111668930681
 40
0.4639160550981456
 40
0.9111084302780583
 40
0.9999999999999999
 40
0.9999999999999999
 40
0.9999999999999999
 40
0.9999999999999999
 10
257.9434618922235
 20
1143.417890188248
 30
0.0
 10
257.933063672658
 20
1143.368974809248
 30
0.0
 10
257.7814219231714
 20
1142.655620604559
 30
0.0
 10
257.4836087319813
 20
1141.254419664384
 30
0.0
 10
257.1798652311056
 20
1139.825420946393
 30
0.0
 10
257.0175976096639
 20
1139.062025634818
 30
0.0
 10
256.9906909587147
 20
1138.935442087205
 30
0.0
  0
ARC
  5
1FA
330
1F
100
AcDbEntity
  8
0
  6
Continuous
 62
     7
370
    25
100
AcDbCircle
 10
248.161985782
 20
1145.4970143327
 30
0.0
 40
11.00000000000001
100
AcDbArc
 50
312.6199773287
 51
323.3800226713
  0
ARC
  5
1FB
330
1F
100
AcDbEntity
  8
0
  6
Continuous
 62
     7
370
    25
100
AcDbCircle
 10
248.161985782
 20
1145.4970143327
 30
0.0
 40
11.00000000000017
100
AcDbArc
 50
72.6199773287
 51
83.3800226713
  0
SPLINE
  5
1FC
330
1F
100
AcDbEntity
  8
0
  6
Continuous
 62
     7
370
    25
100
AcDbSpline
210
0.0
220
0.0
230
1.0
 70
     8
 71
     3
 72
    10
 73
     6
 74
     0
 42
0.000000001
 43
0.00000001
 40
0.0
 40
0.0
 40
0.0
 40
0.0
 40
0.3953426554599853
 40
0.8028526527302525
 40
1.0
 40
1.0
 40
1.0
 40
1.0
 10
245.0718158027441
 20
1155.00759613231
 30
0.0
 10
245.6635413235254
 20
1155.199839974977
 30
0.0
 10
246.8652037231838
 20
1155.590244291144
 30
0.0
 10
248.3156204868868
 20
1156.061528682308
 30
0.0
 10
249.1560755516801
 20
1156.334636886006
 30
0.0
 10
249.430104285507
 20
1156.423683282883
 30
0.0
  0
SPLINE
  5
1FD
330
1F
100
AcDbEntity
  8
0
  6
Continuous
 62
     7
370
    25
100
AcDbSpline
210
0.0
220
0.0
230
1.0
 70
     8
 71
     3
 72
    10
 73
     6
 74
     0
 42
0.000000001
 43
0.00000001
 40
0.0
 40
0.0
 40
0.0
 40
0.0
 40
0.4567411041292953
 40
0.9273746183602234
 40
1.0
 40
1.0
 40
1.0
 40
1.0
 10
251.4477744801254
 20
1155.994827863724
 30
0.0
 10
251.948291445604
 20
1155.544164750689
 30
0.0
 10
252.9645492898119
 20
1154.629130984992
 30
0.0
 10
254.1339873370692
 20
1153.57609459053
 30
0.0
 10
254.768470952705
 20
1153.00483549245
 30
0.0
 10
254.8532916801335
 20
1152.928466913254
 30
0.0
  0
ARC
  5
1FE
330
1F
100
AcDbEntity
  8
0
  6
Continuous
 62
     7
370
    25
100
AcDbCircle
 10
248.161985782
 20
1145.4970143327
 30
0.0
 40
10.99999999999993
100
AcDbArc
 50
12.6199773287
 51
23.3800226713
  0
SPLINE
  5
1FF
330
1F
100
AcDbEntity
  8
0
  6
Continuous
 62
     7
370
    25
100
AcDbSpline
210
0.0
220
0.0
230
1.0
 70
     8
 71
     3
 72
    10
 73
     6
 74
     0
 42
0.000000001
 43
0.00000001
 40
0.0
 40
0.0
 40
0.0
 40
0.0
 40
0.1886948949324746
 40
0.5888498818707745
 40
1.0
 40
1.0
 40
1.0
 40
1.0
 10
258.8962328257324
 20
1147.900338289292
 30
0.0
 10
258.8389122557484
 20
1147.630668114318
 30
0.0
 10
258.6600350748056
 20
1146.789123086117
 30
0.0
 10
258.3434693673016
 20
1145.299804393155
 30
0.0
 10
258.077996979898
 20
1144.050837091312
 30
0.0
 10
257.9434618922235
 20
1143.417890188248
 30
0.0
  0
SPLINE
  5
200
330
1F
100
AcDbEntity
  8
0
  6
Continuous
 62
     7
370
    25
100
AcDbSpline
210
0.0
220
0.0
230
1.0
 70
     8
 71
     3
 72
    10
 73
     6
 74
     0
 42
0.000000001
 43
0.00000001
 40
0.0
 40
0.0
 40
0.0
 40
0.0
 40
0.3953484755367609
 40
0.8028521054701876
 40
1.0
 40
1.0
 40
1.0
 40
1.0
 10
254.8532916801335
 20
1152.928466913254
 30
0.0
 10
255.3156549642319
 20
1152.512135976057
 30
0.0
 10
256.2545970851709
 20
1151.666673832699
 30
0.0
 10
257.3879759610366
 20
1150.646244477469
 30
0.0
 10
258.0446874302156
 20
1150.05491136215
 30
0.0
 10
258.2588095786335
 20
1149.862105962784
 30
0.0
  0
LWPOLYLINE
  5
201
330
1F
100
AcDbEntity
  8
0
  6
Continuous
 62
     7
370
    25
100
AcDbPolyline
 90
       18
 70
   128
 43
0.0
 10
236.3380177515
 20
1136.7645217152
 10
236.5103627192
 20
1136.7279244633
 10
237.021168937
 20
1136.6193248005
 10
237.8519738661
 20
1136.4427162381
 10
238.9727498042
 20
1136.2044764729
 10
240.342989807
 20
1135.9132481785
 10
241.9131693999
 20
1135.5795217724
 10
243.6265384415
 20
1135.2152777882
 10
245.4211714315
 20
1134.8338676663
 10
247.2322051283
 20
1134.4488812657
 10
248.9941844354
 20
1134.0743852825
 10
250.6434267955
 20
1133.7238503666
 10
252.1203241879
 20
1133.4099127026
 10
253.3714978593
 20
1133.1439567776
 10
254.3517265106
 20
1132.9355789395
 10
255.0255830968
 20
1132.7923489781
 10
255.3687121356
 20
1132.7194524975
 10
255.4118961664
 20
1132.7102733822
  0
LWPOLYLINE
  5
202
330
1F
100
AcDbEntity
  8
0
  6
Continuous
 62
     7
370
    25
100
AcDbPolyline
 90
       16
 70
   128
 43
0.0
 10
234.3135068761
 20
1119.30387747
 10
234.4866434681
 20
1119.2671014042
 10
234.9984862479
 20
1119.1583229275
 10
235.8266648474
 20
1118.9822508068
 10
236.9349834146
 20
1118.7466932507
 10
238.2750047939
 20
1118.4618426533
 10
239.7881627651
 20
1118.1402159901
 10
241.4083241122
 20
1117.7958203526
 10
243.0646813112
 20
1117.4437953205
 10
244.6848428911
 20
1117.099399683
 10
246.1980003966
 20
1116.7777730198
 10
247.5380214267
 20
1116.4929224224
 10
248.6463406633
 20
1116.2573648663
 10
249.4745191755
 20
1116.0812927456
 10
249.9863617225
 20
1115.9725142689
 10
250.1594980816
 20
1115.9357382031
  0
LWPOLYLINE
  5
203
330
1F
100
AcDbEntity
  8
0
  6
Continuous
 62
     7
370
    25
100
AcDbPolyline
 90
       16
 70
   128
 43
0.0
 10
233.9435203569
 20
1117.08229315
 10
234.1264684322
 20
1117.0433713169
 10
234.6667593913
 20
1116.9285131665
 10
235.539129247
 20
1116.7430831166
 10
236.7027870016
 20
1116.4957834454
 10
238.1033201339
 20
1116.1980582447
 10
239.6752436282
 20
1115.8639742108
 10
241.3450547131
 20
1115.5090285511
 10
243.0346745635
 20
1115.1499105664
 10
244.6650993182
 20
1114.803309557
 10
246.1600916097
 20
1114.4855571957
 10
247.449747297
 20
1114.2114354344
 10
248.4737636217
 20
1113.9937592717
 10
249.1842586417
 20
1113.8427211018
 10
249.5480105384
 20
1113.7654138775
 10
249.5938821333
 20
1113.7556983204
  0
LWPOLYLINE
  5
204
330
1F
100
AcDbEntity
  8
0
  6
Continuous
 62
     7
370
    25
100
AcDbPolyline
 90
       16
 70
   128
 43
0.0
 10
234.1360796811
 20
1116.7857600422
 10
234.3133103671
 20
1116.7480899067
 10
234.8367173793
 20
1116.6368080349
 10
235.6818255605
 20
1116.4572192402
 10
236.809118894
 20
1116.2176085682
 10
238.1658854531
 20
1115.9291816922
 10
239.6886863383
 20
1115.605528471
 10
241.3063154193
 20
1115.2616692753
 10
242.9431348676
 20
1114.9137569638
 10
244.5226088269
 20
1114.5780039997
 10
245.9708827185
 20
1114.2702056141
 10
247.2202366437
 20
1114.004607317
 10
248.2122524955
 20
1113.7937856884
 10
248.9005446071
 20
1113.6474562855
 10
249.2529292461
 20
1113.5725928517
 10
249.2973673027
 20
1113.5631157132
  0
ARC
  5
205
330
1F
100
AcDbEntity
  8
0
  6
Continuous
 62
     7
370
    25
100
AcDbCircle
 10
248.1631759974
 20
1145.5026138559
 30
0.0
 40
7.50000000000014
100
AcDbArc
 50
50.0
 51
106.0
  0
LINE
  5
206
330
1F
100
AcDbEntity
  8
0
  6
Continuous
 62
     7
370
    25
100
AcDbLine
 10
242.3415978076
 20
1151.6355229588
 30
0.0
 11
246.0958957775
 21
1152.7121020527
 31
0.0
  0
LINE
  5
207
330
1F
100
AcDbEntity
  8
0
  6
Continuous
 62
     7
370
    25
100
AcDbLine
 10
255.9759414392
 20
1148.7374855252
 30
0.0
 11
252.9840830351
 21
1151.2479735585
 31
0.0
  0
LINE
  5
208
330
1F
100
AcDbEntity
  8
0
  6
Continuous
 62
     7
370
    25
100
AcDbLine
 10
255.3941367762
 20
1143.4485865803
 30
0.0
 11
253.4963975298
 21
1134.520466444
 31
0.0
  0
LWPOLYLINE
  5
209
330
1F
100
AcDbEntity
  8
0
  6
Continuous
 62
     7
370
    25
100
AcDbPolyline
 90
        9
 70
   128
 43
0.0
 10
256.3113013851
 20
1147.7635456295
 10
256.2936788993
 20
1147.6806355686
 10
256.2414866509
 20
1147.4350644322
 10
256.15673164
 20
1147.0363093586
 10
256.0426707017
 20
1146.4996887417
 10
255.9036861742
 20
1145.8458257885
 10
255.7451205896
 20
1145.0998736592
 10
255.5730671259
 20
1144.2903829785
 10
255.3941367762
 20
1143.4485865803
  0
ARC
  5
20A
330
1F
100
AcDbEntity
  8
0
  6
Continuous
 62
     7
370
    25
100
AcDbCircle
 10
255.3331540593
 20
1147.9714352892
 30
0.0
 40
1.000000000000024
100
AcDbArc
 50
348.0
 51
50.0
  0
LWPOLYLINE
  5
20B
330
1F
100
AcDbEntity
  8
0
  6
Continuous
 62
     7
370
    25
100
AcDbPolyline
 90
        9
 70
   128
 43
0.0
 10
240.7219230766
 20
1146.5672804089
 10
240.9008529606
 20
1147.4090768071
 10
241.07290689
 20
1148.2185078831
 10
241.2314724746
 20
1148.9645196171
 10
241.3704565363
 20
1149.6183825703
 10
241.4845174747
 20
1150.1550031872
 10
241.5692724856
 20
1150.5537582608
 10
241.621464734
 20
1150.7992697926
 10
241.6390876854
 20
1150.8821798535
  0
ARC
  5
20C
330
1F
100
AcDbEntity
  8
0
  6
Continuous
 62
     7
370
    25
100
AcDbCircle
 10
242.6172352497
 20
1150.6742872699
 30
0.0
 40
1.00000000000013
100
AcDbArc
 50
106.0
 51
168.0
  0
LINE
  5
20D
330
1F
100
AcDbEntity
  8
0
  6
Continuous
 62
     7
370
    25
100
AcDbLine
 10
238.8241833644
 20
1137.639100668
 30
0.0
 11
240.7219230766
 21
1146.5672804089
 31
0.0
  0
SPLINE
  5
20E
330
1F
100
AcDbEntity
  8
0
  6
Continuous
 62
     7
370
    25
100
AcDbSpline
210
0.0
220
0.0
230
1.0
 70
     8
 71
     3
 72
    17
 73
    13
 74
     0
 42
0.000000001
 43
0.00000001
 40
0.0
 40
0.0
 40
0.0
 40
0.0
 40
0.0054845390588977
 40
0.1255752366442217
 40
0.2467761520193837
 40
0.3662444912767299
 40
0.4838928349289913
 40
0.6023515569824462
 40
0.7230319540384977
 40
0.8439835627420286
 40
0.9626998488966256
 40
1.0
 40
1.0
 40
1.0
 40
1.0
 10
170.8449639948369
 20
542.4778414936378
 30
0.0
 10
170.8292329037435
 20
542.5063891768001
 30
0.0
 10
170.4690503130974
 20
543.1600233346118
 30
0.0
 10
169.2022418816279
 20
544.1005330402777
 30
0.0
 10
167.2025530901873
 20
545.0095543625621
 30
0.0
 10
164.968057435682
 20
545.1419755715275
 30
0.0
 10
162.8501032392625
 20
544.546896140005
 30
0.0
 10
161.0386854546601
 20
543.2998993906532
 30
0.0
 10
159.7111688631392
 20
541.5355458681458
 30
0.0
 10
159.0973065302427
 20
539.4972479547048
 30
0.0
 10
159.0579429067035
 20
537.8438235052242
 30
0.0
 10
159.4343579789235
 20
537.0484558606007
 30
0.0
 10
159.5243506701947
 20
536.8583006830528
 30
0.0
  0
SPLINE
  5
20F
330
1F
100
AcDbEntity
  8
0
  6
Continuous
 62
     7
370
    25
100
AcDbSpline
210
0.0
220
0.0
230
1.0
 70
     8
 71
     3
 72
     9
 73
     5
 74
     0
 42
0.000000001
 43
0.00000001
 40
0.0
 40
0.0
 40
0.0
 40
0.0
 40
0.3154440995625423
 40
1.0
 40
1.0
 40
1.0
 40
1.0
 10
171.6555946143628
 20
536.5131599874809
 30
0.0
 10
171.7729869549463
 20
536.7212659281074
 30
0.0
 10
172.1451363809342
 20
537.3809896031269
 30
0.0
 10
172.1699788588546
 20
538.1583801664091
 30
0.0
 10
172.1869849236966
 20
538.6905474634483
 30
0.0
  0
SPLINE
  5
210
330
1F
100
AcDbEntity
  8
0
  6
Continuous
 62
     7
370
    25
100
AcDbSpline
210
0.0
220
0.0
230
1.0
 70
     8
 71
     3
 72
    17
 73
    13
 74
     0
 42
0.000000001
 43
0.00000001
 40
0.0
 40
0.0
 40
0.0
 40
0.0
 40
0.0054840222856943
 40
0.1255742515253833
 40
0.2467755066865081
 40
0.36624391984709
 40
0.4838922516904198
 40
0.6023513018487726
 40
0.7230316389075954
 40
0.843982974118234
 40
0.9626982175656702
 40
1.0
 40
1.0
 40
1.0
 40
1.0
 10
170.8449639948369
 20
433.4735041530444
 30
0.0
 10
170.8292328373969
 20
433.5020480653255
 30
0.0
 10
170.4690176124671
 20
434.1556523421829
 30
0.0
 10
169.2022469299419
 20
435.0961897398074
 30
0.0
 10
167.2025531342533
 20
436.0052170574943
 30
0.0
 10
164.9680592107198
 20
436.1376213183106
 30
0.0
 10
162.8500993425149
 20
435.5425591910408
 30
0.0
 10
161.0386887284201
 20
434.2955502937444
 30
0.0
 10
159.7111708202542
 20
432.5311991321592
 30
0.0
 10
159.0973022173333
 20
430.4929293364524
 30
0.0
 10
159.0579572667897
 20
428.8394529360734
 30
0.0
 10
159.4343578473848
 20
428.0441122282044
 30
0.0
 10
159.5243506701947
 20
427.8539558918788
 30
0.0
  0
SPLINE
  5
211
330
1F
100
AcDbEntity
  8
0
  6
Continuous
 62
     7
370
    25
100
AcDbSpline
210
0.0
220
0.0
230
1.0
 70
     8
 71
     3
 72
     9
 73
     5
 74
     0
 42
0.000000001
 43
0.00000001
 40
0.0
 40
0.0
 40
0.0
 40
0.0
 40
0.315442817535026
 40
1.0
 40
1.0
 40
1.0
 40
1.0
 10
171.6555946143628
 20
427.5088189215972
 30
0.0
 10
171.7729869388752
 20
427.7169223147952
 30
0.0
 10
172.1451378264104
 20
428.3766405953515
 30
0.0
 10
172.1699794273497
 20
429.1540286472228
 30
0.0
 10
172.1869849236966
 20
429.6861952216937
 30
0.0
  0
SPLINE
  5
212
330
1F
100
AcDbEntity
  8
0
  6
Continuous
 62
     7
370
    25
100
AcDbSpline
210
0.0
220
0.0
230
1.0
 70
     8
 71
     3
 72
    17
 73
    13
 74
     0
 42
0.000000001
 43
0.00000001
 40
0.0
 40
0.0
 40
0.0
 40
0.0
 40
0.0054838460095556
 40
0.1255745888991655
 40
0.2467758684223484
 40
0.3662442015085332
 40
0.483892589543701
 40
0.602351356285778
 40
0.7230311567447886
 40
0.8439828110773845
 40
0.96269914201777
 40
1.0
 40
1.0
 40
1.0
 40
1.0
 10
170.8449639948369
 20
651.482190010102
 30
0.0
 10
170.8292328092993
 20
651.5107326667855
 30
0.0
 10
170.4690043941789
 20
652.1643309576336
 30
0.0
 10
169.2022572640027
 20
653.1048742525213
 30
0.0
 10
167.2025524853061
 20
654.0139092578388
 30
0.0
 10
164.9680577747857
 20
654.1463033983686
 30
0.0
 10
162.8501025684582
 20
653.5512317482786
 30
0.0
 10
161.0386907887387
 20
652.3042329422195
 30
0.0
 10
159.7111653678893
 20
650.5398935822847
 30
0.0
 10
159.0973053232351
 20
648.5015941841831
 30
0.0
 10
159.0579479624292
 20
646.848172187211
 30
0.0
 10
159.4343579279576
 20
646.0527945519734
 30
0.0
 10
159.5243506701947
 20
645.8626342983558
 30
0.0
  0
SPLINE
  5
213
330
1F
100
AcDbEntity
  8
0
  6
Continuous
 62
     7
370
    25
100
AcDbSpline
210
0.0
220
0.0
230
1.0
 70
     8
 71
     3
 72
     9
 73
     5
 74
     0
 42
0.000000001
 43
0.00000001
 40
0.0
 40
0.0
 40
0.0
 40
0.0
 40
0.3154521339581109
 40
1.0
 40
1.0
 40
1.0
 40
1.0
 10
171.6555946143628
 20
645.5174936027839
 30
0.0
 10
171.7729870556551
 20
645.7256041661142
 30
0.0
 10
172.1451273224502
 20
646.3853256925436
 30
0.0
 10
172.1699752962539
 20
647.1627184948536
 30
0.0
 10
172.1869849236966
 20
647.6948810787513
 30
0.0
  0
LINE
  5
214
330
1F
100
AcDbEntity
  8
0
  6
Continuous
 62
     7
370
    25
100
AcDbLine
 10
182.6619871529
 20
424.0705994935
 30
0.0
 11
182.6619871529
 21
422.4387770565
 31
0.0
  0
LINE
  5
215
330
1F
100
AcDbEntity
  8
0
  6
Continuous
 62
     7
370
    25
100
AcDbLine
 10
182.3998682769
 20
420.8050360949
 30
0.0
 11
182.6619871529
 21
422.4387770565
 31
0.0
  0
SPLINE
  5
216
330
1F
100
AcDbEntity
  8
0
  6
Continuous
 62
     7
370
    25
100
AcDbSpline
210
0.0
220
0.0
230
1.0
 70
     8
 71
     3
 72
    10
 73
     6
 74
     0
 42
0.000000001
 43
0.00000001
 40
0.0
 40
0.0
 40
0.0
 40
0.0
 40
0.5009005381249142
 40
0.9966745270452706
 40
1.0
 40
1.0
 40
1.0
 40
1.0
 10
148.6619853051664
 20
422.4387770564868
 30
0.0
 10
148.7036461407507
 20
421.8144317403611
 30
0.0
 10
148.7865414272237
 20
420.5721310732627
 30
0.0
 10
149.0800003957719
 20
419.294228127652
 30
0.0
 10
149.3598494135063
 20
418.7048520602754
 30
0.0
 10
149.3617140325071
 20
418.7009250791385
 30
0.0
  0
LINE
  5
217
330
1F
100
AcDbEntity
  8
0
  6
Continuous
 62
     7
370
    25
100
AcDbLine
 10
148.6619853052
 20
422.4387770565
 30
0.0
 11
148.6619853052
 21
424.0705994935
 31
0.0
  0
LWPOLYLINE
  5
218
330
1F
100
AcDbEntity
  8
0
  6
Continuous
 62
     7
370
    25
100
AcDbPolyline
 90
       27
 70
   128
 43
0.0
 10
171.9619848403
 20
429.9206314655
 10
171.7789166244
 20
431.3373928936
 10
171.2403588565
 20
432.6718216808
 10
170.3776039752
 20
433.8463572831
 10
169.2407943877
 20
434.7927449317
 10
167.8959943923
 20
435.4559844406
 10
166.4213680299
 20
435.797530231
 10
164.9026044281
 20
435.797530231
 10
163.4279780658
 20
435.4559844406
 10
162.0831780704
 20
434.7927449317
 10
160.9463684829
 20
433.8463572831
 10
160.0836136015
 20
432.6718216808
 10
159.5450558337
 20
431.3373928936
 10
159.3619876178
 20
429.9206314655
 10
159.5450558337
 20
428.5038663121
 10
160.0836136015
 20
427.1694375248
 10
160.9463684829
 20
425.9949019225
 10
162.0831780704
 20
425.0485142739
 10
163.4279780658
 20
424.385274765
 10
164.9026044281
 20
424.0437289746
 10
166.4213680299
 20
424.0437289746
 10
167.8959943923
 20
424.385274765
 10
169.2407943877
 20
425.0485142739
 10
170.3776039752
 20
425.9949019225
 10
171.2403588565
 20
427.1694375248
 10
171.7789166244
 20
428.5038663121
 10
171.9619848403
 20
429.9206314655
  0
LWPOLYLINE
  5
219
330
1F
100
AcDbEntity
  8
0
  6
Continuous
 62
     7
370
    25
100
AcDbPolyline
 90
       28
 70
   128
 43
0.0
 10
172.1619882258
 20
429.852227685
 10
171.9867803725
 20
428.4436246426
 10
171.4705966981
 20
427.1109579177
 10
170.6412725719
 20
425.9260771842
 10
169.5435189279
 20
424.9528562696
 10
168.2365008267
 20
424.2437584372
 10
166.7907007607
 20
423.8370163412
 10
165.2840443524
 20
423.7545570405
 10
163.797765282
 20
424.0008248062
 10
162.4119870933
 20
424.5625427039
 10
161.2014167579
 20
425.4094278486
 10
160.2313139113
 20
426.4958230825
 10
159.5539816292
 20
427.763166842
 10
159.2059352072
 20
429.1431298526
 10
159.2059352072
 20
430.5613217922
 10
159.5539816292
 20
431.9412848027
 10
160.2313139113
 20
433.2086285622
 10
161.2014167579
 20
434.2950237961
 10
162.4119870933
 20
435.1419126661
 10
163.797765282
 20
435.7036268385
 10
165.2840443524
 20
435.9498946042
 10
166.7907007607
 20
435.8674353035
 10
168.2365008267
 20
435.4606932075
 10
169.5435189279
 20
434.7515953751
 10
170.6412725719
 20
433.7783744605
 10
171.4705966981
 20
432.593493727
 10
171.9867803725
 20
431.2608270021
 10
172.1619882258
 20
429.852227685
  0
LINE
  5
21A
330
1F
100
AcDbEntity
  8
0
  6
Continuous
 62
     7
370
    25
100
AcDbLine
 10
148.6619853052
 20
424.0705994935
 30
0.0
 11
148.6619853052
 21
649.5968354912
 31
0.0
  0
LINE
  5
21B
330
1F
100
AcDbEntity
  8
0
  6
Continuous
 62
     7
370
    25
100
AcDbLine
 10
182.6619871529
 20
649.5968354912
 30
0.0
 11
182.6619871529
 21
424.0705994935
 31
0.0
  0
LWPOLYLINE
  5
21C
330
1F
100
AcDbEntity
  8
0
  6
Continuous
 62
     7
370
    25
100
AcDbPolyline
 90
       27
 70
   128
 43
0.0
 10
171.9619848403
 20
538.9249725313
 10
171.7789166244
 20
540.3417451353
 10
171.2403588565
 20
541.6761590214
 10
170.3776039752
 20
542.850698349
 10
169.2407943877
 20
543.7970859976
 10
167.8959943923
 20
544.4603366824
 10
166.4213680299
 20
544.8018712969
 10
164.9026044281
 20
544.8018712969
 10
163.4279780658
 20
544.4603366824
 10
162.0831780704
 20
543.7970859976
 10
160.9463684829
 20
542.850698349
 10
160.0836136015
 20
541.6761590214
 10
159.5450558337
 20
540.3417451353
 10
159.3619876178
 20
538.9249725313
 10
159.5450558337
 20
537.5082148285
 10
160.0836136015
 20
536.1737860413
 10
160.9463684829
 20
534.9992467137
 10
162.0831780704
 20
534.0528590651
 10
163.4279780658
 20
533.3896232815
 10
164.9026044281
 20
533.0480737658
 10
166.4213680299
 20
533.0480737658
 10
167.8959943923
 20
533.3896232815
 10
169.2407943877
 20
534.0528590651
 10
170.3776039752
 20
534.9992467137
 10
171.2403588565
 20
536.1737860413
 10
171.7789166244
 20
537.5082148285
 10
171.9619848403
 20
538.9249725313
  0
LWPOLYLINE
  5
21D
330
1F
100
AcDbEntity
  8
0
  6
Continuous
 62
     7
370
    25
100
AcDbPolyline
 90
       28
 70
   128
 43
0.0
 10
172.1619882258
 20
538.8565762015
 10
171.9867803725
 20
537.4479694338
 10
171.4705966981
 20
536.1152989836
 10
170.6412725719
 20
534.9304182501
 10
169.5435189279
 20
533.9571936102
 10
168.2365008267
 20
533.2481069537
 10
166.7907007607
 20
532.8413648577
 10
165.2840443524
 20
532.7589018317
 10
163.797765282
 20
533.0051733227
 10
162.4119870933
 20
533.5668874951
 10
161.2014167579
 20
534.4137651892
 10
160.2313139113
 20
535.5001641484
 10
159.5539816292
 20
536.7675079079
 10
159.2059352072
 20
538.1474746437
 10
159.2059352072
 20
539.565662858
 10
159.5539816292
 20
540.9456295939
 10
160.2313139113
 20
542.2129733534
 10
161.2014167579
 20
543.2993723126
 10
162.4119870933
 20
544.1462500067
 10
163.797765282
 20
544.7079790802
 10
165.2840443524
 20
544.9542356701
 10
166.7907007607
 20
544.8717726441
 10
168.2365008267
 20
544.4650305481
 10
169.5435189279
 20
543.7559438916
 10
170.6412725719
 20
542.7827192517
 10
171.4705966981
 20
541.5978385182
 10
171.9867803725
 20
540.265168068
 10
172.1619882258
 20
538.8565762015
  0
LWPOLYLINE
  5
21E
330
1F
100
AcDbEntity
  8
0
  6
Continuous
 62
     7
370
    25
100
AcDbPolyline
 90
       27
 70
   128
 43
0.0
 10
171.9619848403
 20
647.9293061467
 10
171.7789166244
 20
649.3460787506
 10
171.2403588565
 20
650.6805075379
 10
170.3776039752
 20
651.8550468655
 10
169.2407943877
 20
652.8014494152
 10
167.8959943923
 20
653.4646702977
 10
166.4213680299
 20
653.8062049122
 10
164.9026044281
 20
653.8062049122
 10
163.4279780658
 20
653.4646702977
 10
162.0831780704
 20
652.8014494152
 10
160.9463684829
 20
651.8550468655
 10
160.0836136015
 20
650.6805075379
 10
159.5450558337
 20
649.3460787506
 10
159.3619876178
 20
647.9293061467
 10
159.5450558337
 20
646.512563345
 10
160.0836136015
 20
645.1781345578
 10
160.9463684829
 20
644.0035952301
 10
162.0831780704
 20
643.0571926804
 10
163.4279780658
 20
642.393971798
 10
164.9026044281
 20
642.0524073811
 10
166.4213680299
 20
642.0524073811
 10
167.8959943923
 20
642.393971798
 10
169.2407943877
 20
643.0571926804
 10
170.3776039752
 20
644.0035952301
 10
171.2403588565
 20
645.1781345578
 10
171.7789166244
 20
646.512563345
 10
171.9619848403
 20
647.9293061467
  0
LWPOLYLINE
  5
21F
330
1F
100
AcDbEntity
  8
0
  6
Continuous
 62
     7
370
    25
100
AcDbPolyline
 90
       28
 70
   128
 43
0.0
 10
172.1619882258
 20
647.8609098168
 10
171.9867803725
 20
646.4523030491
 10
171.4705966981
 20
645.1196624012
 10
170.6412725719
 20
643.9347518654
 10
169.5435189279
 20
642.9615570278
 10
168.2365008267
 20
642.252440569
 10
166.7907007607
 20
641.845698473
 10
165.2840443524
 20
641.763235447
 10
163.797765282
 20
642.0095218392
 10
162.4119870933
 20
642.5712360115
 10
161.2014167579
 20
643.4181286068
 10
160.2313139113
 20
644.5045126648
 10
159.5539816292
 20
645.7718564244
 10
159.2059352072
 20
647.1518231602
 10
159.2059352072
 20
648.5699964733
 10
159.5539816292
 20
649.9499632092
 10
160.2313139113
 20
651.2173069687
 10
161.2014167579
 20
652.303720829
 10
162.4119870933
 20
653.1506134243
 10
163.797765282
 20
653.7123275967
 10
165.2840443524
 20
653.9585841866
 10
166.7907007607
 20
653.8761211605
 10
168.2365008267
 20
653.4693790646
 10
169.5435189279
 20
652.760292408
 10
170.6412725719
 20
651.7870677681
 10
171.4705966981
 20
650.6021870346
 10
171.9867803725
 20
649.2695165844
 10
172.1619882258
 20
647.8609098168
  0
LINE
  5
220
330
1F
100
AcDbEntity
  8
0
  6
Continuous
 62
     7
370
    25
100
AcDbLine
 10
182.2910972508
 20
651.9085122319
 30
0.0
 11
182.6619871529
 21
649.5968354912
 31
0.0
  0
SPLINE
  5
221
330
1F
100
AcDbEntity
  8
0
  6
Continuous
 62
     7
370
    25
100
AcDbSpline
210
0.0
220
0.0
230
1.0
 70
     8
 71
     3
 72
    17
 73
    13
 74
     0
 42
0.000000001
 43
0.00000001
 40
0.0
 40
0.0
 40
0.0
 40
0.0
 40
0.0054845390588977
 40
0.1255752366442217
 40
0.2467761520193837
 40
0.3662444912767299
 40
0.4838928349289913
 40
0.6023515569824462
 40
0.7230319540384977
 40
0.8439835627420286
 40
0.9626998488966256
 40
1.0
 40
1.0
 40
1.0
 40
1.0
 10
335.8449631007673
 20
542.4778414936378
 30
0.0
 10
335.8292320096738
 20
542.5063891768001
 30
0.0
 10
335.4690494190277
 20
543.1600233346118
 30
0.0
 10
334.2022409875581
 20
544.1005330402777
 30
0.0
 10
332.2025521961176
 20
545.0095543625621
 30
0.0
 10
329.9680565416123
 20
545.1419755715275
 30
0.0
 10
327.8501023451929
 20
544.546896140005
 30
0.0
 10
326.0386845605904
 20
543.2998993906532
 30
0.0
 10
324.7111679690695
 20
541.5355458681458
 30
0.0
 10
324.097305636173
 20
539.4972479547048
 30
0.0
 10
324.0579420126338
 20
537.8438235052242
 30
0.0
 10
324.4343570848538
 20
537.0484558606007
 30
0.0
 10
324.5243497761251
 20
536.8583006830528
 30
0.0
  0
SPLINE
  5
222
330
1F
100
AcDbEntity
  8
0
  6
Continuous
 62
     7
370
    25
100
AcDbSpline
210
0.0
220
0.0
230
1.0
 70
     8
 71
     3
 72
     9
 73
     5
 74
     0
 42
0.000000001
 43
0.00000001
 40
0.0
 40
0.0
 40
0.0
 40
0.0
 40
0.3154432375663519
 40
1.0
 40
1.0
 40
1.0
 40
1.0
 10
336.6556011708738
 20
536.5131599874809
 30
0.0
 10
336.7729906254187
 20
536.7212660878324
 30
0.0
 10
337.1451319192079
 20
537.3809920719975
 30
0.0
 10
337.1699765022771
 20
538.1583807718944
 30
0.0
 10
337.186984029627
 20
538.6905474634483
 30
0.0
  0
SPLINE
  5
223
330
1F
100
AcDbEntity
  8
0
  6
Continuous
 62
     7
370
    25
100
AcDbSpline
210
0.0
220
0.0
230
1.0
 70
     8
 71
     3
 72
    17
 73
    13
 74
     0
 42
0.000000001
 43
0.00000001
 40
0.0
 40
0.0
 40
0.0
 40
0.0
 40
0.0054840222856943
 40
0.1255742515253833
 40
0.2467755066865081
 40
0.36624391984709
 40
0.4838922516904198
 40
0.6023513018487726
 40
0.7230316389075954
 40
0.843982974118234
 40
0.9626982175656702
 40
1.0
 40
1.0
 40
1.0
 40
1.0
 10
335.8449631007673
 20
433.4735041530444
 30
0.0
 10
335.8292319433272
 20
433.5020480653255
 30
0.0
 10
335.4690167183975
 20
434.1556523421829
 30
0.0
 10
334.2022460358721
 20
435.0961897398074
 30
0.0
 10
332.2025522401837
 20
436.0052170574943
 30
0.0
 10
329.9680583166501
 20
436.1376213183106
 30
0.0
 10
327.8500984484451
 20
435.5425591910408
 30
0.0
 10
326.0386878343505
 20
434.2955502937444
 30
0.0
 10
324.7111699261845
 20
432.5311991321592
 30
0.0
 10
324.0973013232637
 20
430.4929293364524
 30
0.0
 10
324.05795637272
 20
428.8394529360734
 30
0.0
 10
324.4343569533151
 20
428.0441122282044
 30
0.0
 10
324.5243497761251
 20
427.8539558918788
 30
0.0
  0
SPLINE
  5
224
330
1F
100
AcDbEntity
  8
0
  6
Continuous
 62
     7
370
    25
100
AcDbSpline
210
0.0
220
0.0
230
1.0
 70
     8
 71
     3
 72
     9
 73
     5
 74
     0
 42
0.000000001
 43
0.00000001
 40
0.0
 40
0.0
 40
0.0
 40
0.0
 40
0.3154419555269432
 40
1.0
 40
1.0
 40
1.0
 40
1.0
 10
336.6556011708738
 20
427.5088189215972
 30
0.0
 10
336.7729906093488
 20
427.7169224745212
 30
0.0
 10
337.1451333646742
 20
428.3766430642455
 30
0.0
 10
337.1699770707668
 20
429.1540292527148
 30
0.0
 10
337.186984029627
 20
429.6861952216937
 30
0.0
  0
SPLINE
  5
225
330
1F
100
AcDbEntity
  8
0
  6
Continuous
 62
     7
370
    25
100
AcDbSpline
210
0.0
220
0.0
230
1.0
 70
     8
 71
     3
 72
    17
 73
    13
 74
     0
 42
0.000000001
 43
0.00000001
 40
0.0
 40
0.0
 40
0.0
 40
0.0
 40
0.0054838460095556
 40
0.1255745888991655
 40
0.2467758684223484
 40
0.3662442015085332
 40
0.483892589543701
 40
0.602351356285778
 40
0.7230311567447886
 40
0.8439828110773845
 40
0.96269914201777
 40
1.0
 40
1.0
 40
1.0
 40
1.0
 10
335.8449631007673
 20
651.482190010102
 30
0.0
 10
335.8292319152296
 20
651.5107326667855
 30
0.0
 10
335.4690035001094
 20
652.1643309576336
 30
0.0
 10
334.202256369933
 20
653.1048742525213
 30
0.0
 10
332.2025515912364
 20
654.0139092578388
 30
0.0
 10
329.968056880716
 20
654.1463033983686
 30
0.0
 10
327.8501016743886
 20
653.5512317482786
 30
0.0
 10
326.0386898946691
 20
652.3042329422195
 30
0.0
 10
324.7111644738196
 20
650.5398935822847
 30
0.0
 10
324.0973044291654
 20
648.5015941841831
 30
0.0
 10
324.0579470683596
 20
646.848172187211
 30
0.0
 10
324.434357033888
 20
646.0527945519734
 30
0.0
 10
324.5243497761251
 20
645.8626342983558
 30
0.0
  0
SPLINE
  5
226
330
1F
100
AcDbEntity
  8
0
  6
Continuous
 62
     7
370
    25
100
AcDbSpline
210
0.0
220
0.0
230
1.0
 70
     8
 71
     3
 72
     9
 73
     5
 74
     0
 42
0.000000001
 43
0.00000001
 40
0.0
 40
0.0
 40
0.0
 40
0.0
 40
0.3154512719776445
 40
1.0
 40
1.0
 40
1.0
 40
1.0
 10
336.6556011708738
 20
645.5174936027839
 30
0.0
 10
336.7729907261193
 20
645.7256043258428
 30
0.0
 10
337.1451228608532
 20
646.3853281613318
 30
0.0
 10
337.1699729397363
 20
647.1627191003026
 30
0.0
 10
337.186984029627
 20
647.6948810787513
 30
0.0
  0
LINE
  5
227
330
1F
100
AcDbEntity
  8
0
  6
Continuous
 62
     7
370
    25
100
AcDbLine
 10
347.6619862588
 20
424.0705994935
 30
0.0
 11
347.6619862588
 21
422.4387770565
 31
0.0
  0
LINE
  5
228
330
1F
100
AcDbEntity
  8
0
  6
Continuous
 62
     7
370
    25
100
AcDbLine
 10
347.3998673829
 20
420.8050360949
 30
0.0
 11
347.6619862588
 21
422.4387770565
 31
0.0
  0
SPLINE
  5
229
330
1F
100
AcDbEntity
  8
0
  6
Continuous
 62
     7
370
    25
100
AcDbSpline
210
0.0
220
0.0
230
1.0
 70
     8
 71
     3
 72
    10
 73
     6
 74
     0
 42
0.000000001
 43
0.00000001
 40
0.0
 40
0.0
 40
0.0
 40
0.0
 40
0.5009008712450381
 40
0.9966745259577966
 40
1.0
 40
1.0
 40
1.0
 40
1.0
 10
313.6619844110967
 20
422.4387770564868
 30
0.0
 10
313.7036494223747
 20
421.8144320704349
 30
0.0
 10
313.7865529622733
 20
420.5721328876431
 30
0.0
 10
314.0799997662053
 20
419.2942275382799
 30
0.0
 10
314.3598485193453
 20
418.7048520602538
 30
0.0
 10
314.3617131384374
 20
418.7009250791385
 30
0.0
  0
LINE
  5
22A
330
1F
100
AcDbEntity
  8
0
  6
Continuous
 62
     7
370
    25
100
AcDbLine
 10
313.6619844111
 20
422.4387770565
 30
0.0
 11
313.6619844111
 21
424.0705994935
 31
0.0
  0
LWPOLYLINE
  5
22B
330
1F
100
AcDbEntity
  8
0
  6
Continuous
 62
     7
370
    25
100
AcDbPolyline
 90
       27
 70
   128
 43
0.0
 10
336.9619839462
 20
429.9206314655
 10
336.7789157303
 20
431.3373928936
 10
336.2403579625
 20
432.6718216808
 10
335.3776030811
 20
433.8463572831
 10
334.2407934936
 20
434.7927449317
 10
332.8959934982
 20
435.4559844406
 10
331.4213671359
 20
435.797530231
 10
329.9026035341
 20
435.797530231
 10
328.4279771718
 20
435.4559844406
 10
327.0831771763
 20
434.7927449317
 10
325.9463675889
 20
433.8463572831
 10
325.0836127075
 20
432.6718216808
 10
324.5450549396
 20
431.3373928936
 10
324.3619867238
 20
429.9206314655
 10
324.5450549396
 20
428.5038663121
 10
325.0836127075
 20
427.1694375248
 10
325.9463675889
 20
425.9949019225
 10
327.0831771763
 20
425.0485142739
 10
328.4279771718
 20
424.385274765
 10
329.9026035341
 20
424.0437289746
 10
331.4213671359
 20
424.0437289746
 10
332.8959934982
 20
424.385274765
 10
334.2407934936
 20
425.0485142739
 10
335.3776030811
 20
425.9949019225
 10
336.2403579625
 20
427.1694375248
 10
336.7789157303
 20
428.5038663121
 10
336.9619839462
 20
429.9206314655
  0
LWPOLYLINE
  5
22C
330
1F
100
AcDbEntity
  8
0
  6
Continuous
 62
     7
370
    25
100
AcDbPolyline
 90
       28
 70
   128
 43
0.0
 10
337.1619873317
 20
429.852227685
 10
336.9867794784
 20
428.4436246426
 10
336.4705958041
 20
427.1109579177
 10
335.6412716778
 20
425.9260771842
 10
334.5435180338
 20
424.9528562696
 10
333.2365073832
 20
424.2437584372
 10
331.7906998666
 20
423.8370163412
 10
330.2840434583
 20
423.7545570405
 10
328.7977643879
 20
424.0008248062
 10
327.4119861992
 20
424.5625427039
 10
326.2014158638
 20
425.4094278486
 10
325.2313130172
 20
426.4958230825
 10
324.5539807352
 20
427.763166842
 10
324.2059343132
 20
429.1431298526
 10
324.2059343132
 20
430.5613217922
 10
324.5539807352
 20
431.9412848027
 10
325.2313130172
 20
433.2086285622
 10
326.2014158638
 20
434.2950237961
 10
327.4119861992
 20
435.1419126661
 10
328.7977643879
 20
435.7036268385
 10
330.2840434583
 20
435.9498946042
 10
331.7906998666
 20
435.8674353035
 10
333.2365073832
 20
435.4606932075
 10
334.5435180338
 20
434.7515953751
 10
335.6412716778
 20
433.7783744605
 10
336.4705958041
 20
432.593493727
 10
336.9867794784
 20
431.2608270021
 10
337.1619873317
 20
429.852227685
  0
LINE
  5
22D
330
1F
100
AcDbEntity
  8
0
  6
Continuous
 62
     7
370
    25
100
AcDbLine
 10
347.6619862588
 20
649.5968354912
 30
0.0
 11
347.6619862588
 21
424.0705994935
 31
0.0
  0
LINE
  5
22E
330
1F
100
AcDbEntity
  8
0
  6
Continuous
 62
     7
370
    25
100
AcDbLine
 10
313.6619844111
 20
424.0705994935
 30
0.0
 11
313.6619844111
 21
649.5968354912
 31
0.0
  0
LWPOLYLINE
  5
22F
330
1F
100
AcDbEntity
  8
0
  6
Continuous
 62
     7
370
    25
100
AcDbPolyline
 90
       27
 70
   128
 43
0.0
 10
336.9619839462
 20
538.9249725313
 10
336.7789157303
 20
540.3417451353
 10
336.2403579625
 20
541.6761590214
 10
335.3776030811
 20
542.850698349
 10
334.2407934936
 20
543.7970859976
 10
332.8959934982
 20
544.4603366824
 10
331.4213671359
 20
544.8018712969
 10
329.9026035341
 20
544.8018712969
 10
328.4279771718
 20
544.4603366824
 10
327.0831771763
 20
543.7970859976
 10
325.9463675889
 20
542.850698349
 10
325.0836127075
 20
541.6761590214
 10
324.5450549396
 20
540.3417451353
 10
324.3619867238
 20
538.9249725313
 10
324.5450549396
 20
537.5082148285
 10
325.0836127075
 20
536.1737860413
 10
325.9463675889
 20
534.9992467137
 10
327.0831771763
 20
534.0528590651
 10
328.4279771718
 20
533.3896232815
 10
329.9026035341
 20
533.0480737658
 10
331.4213671359
 20
533.0480737658
 10
332.8959934982
 20
533.3896232815
 10
334.2407934936
 20
534.0528590651
 10
335.3776030811
 20
534.9992467137
 10
336.2403579625
 20
536.1737860413
 10
336.7789157303
 20
537.5082148285
 10
336.9619839462
 20
538.9249725313
  0
LWPOLYLINE
  5
230
330
1F
100
AcDbEntity
  8
0
  6
Continuous
 62
     7
370
    25
100
AcDbPolyline
 90
       28
 70
   128
 43
0.0
 10
337.1619873317
 20
538.8565762015
 10
336.9867794784
 20
537.4479694338
 10
336.4705958041
 20
536.1152989836
 10
335.6412716778
 20
534.9304182501
 10
334.5435180338
 20
533.9571936102
 10
333.2365073832
 20
533.2481069537
 10
331.7906998666
 20
532.8413648577
 10
330.2840434583
 20
532.7589018317
 10
328.7977643879
 20
533.0051733227
 10
327.4119861992
 20
533.5668874951
 10
326.2014158638
 20
534.4137651892
 10
325.2313130172
 20
535.5001641484
 10
324.5539807352
 20
536.7675079079
 10
324.2059343132
 20
538.1474746437
 10
324.2059343132
 20
539.565662858
 10
324.5539807352
 20
540.9456295939
 10
325.2313130172
 20
542.2129733534
 10
326.2014158638
 20
543.2993723126
 10
327.4119861992
 20
544.1462500067
 10
328.7977643879
 20
544.7079790802
 10
330.2840434583
 20
544.9542356701
 10
331.7906998666
 20
544.8717726441
 10
333.2365073832
 20
544.4650305481
 10
334.5435180338
 20
543.7559438916
 10
335.6412716778
 20
542.7827192517
 10
336.4705958041
 20
541.5978385182
 10
336.9867794784
 20
540.265168068
 10
337.1619873317
 20
538.8565762015
  0
LWPOLYLINE
  5
231
330
1F
100
AcDbEntity
  8
0
  6
Continuous
 62
     7
370
    25
100
AcDbPolyline
 90
       27
 70
   128
 43
0.0
 10
336.9619839462
 20
647.9293061467
 10
336.7789157303
 20
649.3460787506
 10
336.2403579625
 20
650.6805075379
 10
335.3776030811
 20
651.8550468655
 10
334.2407934936
 20
652.8014494152
 10
332.8959934982
 20
653.4646702977
 10
331.4213671359
 20
653.8062049122
 10
329.9026035341
 20
653.8062049122
 10
328.4279771718
 20
653.4646702977
 10
327.0831771763
 20
652.8014494152
 10
325.9463675889
 20
651.8550468655
 10
325.0836127075
 20
650.6805075379
 10
324.5450549396
 20
649.3460787506
 10
324.3619867238
 20
647.9293061467
 10
324.5450549396
 20
646.512563345
 10
325.0836127075
 20
645.1781345578
 10
325.9463675889
 20
644.0035952301
 10
327.0831771763
 20
643.0571926804
 10
328.4279771718
 20
642.393971798
 10
329.9026035341
 20
642.0524073811
 10
331.4213671359
 20
642.0524073811
 10
332.8959934982
 20
642.393971798
 10
334.2407934936
 20
643.0571926804
 10
335.3776030811
 20
644.0035952301
 10
336.2403579625
 20
645.1781345578
 10
336.7789157303
 20
646.512563345
 10
336.9619839462
 20
647.9293061467
  0
LWPOLYLINE
  5
232
330
1F
100
AcDbEntity
  8
0
  6
Continuous
 62
     7
370
    25
100
AcDbPolyline
 90
       28
 70
   128
 43
0.0
 10
337.1619873317
 20
647.8609098168
 10
336.9867794784
 20
646.4523030491
 10
336.4705958041
 20
645.1196624012
 10
335.6412716778
 20
643.9347518654
 10
334.5435180338
 20
642.9615570278
 10
333.2365073832
 20
642.252440569
 10
331.7906998666
 20
641.845698473
 10
330.2840434583
 20
641.763235447
 10
328.7977643879
 20
642.0095218392
 10
327.4119861992
 20
642.5712360115
 10
326.2014158638
 20
643.4181286068
 10
325.2313130172
 20
644.5045126648
 10
324.5539807352
 20
645.7718564244
 10
324.2059343132
 20
647.1518231602
 10
324.2059343132
 20
648.5699964733
 10
324.5539807352
 20
649.9499632092
 10
325.2313130172
 20
651.2173069687
 10
326.2014158638
 20
652.303720829
 10
327.4119861992
 20
653.1506134243
 10
328.7977643879
 20
653.7123275967
 10
330.2840434583
 20
653.9585841866
 10
331.7906998666
 20
653.8761211605
 10
333.2365073832
 20
653.4693790646
 10
334.5435180338
 20
652.760292408
 10
335.6412716778
 20
651.7870677681
 10
336.4705958041
 20
650.6021870346
 10
336.9867794784
 20
649.2695165844
 10
337.1619873317
 20
647.8609098168
  0
LINE
  5
233
330
1F
100
AcDbEntity
  8
0
  6
Continuous
 62
     7
370
    25
100
AcDbLine
 10
347.2910963567
 20
651.9085122319
 30
0.0
 11
347.6619862588
 21
649.5968354912
 31
0.0
  0
ARC
  5
234
330
1F
100
AcDbEntity
  8
0
  6
Continuous
 62
     7
370
    25
100
AcDbCircle
 10
341.6619857779
 20
676.0320032504
 30
0.0
 40
3.0
100
AcDbArc
 50
90.0
 51
180.0
  0
ARC
  5
235
330
1F
100
AcDbEntity
  8
0
  6
Continuous
 62
     7
370
    25
100
AcDbCircle
 10
341.6619857779
 20
676.0320032504
 30
0.0
 40
3.000000000000057
100
AcDbArc
 50
0.0
 51
90.0
  0
ARC
  5
236
330
1F
100
AcDbEntity
  8
0
  6
Continuous
 62
     7
370
    25
100
AcDbCircle
 10
176.6619857793
 20
676.0320032504
 30
0.0
 40
3.0
100
AcDbArc
 50
90.0
 51
180.0
  0
ARC
  5
237
330
1F
100
AcDbEntity
  8
0
  6
Continuous
 62
     7
370
    25
100
AcDbCircle
 10
176.6619857793
 20
676.0320032504
 30
0.0
 40
3.0
100
AcDbArc
 50
0.0
 51
90.0
  0
ARC
  5
238
330
1F
100
AcDbEntity
  8
0
  6
Continuous
 62
     7
370
    25
100
AcDbCircle
 10
319.6619857779
 20
676.0320032504
 30
0.0
 40
3.0
100
AcDbArc
 50
90.0
 51
180.0
  0
ARC
  5
239
330
1F
100
AcDbEntity
  8
0
  6
Continuous
 62
     7
370
    25
100
AcDbCircle
 10
319.6619857779
 20
676.0320032504
 30
0.0
 40
3.0
100
AcDbArc
 50
0.0
 51
90.0
  0
ARC
  5
23A
330
1F
100
AcDbEntity
  8
0
  6
Continuous
 62
     7
370
    25
100
AcDbCircle
 10
154.6619857793
 20
676.0320032504
 30
0.0
 40
3.0
100
AcDbArc
 50
90.0
 51
180.0
  0
ARC
  5
23B
330
1F
100
AcDbEntity
  8
0
  6
Continuous
 62
     7
370
    25
100
AcDbCircle
 10
154.6619857793
 20
676.0320032504
 30
0.0
 40
3.0
100
AcDbArc
 50
0.0
 51
90.0
  0
LINE
  5
23C
330
1F
100
AcDbEntity
  8
0
  6
Continuous
 62
     7
370
    25
100
AcDbLine
 10
330.7619833025
 20
681.7578924866
 30
0.0
 11
330.7619833025
 21
679.0319932671
 31
0.0
  0
LINE
  5
23D
330
1F
100
AcDbEntity
  8
0
  6
Continuous
 62
     7
370
    25
100
AcDbLine
 10
330.6619890603
 20
681.7578924866
 30
0.0
 11
330.6619890603
 21
679.0319932671
 31
0.0
  0
LINE
  5
23E
330
1F
100
AcDbEntity
  8
0
  6
Continuous
 62
     7
370
    25
100
AcDbLine
 10
165.6619825037
 20
681.7578924866
 30
0.0
 11
165.6619825037
 21
679.0319932671
 31
0.0
  0
LINE
  5
23F
330
1F
100
AcDbEntity
  8
0
  6
Continuous
 62
     7
370
    25
100
AcDbLine
 10
165.7619841965
 20
681.7578924866
 30
0.0
 11
165.7619841965
 21
679.0319932671
 31
0.0
  0
CIRCLE
  5
240
330
1F
100
AcDbEntity
  8
0
  6
Continuous
 62
     7
370
    25
100
AcDbCircle
 10
330.661985782
 20
1145.4783767886
 30
0.0
 40
13.25000000000006
  0
CIRCLE
  5
241
330
1F
100
AcDbEntity
  8
0
  6
Continuous
 62
     7
370
    25
100
AcDbCircle
 10
165.661985782
 20
1145.4783767886
 30
0.0
 40
13.25000000000003
  0
LINE
  5
242
330
1F
100
AcDbEntity
  8
0
  6
Continuous
 62
     7
370
    25
100
AcDbLine
 10
178.6691912087
 20
983.5283709736
 30
0.0
 11
152.6691906723
 21
983.5283709736
 31
0.0
  0
LINE
  5
243
330
1F
100
AcDbEntity
  8
0
  6
Continuous
 62
     7
370
    25
100
AcDbLine
 10
165.0397621664
 20
661.4466561051
 30
0.0
 11
165.0397621664
 21
668.0033756466
 31
0.0
  0
LINE
  5
244
330
1F
100
AcDbEntity
  8
0
  6
Continuous
 62
     7
370
    25
100
AcDbLine
 10
182.4374266537
 20
658.4783745976
 30
0.0
 11
183.1691928776
 21
659.2101408215
 31
0.0
  0
LINE
  5
245
330
1F
100
AcDbEntity
  8
0
  6
Continuous
 62
     7
370
    25
100
AcDbLine
 10
183.1691928776
 20
668.9658416481
 30
0.0
 11
180.801770893
 21
668.9658416481
 31
0.0
  0
LINE
  5
246
330
1F
100
AcDbEntity
  8
0
  6
Continuous
 62
     7
370
    25
100
AcDbLine
 10
180.801770893
 20
662.0383514138
 30
0.0
 11
179.6619885238
 21
662.0383514138
 31
0.0
  0
ARC
  5
247
330
1F
100
AcDbEntity
  8
0
  6
Continuous
 62
     7
370
    25
100
AcDbCircle
 10
143.861985782
 20
680.4783767886
 30
0.0
 40
5.999999999999979
100
AcDbArc
 50
315.8786917625
 51
346.050755936
  0
ARC
  5
248
330
1F
100
AcDbEntity
  8
0
  6
Continuous
 62
     7
370
    25
100
AcDbCircle
 10
165.661985782
 20
680.4783767886
 30
0.0
 40
5.999999999999979
100
AcDbArc
 50
193.949244064
 51
346.050755936
  0
ARC
  5
249
330
1F
100
AcDbEntity
  8
0
  6
Continuous
 62
     7
370
    25
100
AcDbCircle
 10
187.461985782
 20
680.4783767886
 30
0.0
 40
6.000000000000006
100
AcDbArc
 50
193.949244064
 51
224.3186060806
  0
LINE
  5
24A
330
1F
100
AcDbEntity
  8
0
  6
Continuous
 62
     7
370
    25
100
AcDbLine
 10
179.6619885238
 20
661.2538052769
 30
0.0
 11
182.4374266537
 21
658.4783745976
 31
0.0
  0
LINE
  5
24B
330
1F
100
AcDbEntity
  8
0
  6
Continuous
 62
     7
370
    25
100
AcDbLine
 10
165.0397621664
 20
668.0033756466
 30
0.0
 11
169.6801476749
 21
668.0033756466
 31
0.0
  0
LINE
  5
24C
330
1F
100
AcDbEntity
  8
0
  6
Continuous
 62
     7
370
    25
100
AcDbLine
 10
205.561480728
 20
972.7102471562
 30
0.0
 11
204.9957953962
 21
972.1445394726
 31
0.0
  0
LINE
  5
24D
330
1F
100
AcDbEntity
  8
0
  6
Continuous
 62
     7
370
    25
100
AcDbLine
 10
165.8945672782
 20
667.0264555188
 30
0.0
 11
165.8945672782
 21
664.0956951351
 31
0.0
  0
LINE
  5
24E
330
1F
100
AcDbEntity
  8
0
  6
Continuous
 62
     7
370
    25
100
AcDbLine
 10
169.6801476749
 20
668.0033756466
 30
0.0
 11
169.6801476749
 21
667.0264555188
 31
0.0
  0
LINE
  5
24F
330
1F
100
AcDbEntity
  8
0
  6
Continuous
 62
     7
370
    25
100
AcDbLine
 10
169.6801476749
 20
667.0264555188
 30
0.0
 11
165.8945672782
 21
667.0264555188
 31
0.0
  0
ARC
  5
250
330
1F
100
AcDbEntity
  8
0
  6
Continuous
 62
     7
370
    25
100
AcDbCircle
 10
165.661985782
 20
954.4783767886
 30
0.0
 40
6.000000000000063
100
AcDbArc
 50
64.8410691931
 51
115.1135176235
  0
LINE
  5
251
330
1F
100
AcDbEntity
  8
0
  6
Continuous
 62
     7
370
    25
100
AcDbLine
 10
169.6801476749
 20
664.0956951351
 30
0.0
 11
169.6801476749
 21
663.1187750073
 31
0.0
  0
LINE
  5
252
330
1F
100
AcDbEntity
  8
0
  6
Continuous
 62
     7
370
    25
100
AcDbLine
 10
169.6801476749
 20
663.1187750073
 30
0.0
 11
165.8945672782
 21
663.1187750073
 31
0.0
  0
LINE
  5
253
330
1F
100
AcDbEntity
  8
0
  6
Continuous
 62
     7
370
    25
100
AcDbLine
 10
165.8945672782
 20
664.0956951351
 30
0.0
 11
169.6801476749
 21
664.0956951351
 31
0.0
  0
LINE
  5
254
330
1F
100
AcDbEntity
  8
0
  6
Continuous
 62
     7
370
    25
100
AcDbLine
 10
165.8945672782
 20
663.1187750073
 30
0.0
 11
165.8945672782
 21
661.4479376049
 31
0.0
  0
LINE
  5
255
330
1F
100
AcDbEntity
  8
0
  6
Continuous
 62
     7
370
    25
100
AcDbLine
 10
180.801770893
 20
668.9658416481
 30
0.0
 11
180.801770893
 21
662.0383514138
 31
0.0
  0
LINE
  5
256
330
1F
100
AcDbEntity
  8
0
  6
Continuous
 62
     7
370
    25
100
AcDbLine
 10
148.8865458044
 20
658.4783745976
 30
0.0
 11
151.6619839343
 21
661.2538052769
 31
0.0
  0
LINE
  5
257
330
1F
100
AcDbEntity
  8
0
  6
Continuous
 62
     7
370
    25
100
AcDbLine
 10
148.1691890033
 20
659.1957164975
 30
0.0
 11
148.8865458044
 21
658.4783745976
 31
0.0
  0
LINE
  5
258
330
1F
100
AcDbEntity
  8
0
  6
Continuous
 62
     7
370
    25
100
AcDbLine
 10
151.6619839343
 20
662.0383514138
 30
0.0
 11
150.5222015651
 21
662.0383514138
 31
0.0
  0
LINE
  5
259
330
1F
100
AcDbEntity
  8
0
  6
Continuous
 62
     7
370
    25
100
AcDbLine
 10
150.5222015651
 20
662.0383514138
 30
0.0
 11
150.5222015651
 21
668.9658416481
 31
0.0
  0
LINE
  5
25A
330
1F
100
AcDbEntity
  8
0
  6
Continuous
 62
     7
370
    25
100
AcDbLine
 10
150.5222015651
 20
668.9658416481
 30
0.0
 11
148.1691890033
 21
668.9658416481
 31
0.0
  0
LINE
  5
25B
330
1F
100
AcDbEntity
  8
0
  6
Continuous
 62
     7
370
    25
100
AcDbLine
 10
204.9957953962
 20
972.1445394726
 30
0.0
 11
203.1691887053
 21
973.9711834164
 31
0.0
  0
LINE
  5
25C
330
1F
100
AcDbEntity
  8
0
  6
Continuous
 62
     7
370
    25
100
AcDbLine
 10
207.0110507878
 20
974.1598321171
 30
0.0
 11
220.6984453472
 21
960.4724003048
 31
0.0
  0
LWPOLYLINE
  5
25D
330
1F
100
AcDbEntity
  8
0
  6
Continuous
 62
     7
370
    25
100
AcDbPolyline
 90
        9
 70
   128
 43
0.0
 10
205.561480728
 20
972.7102471562
 10
205.8442786904
 20
972.9930711956
 10
206.1162062558
 20
973.2649875851
 10
206.36681771
 20
973.5155655117
 10
206.5864794525
 20
973.7352682324
 10
206.7667537006
 20
973.9155126782
 10
206.9007076891
 20
974.0495039196
 10
206.9831967922
 20
974.131996748
 10
207.0110507878
 20
974.1598321171
  0
LINE
  5
25E
330
1F
100
AcDbEntity
  8
0
  6
Continuous
 62
     7
370
    25
100
AcDbLine
 10
334.6801467808
 20
664.0956951351
 30
0.0
 11
334.6801467808
 21
663.1187750073
 31
0.0
  0
LINE
  5
25F
330
1F
100
AcDbEntity
  8
0
  6
Continuous
 62
     7
370
    25
100
AcDbLine
 10
334.6801467808
 20
668.0033756466
 30
0.0
 11
334.6801467808
 21
667.0264555188
 31
0.0
  0
LINE
  5
260
330
1F
100
AcDbEntity
  8
0
  6
Continuous
 62
     7
370
    25
100
AcDbLine
 10
313.8865449103
 20
658.4783745976
 30
0.0
 11
316.6619830402
 21
661.2538052769
 31
0.0
  0
LINE
  5
261
330
1F
100
AcDbEntity
  8
0
  6
Continuous
 62
     7
370
    25
100
AcDbLine
 10
344.6619876297
 20
661.2538052769
 30
0.0
 11
347.4374257596
 21
658.4783745976
 31
0.0
  0
LINE
  5
262
330
1F
100
AcDbEntity
  8
0
  6
Continuous
 62
     7
370
    25
100
AcDbLine
 10
347.4374257596
 20
658.4783745976
 30
0.0
 11
348.1691919836
 21
659.2101408215
 31
0.0
  0
LINE
  5
263
330
1F
100
AcDbEntity
  8
0
  6
Continuous
 62
     7
370
    25
100
AcDbLine
 10
345.8017699989
 20
668.9658416481
 30
0.0
 11
345.8017699989
 21
662.0383514138
 31
0.0
  0
LINE
  5
264
330
1F
100
AcDbEntity
  8
0
  6
Continuous
 62
     7
370
    25
100
AcDbLine
 10
345.8017699989
 20
662.0383514138
 30
0.0
 11
344.6619876297
 21
662.0383514138
 31
0.0
  0
LINE
  5
265
330
1F
100
AcDbEntity
  8
0
  6
Continuous
 62
     7
370
    25
100
AcDbLine
 10
348.1691919836
 20
668.9658416481
 30
0.0
 11
345.8017699989
 21
668.9658416481
 31
0.0
  0
ARC
  5
266
330
1F
100
AcDbEntity
  8
0
  6
Continuous
 62
     7
370
    25
100
AcDbCircle
 10
308.861985782
 20
680.4783767886
 30
0.0
 40
6.000000000000031
100
AcDbArc
 50
315.8786917625
 51
346.050755936
  0
LINE
  5
267
330
1F
100
AcDbEntity
  8
0
  6
Continuous
 62
     7
370
    25
100
AcDbLine
 10
334.6801467808
 20
667.0264555188
 30
0.0
 11
330.8945738348
 21
667.0264555188
 31
0.0
  0
ARC
  5
268
330
1F
100
AcDbEntity
  8
0
  6
Continuous
 62
     7
370
    25
100
AcDbCircle
 10
330.661985782
 20
954.4783767886
 30
0.0
 40
6.000000000000015
100
AcDbArc
 50
64.8410691921
 51
115.1135176242
  0
LINE
  5
269
330
1F
100
AcDbEntity
  8
0
  6
Continuous
 62
     7
370
    25
100
AcDbLine
 10
330.8945738348
 20
663.1187750073
 30
0.0
 11
330.8945738348
 21
661.4479376049
 31
0.0
  0
ARC
  5
26A
330
1F
100
AcDbEntity
  8
0
  6
Continuous
 62
     7
370
    25
100
AcDbCircle
 10
352.461985782
 20
680.4783767886
 30
0.0
 40
5.999999999999976
100
AcDbArc
 50
193.949244064
 51
224.3186060805
  0
LINE
  5
26B
330
1F
100
AcDbEntity
  8
0
  6
Continuous
 62
     7
370
    25
100
AcDbLine
 10
330.0397612723
 20
661.4466561051
 30
0.0
 11
330.0397612723
 21
668.0033756466
 31
0.0
  0
LINE
  5
26C
330
1F
100
AcDbEntity
  8
0
  6
Continuous
 62
     7
370
    25
100
AcDbLine
 10
330.8945738348
 20
664.0956951351
 30
0.0
 11
334.6801467808
 21
664.0956951351
 31
0.0
  0
ARC
  5
26D
330
1F
100
AcDbEntity
  8
0
  6
Continuous
 62
     7
370
    25
100
AcDbCircle
 10
330.661985782
 20
680.4783767886
 30
0.0
 40
5.999999999999976
100
AcDbArc
 50
193.949244064
 51
346.050755936
  0
LINE
  5
26E
330
1F
100
AcDbEntity
  8
0
  6
Continuous
 62
     7
370
    25
100
AcDbLine
 10
334.6801467808
 20
663.1187750073
 30
0.0
 11
330.8945738348
 21
663.1187750073
 31
0.0
  0
LINE
  5
26F
330
1F
100
AcDbEntity
  8
0
  6
Continuous
 62
     7
370
    25
100
AcDbLine
 10
330.0397612723
 20
668.0033756466
 30
0.0
 11
334.6801467808
 21
668.0033756466
 31
0.0
  0
LINE
  5
270
330
1F
100
AcDbEntity
  8
0
  6
Continuous
 62
     7
370
    25
100
AcDbLine
 10
313.1691881093
 20
659.1957164975
 30
0.0
 11
313.8865449103
 21
658.4783745976
 31
0.0
  0
LINE
  5
271
330
1F
100
AcDbEntity
  8
0
  6
Continuous
 62
     7
370
    25
100
AcDbLine
 10
315.5222006711
 20
668.9658416481
 30
0.0
 11
313.1691881093
 21
668.9658416481
 31
0.0
  0
LINE
  5
272
330
1F
100
AcDbEntity
  8
0
  6
Continuous
 62
     7
370
    25
100
AcDbLine
 10
330.8945738348
 20
667.0264555188
 30
0.0
 11
330.8945738348
 21
664.0956951351
 31
0.0
  0
LINE
  5
273
330
1F
100
AcDbEntity
  8
0
  6
Continuous
 62
     7
370
    25
100
AcDbLine
 10
315.5222006711
 20
662.0383514138
 30
0.0
 11
315.5222006711
 21
668.9658416481
 31
0.0
  0
LINE
  5
274
330
1F
100
AcDbEntity
  8
0
  6
Continuous
 62
     7
370
    25
100
AcDbLine
 10
316.6619830402
 20
662.0383514138
 30
0.0
 11
315.5222006711
 21
662.0383514138
 31
0.0
  0
LINE
  5
275
330
1F
100
AcDbEntity
  8
0
  6
Continuous
 62
     7
370
    25
100
AcDbLine
 10
343.6691903146
 20
983.5283709736
 30
0.0
 11
317.6691897782
 21
983.5283709736
 31
0.0
  0
SPLINE
  5
276
330
1F
100
AcDbEntity
  8
0
  6
Continuous
 62
     7
370
    25
100
AcDbSpline
210
0.0
220
0.0
230
1.0
 70
     8
 71
     3
 72
     9
 73
     5
 74
     0
 42
0.000000001
 43
0.00000001
 40
0.0
 40
0.0
 40
0.0
 40
0.0
 40
0.6039606543461858
 40
1.0
 40
1.0
 40
1.0
 40
1.0
 10
346.858210173464
 20
281.989919957669
 30
0.0
 10
346.6821033244733
 20
282.195699242049
 30
0.0
 10
346.3905166992133
 20
282.5364156163679
 30
0.0
 10
345.9752532977691
 20
282.8529954959463
 30
0.0
 10
345.8107926519872
 20
282.9783735843017
 30
0.0
  0
SPLINE
  5
277
330
1F
100
AcDbEntity
  8
0
  6
Continuous
 62
     7
370
    25
100
AcDbSpline
210
0.0
220
0.0
230
1.0
 70
     8
 71
     3
 72
     9
 73
     5
 74
     0
 42
0.000000001
 43
0.00000001
 40
0.0
 40
0.0
 40
0.0
 40
0.0
 40
0.5609509507360847
 40
1.0
 40
1.0
 40
1.0
 40
1.0
 10
315.5284889610769
 20
282.9783735843017
 30
0.0
 10
315.2840308050046
 20
282.7935002908856
 30
0.0
 10
314.8482384139738
 20
282.4639290633594
 30
0.0
 10
314.5602627496622
 20
282.1067926840454
 30
0.0
 10
314.4338273080351
 20
281.9499922962501
 30
0.0
  0
LWPOLYLINE
  5
278
330
1F
100
AcDbEntity
  8
0
  6
Continuous
 62
     7
370
    25
100
AcDbPolyline
 90
        9
 70
   128
 43
0.0
 10
319.9609362157
 20
273.4742565127
 10
320.0189389857
 20
273.5974965663
 10
320.1841183575
 20
273.7019686075
 10
320.4313286217
 20
273.7717805477
 10
320.7229368957
 20
273.7962929578
 10
321.0145377191
 20
273.7717805477
 10
321.2617479833
 20
273.7019686075
 10
321.4269273551
 20
273.5974965663
 10
321.4849301251
 20
273.4742565127
  0
LWPOLYLINE
  5
279
330
1F
100
AcDbEntity
  8
0
  6
Continuous
 62
     7
370
    25
100
AcDbPolyline
 90
        9
 70
   128
 43
0.0
 10
322.1707337173
 20
273.4742565127
 10
322.2287364872
 20
273.5974965663
 10
322.3939158591
 20
273.7019686075
 10
322.6411261233
 20
273.7717805477
 10
322.9327343973
 20
273.7962929578
 10
323.2243352207
 20
273.7717805477
 10
323.4715454849
 20
273.7019686075
 10
323.6367323073
 20
273.5974965663
 10
323.6947350772
 20
273.4742565127
  0
LWPOLYLINE
  5
27A
330
1F
100
AcDbEntity
  8
0
  6
Continuous
 62
     7
370
    25
100
AcDbPolyline
 90
        9
 70
   128
 43
0.0
 10
321.0607834729
 20
272.6691691251
 10
321.1187862428
 20
272.7924091788
 10
321.2839730652
 20
272.8968812199
 10
321.5311833294
 20
272.9666931601
 10
321.8227841528
 20
272.9912055703
 10
322.1143924268
 20
272.9666931601
 10
322.361602691
 20
272.8968812199
 10
322.5267820629
 20
272.7924091788
 10
322.5847848328
 20
272.6691691251
  0
LWPOLYLINE
  5
27B
330
1F
100
AcDbEntity
  8
0
  6
Continuous
 62
     7
370
    25
100
AcDbPolyline
 90
       10
 70
   128
 43
0.0
 10
322.0534168752
 20
271.7782063456
 10
322.1114196452
 20
271.9014389487
 10
322.276599017
 20
272.0059184404
 10
322.5238092812
 20
272.07572293
 10
322.8154175552
 20
272.1002427907
 10
323.1070183786
 20
272.07572293
 10
323.3542286428
 20
272.0059184404
 10
323.5194154652
 20
271.9014389487
 10
323.5774182352
 20
271.7782063456
 10
323.5774182352
 20
271.7782063456
  0
LWPOLYLINE
  5
27C
330
1F
100
AcDbEntity
  8
0
  6
Continuous
 62
     7
370
    25
100
AcDbPolyline
 90
        9
 70
   128
 43
0.0
 10
323.270588425
 20
272.6691691251
 10
323.328591195
 20
272.7924091788
 10
323.4937705668
 20
272.8968812199
 10
323.740980831
 20
272.9666931601
 10
324.032589105
 20
272.9912055703
 10
324.3241899284
 20
272.9666931601
 10
324.5714001926
 20
272.8968812199
 10
324.7365795644
 20
272.7924091788
 10
324.7945823344
 20
272.6691691251
  0
LWPOLYLINE
  5
27D
330
1F
100
AcDbEntity
  8
0
  6
Continuous
 62
     7
370
    25
100
AcDbPolyline
 90
        9
 70
   128
 43
0.0
 10
324.2632143768
 20
271.7782063456
 10
324.3212171467
 20
271.9014389487
 10
324.4864039691
 20
272.0059184404
 10
324.7336142334
 20
272.07572293
 10
325.0252150568
 20
272.1002427907
 10
325.3168233307
 20
272.07572293
 10
325.5640335949
 20
272.0059184404
 10
325.7292129668
 20
271.9014389487
 10
325.7872157367
 20
271.7782063456
  0
LWPOLYLINE
  5
27E
330
1F
100
AcDbEntity
  8
0
  6
Continuous
 62
     7
370
    25
100
AcDbPolyline
 90
        9
 70
   128
 43
0.0
 10
326.4730193289
 20
271.7782063456
 10
326.5310220989
 20
271.9014389487
 10
326.6962014707
 20
272.0059184404
 10
326.9434117349
 20
272.07572293
 10
327.2350125583
 20
272.1002427907
 10
327.5266208323
 20
272.07572293
 10
327.7738310965
 20
272.0059184404
 10
327.9390104683
 20
271.9014389487
 10
327.9970132383
 20
271.7782063456
  0
LWPOLYLINE
  5
27F
330
1F
100
AcDbEntity
  8
0
  6
Continuous
 62
     7
370
    25
100
AcDbPolyline
 90
       10
 70
   128
 43
0.0
 10
328.6828168305
 20
271.7782063456
 10
328.7408196004
 20
271.9014389487
 10
328.9059989723
 20
272.0059184404
 10
329.1532092365
 20
272.07572293
 10
329.4448175105
 20
272.1002427907
 10
329.7364183339
 20
272.07572293
 10
329.9836285981
 20
272.0059184404
 10
330.1488154205
 20
271.9014389487
 10
330.2068181904
 20
271.7782063456
 10
330.2068181904
 20
271.7782063456
  0
LWPOLYLINE
  5
280
330
1F
100
AcDbEntity
  8
0
  6
Continuous
 62
     7
370
    25
100
AcDbPolyline
 90
        9
 70
   128
 43
0.0
 10
331.1171524795
 20
271.7782063456
 10
331.1751627
 20
271.9014389487
 10
331.3403420719
 20
272.0059184404
 10
331.5875523361
 20
272.07572293
 10
331.8791531595
 20
272.1002427907
 10
332.1707614335
 20
272.07572293
 10
332.4179716977
 20
272.0059184404
 10
332.5831510695
 20
271.9014389487
 10
332.6411538394
 20
271.7782063456
  0
LWPOLYLINE
  5
281
330
1F
100
AcDbEntity
  8
0
  6
Continuous
 62
     7
370
    25
100
AcDbPolyline
 90
        9
 70
   128
 43
0.0
 10
333.3269574317
 20
271.7782063456
 10
333.3849602016
 20
271.9014389487
 10
333.5501395734
 20
272.0059184404
 10
333.7973498376
 20
272.07572293
 10
334.0889581116
 20
272.1002427907
 10
334.380558935
 20
272.07572293
 10
334.6277691992
 20
272.0059184404
 10
334.7929485711
 20
271.9014389487
 10
334.8509587916
 20
271.7782063456
  0
LWPOLYLINE
  5
282
330
1F
100
AcDbEntity
  8
0
  6
Continuous
 62
     7
370
    25
100
AcDbPolyline
 90
        9
 70
   128
 43
0.0
 10
335.5367549332
 20
271.7782063456
 10
335.5947577032
 20
271.9014389487
 10
335.759937075
 20
272.0059184404
 10
336.0071473392
 20
272.07572293
 10
336.2987556132
 20
272.1002427907
 10
336.5903638872
 20
272.07572293
 10
336.8375741514
 20
272.0059184404
 10
337.0027535232
 20
271.9014389487
 10
337.0607562932
 20
271.7782063456
  0
LWPOLYLINE
  5
283
330
1F
100
AcDbEntity
  8
0
  6
Continuous
 62
     7
370
    25
100
AcDbPolyline
 90
        9
 70
   128
 43
0.0
 10
337.7465524348
 20
271.7782063456
 10
337.8045626553
 20
271.9014389487
 10
337.9697420271
 20
272.0059184404
 10
338.2169522913
 20
272.07572293
 10
338.5085531147
 20
272.1002427907
 10
338.8001613887
 20
272.07572293
 10
339.0473716529
 20
272.0059184404
 10
339.2125510248
 20
271.9014389487
 10
339.2705537947
 20
271.7782063456
  0
LWPOLYLINE
  5
284
330
1F
100
AcDbEntity
  8
0
  6
Continuous
 62
     7
370
    25
100
AcDbPolyline
 90
        9
 70
   128
 43
0.0
 10
336.5293883356
 20
272.6691691251
 10
336.5873911055
 20
272.7924091788
 10
336.7525704773
 20
272.8968812199
 10
336.9997807415
 20
272.9666931601
 10
337.2913890155
 20
272.9912055703
 10
337.5829898389
 20
272.9666931601
 10
337.8302001031
 20
272.8968812199
 10
337.995379475
 20
272.7924091788
 10
338.0533822449
 20
272.6691691251
  0
LWPOLYLINE
  5
285
330
1F
100
AcDbEntity
  8
0
  6
Continuous
 62
     7
370
    25
100
AcDbPolyline
 90
        9
 70
   128
 43
0.0
 10
338.7391858371
 20
272.6691691251
 10
338.7971886071
 20
272.7924091788
 10
338.9623679789
 20
272.8968812199
 10
339.2095782431
 20
272.9666931601
 10
339.5011865171
 20
272.9912055703
 10
339.7927873405
 20
272.9666931601
 10
340.0399976047
 20
272.8968812199
 10
340.2051844271
 20
272.7924091788
 10
340.2631871971
 20
272.6691691251
  0
LWPOLYLINE
  5
286
330
1F
100
AcDbEntity
  8
0
  6
Continuous
 62
     7
370
    25
100
AcDbPolyline
 90
        9
 70
   128
 43
0.0
 10
339.8390405448
 20
273.4742565127
 10
339.8970433148
 20
273.5974965663
 10
340.0622226866
 20
273.7019686075
 10
340.3094329508
 20
273.7717805477
 10
340.6010412248
 20
273.7962929578
 10
340.8926420482
 20
273.7717805477
 10
341.1398523124
 20
273.7019686075
 10
341.3050316843
 20
273.5974965663
 10
341.3630344542
 20
273.4742565127
  0
LWPOLYLINE
  5
287
330
1F
100
AcDbEntity
  8
0
  6
Continuous
 62
     7
370
    25
100
AcDbPolyline
 90
        9
 70
   128
 43
0.0
 10
337.6292355927
 20
273.4742565127
 10
337.6872383626
 20
273.5974965663
 10
337.8524251851
 20
273.7019686075
 10
338.0996354493
 20
273.7717805477
 10
338.3912362727
 20
273.7962929578
 10
338.6828445467
 20
273.7717805477
 10
338.9300548109
 20
273.7019686075
 10
339.0952341827
 20
273.5974965663
 10
339.1532369526
 20
273.4742565127
  0
LWPOLYLINE
  5
288
330
1F
100
AcDbEntity
  8
0
  6
Continuous
 62
     7
370
    25
100
AcDbPolyline
 90
        9
 70
   128
 43
0.0
 10
335.4194380911
 20
273.4742565127
 10
335.4774408611
 20
273.5974965663
 10
335.6426202329
 20
273.7019686075
 10
335.8898304971
 20
273.7717805477
 10
336.1814387711
 20
273.7962929578
 10
336.4730395945
 20
273.7717805477
 10
336.7202498587
 20
273.7019686075
 10
336.8854366811
 20
273.5974965663
 10
336.9434394511
 20
273.4742565127
  0
LWPOLYLINE
  5
289
330
1F
100
AcDbEntity
  8
0
  6
Continuous
 62
     7
370
    25
100
AcDbPolyline
 90
        9
 70
   128
 43
0.0
 10
333.2096405896
 20
273.4742565127
 10
333.2676433595
 20
273.5974965663
 10
333.4328227314
 20
273.7019686075
 10
333.6800329956
 20
273.7717805477
 10
333.9716412695
 20
273.7962929578
 10
334.2632420929
 20
273.7717805477
 10
334.5104523571
 20
273.7019686075
 10
334.675631729
 20
273.5974965663
 10
334.7336344989
 20
273.4742565127
  0
LWPOLYLINE
  5
28A
330
1F
100
AcDbEntity
  8
0
  6
Continuous
 62
     7
370
    25
100
AcDbPolyline
 90
        9
 70
   128
 43
0.0
 10
330.9998356374
 20
273.4742565127
 10
331.0578384074
 20
273.5974965663
 10
331.2230252298
 20
273.7019686075
 10
331.470235494
 20
273.7717805477
 10
331.7618363174
 20
273.7962929578
 10
332.0534445914
 20
273.7717805477
 10
332.3006548556
 20
273.7019686075
 10
332.4658342274
 20
273.5974965663
 10
332.5238369974
 20
273.4742565127
  0
LWPOLYLINE
  5
28B
330
1F
100
AcDbEntity
  8
0
  6
Continuous
 62
     7
370
    25
100
AcDbPolyline
 90
        9
 70
   128
 43
0.0
 10
328.8001336726
 20
273.4742565127
 10
328.8581364425
 20
273.5974965663
 10
329.0233158144
 20
273.7019686075
 10
329.2705260786
 20
273.7717805477
 10
329.5621343525
 20
273.7962929578
 10
329.8537351759
 20
273.7717805477
 10
330.1009454401
 20
273.7019686075
 10
330.2661322626
 20
273.5974965663
 10
330.3241350325
 20
273.4742565127
  0
LWPOLYLINE
  5
28C
330
1F
100
AcDbEntity
  8
0
  6
Continuous
 62
     7
370
    25
100
AcDbPolyline
 90
        9
 70
   128
 43
0.0
 10
326.590336171
 20
273.4742565127
 10
326.648338941
 20
273.5974965663
 10
326.8135183128
 20
273.7019686075
 10
327.060728577
 20
273.7717805477
 10
327.352336851
 20
273.7962929578
 10
327.6439376744
 20
273.7717805477
 10
327.8911479386
 20
273.7019686075
 10
328.0563273104
 20
273.5974965663
 10
328.1143300804
 20
273.4742565127
  0
LWPOLYLINE
  5
28D
330
1F
100
AcDbEntity
  8
0
  6
Continuous
 62
     7
370
    25
100
AcDbPolyline
 90
        9
 70
   128
 43
0.0
 10
324.3805312189
 20
273.4742565127
 10
324.4385339888
 20
273.5974965663
 10
324.6037208112
 20
273.7019686075
 10
324.8509310754
 20
273.7717805477
 10
325.1425318988
 20
273.7962929578
 10
325.4341401728
 20
273.7717805477
 10
325.681350437
 20
273.7019686075
 10
325.8465298089
 20
273.5974965663
 10
325.9045325788
 20
273.4742565127
  0
LWPOLYLINE
  5
28E
330
1F
100
AcDbEntity
  8
0
  6
Continuous
 62
     7
370
    25
100
AcDbPolyline
 90
        9
 70
   128
 43
0.0
 10
325.4803859266
 20
272.6691691251
 10
325.5383886965
 20
272.7924091788
 10
325.7035680684
 20
272.8968812199
 10
325.9507783326
 20
272.9666931601
 10
326.2423866066
 20
272.9912055703
 10
326.53398743
 20
272.9666931601
 10
326.7811976942
 20
272.8968812199
 10
326.9463845166
 20
272.7924091788
 10
327.0043872865
 20
272.6691691251
  0
LWPOLYLINE
  5
28F
330
1F
100
AcDbEntity
  8
0
  6
Continuous
 62
     7
370
    25
100
AcDbPolyline
 90
        9
 70
   128
 43
0.0
 10
327.6901834281
 20
272.6691691251
 10
327.7481861981
 20
272.7924091788
 10
327.9133730205
 20
272.8968812199
 10
328.1605832847
 20
272.9666931601
 10
328.4521841081
 20
272.9912055703
 10
328.7437923821
 20
272.9666931601
 10
328.9910026463
 20
272.8968812199
 10
329.1561820181
 20
272.7924091788
 10
329.2141847881
 20
272.6691691251
  0
LWPOLYLINE
  5
290
330
1F
100
AcDbEntity
  8
0
  6
Continuous
 62
     7
370
    25
100
AcDbPolyline
 90
        9
 70
   128
 43
0.0
 10
329.8999883803
 20
272.6691691251
 10
329.9579911502
 20
272.7924091788
 10
330.1231705221
 20
272.8968812199
 10
330.3703807863
 20
272.9666931601
 10
330.6619890603
 20
272.9912055703
 10
330.9535898837
 20
272.9666931601
 10
331.2008001479
 20
272.8968812199
 10
331.3659795197
 20
272.7924091788
 10
331.4239822896
 20
272.6691691251
  0
LWPOLYLINE
  5
291
330
1F
100
AcDbEntity
  8
0
  6
Continuous
 62
     7
370
    25
100
AcDbPolyline
 90
        9
 70
   128
 43
0.0
 10
332.1097858819
 20
272.6691691251
 10
332.1677886518
 20
272.7924091788
 10
332.3329680236
 20
272.8968812199
 10
332.5801782878
 20
272.9666931601
 10
332.8717865618
 20
272.9912055703
 10
333.1633873852
 20
272.9666931601
 10
333.4105976494
 20
272.8968812199
 10
333.5757844718
 20
272.7924091788
 10
333.6337872418
 20
272.6691691251
  0
LWPOLYLINE
  5
292
330
1F
100
AcDbEntity
  8
0
  6
Continuous
 62
     7
370
    25
100
AcDbPolyline
 90
        9
 70
   128
 43
0.0
 10
334.3195833834
 20
272.6691691251
 10
334.3775861534
 20
272.7924091788
 10
334.5427729758
 20
272.8968812199
 10
334.78998324
 20
272.9666931601
 10
335.0815840634
 20
272.9912055703
 10
335.3731923374
 20
272.9666931601
 10
335.6204026016
 20
272.8968812199
 10
335.7855819734
 20
272.7924091788
 10
335.8435847434
 20
272.6691691251
  0
LWPOLYLINE
  5
293
330
1F
100
AcDbEntity
  8
0
  6
Continuous
 62
     7
370
    25
100
AcDbPolyline
 90
        8
 70
   128
 43
0.0
 10
345.9499322446
 20
276.1006383272
 10
347.0864214571
 20
277.0963637204
 10
347.8622653159
 20
278.1521333428
 10
348.260424343
 20
279.2447609873
 10
348.2721515568
 20
280.3502632351
 10
347.8972010883
 20
281.444358644
 10
347.1437983783
 20
282.5030265422
 10
346.6670357259
 20
282.9783735843
  0
ARC
  5
294
330
1F
100
AcDbEntity
  8
0
  6
Continuous
 62
     7
370
    25
100
AcDbCircle
 10
316.983300857
 20
279.8551070453
 30
0.0
 40
3.894454035499688
100
AcDbArc
 50
126.6805932691
 51
225.9299695707
  0
ARC
  5
295
330
1F
100
AcDbEntity
  8
0
  6
Continuous
 62
     7
370
    25
100
AcDbCircle
 10
344.7399102836
 20
281.1507120925
 30
0.0
 40
3.575601571918698
100
AcDbArc
 50
0.9836417564
 51
30.7403258655
  0
ARC
  5
296
330
1F
100
AcDbEntity
  8
0
  6
Continuous
 62
     7
370
    25
100
AcDbCircle
 10
316.5840603864
 20
281.1507120925
 30
0.0
 40
3.575601571918585
100
AcDbArc
 50
149.2596741345
 51
179.0163582436
  0
LWPOLYLINE
  5
297
330
1F
100
AcDbEntity
  8
0
  6
Continuous
 62
     7
370
    25
100
AcDbPolyline
 90
       17
 70
   128
 43
0.0
 10
319.9609362157
 20
273.244055924
 10
320.0189389857
 20
273.367288527
 10
320.1841183575
 20
273.4717680188
 10
320.4313286217
 20
273.5415725084
 10
320.7229368957
 20
273.5660923691
 10
321.0145377191
 20
273.5415725084
 10
321.2617479833
 20
273.4717680188
 10
321.4269273551
 20
273.367288527
 10
321.4849301251
 20
273.244055924
 10
321.4269273551
 20
273.1208158703
 10
321.2617479833
 20
273.0163438292
 10
321.0145377191
 20
272.946531889
 10
320.7229368957
 20
272.9220194788
 10
320.4313286217
 20
272.946531889
 10
320.1841183575
 20
273.0163438292
 10
320.0189389857
 20
273.1208158703
 10
319.9609362157
 20
273.244055924
  0
LWPOLYLINE
  5
298
330
1F
100
AcDbEntity
  8
0
  6
Continuous
 62
     7
370
    25
100
AcDbPolyline
 90
       17
 70
   128
 43
0.0
 10
322.1707337173
 20
273.244055924
 10
322.2287364872
 20
273.367288527
 10
322.3939158591
 20
273.4717680188
 10
322.6411261233
 20
273.5415725084
 10
322.9327343973
 20
273.5660923691
 10
323.2243352207
 20
273.5415725084
 10
323.4715454849
 20
273.4717680188
 10
323.6367323073
 20
273.367288527
 10
323.6947350772
 20
273.244055924
 10
323.6367323073
 20
273.1208158703
 10
323.4715454849
 20
273.0163438292
 10
323.2243352207
 20
272.946531889
 10
322.9327343973
 20
272.9220194788
 10
322.6411261233
 20
272.946531889
 10
322.3939158591
 20
273.0163438292
 10
322.2287364872
 20
273.1208158703
 10
322.1707337173
 20
273.244055924
  0
LWPOLYLINE
  5
299
330
1F
100
AcDbEntity
  8
0
  6
Continuous
 62
     7
370
    25
100
AcDbPolyline
 90
       17
 70
   128
 43
0.0
 10
324.3805312189
 20
273.244055924
 10
324.4385339888
 20
273.367288527
 10
324.6037208112
 20
273.4717680188
 10
324.8509310754
 20
273.5415725084
 10
325.1425318988
 20
273.5660923691
 10
325.4341401728
 20
273.5415725084
 10
325.681350437
 20
273.4717680188
 10
325.8465298089
 20
273.367288527
 10
325.9045325788
 20
273.244055924
 10
325.8465298089
 20
273.1208158703
 10
325.681350437
 20
273.0163438292
 10
325.4341401728
 20
272.946531889
 10
325.1425318988
 20
272.9220194788
 10
324.8509310754
 20
272.946531889
 10
324.6037208112
 20
273.0163438292
 10
324.4385339888
 20
273.1208158703
 10
324.3805312189
 20
273.244055924
  0
LWPOLYLINE
  5
29A
330
1F
100
AcDbEntity
  8
0
  6
Continuous
 62
     7
370
    25
100
AcDbPolyline
 90
       17
 70
   128
 43
0.0
 10
326.590336171
 20
273.244055924
 10
326.648338941
 20
273.367288527
 10
326.8135183128
 20
273.4717680188
 10
327.060728577
 20
273.5415725084
 10
327.352336851
 20
273.5660923691
 10
327.6439376744
 20
273.5415725084
 10
327.8911479386
 20
273.4717680188
 10
328.0563273104
 20
273.367288527
 10
328.1143300804
 20
273.244055924
 10
328.0563273104
 20
273.1208158703
 10
327.8911479386
 20
273.0163438292
 10
327.6439376744
 20
272.946531889
 10
327.352336851
 20
272.9220194788
 10
327.060728577
 20
272.946531889
 10
326.8135183128
 20
273.0163438292
 10
326.648338941
 20
273.1208158703
 10
326.590336171
 20
273.244055924
  0
LWPOLYLINE
  5
29B
330
1F
100
AcDbEntity
  8
0
  6
Continuous
 62
     7
370
    25
100
AcDbPolyline
 90
       17
 70
   128
 43
0.0
 10
328.8001336726
 20
273.244055924
 10
328.8581364425
 20
273.367288527
 10
329.0233158144
 20
273.4717680188
 10
329.2705260786
 20
273.5415725084
 10
329.5621343525
 20
273.5660923691
 10
329.8537351759
 20
273.5415725084
 10
330.1009454401
 20
273.4717680188
 10
330.2661322626
 20
273.367288527
 10
330.3241350325
 20
273.244055924
 10
330.2661322626
 20
273.1208158703
 10
330.1009454401
 20
273.0163438292
 10
329.8537351759
 20
272.946531889
 10
329.5621343525
 20
272.9220194788
 10
329.2705260786
 20
272.946531889
 10
329.0233158144
 20
273.0163438292
 10
328.8581364425
 20
273.1208158703
 10
328.8001336726
 20
273.244055924
  0
LWPOLYLINE
  5
29C
330
1F
100
AcDbEntity
  8
0
  6
Continuous
 62
     7
370
    25
100
AcDbPolyline
 90
       17
 70
   128
 43
0.0
 10
330.9998356374
 20
273.244055924
 10
331.0578384074
 20
273.367288527
 10
331.2230252298
 20
273.4717680188
 10
331.470235494
 20
273.5415725084
 10
331.7618363174
 20
273.5660923691
 10
332.0534445914
 20
273.5415725084
 10
332.3006548556
 20
273.4717680188
 10
332.4658342274
 20
273.367288527
 10
332.5238369974
 20
273.244055924
 10
332.4658342274
 20
273.1208158703
 10
332.3006548556
 20
273.0163438292
 10
332.0534445914
 20
272.946531889
 10
331.7618363174
 20
272.9220194788
 10
331.470235494
 20
272.946531889
 10
331.2230252298
 20
273.0163438292
 10
331.0578384074
 20
273.1208158703
 10
330.9998356374
 20
273.244055924
  0
LWPOLYLINE
  5
29D
330
1F
100
AcDbEntity
  8
0
  6
Continuous
 62
     7
370
    25
100
AcDbPolyline
 90
       17
 70
   128
 43
0.0
 10
333.2096405896
 20
273.244055924
 10
333.2676433595
 20
273.367288527
 10
333.4328227314
 20
273.4717680188
 10
333.6800329956
 20
273.5415725084
 10
333.9716412695
 20
273.5660923691
 10
334.2632420929
 20
273.5415725084
 10
334.5104523571
 20
273.4717680188
 10
334.675631729
 20
273.367288527
 10
334.7336344989
 20
273.244055924
 10
334.675631729
 20
273.1208158703
 10
334.5104523571
 20
273.0163438292
 10
334.2632420929
 20
272.946531889
 10
333.9716412695
 20
272.9220194788
 10
333.6800329956
 20
272.946531889
 10
333.4328227314
 20
273.0163438292
 10
333.2676433595
 20
273.1208158703
 10
333.2096405896
 20
273.244055924
  0
LWPOLYLINE
  5
29E
330
1F
100
AcDbEntity
  8
0
  6
Continuous
 62
     7
370
    25
100
AcDbPolyline
 90
       17
 70
   128
 43
0.0
 10
335.4194380911
 20
273.244055924
 10
335.4774408611
 20
273.367288527
 10
335.6426202329
 20
273.4717680188
 10
335.8898304971
 20
273.5415725084
 10
336.1814387711
 20
273.5660923691
 10
336.4730395945
 20
273.5415725084
 10
336.7202498587
 20
273.4717680188
 10
336.8854366811
 20
273.367288527
 10
336.9434394511
 20
273.244055924
 10
336.8854366811
 20
273.1208158703
 10
336.7202498587
 20
273.0163438292
 10
336.4730395945
 20
272.946531889
 10
336.1814387711
 20
272.9220194788
 10
335.8898304971
 20
272.946531889
 10
335.6426202329
 20
273.0163438292
 10
335.4774408611
 20
273.1208158703
 10
335.4194380911
 20
273.244055924
  0
LWPOLYLINE
  5
29F
330
1F
100
AcDbEntity
  8
0
  6
Continuous
 62
     7
370
    25
100
AcDbPolyline
 90
       17
 70
   128
 43
0.0
 10
337.6292355927
 20
273.244055924
 10
337.6872383626
 20
273.367288527
 10
337.8524251851
 20
273.4717680188
 10
338.0996354493
 20
273.5415725084
 10
338.3912362727
 20
273.5660923691
 10
338.6828445467
 20
273.5415725084
 10
338.9300548109
 20
273.4717680188
 10
339.0952341827
 20
273.367288527
 10
339.1532369526
 20
273.244055924
 10
339.0952341827
 20
273.1208158703
 10
338.9300548109
 20
273.0163438292
 10
338.6828445467
 20
272.946531889
 10
338.3912362727
 20
272.9220194788
 10
338.0996354493
 20
272.946531889
 10
337.8524251851
 20
273.0163438292
 10
337.6872383626
 20
273.1208158703
 10
337.6292355927
 20
273.244055924
  0
LWPOLYLINE
  5
2A0
330
1F
100
AcDbEntity
  8
0
  6
Continuous
 62
     7
370
    25
100
AcDbPolyline
 90
       17
 70
   128
 43
0.0
 10
339.8390405448
 20
273.244055924
 10
339.8970433148
 20
273.367288527
 10
340.0622226866
 20
273.4717680188
 10
340.3094329508
 20
273.5415725084
 10
340.6010412248
 20
273.5660923691
 10
340.8926420482
 20
273.5415725084
 10
341.1398523124
 20
273.4717680188
 10
341.3050316843
 20
273.367288527
 10
341.3630344542
 20
273.244055924
 10
341.3050316843
 20
273.1208158703
 10
341.1398523124
 20
273.0163438292
 10
340.8926420482
 20
272.946531889
 10
340.6010412248
 20
272.9220194788
 10
340.3094329508
 20
272.946531889
 10
340.0622226866
 20
273.0163438292
 10
339.8970433148
 20
273.1208158703
 10
339.8390405448
 20
273.244055924
  0
LWPOLYLINE
  5
2A1
330
1F
100
AcDbEntity
  8
0
  6
Continuous
 62
     7
370
    25
100
AcDbPolyline
 90
       17
 70
   128
 43
0.0
 10
321.0607834729
 20
272.4389685364
 10
321.1187862428
 20
272.5622011395
 10
321.2839730652
 20
272.6666806312
 10
321.5311833294
 20
272.7364851208
 10
321.8227841528
 20
272.7610049815
 10
322.1143924268
 20
272.7364851208
 10
322.361602691
 20
272.6666806312
 10
322.5267820629
 20
272.5622011395
 10
322.5847848328
 20
272.4389685364
 10
322.5267820629
 20
272.3157284828
 10
322.361602691
 20
272.2112564416
 10
322.1143924268
 20
272.1414445014
 10
321.8227841528
 20
272.1169320913
 10
321.5311833294
 20
272.1414445014
 10
321.2839730652
 20
272.2112564416
 10
321.1187862428
 20
272.3157284828
 10
321.0607834729
 20
272.4389685364
  0
LWPOLYLINE
  5
2A2
330
1F
100
AcDbEntity
  8
0
  6
Continuous
 62
     7
370
    25
100
AcDbPolyline
 90
       17
 70
   128
 43
0.0
 10
323.270588425
 20
272.4389685364
 10
323.328591195
 20
272.5622011395
 10
323.4937705668
 20
272.6666806312
 10
323.740980831
 20
272.7364851208
 10
324.032589105
 20
272.7610049815
 10
324.3241899284
 20
272.7364851208
 10
324.5714001926
 20
272.6666806312
 10
324.7365795644
 20
272.5622011395
 10
324.7945823344
 20
272.4389685364
 10
324.7365795644
 20
272.3157284828
 10
324.5714001926
 20
272.2112564416
 10
324.3241899284
 20
272.1414445014
 10
324.032589105
 20
272.1169320913
 10
323.740980831
 20
272.1414445014
 10
323.4937705668
 20
272.2112564416
 10
323.328591195
 20
272.3157284828
 10
323.270588425
 20
272.4389685364
  0
LWPOLYLINE
  5
2A3
330
1F
100
AcDbEntity
  8
0
  6
Continuous
 62
     7
370
    25
100
AcDbPolyline
 90
       17
 70
   128
 43
0.0
 10
325.4803859266
 20
272.4389685364
 10
325.5383886965
 20
272.5622011395
 10
325.7035680684
 20
272.6666806312
 10
325.9507783326
 20
272.7364851208
 10
326.2423866066
 20
272.7610049815
 10
326.53398743
 20
272.7364851208
 10
326.7811976942
 20
272.6666806312
 10
326.9463845166
 20
272.5622011395
 10
327.0043872865
 20
272.4389685364
 10
326.9463845166
 20
272.3157284828
 10
326.7811976942
 20
272.2112564416
 10
326.53398743
 20
272.1414445014
 10
326.2423866066
 20
272.1169320913
 10
325.9507783326
 20
272.1414445014
 10
325.7035680684
 20
272.2112564416
 10
325.5383886965
 20
272.3157284828
 10
325.4803859266
 20
272.4389685364
  0
LWPOLYLINE
  5
2A4
330
1F
100
AcDbEntity
  8
0
  6
Continuous
 62
     7
370
    25
100
AcDbPolyline
 90
       17
 70
   128
 43
0.0
 10
327.6901834281
 20
272.4389685364
 10
327.7481861981
 20
272.5622011395
 10
327.9133730205
 20
272.6666806312
 10
328.1605832847
 20
272.7364851208
 10
328.4521841081
 20
272.7610049815
 10
328.7437923821
 20
272.7364851208
 10
328.9910026463
 20
272.6666806312
 10
329.1561820181
 20
272.5622011395
 10
329.2141847881
 20
272.4389685364
 10
329.1561820181
 20
272.3157284828
 10
328.9910026463
 20
272.2112564416
 10
328.7437923821
 20
272.1414445014
 10
328.4521841081
 20
272.1169320913
 10
328.1605832847
 20
272.1414445014
 10
327.9133730205
 20
272.2112564416
 10
327.7481861981
 20
272.3157284828
 10
327.6901834281
 20
272.4389685364
  0
LWPOLYLINE
  5
2A5
330
1F
100
AcDbEntity
  8
0
  6
Continuous
 62
     7
370
    25
100
AcDbPolyline
 90
       17
 70
   128
 43
0.0
 10
329.8999883803
 20
272.4389685364
 10
329.9579911502
 20
272.5622011395
 10
330.1231705221
 20
272.6666806312
 10
330.3703807863
 20
272.7364851208
 10
330.6619890603
 20
272.7610049815
 10
330.9535898837
 20
272.7364851208
 10
331.2008001479
 20
272.6666806312
 10
331.3659795197
 20
272.5622011395
 10
331.4239822896
 20
272.4389685364
 10
331.3659795197
 20
272.3157284828
 10
331.2008001479
 20
272.2112564416
 10
330.9535898837
 20
272.1414445014
 10
330.6619890603
 20
272.1169320913
 10
330.3703807863
 20
272.1414445014
 10
330.1231705221
 20
272.2112564416
 10
329.9579911502
 20
272.3157284828
 10
329.8999883803
 20
272.4389685364
  0
LWPOLYLINE
  5
2A6
330
1F
100
AcDbEntity
  8
0
  6
Continuous
 62
     7
370
    25
100
AcDbPolyline
 90
       17
 70
   128
 43
0.0
 10
332.1097858819
 20
272.4389685364
 10
332.1677886518
 20
272.5622011395
 10
332.3329680236
 20
272.6666806312
 10
332.5801782878
 20
272.7364851208
 10
332.8717865618
 20
272.7610049815
 10
333.1633873852
 20
272.7364851208
 10
333.4105976494
 20
272.6666806312
 10
333.5757844718
 20
272.5622011395
 10
333.6337872418
 20
272.4389685364
 10
333.5757844718
 20
272.3157284828
 10
333.4105976494
 20
272.2112564416
 10
333.1633873852
 20
272.1414445014
 10
332.8717865618
 20
272.1169320913
 10
332.5801782878
 20
272.1414445014
 10
332.3329680236
 20
272.2112564416
 10
332.1677886518
 20
272.3157284828
 10
332.1097858819
 20
272.4389685364
  0
LWPOLYLINE
  5
2A7
330
1F
100
AcDbEntity
  8
0
  6
Continuous
 62
     7
370
    25
100
AcDbPolyline
 90
       17
 70
   128
 43
0.0
 10
334.3195833834
 20
272.4389685364
 10
334.3775861534
 20
272.5622011395
 10
334.5427729758
 20
272.6666806312
 10
334.78998324
 20
272.7364851208
 10
335.0815840634
 20
272.7610049815
 10
335.3731923374
 20
272.7364851208
 10
335.6204026016
 20
272.6666806312
 10
335.7855819734
 20
272.5622011395
 10
335.8435847434
 20
272.4389685364
 10
335.7855819734
 20
272.3157284828
 10
335.6204026016
 20
272.2112564416
 10
335.3731923374
 20
272.1414445014
 10
335.0815840634
 20
272.1169320913
 10
334.78998324
 20
272.1414445014
 10
334.5427729758
 20
272.2112564416
 10
334.3775861534
 20
272.3157284828
 10
334.3195833834
 20
272.4389685364
  0
LWPOLYLINE
  5
2A8
330
1F
100
AcDbEntity
  8
0
  6
Continuous
 62
     7
370
    25
100
AcDbPolyline
 90
       17
 70
   128
 43
0.0
 10
336.5293883356
 20
272.4389685364
 10
336.5873911055
 20
272.5622011395
 10
336.7525704773
 20
272.6666806312
 10
336.9997807415
 20
272.7364851208
 10
337.2913890155
 20
272.7610049815
 10
337.5829898389
 20
272.7364851208
 10
337.8302001031
 20
272.6666806312
 10
337.995379475
 20
272.5622011395
 10
338.0533822449
 20
272.4389685364
 10
337.995379475
 20
272.3157284828
 10
337.8302001031
 20
272.2112564416
 10
337.5829898389
 20
272.1414445014
 10
337.2913890155
 20
272.1169320913
 10
336.9997807415
 20
272.1414445014
 10
336.7525704773
 20
272.2112564416
 10
336.5873911055
 20
272.3157284828
 10
336.5293883356
 20
272.4389685364
  0
LWPOLYLINE
  5
2A9
330
1F
100
AcDbEntity
  8
0
  6
Continuous
 62
     7
370
    25
100
AcDbPolyline
 90
       17
 70
   128
 43
0.0
 10
338.7391858371
 20
272.4389685364
 10
338.7971886071
 20
272.5622011395
 10
338.9623679789
 20
272.6666806312
 10
339.2095782431
 20
272.7364851208
 10
339.5011865171
 20
272.7610049815
 10
339.7927873405
 20
272.7364851208
 10
340.0399976047
 20
272.6666806312
 10
340.2051844271
 20
272.5622011395
 10
340.2631871971
 20
272.4389685364
 10
340.2051844271
 20
272.3157284828
 10
340.0399976047
 20
272.2112564416
 10
339.7927873405
 20
272.1414445014
 10
339.5011865171
 20
272.1169320913
 10
339.2095782431
 20
272.1414445014
 10
338.9623679789
 20
272.2112564416
 10
338.7971886071
 20
272.3157284828
 10
338.7391858371
 20
272.4389685364
  0
LWPOLYLINE
  5
2AA
330
1F
100
AcDbEntity
  8
0
  6
Continuous
 62
     7
370
    25
100
AcDbPolyline
 90
       17
 70
   128
 43
0.0
 10
322.0534168752
 20
271.5480057569
 10
322.1114196452
 20
271.67123836
 10
322.276599017
 20
271.7757178517
 10
322.5238092812
 20
271.8455223413
 10
322.8154175552
 20
271.8700347514
 10
323.1070183786
 20
271.8455223413
 10
323.3542286428
 20
271.7757178517
 10
323.5194154652
 20
271.67123836
 10
323.5774182352
 20
271.5480057569
 10
323.5194154652
 20
271.4247657032
 10
323.3542286428
 20
271.3202862115
 10
323.1070183786
 20
271.2504817219
 10
322.8154175552
 20
271.2259693117
 10
322.5238092812
 20
271.2504817219
 10
322.276599017
 20
271.3202862115
 10
322.1114196452
 20
271.4247657032
 10
322.0534168752
 20
271.5480057569
  0
LWPOLYLINE
  5
2AB
330
1F
100
AcDbEntity
  8
0
  6
Continuous
 62
     7
370
    25
100
AcDbPolyline
 90
       17
 70
   128
 43
0.0
 10
324.2632143768
 20
271.5480057569
 10
324.3212171467
 20
271.67123836
 10
324.4864039691
 20
271.7757178517
 10
324.7336142334
 20
271.8455223413
 10
325.0252150568
 20
271.8700347514
 10
325.3168233307
 20
271.8455223413
 10
325.5640335949
 20
271.7757178517
 10
325.7292129668
 20
271.67123836
 10
325.7872157367
 20
271.5480057569
 10
325.7292129668
 20
271.4247657032
 10
325.5640335949
 20
271.3202862115
 10
325.3168233307
 20
271.2504817219
 10
325.0252150568
 20
271.2259693117
 10
324.7336142334
 20
271.2504817219
 10
324.4864039691
 20
271.3202862115
 10
324.3212171467
 20
271.4247657032
 10
324.2632143768
 20
271.5480057569
  0
LWPOLYLINE
  5
2AC
330
1F
100
AcDbEntity
  8
0
  6
Continuous
 62
     7
370
    25
100
AcDbPolyline
 90
       17
 70
   128
 43
0.0
 10
326.4730193289
 20
271.5480057569
 10
326.5310220989
 20
271.67123836
 10
326.6962014707
 20
271.7757178517
 10
326.9434117349
 20
271.8455223413
 10
327.2350125583
 20
271.8700347514
 10
327.5266208323
 20
271.8455223413
 10
327.7738310965
 20
271.7757178517
 10
327.9390104683
 20
271.67123836
 10
327.9970132383
 20
271.5480057569
 10
327.9390104683
 20
271.4247657032
 10
327.7738310965
 20
271.3202862115
 10
327.5266208323
 20
271.2504817219
 10
327.2350125583
 20
271.2259693117
 10
326.9434117349
 20
271.2504817219
 10
326.6962014707
 20
271.3202862115
 10
326.5310220989
 20
271.4247657032
 10
326.4730193289
 20
271.5480057569
  0
LWPOLYLINE
  5
2AD
330
1F
100
AcDbEntity
  8
0
  6
Continuous
 62
     7
370
    25
100
AcDbPolyline
 90
       17
 70
   128
 43
0.0
 10
328.6828168305
 20
271.5480057569
 10
328.7408196004
 20
271.67123836
 10
328.9059989723
 20
271.7757178517
 10
329.1532092365
 20
271.8455223413
 10
329.4448175105
 20
271.8700347514
 10
329.7364183339
 20
271.8455223413
 10
329.9836285981
 20
271.7757178517
 10
330.1488154205
 20
271.67123836
 10
330.2068181904
 20
271.5480057569
 10
330.1488154205
 20
271.4247657032
 10
329.9836285981
 20
271.3202862115
 10
329.7364183339
 20
271.2504817219
 10
329.4448175105
 20
271.2259693117
 10
329.1532092365
 20
271.2504817219
 10
328.9059989723
 20
271.3202862115
 10
328.7408196004
 20
271.4247657032
 10
328.6828168305
 20
271.5480057569
  0
LWPOLYLINE
  5
2AE
330
1F
100
AcDbEntity
  8
0
  6
Continuous
 62
     7
370
    25
100
AcDbPolyline
 90
       17
 70
   128
 43
0.0
 10
331.1171524795
 20
271.5480057569
 10
331.1751627
 20
271.67123836
 10
331.3403420719
 20
271.7757178517
 10
331.5875523361
 20
271.8455223413
 10
331.8791531595
 20
271.8700347514
 10
332.1707614335
 20
271.8455223413
 10
332.4179716977
 20
271.7757178517
 10
332.5831510695
 20
271.67123836
 10
332.6411538394
 20
271.5480057569
 10
332.5831510695
 20
271.4247657032
 10
332.4179716977
 20
271.3202862115
 10
332.1707614335
 20
271.2504817219
 10
331.8791531595
 20
271.2259693117
 10
331.5875523361
 20
271.2504817219
 10
331.3403420719
 20
271.3202862115
 10
331.1751627
 20
271.4247657032
 10
331.1171524795
 20
271.5480057569
  0
LWPOLYLINE
  5
2AF
330
1F
100
AcDbEntity
  8
0
  6
Continuous
 62
     7
370
    25
100
AcDbPolyline
 90
       17
 70
   128
 43
0.0
 10
333.3269574317
 20
271.5480057569
 10
333.3849602016
 20
271.67123836
 10
333.5501395734
 20
271.7757178517
 10
333.7973498376
 20
271.8455223413
 10
334.0889581116
 20
271.8700347514
 10
334.380558935
 20
271.8455223413
 10
334.6277691992
 20
271.7757178517
 10
334.7929485711
 20
271.67123836
 10
334.8509587916
 20
271.5480057569
 10
334.7929485711
 20
271.4247657032
 10
334.6277691992
 20
271.3202862115
 10
334.380558935
 20
271.2504817219
 10
334.0889581116
 20
271.2259693117
 10
333.7973498376
 20
271.2504817219
 10
333.5501395734
 20
271.3202862115
 10
333.3849602016
 20
271.4247657032
 10
333.3269574317
 20
271.5480057569
  0
LWPOLYLINE
  5
2B0
330
1F
100
AcDbEntity
  8
0
  6
Continuous
 62
     7
370
    25
100
AcDbPolyline
 90
       17
 70
   128
 43
0.0
 10
335.5367549332
 20
271.5480057569
 10
335.5947577032
 20
271.67123836
 10
335.759937075
 20
271.7757178517
 10
336.0071473392
 20
271.8455223413
 10
336.2987556132
 20
271.8700347514
 10
336.5903638872
 20
271.8455223413
 10
336.8375741514
 20
271.7757178517
 10
337.0027535232
 20
271.67123836
 10
337.0607562932
 20
271.5480057569
 10
337.0027535232
 20
271.4247657032
 10
336.8375741514
 20
271.3202862115
 10
336.5903638872
 20
271.2504817219
 10
336.2987556132
 20
271.2259693117
 10
336.0071473392
 20
271.2504817219
 10
335.759937075
 20
271.3202862115
 10
335.5947577032
 20
271.4247657032
 10
335.5367549332
 20
271.5480057569
  0
LWPOLYLINE
  5
2B1
330
1F
100
AcDbEntity
  8
0
  6
Continuous
 62
     7
370
    25
100
AcDbPolyline
 90
       17
 70
   128
 43
0.0
 10
337.7465524348
 20
271.5480057569
 10
337.8045626553
 20
271.67123836
 10
337.9697420271
 20
271.7757178517
 10
338.2169522913
 20
271.8455223413
 10
338.5085531147
 20
271.8700347514
 10
338.8001613887
 20
271.8455223413
 10
339.0473716529
 20
271.7757178517
 10
339.2125510248
 20
271.67123836
 10
339.2705537947
 20
271.5480057569
 10
339.2125510248
 20
271.4247657032
 10
339.0473716529
 20
271.3202862115
 10
338.8001613887
 20
271.2504817219
 10
338.5085531147
 20
271.2259693117
 10
338.2169522913
 20
271.2504817219
 10
337.9697420271
 20
271.3202862115
 10
337.8045626553
 20
271.4247657032
 10
337.7465524348
 20
271.5480057569
  0
LINE
  5
2B2
330
1F
100
AcDbEntity
  8
0
  6
Continuous
 62
     7
370
    25
100
AcDbLine
 10
324.0628757151
 20
270.2002329798
 30
0.0
 11
324.0628757151
 21
270.1645372482
 31
0.0
  0
LINE
  5
2B3
330
1F
100
AcDbEntity
  8
0
  6
Continuous
 62
     7
370
    25
100
AcDbLine
 10
337.2611024054
 20
270.2002329798
 30
0.0
 11
337.2611024054
 21
270.1645372482
 31
0.0
  0
SPLINE
  5
2B4
330
1F
100
AcDbEntity
  8
0
  6
Continuous
 62
     7
370
    25
100
AcDbSpline
210
0.0
220
0.0
230
1.0
 70
     8
 71
     3
 72
     9
 73
     5
 74
     0
 42
0.000000001
 43
0.00000001
 40
0.0
 40
0.0
 40
0.0
 40
0.0
 40
0.6039606543461858
 40
1.0
 40
1.0
 40
1.0
 40
1.0
 10
181.8582110675336
 20
281.989919957669
 30
0.0
 10
181.682104218543
 20
282.195699242049
 30
0.0
 10
181.390517593283
 20
282.5364156163679
 30
0.0
 10
180.9752541918388
 20
282.8529954959463
 30
0.0
 10
180.8107935460569
 20
282.9783735843017
 30
0.0
  0
SPLINE
  5
2B5
330
1F
100
AcDbEntity
  8
0
  6
Continuous
 62
     7
370
    25
100
AcDbSpline
210
0.0
220
0.0
230
1.0
 70
     8
 71
     3
 72
     9
 73
     5
 74
     0
 42
0.000000001
 43
0.00000001
 40
0.0
 40
0.0
 40
0.0
 40
0.0
 40
0.5609509507360847
 40
1.0
 40
1.0
 40
1.0
 40
1.0
 10
150.5284898551465
 20
282.9783735843017
 30
0.0
 10
150.2840316990743
 20
282.7935002908856
 30
0.0
 10
149.8482393080435
 20
282.4639290633594
 30
0.0
 10
149.5602636437319
 20
282.1067926840454
 30
0.0
 10
149.4338282021047
 20
281.9499922962501
 30
0.0
  0
LWPOLYLINE
  5
2B6
330
1F
100
AcDbEntity
  8
0
  6
Continuous
 62
     7
370
    25
100
AcDbPolyline
 90
       10
 70
   128
 43
0.0
 10
154.9609371098
 20
273.4742565127
 10
155.0189398798
 20
273.5974965663
 10
155.1841192516
 20
273.7019686075
 10
155.4313295158
 20
273.7717805477
 10
155.7229303392
 20
273.7962929578
 10
156.0145386132
 20
273.7717805477
 10
156.2617488774
 20
273.7019686075
 10
156.4269282492
 20
273.5974965663
 10
156.4849310192
 20
273.4742565127
 10
156.4849310192
 20
273.4742565127
  0
LWPOLYLINE
  5
2B7
330
1F
100
AcDbEntity
  8
0
  6
Continuous
 62
     7
370
    25
100
AcDbPolyline
 90
       10
 70
   128
 43
0.0
 10
157.1707346114
 20
273.4742565127
 10
157.2287373813
 20
273.5974965663
 10
157.3939167531
 20
273.7019686075
 10
157.6411270174
 20
273.7717805477
 10
157.9327352913
 20
273.7962929578
 10
158.2243361147
 20
273.7717805477
 10
158.4715463789
 20
273.7019686075
 10
158.6367332014
 20
273.5974965663
 10
158.6947359713
 20
273.4742565127
 10
158.6947359713
 20
273.4742565127
  0
LWPOLYLINE
  5
2B8
330
1F
100
AcDbEntity
  8
0
  6
Continuous
 62
     7
370
    25
100
AcDbPolyline
 90
       10
 70
   128
 43
0.0
 10
156.0607843669
 20
272.6691691251
 10
156.1187871369
 20
272.7924091788
 10
156.2839739593
 20
272.8968812199
 10
156.5311842235
 20
272.9666931601
 10
156.8227850469
 20
272.9912055703
 10
157.1143933209
 20
272.9666931601
 10
157.3616035851
 20
272.8968812199
 10
157.5267829569
 20
272.7924091788
 10
157.5847857269
 20
272.6691691251
 10
157.5847857269
 20
272.6691691251
  0
LWPOLYLINE
  5
2B9
330
1F
100
AcDbEntity
  8
0
  6
Continuous
 62
     7
370
    25
100
AcDbPolyline
 90
       10
 70
   128
 43
0.0
 10
157.0534177693
 20
271.7782063456
 10
157.1114205392
 20
271.9014389487
 10
157.2765999111
 20
272.0059184404
 10
157.5238101753
 20
272.07572293
 10
157.8154184493
 20
272.1002427907
 10
158.1070192727
 20
272.07572293
 10
158.3542295369
 20
272.0059184404
 10
158.5194089087
 20
271.9014389487
 10
158.5774191292
 20
271.7782063456
 10
158.5774191292
 20
271.7782063456
  0
LWPOLYLINE
  5
2BA
330
1F
100
AcDbEntity
  8
0
  6
Continuous
 62
     7
370
    25
100
AcDbPolyline
 90
       10
 70
   128
 43
0.0
 10
158.2705893191
 20
272.6691691251
 10
158.328592089
 20
272.7924091788
 10
158.4937714609
 20
272.8968812199
 10
158.7409817251
 20
272.9666931601
 10
159.0325825485
 20
272.9912055703
 10
159.3241908225
 20
272.9666931601
 10
159.5714010867
 20
272.8968812199
 10
159.7365804585
 20
272.7924091788
 10
159.7945832284
 20
272.6691691251
 10
159.7945832284
 20
272.6691691251
  0
LWPOLYLINE
  5
2BB
330
1F
100
AcDbEntity
  8
0
  6
Continuous
 62
     7
370
    25
100
AcDbPolyline
 90
       10
 70
   128
 43
0.0
 10
159.2632152709
 20
271.7782063456
 10
159.3212180408
 20
271.9014389487
 10
159.4863974126
 20
272.0059184404
 10
159.7336076768
 20
272.07572293
 10
160.0252159508
 20
272.1002427907
 10
160.3168242248
 20
272.07572293
 10
160.564034489
 20
272.0059184404
 10
160.7292138608
 20
271.9014389487
 10
160.7872166308
 20
271.7782063456
 10
160.7872166308
 20
271.7782063456
  0
LWPOLYLINE
  5
2BC
330
1F
100
AcDbEntity
  8
0
  6
Continuous
 62
     7
370
    25
100
AcDbPolyline
 90
       10
 70
   128
 43
0.0
 10
161.4730127724
 20
271.7782063456
 10
161.5310229929
 20
271.9014389487
 10
161.6962023648
 20
272.0059184404
 10
161.943412629
 20
272.07572293
 10
162.2350134524
 20
272.1002427907
 10
162.5266217264
 20
272.07572293
 10
162.7738319906
 20
272.0059184404
 10
162.9390113624
 20
271.9014389487
 10
162.9970141324
 20
271.7782063456
 10
162.9970141324
 20
271.7782063456
  0
LWPOLYLINE
  5
2BD
330
1F
100
AcDbEntity
  8
0
  6
Continuous
 62
     7
370
    25
100
AcDbPolyline
 90
       10
 70
   128
 43
0.0
 10
163.6828177246
 20
271.7782063456
 10
163.7408204945
 20
271.9014389487
 10
163.9059998663
 20
272.0059184404
 10
164.1532101305
 20
272.07572293
 10
164.4448184045
 20
272.1002427907
 10
164.7364192279
 20
272.07572293
 10
164.9836294921
 20
272.0059184404
 10
165.148808864
 20
271.9014389487
 10
165.2068190845
 20
271.7782063456
 10
165.2068190845
 20
271.7782063456
  0
LWPOLYLINE
  5
2BE
330
1F
100
AcDbEntity
  8
0
  6
Continuous
 62
     7
370
    25
100
AcDbPolyline
 90
       10
 70
   128
 43
0.0
 10
166.1171533736
 20
271.7782063456
 10
166.1751561435
 20
271.9014389487
 10
166.3403429659
 20
272.0059184404
 10
166.5875532301
 20
272.07572293
 10
166.8791540535
 20
272.1002427907
 10
167.1707623275
 20
272.07572293
 10
167.4179725917
 20
272.0059184404
 10
167.5831519636
 20
271.9014389487
 10
167.6411547335
 20
271.7782063456
 10
167.6411547335
 20
271.7782063456
  0
LWPOLYLINE
  5
2BF
330
1F
100
AcDbEntity
  8
0
  6
Continuous
 62
     7
370
    25
100
AcDbPolyline
 90
       10
 70
   128
 43
0.0
 10
168.3269583257
 20
271.7782063456
 10
168.3849610957
 20
271.9014389487
 10
168.5501404675
 20
272.0059184404
 10
168.7973507317
 20
272.07572293
 10
169.0889590057
 20
272.1002427907
 10
169.3805598291
 20
272.07572293
 10
169.6277700933
 20
272.0059184404
 10
169.7929494651
 20
271.9014389487
 10
169.8509522351
 20
271.7782063456
 10
169.8509522351
 20
271.7782063456
  0
LWPOLYLINE
  5
2C0
330
1F
100
AcDbEntity
  8
0
  6
Continuous
 62
     7
370
    25
100
AcDbPolyline
 90
       10
 70
   128
 43
0.0
 10
170.5367558273
 20
271.7782063456
 10
170.5947585972
 20
271.9014389487
 10
170.7599379691
 20
272.0059184404
 10
171.0071482333
 20
272.07572293
 10
171.2987565073
 20
272.1002427907
 10
171.5903573307
 20
272.07572293
 10
171.8375675949
 20
272.0059184404
 10
172.0027544173
 20
271.9014389487
 10
172.0607571872
 20
271.7782063456
 10
172.0607571872
 20
271.7782063456
  0
LWPOLYLINE
  5
2C1
330
1F
100
AcDbEntity
  8
0
  6
Continuous
 62
     7
370
    25
100
AcDbPolyline
 90
       10
 70
   128
 43
0.0
 10
172.7465533288
 20
271.7782063456
 10
172.8045560988
 20
271.9014389487
 10
172.9697429212
 20
272.0059184404
 10
173.2169531854
 20
272.07572293
 10
173.5085540088
 20
272.1002427907
 10
173.8001622828
 20
272.07572293
 10
174.047372547
 20
272.0059184404
 10
174.2125519188
 20
271.9014389487
 10
174.2705546888
 20
271.7782063456
 10
174.2705546888
 20
271.7782063456
  0
LWPOLYLINE
  5
2C2
330
1F
100
AcDbEntity
  8
0
  6
Continuous
 62
     7
370
    25
100
AcDbPolyline
 90
       10
 70
   128
 43
0.0
 10
171.5293892296
 20
272.6691691251
 10
171.5873919996
 20
272.7924091788
 10
171.7525713714
 20
272.8968812199
 10
171.9997816356
 20
272.9666931601
 10
172.291382459
 20
272.9912055703
 10
172.582990733
 20
272.9666931601
 10
172.8302009972
 20
272.8968812199
 10
172.995380369
 20
272.7924091788
 10
173.053383139
 20
272.6691691251
 10
173.053383139
 20
272.6691691251
  0
LWPOLYLINE
  5
2C3
330
1F
100
AcDbEntity
  8
0
  6
Continuous
 62
     7
370
    25
100
AcDbPolyline
 90
       10
 70
   128
 43
0.0
 10
173.7391867312
 20
272.6691691251
 10
173.7971895011
 20
272.7924091788
 10
173.962368873
 20
272.8968812199
 10
174.2095791372
 20
272.9666931601
 10
174.5011874112
 20
272.9912055703
 10
174.7927882346
 20
272.9666931601
 10
175.0399984988
 20
272.8968812199
 10
175.2051853212
 20
272.7924091788
 10
175.2631880911
 20
272.6691691251
 10
175.2631880911
 20
272.6691691251
  0
LWPOLYLINE
  5
2C4
330
1F
100
AcDbEntity
  8
0
  6
Continuous
 62
     7
370
    25
100
AcDbPolyline
 90
       10
 70
   128
 43
0.0
 10
174.8390414389
 20
273.4742565127
 10
174.8970442089
 20
273.5974965663
 10
175.0622235807
 20
273.7019686075
 10
175.3094338449
 20
273.7717805477
 10
175.6010346683
 20
273.7962929578
 10
175.8926429423
 20
273.7717805477
 10
176.1398532065
 20
273.7019686075
 10
176.3050325783
 20
273.5974965663
 10
176.3630353483
 20
273.4742565127
 10
176.3630353483
 20
273.4742565127
  0
LWPOLYLINE
  5
2C5
330
1F
100
AcDbEntity
  8
0
  6
Continuous
 62
     7
370
    25
100
AcDbPolyline
 90
       10
 70
   128
 43
0.0
 10
172.6292364868
 20
273.4742565127
 10
172.6872392567
 20
273.5974965663
 10
172.8524260791
 20
273.7019686075
 10
173.0996363433
 20
273.7717805477
 10
173.3912371667
 20
273.7962929578
 10
173.6828454407
 20
273.7717805477
 10
173.9300557049
 20
273.7019686075
 10
174.0952350768
 20
273.5974965663
 10
174.1532378467
 20
273.4742565127
 10
174.1532378467
 20
273.4742565127
  0
LWPOLYLINE
  5
2C6
330
1F
100
AcDbEntity
  8
0
  6
Continuous
 62
     7
370
    25
100
AcDbPolyline
 90
       10
 70
   128
 43
0.0
 10
170.4194389852
 20
273.4742565127
 10
170.4774417552
 20
273.5974965663
 10
170.642621127
 20
273.7019686075
 10
170.8898313912
 20
273.7717805477
 10
171.1814396652
 20
273.7962929578
 10
171.4730404886
 20
273.7717805477
 10
171.7202507528
 20
273.7019686075
 10
171.8854375752
 20
273.5974965663
 10
171.9434403451
 20
273.4742565127
 10
171.9434403451
 20
273.4742565127
  0
LWPOLYLINE
  5
2C7
330
1F
100
AcDbEntity
  8
0
  6
Continuous
 62
     7
370
    25
100
AcDbPolyline
 90
       10
 70
   128
 43
0.0
 10
168.2096414836
 20
273.4742565127
 10
168.2676442536
 20
273.5974965663
 10
168.4328236254
 20
273.7019686075
 10
168.6800338896
 20
273.7717805477
 10
168.971634713
 20
273.7962929578
 10
169.263242987
 20
273.7717805477
 10
169.5104532512
 20
273.7019686075
 10
169.6756326231
 20
273.5974965663
 10
169.733635393
 20
273.4742565127
 10
169.733635393
 20
273.4742565127
  0
LWPOLYLINE
  5
2C8
330
1F
100
AcDbEntity
  8
0
  6
Continuous
 62
     7
370
    25
100
AcDbPolyline
 90
       10
 70
   128
 43
0.0
 10
165.9998365315
 20
273.4742565127
 10
166.0578393014
 20
273.5974965663
 10
166.2230261239
 20
273.7019686075
 10
166.4702363881
 20
273.7717805477
 10
166.7618372115
 20
273.7962929578
 10
167.0534454854
 20
273.7717805477
 10
167.3006557497
 20
273.7019686075
 10
167.4658351215
 20
273.5974965663
 10
167.5238378914
 20
273.4742565127
 10
167.5238378914
 20
273.4742565127
  0
LWPOLYLINE
  5
2C9
330
1F
100
AcDbEntity
  8
0
  6
Continuous
 62
     7
370
    25
100
AcDbPolyline
 90
       10
 70
   128
 43
0.0
 10
163.8001345666
 20
273.4742565127
 10
163.8581373366
 20
273.5974965663
 10
164.0233167084
 20
273.7019686075
 10
164.2705269726
 20
273.7717805477
 10
164.5621352466
 20
273.7962929578
 10
164.85373607
 20
273.7717805477
 10
165.1009463342
 20
273.7019686075
 10
165.2661331566
 20
273.5974965663
 10
165.3241359266
 20
273.4742565127
 10
165.3241359266
 20
273.4742565127
  0
LWPOLYLINE
  5
2CA
330
1F
100
AcDbEntity
  8
0
  6
Continuous
 62
     7
370
    25
100
AcDbPolyline
 90
       10
 70
   128
 43
0.0
 10
161.5903370651
 20
273.4742565127
 10
161.648339835
 20
273.5974965663
 10
161.8135192069
 20
273.7019686075
 10
162.0607294711
 20
273.7717805477
 10
162.3523302945
 20
273.7962929578
 10
162.6439385684
 20
273.7717805477
 10
162.8911488327
 20
273.7019686075
 10
163.0563282045
 20
273.5974965663
 10
163.1143309744
 20
273.4742565127
 10
163.1143309744
 20
273.4742565127
  0
LWPOLYLINE
  5
2CB
330
1F
100
AcDbEntity
  8
0
  6
Continuous
 62
     7
370
    25
100
AcDbPolyline
 90
       10
 70
   128
 43
0.0
 10
159.3805321129
 20
273.4742565127
 10
159.4385348829
 20
273.5974965663
 10
159.6037217053
 20
273.7019686075
 10
159.8509319695
 20
273.7717805477
 10
160.1425327929
 20
273.7962929578
 10
160.4341410669
 20
273.7717805477
 10
160.6813513311
 20
273.7019686075
 10
160.8465307029
 20
273.5974965663
 10
160.9045334729
 20
273.4742565127
 10
160.9045334729
 20
273.4742565127
  0
LWPOLYLINE
  5
2CC
330
1F
100
AcDbEntity
  8
0
  6
Continuous
 62
     7
370
    25
100
AcDbPolyline
 90
       10
 70
   128
 43
0.0
 10
160.4803868207
 20
272.6691691251
 10
160.5383895906
 20
272.7924091788
 10
160.7035689624
 20
272.8968812199
 10
160.9507792266
 20
272.9666931601
 10
161.2423875006
 20
272.9912055703
 10
161.533988324
 20
272.9666931601
 10
161.7811985882
 20
272.8968812199
 10
161.9463854106
 20
272.7924091788
 10
162.0043881806
 20
272.6691691251
 10
162.0043881806
 20
272.6691691251
  0
LWPOLYLINE
  5
2CD
330
1F
100
AcDbEntity
  8
0
  6
Continuous
 62
     7
370
    25
100
AcDbPolyline
 90
       10
 70
   128
 43
0.0
 10
162.6901843222
 20
272.6691691251
 10
162.7481870922
 20
272.7924091788
 10
162.9133739146
 20
272.8968812199
 10
163.1605841788
 20
272.9666931601
 10
163.4521850022
 20
272.9912055703
 10
163.7437932762
 20
272.9666931601
 10
163.9910035404
 20
272.8968812199
 10
164.1561829122
 20
272.7924091788
 10
164.2141856822
 20
272.6691691251
 10
164.2141856822
 20
272.6691691251
  0
LWPOLYLINE
  5
2CE
330
1F
100
AcDbEntity
  8
0
  6
Continuous
 62
     7
370
    25
100
AcDbPolyline
 90
       10
 70
   128
 43
0.0
 10
164.8999892744
 20
272.6691691251
 10
164.9579920443
 20
272.7924091788
 10
165.1231714161
 20
272.8968812199
 10
165.3703816803
 20
272.9666931601
 10
165.6619825037
 20
272.9912055703
 10
165.9535907777
 20
272.9666931601
 10
166.2008010419
 20
272.8968812199
 10
166.3659804138
 20
272.7924091788
 10
166.4239831837
 20
272.6691691251
 10
166.4239831837
 20
272.6691691251
  0
LWPOLYLINE
  5
2CF
330
1F
100
AcDbEntity
  8
0
  6
Continuous
 62
     7
370
    25
100
AcDbPolyline
 90
       10
 70
   128
 43
0.0
 10
167.1097867759
 20
272.6691691251
 10
167.1677895459
 20
272.7924091788
 10
167.3329689177
 20
272.8968812199
 10
167.5801791819
 20
272.9666931601
 10
167.8717874559
 20
272.9912055703
 10
168.1633882793
 20
272.9666931601
 10
168.4105985435
 20
272.8968812199
 10
168.5757853659
 20
272.7924091788
 10
168.6337881359
 20
272.6691691251
 10
168.6337881359
 20
272.6691691251
  0
LWPOLYLINE
  5
2D0
330
1F
100
AcDbEntity
  8
0
  6
Continuous
 62
     7
370
    25
100
AcDbPolyline
 90
       10
 70
   128
 43
0.0
 10
169.3195842775
 20
272.6691691251
 10
169.3775870474
 20
272.7924091788
 10
169.5427738698
 20
272.8968812199
 10
169.7899841341
 20
272.9666931601
 10
170.0815849575
 20
272.9912055703
 10
170.3731932314
 20
272.9666931601
 10
170.6204034956
 20
272.8968812199
 10
170.7855828675
 20
272.7924091788
 10
170.8435856374
 20
272.6691691251
 10
170.8435856374
 20
272.6691691251
  0
LWPOLYLINE
  5
2D1
330
1F
100
AcDbEntity
  8
0
  6
Continuous
 62
     7
370
    25
100
AcDbPolyline
 90
        8
 70
   128
 43
0.0
 10
180.9499331387
 20
276.1006383272
 10
182.0864223512
 20
277.0963637204
 10
182.8622662099
 20
278.1521333428
 10
183.260425237
 20
279.2447609873
 10
183.2721524509
 20
280.3502632351
 10
182.8972019824
 20
281.444358644
 10
182.1437992724
 20
282.5030265422
 10
181.66703662
 20
282.9783735843
  0
ARC
  5
2D2
330
1F
100
AcDbEntity
  8
0
  6
Continuous
 62
     7
370
    25
100
AcDbCircle
 10
151.9833017511
 20
279.8551070453
 30
0.0
 40
3.894454035499708
100
AcDbArc
 50
126.6805932691
 51
225.9299695707
  0
ARC
  5
2D3
330
1F
100
AcDbEntity
  8
0
  6
Continuous
 62
     7
370
    25
100
AcDbCircle
 10
179.7399111776
 20
281.1507120925
 30
0.0
 40
3.575601571918669
100
AcDbArc
 50
0.9836417564
 51
30.7403258655
  0
ARC
  5
2D4
330
1F
100
AcDbEntity
  8
0
  6
Continuous
 62
     7
370
    25
100
AcDbCircle
 10
151.5840612804
 20
281.1507120925
 30
0.0
 40
3.575601571918698
100
AcDbArc
 50
149.2596741345
 51
179.0163582436
  0
LWPOLYLINE
  5
2D5
330
1F
100
AcDbEntity
  8
0
  6
Continuous
 62
     7
370
    25
100
AcDbPolyline
 90
       17
 70
   128
 43
0.0
 10
157.1707346114
 20
273.244055924
 10
157.2287373813
 20
273.367288527
 10
157.3939167531
 20
273.4717680188
 10
157.6411270174
 20
273.5415725084
 10
157.9327352913
 20
273.5660923691
 10
158.2243361147
 20
273.5415725084
 10
158.4715463789
 20
273.4717680188
 10
158.6367332014
 20
273.367288527
 10
158.6947359713
 20
273.244055924
 10
158.6367332014
 20
273.1208158703
 10
158.4715463789
 20
273.0163438292
 10
158.2243361147
 20
272.946531889
 10
157.9327352913
 20
272.9220194788
 10
157.6411270174
 20
272.946531889
 10
157.3939167531
 20
273.0163438292
 10
157.2287373813
 20
273.1208158703
 10
157.1707346114
 20
273.244055924
  0
LWPOLYLINE
  5
2D6
330
1F
100
AcDbEntity
  8
0
  6
Continuous
 62
     7
370
    25
100
AcDbPolyline
 90
       17
 70
   128
 43
0.0
 10
154.9609371098
 20
273.244055924
 10
155.0189398798
 20
273.367288527
 10
155.1841192516
 20
273.4717680188
 10
155.4313295158
 20
273.5415725084
 10
155.7229303392
 20
273.5660923691
 10
156.0145386132
 20
273.5415725084
 10
156.2617488774
 20
273.4717680188
 10
156.4269282492
 20
273.367288527
 10
156.4849310192
 20
273.244055924
 10
156.4269282492
 20
273.1208158703
 10
156.2617488774
 20
273.0163438292
 10
156.0145386132
 20
272.946531889
 10
155.7229303392
 20
272.9220194788
 10
155.4313295158
 20
272.946531889
 10
155.1841192516
 20
273.0163438292
 10
155.0189398798
 20
273.1208158703
 10
154.9609371098
 20
273.244055924
  0
LWPOLYLINE
  5
2D7
330
1F
100
AcDbEntity
  8
0
  6
Continuous
 62
     7
370
    25
100
AcDbPolyline
 90
       17
 70
   128
 43
0.0
 10
170.4194389852
 20
273.244055924
 10
170.4774417552
 20
273.367288527
 10
170.642621127
 20
273.4717680188
 10
170.8898313912
 20
273.5415725084
 10
171.1814396652
 20
273.5660923691
 10
171.4730404886
 20
273.5415725084
 10
171.7202507528
 20
273.4717680188
 10
171.8854375752
 20
273.367288527
 10
171.9434403451
 20
273.244055924
 10
171.8854375752
 20
273.1208158703
 10
171.7202507528
 20
273.0163438292
 10
171.4730404886
 20
272.946531889
 10
171.1814396652
 20
272.9220194788
 10
170.8898313912
 20
272.946531889
 10
170.642621127
 20
273.0163438292
 10
170.4774417552
 20
273.1208158703
 10
170.4194389852
 20
273.244055924
  0
LWPOLYLINE
  5
2D8
330
1F
100
AcDbEntity
  8
0
  6
Continuous
 62
     7
370
    25
100
AcDbPolyline
 90
       17
 70
   128
 43
0.0
 10
172.6292364868
 20
273.244055924
 10
172.6872392567
 20
273.367288527
 10
172.8524260791
 20
273.4717680188
 10
173.0996363433
 20
273.5415725084
 10
173.3912371667
 20
273.5660923691
 10
173.6828454407
 20
273.5415725084
 10
173.9300557049
 20
273.4717680188
 10
174.0952350768
 20
273.367288527
 10
174.1532378467
 20
273.244055924
 10
174.0952350768
 20
273.1208158703
 10
173.9300557049
 20
273.0163438292
 10
173.6828454407
 20
272.946531889
 10
173.3912371667
 20
272.9220194788
 10
173.0996363433
 20
272.946531889
 10
172.8524260791
 20
273.0163438292
 10
172.6872392567
 20
273.1208158703
 10
172.6292364868
 20
273.244055924
  0
LWPOLYLINE
  5
2D9
330
1F
100
AcDbEntity
  8
0
  6
Continuous
 62
     7
370
    25
100
AcDbPolyline
 90
       17
 70
   128
 43
0.0
 10
159.3805321129
 20
273.244055924
 10
159.4385348829
 20
273.367288527
 10
159.6037217053
 20
273.4717680188
 10
159.8509319695
 20
273.5415725084
 10
160.1425327929
 20
273.5660923691
 10
160.4341410669
 20
273.5415725084
 10
160.6813513311
 20
273.4717680188
 10
160.8465307029
 20
273.367288527
 10
160.9045334729
 20
273.244055924
 10
160.8465307029
 20
273.1208158703
 10
160.6813513311
 20
273.0163438292
 10
160.4341410669
 20
272.946531889
 10
160.1425327929
 20
272.9220194788
 10
159.8509319695
 20
272.946531889
 10
159.6037217053
 20
273.0163438292
 10
159.4385348829
 20
273.1208158703
 10
159.3805321129
 20
273.244055924
  0
LWPOLYLINE
  5
2DA
330
1F
100
AcDbEntity
  8
0
  6
Continuous
 62
     7
370
    25
100
AcDbPolyline
 90
       17
 70
   128
 43
0.0
 10
174.8390414389
 20
273.244055924
 10
174.8970442089
 20
273.367288527
 10
175.0622235807
 20
273.4717680188
 10
175.3094338449
 20
273.5415725084
 10
175.6010346683
 20
273.5660923691
 10
175.8926429423
 20
273.5415725084
 10
176.1398532065
 20
273.4717680188
 10
176.3050325783
 20
273.367288527
 10
176.3630353483
 20
273.244055924
 10
176.3050325783
 20
273.1208158703
 10
176.1398532065
 20
273.0163438292
 10
175.8926429423
 20
272.946531889
 10
175.6010346683
 20
272.9220194788
 10
175.3094338449
 20
272.946531889
 10
175.0622235807
 20
273.0163438292
 10
174.8970442089
 20
273.1208158703
 10
174.8390414389
 20
273.244055924
  0
LWPOLYLINE
  5
2DB
330
1F
100
AcDbEntity
  8
0
  6
Continuous
 62
     7
370
    25
100
AcDbPolyline
 90
       17
 70
   128
 43
0.0
 10
163.8001345666
 20
273.244055924
 10
163.8581373366
 20
273.367288527
 10
164.0233167084
 20
273.4717680188
 10
164.2705269726
 20
273.5415725084
 10
164.5621352466
 20
273.5660923691
 10
164.85373607
 20
273.5415725084
 10
165.1009463342
 20
273.4717680188
 10
165.2661331566
 20
273.367288527
 10
165.3241359266
 20
273.244055924
 10
165.2661331566
 20
273.1208158703
 10
165.1009463342
 20
273.0163438292
 10
164.85373607
 20
272.946531889
 10
164.5621352466
 20
272.9220194788
 10
164.2705269726
 20
272.946531889
 10
164.0233167084
 20
273.0163438292
 10
163.8581373366
 20
273.1208158703
 10
163.8001345666
 20
273.244055924
  0
LWPOLYLINE
  5
2DC
330
1F
100
AcDbEntity
  8
0
  6
Continuous
 62
     7
370
    25
100
AcDbPolyline
 90
       17
 70
   128
 43
0.0
 10
168.2096414836
 20
273.244055924
 10
168.2676442536
 20
273.367288527
 10
168.4328236254
 20
273.4717680188
 10
168.6800338896
 20
273.5415725084
 10
168.971634713
 20
273.5660923691
 10
169.263242987
 20
273.5415725084
 10
169.5104532512
 20
273.4717680188
 10
169.6756326231
 20
273.367288527
 10
169.733635393
 20
273.244055924
 10
169.6756326231
 20
273.1208158703
 10
169.5104532512
 20
273.0163438292
 10
169.263242987
 20
272.946531889
 10
168.971634713
 20
272.9220194788
 10
168.6800338896
 20
272.946531889
 10
168.4328236254
 20
273.0163438292
 10
168.2676442536
 20
273.1208158703
 10
168.2096414836
 20
273.244055924
  0
LWPOLYLINE
  5
2DD
330
1F
100
AcDbEntity
  8
0
  6
Continuous
 62
     7
370
    25
100
AcDbPolyline
 90
       17
 70
   128
 43
0.0
 10
165.9998365315
 20
273.244055924
 10
166.0578393014
 20
273.367288527
 10
166.2230261239
 20
273.4717680188
 10
166.4702363881
 20
273.5415725084
 10
166.7618372115
 20
273.5660923691
 10
167.0534454854
 20
273.5415725084
 10
167.3006557497
 20
273.4717680188
 10
167.4658351215
 20
273.367288527
 10
167.5238378914
 20
273.244055924
 10
167.4658351215
 20
273.1208158703
 10
167.3006557497
 20
273.0163438292
 10
167.0534454854
 20
272.946531889
 10
166.7618372115
 20
272.9220194788
 10
166.4702363881
 20
272.946531889
 10
166.2230261239
 20
273.0163438292
 10
166.0578393014
 20
273.1208158703
 10
165.9998365315
 20
273.244055924
  0
LWPOLYLINE
  5
2DE
330
1F
100
AcDbEntity
  8
0
  6
Continuous
 62
     7
370
    25
100
AcDbPolyline
 90
       17
 70
   128
 43
0.0
 10
161.5903370651
 20
273.244055924
 10
161.648339835
 20
273.367288527
 10
161.8135192069
 20
273.4717680188
 10
162.0607294711
 20
273.5415725084
 10
162.3523302945
 20
273.5660923691
 10
162.6439385684
 20
273.5415725084
 10
162.8911488327
 20
273.4717680188
 10
163.0563282045
 20
273.367288527
 10
163.1143309744
 20
273.244055924
 10
163.0563282045
 20
273.1208158703
 10
162.8911488327
 20
273.0163438292
 10
162.6439385684
 20
272.946531889
 10
162.3523302945
 20
272.9220194788
 10
162.0607294711
 20
272.946531889
 10
161.8135192069
 20
273.0163438292
 10
161.648339835
 20
273.1208158703
 10
161.5903370651
 20
273.244055924
  0
LWPOLYLINE
  5
2DF
330
1F
100
AcDbEntity
  8
0
  6
Continuous
 62
     7
370
    25
100
AcDbPolyline
 90
       17
 70
   128
 43
0.0
 10
173.7391867312
 20
272.4389685364
 10
173.7971895011
 20
272.5622011395
 10
173.962368873
 20
272.6666806312
 10
174.2095791372
 20
272.7364851208
 10
174.5011874112
 20
272.7610049815
 10
174.7927882346
 20
272.7364851208
 10
175.0399984988
 20
272.6666806312
 10
175.2051853212
 20
272.5622011395
 10
175.2631880911
 20
272.4389685364
 10
175.2051853212
 20
272.3157284828
 10
175.0399984988
 20
272.2112564416
 10
174.7927882346
 20
272.1414445014
 10
174.5011874112
 20
272.1169320913
 10
174.2095791372
 20
272.1414445014
 10
173.962368873
 20
272.2112564416
 10
173.7971895011
 20
272.3157284828
 10
173.7391867312
 20
272.4389685364
  0
LWPOLYLINE
  5
2E0
330
1F
100
AcDbEntity
  8
0
  6
Continuous
 62
     7
370
    25
100
AcDbPolyline
 90
       17
 70
   128
 43
0.0
 10
164.8999892744
 20
272.4389685364
 10
164.9579920443
 20
272.5622011395
 10
165.1231714161
 20
272.6666806312
 10
165.3703816803
 20
272.7364851208
 10
165.6619825037
 20
272.7610049815
 10
165.9535907777
 20
272.7364851208
 10
166.2008010419
 20
272.6666806312
 10
166.3659804138
 20
272.5622011395
 10
166.4239831837
 20
272.4389685364
 10
166.3659804138
 20
272.3157284828
 10
166.2008010419
 20
272.2112564416
 10
165.9535907777
 20
272.1414445014
 10
165.6619825037
 20
272.1169320913
 10
165.3703816803
 20
272.1414445014
 10
165.1231714161
 20
272.2112564416
 10
164.9579920443
 20
272.3157284828
 10
164.8999892744
 20
272.4389685364
  0
LWPOLYLINE
  5
2E1
330
1F
100
AcDbEntity
  8
0
  6
Continuous
 62
     7
370
    25
100
AcDbPolyline
 90
       17
 70
   128
 43
0.0
 10
167.1097867759
 20
272.4389685364
 10
167.1677895459
 20
272.5622011395
 10
167.3329689177
 20
272.6666806312
 10
167.5801791819
 20
272.7364851208
 10
167.8717874559
 20
272.7610049815
 10
168.1633882793
 20
272.7364851208
 10
168.4105985435
 20
272.6666806312
 10
168.5757853659
 20
272.5622011395
 10
168.6337881359
 20
272.4389685364
 10
168.5757853659
 20
272.3157284828
 10
168.4105985435
 20
272.2112564416
 10
168.1633882793
 20
272.1414445014
 10
167.8717874559
 20
272.1169320913
 10
167.5801791819
 20
272.1414445014
 10
167.3329689177
 20
272.2112564416
 10
167.1677895459
 20
272.3157284828
 10
167.1097867759
 20
272.4389685364
  0
LWPOLYLINE
  5
2E2
330
1F
100
AcDbEntity
  8
0
  6
Continuous
 62
     7
370
    25
100
AcDbPolyline
 90
       17
 70
   128
 43
0.0
 10
160.4803868207
 20
272.4389685364
 10
160.5383895906
 20
272.5622011395
 10
160.7035689624
 20
272.6666806312
 10
160.9507792266
 20
272.7364851208
 10
161.2423875006
 20
272.7610049815
 10
161.533988324
 20
272.7364851208
 10
161.7811985882
 20
272.6666806312
 10
161.9463854106
 20
272.5622011395
 10
162.0043881806
 20
272.4389685364
 10
161.9463854106
 20
272.3157284828
 10
161.7811985882
 20
272.2112564416
 10
161.533988324
 20
272.1414445014
 10
161.2423875006
 20
272.1169320913
 10
160.9507792266
 20
272.1414445014
 10
160.7035689624
 20
272.2112564416
 10
160.5383895906
 20
272.3157284828
 10
160.4803868207
 20
272.4389685364
  0
LWPOLYLINE
  5
2E3
330
1F
100
AcDbEntity
  8
0
  6
Continuous
 62
     7
370
    25
100
AcDbPolyline
 90
       17
 70
   128
 43
0.0
 10
171.5293892296
 20
272.4389685364
 10
171.5873919996
 20
272.5622011395
 10
171.7525713714
 20
272.6666806312
 10
171.9997816356
 20
272.7364851208
 10
172.291382459
 20
272.7610049815
 10
172.582990733
 20
272.7364851208
 10
172.8302009972
 20
272.6666806312
 10
172.995380369
 20
272.5622011395
 10
173.053383139
 20
272.4389685364
 10
172.995380369
 20
272.3157284828
 10
172.8302009972
 20
272.2112564416
 10
172.582990733
 20
272.1414445014
 10
172.291382459
 20
272.1169320913
 10
171.9997816356
 20
272.1414445014
 10
171.7525713714
 20
272.2112564416
 10
171.5873919996
 20
272.3157284828
 10
171.5293892296
 20
272.4389685364
  0
LWPOLYLINE
  5
2E4
330
1F
100
AcDbEntity
  8
0
  6
Continuous
 62
     7
370
    25
100
AcDbPolyline
 90
       17
 70
   128
 43
0.0
 10
169.3195842775
 20
272.4389685364
 10
169.3775870474
 20
272.5622011395
 10
169.5427738698
 20
272.6666806312
 10
169.7899841341
 20
272.7364851208
 10
170.0815849575
 20
272.7610049815
 10
170.3731932314
 20
272.7364851208
 10
170.6204034956
 20
272.6666806312
 10
170.7855828675
 20
272.5622011395
 10
170.8435856374
 20
272.4389685364
 10
170.7855828675
 20
272.3157284828
 10
170.6204034956
 20
272.2112564416
 10
170.3731932314
 20
272.1414445014
 10
170.0815849575
 20
272.1169320913
 10
169.7899841341
 20
272.1414445014
 10
169.5427738698
 20
272.2112564416
 10
169.3775870474
 20
272.3157284828
 10
169.3195842775
 20
272.4389685364
  0
LWPOLYLINE
  5
2E5
330
1F
100
AcDbEntity
  8
0
  6
Continuous
 62
     7
370
    25
100
AcDbPolyline
 90
       17
 70
   128
 43
0.0
 10
162.6901843222
 20
272.4389685364
 10
162.7481870922
 20
272.5622011395
 10
162.9133739146
 20
272.6666806312
 10
163.1605841788
 20
272.7364851208
 10
163.4521850022
 20
272.7610049815
 10
163.7437932762
 20
272.7364851208
 10
163.9910035404
 20
272.6666806312
 10
164.1561829122
 20
272.5622011395
 10
164.2141856822
 20
272.4389685364
 10
164.1561829122
 20
272.3157284828
 10
163.9910035404
 20
272.2112564416
 10
163.7437932762
 20
272.1414445014
 10
163.4521850022
 20
272.1169320913
 10
163.1605841788
 20
272.1414445014
 10
162.9133739146
 20
272.2112564416
 10
162.7481870922
 20
272.3157284828
 10
162.6901843222
 20
272.4389685364
  0
LWPOLYLINE
  5
2E6
330
1F
100
AcDbEntity
  8
0
  6
Continuous
 62
     7
370
    25
100
AcDbPolyline
 90
       17
 70
   128
 43
0.0
 10
158.2705893191
 20
272.4389685364
 10
158.328592089
 20
272.5622011395
 10
158.4937714609
 20
272.6666806312
 10
158.7409817251
 20
272.7364851208
 10
159.0325825485
 20
272.7610049815
 10
159.3241908225
 20
272.7364851208
 10
159.5714010867
 20
272.6666806312
 10
159.7365804585
 20
272.5622011395
 10
159.7945832284
 20
272.4389685364
 10
159.7365804585
 20
272.3157284828
 10
159.5714010867
 20
272.2112564416
 10
159.3241908225
 20
272.1414445014
 10
159.0325825485
 20
272.1169320913
 10
158.7409817251
 20
272.1414445014
 10
158.4937714609
 20
272.2112564416
 10
158.328592089
 20
272.3157284828
 10
158.2705893191
 20
272.4389685364
  0
LWPOLYLINE
  5
2E7
330
1F
100
AcDbEntity
  8
0
  6
Continuous
 62
     7
370
    25
100
AcDbPolyline
 90
       17
 70
   128
 43
0.0
 10
156.0607843669
 20
272.4389685364
 10
156.1187871369
 20
272.5622011395
 10
156.2839739593
 20
272.6666806312
 10
156.5311842235
 20
272.7364851208
 10
156.8227850469
 20
272.7610049815
 10
157.1143933209
 20
272.7364851208
 10
157.3616035851
 20
272.6666806312
 10
157.5267829569
 20
272.5622011395
 10
157.5847857269
 20
272.4389685364
 10
157.5267829569
 20
272.3157284828
 10
157.3616035851
 20
272.2112564416
 10
157.1143933209
 20
272.1414445014
 10
156.8227850469
 20
272.1169320913
 10
156.5311842235
 20
272.1414445014
 10
156.2839739593
 20
272.2112564416
 10
156.1187871369
 20
272.3157284828
 10
156.0607843669
 20
272.4389685364
  0
LWPOLYLINE
  5
2E8
330
1F
100
AcDbEntity
  8
0
  6
Continuous
 62
     7
370
    25
100
AcDbPolyline
 90
       17
 70
   128
 43
0.0
 10
172.7465533288
 20
271.5480057569
 10
172.8045560988
 20
271.67123836
 10
172.9697429212
 20
271.7757178517
 10
173.2169531854
 20
271.8455223413
 10
173.5085540088
 20
271.8700347514
 10
173.8001622828
 20
271.8455223413
 10
174.047372547
 20
271.7757178517
 10
174.2125519188
 20
271.67123836
 10
174.2705546888
 20
271.5480057569
 10
174.2125519188
 20
271.4247657032
 10
174.047372547
 20
271.3202862115
 10
173.8001622828
 20
271.2504817219
 10
173.5085540088
 20
271.2259693117
 10
173.2169531854
 20
271.2504817219
 10
172.9697429212
 20
271.3202862115
 10
172.8045560988
 20
271.4247657032
 10
172.7465533288
 20
271.5480057569
  0
LWPOLYLINE
  5
2E9
330
1F
100
AcDbEntity
  8
0
  6
Continuous
 62
     7
370
    25
100
AcDbPolyline
 90
       17
 70
   128
 43
0.0
 10
161.4730127724
 20
271.5480057569
 10
161.5310229929
 20
271.67123836
 10
161.6962023648
 20
271.7757178517
 10
161.943412629
 20
271.8455223413
 10
162.2350134524
 20
271.8700347514
 10
162.5266217264
 20
271.8455223413
 10
162.7738319906
 20
271.7757178517
 10
162.9390113624
 20
271.67123836
 10
162.9970141324
 20
271.5480057569
 10
162.9390113624
 20
271.4247657032
 10
162.7738319906
 20
271.3202862115
 10
162.5266217264
 20
271.2504817219
 10
162.2350134524
 20
271.2259693117
 10
161.943412629
 20
271.2504817219
 10
161.6962023648
 20
271.3202862115
 10
161.5310229929
 20
271.4247657032
 10
161.4730127724
 20
271.5480057569
  0
LWPOLYLINE
  5
2EA
330
1F
100
AcDbEntity
  8
0
  6
Continuous
 62
     7
370
    25
100
AcDbPolyline
 90
       17
 70
   128
 43
0.0
 10
168.3269583257
 20
271.5480057569
 10
168.3849610957
 20
271.67123836
 10
168.5501404675
 20
271.7757178517
 10
168.7973507317
 20
271.8455223413
 10
169.0889590057
 20
271.8700347514
 10
169.3805598291
 20
271.8455223413
 10
169.6277700933
 20
271.7757178517
 10
169.7929494651
 20
271.67123836
 10
169.8509522351
 20
271.5480057569
 10
169.7929494651
 20
271.4247657032
 10
169.6277700933
 20
271.3202862115
 10
169.3805598291
 20
271.2504817219
 10
169.0889590057
 20
271.2259693117
 10
168.7973507317
 20
271.2504817219
 10
168.5501404675
 20
271.3202862115
 10
168.3849610957
 20
271.4247657032
 10
168.3269583257
 20
271.5480057569
  0
LWPOLYLINE
  5
2EB
330
1F
100
AcDbEntity
  8
0
  6
Continuous
 62
     7
370
    25
100
AcDbPolyline
 90
       17
 70
   128
 43
0.0
 10
166.1171533736
 20
271.5480057569
 10
166.1751561435
 20
271.67123836
 10
166.3403429659
 20
271.7757178517
 10
166.5875532301
 20
271.8455223413
 10
166.8791540535
 20
271.8700347514
 10
167.1707623275
 20
271.8455223413
 10
167.4179725917
 20
271.7757178517
 10
167.5831519636
 20
271.67123836
 10
167.6411547335
 20
271.5480057569
 10
167.5831519636
 20
271.4247657032
 10
167.4179725917
 20
271.3202862115
 10
167.1707623275
 20
271.2504817219
 10
166.8791540535
 20
271.2259693117
 10
166.5875532301
 20
271.2504817219
 10
166.3403429659
 20
271.3202862115
 10
166.1751561435
 20
271.4247657032
 10
166.1171533736
 20
271.5480057569
  0
LWPOLYLINE
  5
2EC
330
1F
100
AcDbEntity
  8
0
  6
Continuous
 62
     7
370
    25
100
AcDbPolyline
 90
       17
 70
   128
 43
0.0
 10
157.0534177693
 20
271.5480057569
 10
157.1114205392
 20
271.67123836
 10
157.2765999111
 20
271.7757178517
 10
157.5238101753
 20
271.8455223413
 10
157.8154184493
 20
271.8700347514
 10
158.1070192727
 20
271.8455223413
 10
158.3542295369
 20
271.7757178517
 10
158.5194089087
 20
271.67123836
 10
158.5774191292
 20
271.5480057569
 10
158.5194089087
 20
271.4247657032
 10
158.3542295369
 20
271.3202862115
 10
158.1070192727
 20
271.2504817219
 10
157.8154184493
 20
271.2259693117
 10
157.5238101753
 20
271.2504817219
 10
157.2765999111
 20
271.3202862115
 10
157.1114205392
 20
271.4247657032
 10
157.0534177693
 20
271.5480057569
  0
LWPOLYLINE
  5
2ED
330
1F
100
AcDbEntity
  8
0
  6
Continuous
 62
     7
370
    25
100
AcDbPolyline
 90
       17
 70
   128
 43
0.0
 10
163.6828177246
 20
271.5480057569
 10
163.7408204945
 20
271.67123836
 10
163.9059998663
 20
271.7757178517
 10
164.1532101305
 20
271.8455223413
 10
164.4448184045
 20
271.8700347514
 10
164.7364192279
 20
271.8455223413
 10
164.9836294921
 20
271.7757178517
 10
165.148808864
 20
271.67123836
 10
165.2068190845
 20
271.5480057569
 10
165.148808864
 20
271.4247657032
 10
164.9836294921
 20
271.3202862115
 10
164.7364192279
 20
271.2504817219
 10
164.4448184045
 20
271.2259693117
 10
164.1532101305
 20
271.2504817219
 10
163.9059998663
 20
271.3202862115
 10
163.7408204945
 20
271.4247657032
 10
163.6828177246
 20
271.5480057569
  0
LWPOLYLINE
  5
2EE
330
1F
100
AcDbEntity
  8
0
  6
Continuous
 62
     7
370
    25
100
AcDbPolyline
 90
       17
 70
   128
 43
0.0
 10
170.5367558273
 20
271.5480057569
 10
170.5947585972
 20
271.67123836
 10
170.7599379691
 20
271.7757178517
 10
171.0071482333
 20
271.8455223413
 10
171.2987565073
 20
271.8700347514
 10
171.5903573307
 20
271.8455223413
 10
171.8375675949
 20
271.7757178517
 10
172.0027544173
 20
271.67123836
 10
172.0607571872
 20
271.5480057569
 10
172.0027544173
 20
271.4247657032
 10
171.8375675949
 20
271.3202862115
 10
171.5903573307
 20
271.2504817219
 10
171.2987565073
 20
271.2259693117
 10
171.0071482333
 20
271.2504817219
 10
170.7599379691
 20
271.3202862115
 10
170.5947585972
 20
271.4247657032
 10
170.5367558273
 20
271.5480057569
  0
LWPOLYLINE
  5
2EF
330
1F
100
AcDbEntity
  8
0
  6
Continuous
 62
     7
370
    25
100
AcDbPolyline
 90
       17
 70
   128
 43
0.0
 10
159.2632152709
 20
271.5480057569
 10
159.3212180408
 20
271.67123836
 10
159.4863974126
 20
271.7757178517
 10
159.7336076768
 20
271.8455223413
 10
160.0252159508
 20
271.8700347514
 10
160.3168242248
 20
271.8455223413
 10
160.564034489
 20
271.7757178517
 10
160.7292138608
 20
271.67123836
 10
160.7872166308
 20
271.5480057569
 10
160.7292138608
 20
271.4247657032
 10
160.564034489
 20
271.3202862115
 10
160.3168242248
 20
271.2504817219
 10
160.0252159508
 20
271.2259693117
 10
159.7336076768
 20
271.2504817219
 10
159.4863974126
 20
271.3202862115
 10
159.3212180408
 20
271.4247657032
 10
159.2632152709
 20
271.5480057569
  0
LINE
  5
2F0
330
1F
100
AcDbEntity
  8
0
  6
Continuous
 62
     7
370
    25
100
AcDbLine
 10
159.0628691586
 20
270.2002329798
 30
0.0
 11
159.0628691586
 21
270.1645372482
 31
0.0
  0
LINE
  5
2F1
330
1F
100
AcDbEntity
  8
0
  6
Continuous
 62
     7
370
    25
100
AcDbLine
 10
172.2610958489
 20
270.2002329798
 30
0.0
 11
172.2610958489
 21
270.1645372482
 31
0.0
  0
ARC
  5
2F2
330
1F
100
AcDbEntity
  8
0
  6
Continuous
 62
     7
370
    25
100
AcDbCircle
 10
177.0547574567
 20
277.884956723
 30
0.0
 40
11.43266881697814
100
AcDbArc
 50
341.0817405112
 51
22.7581261902
  0
ARC
  5
2F3
330
1F
100
AcDbEntity
  8
0
  6
Continuous
 62
     7
370
    25
100
AcDbCircle
 10
219.2079019316
 20
277.8815390208
 30
0.0
 40
11.37287575882444
100
AcDbArc
 50
159.9582605207
 51
197.7083826766
  0
LWPOLYLINE
  5
2F4
330
1F
100
AcDbEntity
  8
0
  6
Continuous
 62
     7
370
    25
100
AcDbPolyline
 90
        9
 70
   128
 43
0.0
 10
196.6619857224
 20
269.80409306
 10
196.77616587
 20
269.5615021558
 10
197.1013241085
 20
269.3558437796
 10
197.5879587801
 20
269.2184252711
 10
198.1619850369
 20
269.1701678605
 10
198.7360112937
 20
269.2184252711
 10
199.2226459654
 20
269.3558437796
 10
199.5478042038
 20
269.5615021558
 10
199.6619843515
 20
269.80409306
  0
LINE
  5
2F5
330
1F
100
AcDbEntity
  8
0
  6
Continuous
 62
     7
370
    25
100
AcDbLine
 10
196.6619857224
 20
282.9783735843
 30
0.0
 11
196.6619857224
 21
269.80409306
 31
0.0
  0
LINE
  5
2F6
330
1F
100
AcDbEntity
  8
0
  6
Continuous
 62
     7
370
    25
100
AcDbLine
 10
199.6619843515
 20
269.80409306
 30
0.0
 11
199.6619843515
 21
282.9783735843
 31
0.0
  0
LINE
  5
2F7
330
1F
100
AcDbEntity
  8
0
  6
Continuous
 62
     7
370
    25
100
AcDbLine
 10
186.5444250973
 20
271.1308328481
 30
0.0
 11
186.5412846776
 21
271.1491761775
 31
0.0
  0
ARC
  5
2F8
330
1F
100
AcDbEntity
  8
0
  6
Continuous
 62
     7
370
    25
100
AcDbCircle
 10
319.2079034217
 20
277.8815390208
 30
0.0
 40
11.37287575882438
100
AcDbArc
 50
159.9582605207
 51
197.7083826766
  0
ARC
  5
2F9
330
1F
100
AcDbEntity
  8
0
  6
Continuous
 62
     7
370
    25
100
AcDbCircle
 10
277.0548560679
 20
277.8849649347
 30
0.0
 40
11.43257608055095
100
AcDbArc
 50
341.0815377188
 51
22.7582765295
  0
LWPOLYLINE
  5
2FA
330
1F
100
AcDbEntity
  8
0
  6
Continuous
 62
     7
370
    25
100
AcDbPolyline
 90
        9
 70
   128
 43
0.0
 10
296.6619872125
 20
269.80409306
 10
296.7761673602
 20
269.5615021558
 10
297.1013255986
 20
269.3558437796
 10
297.5879602703
 20
269.2184252711
 10
298.1619865271
 20
269.1701678605
 10
298.7360127839
 20
269.2184252711
 10
299.2226474555
 20
269.3558437796
 10
299.547805694
 20
269.5615021558
 10
299.6619858416
 20
269.80409306
  0
LINE
  5
2FB
330
1F
100
AcDbEntity
  8
0
  6
Continuous
 62
     7
370
    25
100
AcDbLine
 10
296.6619872125
 20
282.9783735843
 30
0.0
 11
296.6619872125
 21
269.80409306
 31
0.0
  0
LINE
  5
2FC
330
1F
100
AcDbEntity
  8
0
  6
Continuous
 62
     7
370
    25
100
AcDbLine
 10
299.6619858416
 20
269.80409306
 30
0.0
 11
299.6619858416
 21
282.9783735843
 31
0.0
  0
LINE
  5
2FD
330
1F
100
AcDbEntity
  8
0
  6
Continuous
 62
     7
370
    25
100
AcDbLine
 10
286.5444265874
 20
271.1308328481
 30
0.0
 11
286.5412861677
 21
271.1491761775
 31
0.0
  0
LINE
  5
2FE
330
1F
100
AcDbEntity
  8
0
  6
Continuous
 62
     7
370
    25
100
AcDbLine
 10
448.1619887622
 20
282.9161463352
 30
0.0
 11
448.1619887622
 21
282.9783735843
 31
0.0
  0
LINE
  5
2FF
330
1F
100
AcDbEntity
  8
0
  6
Continuous
 62
     7
370
    25
100
AcDbLine
 10
48.1619828018
 20
282.9783735843
 30
0.0
 11
48.1619828018
 21
282.9161463352
 31
0.0
  0
CIRCLE
  5
300
330
1F
100
AcDbEntity
  8
0
  6
Continuous
 62
     7
370
    25
100
AcDbCircle
 10
58.161985782
 20
1145.4783767886
 30
0.0
 40
9.500000000000227
  0
CIRCLE
  5
301
330
1F
100
AcDbEntity
  8
0
  6
Continuous
 62
     7
370
    25
100
AcDbCircle
 10
438.161985782
 20
1145.4783767886
 30
0.0
 40
9.5
  0
ARC
  5
302
330
1F
100
AcDbEntity
  8
0
  6
Continuous
 62
     7
370
    25
100
AcDbCircle
 10
98.161985782
 20
1027.4783767886
 30
0.0
 40
4.999999999970223
100
AcDbArc
 50
323.1683165354
 51
0.0
  0
ARC
  5
303
330
1F
100
AcDbEntity
  8
0
  6
Continuous
 62
     7
370
    25
100
AcDbCircle
 10
98.161985782
 20
1027.4783767886
 30
0.0
 40
4.999999999970303
100
AcDbArc
 50
0.0
 51
216.8316834646
  0
ARC
  5
304
330
1F
100
AcDbEntity
  8
0
  6
Continuous
 62
     7
370
    25
100
AcDbCircle
 10
98.161985782
 20
1027.4783767886
 30
0.0
 40
9.999999994761472
100
AcDbArc
 50
180.0
 51
246.409317949
  0
ARC
  5
305
330
1F
100
AcDbEntity
  8
0
  6
Continuous
 62
     7
370
    25
100
AcDbCircle
 10
98.161985782
 20
1027.4783767886
 30
0.0
 40
9.999999994761454
100
AcDbArc
 50
293.590682051
 51
180.0
  0
ARC
  5
306
330
1F
100
AcDbEntity
  8
0
  6
Continuous
 62
     7
370
    25
100
AcDbCircle
 10
398.161985782
 20
1027.4783767886
 30
0.0
 40
9.99999999476131
100
AcDbArc
 50
180.0
 51
246.409317949
  0
ARC
  5
307
330
1F
100
AcDbEntity
  8
0
  6
Continuous
 62
     7
370
    25
100
AcDbCircle
 10
398.161985782
 20
1027.4783767886
 30
0.0
 40
9.99999999476131
100
AcDbArc
 50
293.590682051
 51
180.0
  0
ARC
  5
308
330
1F
100
AcDbEntity
  8
0
  6
Continuous
 62
     7
370
    25
100
AcDbCircle
 10
398.161985782
 20
1027.4783767886
 30
0.0
 40
4.999999999970257
100
AcDbArc
 50
323.1683165354
 51
0.0
  0
ARC
  5
309
330
1F
100
AcDbEntity
  8
0
  6
Continuous
 62
     7
370
    25
100
AcDbCircle
 10
398.161985782
 20
1027.4783767886
 30
0.0
 40
4.999999999970214
100
AcDbArc
 50
0.0
 51
216.8316834646
  0
ARC
  5
30A
330
1F
100
AcDbEntity
  8
0
  6
Continuous
 62
     7
370
    25
100
AcDbCircle
 10
398.161985782
 20
1027.4783767886
 30
0.0
 40
4.00200000000018
100
AcDbArc
 50
90.0
 51
180.0
  0
ARC
  5
30B
330
1F
100
AcDbEntity
  8
0
  6
Continuous
 62
     7
370
    25
100
AcDbCircle
 10
398.161985782
 20
1027.4783767886
 30
0.0
 40
4.00200000000018
100
AcDbArc
 50
0.0
 51
90.0
  0
ARC
  5
30C
330
1F
100
AcDbEntity
  8
0
  6
Continuous
 62
     7
370
    25
100
AcDbCircle
 10
98.161985782
 20
1027.4783767886
 30
0.0
 40
4.00200000000001
100
AcDbArc
 50
90.0
 51
180.0
  0
ARC
  5
30D
330
1F
100
AcDbEntity
  8
0
  6
Continuous
 62
     7
370
    25
100
AcDbCircle
 10
98.161985782
 20
1027.4783767886
 30
0.0
 40
4.00200000000001
100
AcDbArc
 50
0.0
 51
90.0
  0
LINE
  5
30E
330
1F
100
AcDbEntity
  8
0
  6
Continuous
 62
     7
370
    25
100
AcDbLine
 10
148.1691890033
 20
651.4783753128
 30
0.0
 11
148.8589190515
 21
651.4783753128
 31
0.0
  0
SPLINE
  5
30F
330
1F
100
AcDbEntity
  8
0
  6
Continuous
 62
     7
370
    25
100
AcDbSpline
210
0.0
220
0.0
230
1.0
 70
    24
 71
     3
 72
     9
 73
     5
 74
     0
 42
0.000000001
 43
0.00000001
 40
0.0
 40
0.0
 40
0.0
 40
0.0
 40
0.1082822317441448
 40
1.0
 40
1.0
 40
1.0
 40
1.0
 10
182.3601119788648
 20
651.4783753128364
 30
0.0
 10
182.3907910343488
 20
651.4783753128364
 30
0.0
 10
182.6741159620847
 20
651.4783753128364
 30
0.0
 10
182.9358235613099
 20
651.4783753128364
 30
0.0
 10
183.1691928776265
 20
651.4783753128364
 30
0.0
  0
LINE
  5
310
330
1F
100
AcDbEntity
  8
0
  6
Continuous
 62
     7
370
    25
100
AcDbLine
 10
313.1691881093
 20
651.4783753128
 30
0.0
 11
313.858925608
 21
651.4783753128
 31
0.0
  0
SPLINE
  5
311
330
1F
100
AcDbEntity
  8
0
  6
Continuous
 62
     7
370
    25
100
AcDbSpline
210
0.0
220
0.0
230
1.0
 70
    24
 71
     3
 72
     9
 73
     5
 74
     0
 42
0.000000001
 43
0.00000001
 40
0.0
 40
0.0
 40
0.0
 40
0.0
 40
0.1082894690011005
 40
1.0
 40
1.0
 40
1.0
 40
1.0
 10
347.3601110847952
 20
651.4783753128364
 30
0.0
 10
347.3907926624226
 20
651.4783753128364
 30
0.0
 10
347.6741219455977
 20
651.4783753128365
 30
0.0
 10
347.9358269104148
 20
651.4783753128365
 30
0.0
 10
348.1691919835569
 20
651.4783753128364
 30
0.0
  0
LINE
  5
312
330
1F
100
AcDbEntity
  8
0
  6
Continuous
 62
     7
370
    25
100
AcDbLine
 10
313.1691881093
 20
646.4783800812
 30
0.0
 11
313.6619844111
 21
646.4783800812
 31
0.0
  0
LINE
  5
313
330
1F
100
AcDbEntity
  8
0
  6
Continuous
 62
     7
370
    25
100
AcDbLine
 10
347.6619862588
 20
646.4783800812
 30
0.0
 11
348.1691919836
 21
646.4783800812
 31
0.0
  0
LINE
  5
314
330
1F
100
AcDbEntity
  8
0
  6
Continuous
 62
     7
370
    25
100
AcDbLine
 10
148.1691890033
 20
646.4783800812
 30
0.0
 11
148.6619853052
 21
646.4783800812
 31
0.0
  0
LINE
  5
315
330
1F
100
AcDbEntity
  8
0
  6
Continuous
 62
     7
370
    25
100
AcDbLine
 10
182.6619871529
 20
646.4783800812
 30
0.0
 11
183.1691928776
 21
646.4783800812
 31
0.0
  0
ARC
  5
316
330
1F
100
AcDbEntity
  8
0
  6
Continuous
 62
     7
370
    25
100
AcDbCircle
 10
200.661985782
 20
953.4783767886
 30
0.0
 40
34.99999999999998
100
AcDbArc
 50
35.4628804295
 51
57.0066399607
  0
LINE
  5
317
330
1F
100
AcDbEntity
  8
0
  6
Continuous
 62
     7
370
    25
100
AcDbLine
 10
48.1619828018
 20
1112.2283889027
 30
0.0
 11
48.1619828018
 21
1107.9783989163
 31
0.0
  0
LINE
  5
318
330
1F
100
AcDbEntity
  8
0
  6
Continuous
 62
     7
370
    25
100
AcDbLine
 10
448.1619887622
 20
1112.2283889027
 30
0.0
 11
448.1619887622
 21
1107.9783989163
 31
0.0
  0
LINE
  5
319
330
1F
100
AcDbEntity
  8
0
  6
Continuous
 62
     7
370
    25
100
AcDbLine
 10
48.1619828018
 20
1107.9783989163
 30
0.0
 11
228.9414063664
 21
1107.9783989163
 31
0.0
  0
LINE
  5
31A
330
1F
100
AcDbEntity
  8
0
  6
Continuous
 62
     7
370
    25
100
AcDbLine
 10
233.1410667496
 20
1107.9783989163
 30
0.0
 11
234.0531100156
 21
1107.9783989163
 31
0.0
  0
LINE
  5
31B
330
1F
100
AcDbEntity
  8
0
  6
Continuous
 62
     7
370
    25
100
AcDbLine
 10
251.4328996288
 20
1107.9783989163
 30
0.0
 11
448.1619887622
 21
1107.9783989163
 31
0.0
  0
LINE
  5
31C
330
1F
100
AcDbEntity
  8
0
  6
Continuous
 62
     7
370
    25
100
AcDbLine
 10
448.1619887622
 20
1178.7283970089
 30
0.0
 11
448.1619887622
 21
1112.2283889027
 31
0.0
  0
LINE
  5
31D
330
1F
100
AcDbEntity
  8
0
  6
Continuous
 62
     7
370
    25
100
AcDbLine
 10
48.1619828018
 20
1178.7283970089
 30
0.0
 11
48.1619828018
 21
1112.2283889027
 31
0.0
  0
LINE
  5
31E
330
1F
100
AcDbEntity
  8
0
  6
Continuous
 62
     7
370
    25
100
AcDbLine
 10
48.1619828018
 20
1182.9783869953
 30
0.0
 11
48.1619828018
 21
1178.7283970089
 31
0.0
  0
LINE
  5
31F
330
1F
100
AcDbEntity
  8
0
  6
Continuous
 62
     7
370
    25
100
AcDbLine
 10
48.1619828018
 20
1182.9783869953
 30
0.0
 11
448.1619887622
 21
1182.9783869953
 31
0.0
  0
LINE
  5
320
330
1F
100
AcDbEntity
  8
0
  6
Continuous
 62
     7
370
    25
100
AcDbLine
 10
448.1619887622
 20
1182.9783869953
 30
0.0
 11
448.1619887622
 21
1178.7283970089
 31
0.0
  0
LINE
  5
321
330
1F
100
AcDbEntity
  8
0
  6
Continuous
 62
     7
370
    25
100
AcDbLine
 10
48.1619828018
 20
1107.9783989163
 30
0.0
 11
48.1619828018
 21
1105.7283831806
 31
0.0
  0
LINE
  5
322
330
1F
100
AcDbEntity
  8
0
  6
Continuous
 62
     7
370
    25
100
AcDbLine
 10
448.1619887622
 20
1107.9783989163
 30
0.0
 11
448.1619887622
 21
1105.7283831806
 31
0.0
  0
LINE
  5
323
330
1F
100
AcDbEntity
  8
0
  6
Continuous
 62
     7
370
    25
100
AcDbLine
 10
118.1619905504
 20
1070.4783750744
 30
0.0
 11
220.9705349626
 21
1070.4783750744
 31
0.0
  0
LINE
  5
324
330
1F
100
AcDbEntity
  8
0
  6
Continuous
 62
     7
370
    25
100
AcDbLine
 10
243.4620286906
 20
1070.4783750744
 30
0.0
 11
378.1619810136
 21
1070.4783750744
 31
0.0
  0
ARC
  5
325
330
1F
100
AcDbEntity
  8
0
  6
Continuous
 62
     7
370
    25
100
AcDbCircle
 10
118.161985782
 20
396.4783767886
 30
0.0
 40
40.00000000000002
100
AcDbArc
 50
180.0
 51
219.33330502
  0
ARC
  5
326
330
1F
100
AcDbEntity
  8
0
  6
Continuous
 62
     7
370
    25
100
AcDbCircle
 10
118.161985782
 20
396.4783767886
 30
0.0
 40
40.00000000000002
100
AcDbArc
 50
219.33330502
 51
270.0
  0
LINE
  5
327
330
1F
100
AcDbEntity
  8
0
  6
Continuous
 62
     7
370
    25
100
AcDbLine
 10
448.1619887622
 20
294.9783755513
 30
0.0
 11
448.1619887622
 21
282.9783735843
 31
0.0
  0
LINE
  5
328
330
1F
100
AcDbEntity
  8
0
  6
Continuous
 62
     7
370
    25
100
AcDbLine
 10
48.1619828018
 20
294.9783755513
 30
0.0
 11
48.1619828018
 21
282.9783735843
 31
0.0
  0
ARC
  5
329
330
1F
100
AcDbEntity
  8
0
  6
Continuous
 62
     7
370
    25
100
AcDbCircle
 10
378.161985782
 20
396.4783767886
 30
0.0
 40
39.99999999999999
100
AcDbArc
 50
270.0
 51
320.66669498
  0
ARC
  5
32A
330
1F
100
AcDbEntity
  8
0
  6
Continuous
 62
     7
370
    25
100
AcDbCircle
 10
378.161985782
 20
396.4783767886
 30
0.0
 40
39.99999999999999
100
AcDbArc
 50
320.66669498
 51
0.0
  0
LINE
  5
32B
330
1F
100
AcDbEntity
  8
0
  6
Continuous
 62
     7
370
    25
100
AcDbLine
 10
418.1619875701
 20
1030.4783536167
 30
0.0
 11
418.1619875701
 21
396.4783763559
 31
0.0
  0
ARC
  5
32C
330
1F
100
AcDbEntity
  8
0
  6
Continuous
 62
     7
370
    25
100
AcDbCircle
 10
118.161985782
 20
1030.4783767886
 30
0.0
 40
40.0
100
AcDbArc
 50
90.0
 51
180.0
  0
ARC
  5
32D
330
1F
100
AcDbEntity
  8
0
  6
Continuous
 62
     7
370
    25
100
AcDbCircle
 10
378.161985782
 20
1030.4783767886
 30
0.0
 40
40.0
100
AcDbArc
 50
0.0
 51
90.0
  0
LINE
  5
32E
330
1F
100
AcDbEntity
  8
0
  6
Continuous
 62
     7
370
    25
100
AcDbLine
 10
78.1619839939
 20
1030.4783536167
 30
0.0
 11
78.1619839939
 21
396.4783763559
 31
0.0
  0
LINE
  5
32F
330
1F
100
AcDbEntity
  8
0
  6
Continuous
 62
     7
370
    25
100
AcDbLine
 10
118.1619905504
 20
356.47837725
 30
0.0
 11
378.1619810136
 21
356.47837725
 31
0.0
  0
LINE
  5
330
330
1F
100
AcDbEntity
  8
0
  6
Continuous
 62
     7
370
    25
100
AcDbLine
 10
448.1619887622
 20
1105.7283831806
 30
0.0
 11
448.1619887622
 21
294.9783755513
 31
0.0
  0
LINE
  5
331
330
1F
100
AcDbEntity
  8
0
  6
Continuous
 62
     7
370
    25
100
AcDbLine
 10
48.1619828018
 20
1105.7283831806
 30
0.0
 11
48.1619828018
 21
294.9783755513
 31
0.0
  0
ELLIPSE
  5
332
330
1F
100
AcDbEntity
  8
0
  6
Continuous
 62
     7
370
    25
100
AcDbEllipse
 10
88.1824601925
 20
467.802281037
 30
0.0
 11
8.999999764729594
 21
-0.05718481864482783
 31
0.0
210
0.0
220
0.0
230
1.0
 40
0.0359864627
 41
3.316354232053754
 42
4.712617633646828
  0
ELLIPSE
  5
333
330
1F
100
AcDbEntity
  8
0
  6
Continuous
 62
     7
370
    25
100
AcDbEllipse
 10
89.7694030189
 20
592.677281037
 30
0.0
 11
1.591058419013138
 21
125.1988520140709
 31
0.0
210
0.0
220
0.0
230
1.0
 40
0.0718798391
 41
3.142049960114267
 42
3.142506120363253
  0
ELLIPSE
  5
334
330
1F
100
AcDbEntity
  8
0
  6
Continuous
 62
     7
370
    25
100
AcDbEllipse
 10
406.5545685451
 20
592.677281037
 30
0.0
 11
-1.591058419013109
 21
125.1988520140709
 31
0.0
210
0.0
220
0.0
230
1.0
 40
0.0718798391
 41
3.14067918681654
 42
3.14113534706552
  0
ELLIPSE
  5
335
330
1F
100
AcDbEntity
  8
0
  6
Continuous
 62
     7
370
    25
100
AcDbEllipse
 10
408.1415113715
 20
467.802281037
 30
0.0
 11
8.999999764729523
 21
0.05718481864482783
 31
0.0
210
0.0
220
0.0
230
1.0
 40
0.0359864627
 41
4.71216032712254
 42
6.108423728718273
  0
LINE
  5
336
330
1F
100
AcDbEntity
  8
0
  6
Continuous
 62
     7
370
    25
100
AcDbLine
 10
88.1865613731
 20
467.4783749552
 30
0.0
 11
148.6619853052
 21
467.4783749552
 31
0.0
  0
LINE
  5
337
330
1F
100
AcDbEntity
  8
0
  6
Continuous
 62
     7
370
    25
100
AcDbLine
 10
182.6619871529
 20
467.4783749552
 30
0.0
 11
313.6619844111
 21
467.4783749552
 31
0.0
  0
LINE
  5
338
330
1F
100
AcDbEntity
  8
0
  6
Continuous
 62
     7
370
    25
100
AcDbLine
 10
347.6619862588
 20
467.4783749552
 30
0.0
 11
408.1374101909
 21
467.4783749552
 31
0.0
  0
LINE
  5
339
330
1F
100
AcDbEntity
  8
0
  6
Continuous
 62
     7
370
    25
100
AcDbLine
 10
313.1691881093
 20
643.4783889027
 30
0.0
 11
313.6619844111
 21
643.4783889027
 31
0.0
  0
LINE
  5
33A
330
1F
100
AcDbEntity
  8
0
  6
Continuous
 62
     7
370
    25
100
AcDbLine
 10
347.6619862588
 20
643.4783889027
 30
0.0
 11
348.1691919836
 21
643.4783889027
 31
0.0
  0
LINE
  5
33B
330
1F
100
AcDbEntity
  8
0
  6
Continuous
 62
     7
370
    25
100
AcDbLine
 10
148.1691890033
 20
643.4783889027
 30
0.0
 11
148.6619853052
 21
643.4783889027
 31
0.0
  0
LINE
  5
33C
330
1F
100
AcDbEntity
  8
0
  6
Continuous
 62
     7
370
    25
100
AcDbLine
 10
182.6619871529
 20
643.4783889027
 30
0.0
 11
183.1691928776
 21
643.4783889027
 31
0.0
  0
ARC
  5
33D
330
1F
100
AcDbEntity
  8
0
  6
Continuous
 62
     7
370
    25
100
AcDbCircle
 10
200.661985782
 20
953.4783767886
 30
0.0
 40
38.00000000000004
100
AcDbArc
 50
41.3931960837
 51
58.732675718
  0
ENDSEC
  0
SECTION
  2
OBJECTS
  0
DICTIONARY
  5
C
330
0
100
AcDbDictionary
281
     1
  3
ACAD_GROUP
350
D
  3
ACAD_LAYOUT
350
1A
  3
ACAD_MLINESTYLE
350
17
  3
ACAD_PLOTSETTINGS
350
19
  3
ACAD_PLOTSTYLENAME
350
E
  3
ACAD_SCALELIST
350
47
  0
DICTIONARY
  5
D
102
{ACAD_REACTORS
330
C
102
}
330
C
100
AcDbDictionary
281
     1
  0
DICTIONARY
  5
1A
102
{ACAD_REACTORS
330
C
102
}
330
C
100
AcDbDictionary
281
     1
  3
Layout1
350
1E
  3
Layout2
350
26
  3
Model
350
22
  0
DICTIONARY
  5
17
102
{ACAD_REACTORS
330
C
102
}
330
C
100
AcDbDictionary
281
     1
  3
Standard
350
18
  0
DICTIONARY
  5
19
102
{ACAD_REACTORS
330
C
102
}
330
C
100
AcDbDictionary
281
     1
  0
ACDBDICTIONARYWDFLT
  5
E
102
{ACAD_REACTORS
330
C
102
}
330
C
100
AcDbDictionary
281
     1
  3
Normal
350
F
100
AcDbDictionaryWithDefault
340
F
  0
DICTIONARY
  5
47
102
{ACAD_REACTORS
330
C
102
}
330
C
100
AcDbDictionary
281
     1
  3
A0
350
48
  3
A1
350
49
  3
A2
350
4A
  3
A3
350
4B
  3
A4
350
4C
  3
A5
350
4D
  3
A6
350
4E
  3
A7
350
4F
  3
A8
350
50
  3
A9
350
51
  3
B0
350
52
  3
B1
350
53
  3
B2
350
54
  3
B3
350
55
  3
B4
350
56
  3
B5
350
57
  3
B6
350
58
  3
B7
350
59
  3
B8
350
5A
  3
B9
350
5B
  3
C0
350
5C
  3
C1
350
5D
  3
C2
350
5E
  3
C3
350
5F
  3
C4
350
60
  3
C5
350
61
  3
C6
350
62
  3
C7
350
63
  3
C8
350
64
  3
C9
350
65
  3
D0
350
66
  3
D1
350
67
  3
D2
350
68
  0
LAYOUT
  5
1E
102
{ACAD_REACTORS
330
1A
102
}
330
1A
100
AcDbPlotSettings
  1

  2
none_device
  4

  6

 40
0.0
 41
0.0
 42
0.0
 43
0.0
 44
0.0
 45
0.0
 46
0.0
 47
0.0
 48
0.0
 49
0.0
140
0.0
141
0.0
142
1.0
143
1.0
 70
   688
 72
     1
 73
     0
 74
     5
  7

 75
    16
147
1.0
148
0.0
149
0.0
100
AcDbLayout
  1
Layout1
 70
     1
 71
     1
 10
0.0
 20
0.0
 11
420.0
 21
297.0
 12
0.0
 22
0.0
 32
0.0
 14
1.0000000000E+20
 24
1.0000000000E+20
 34
1.0000000000E+20
 15
-1.0000000000E+20
 25
-1.0000000000E+20
 35
-1.0000000000E+20
146
0.0
 13
0.0
 23
0.0
 33
0.0
 16
1.0
 26
0.0
 36
0.0
 17
0.0
 27
1.0
 37
0.0
 76
     0
330
1B
  0
LAYOUT
  5
26
102
{ACAD_REACTORS
330
1A
102
}
330
1A
100
AcDbPlotSettings
  1

  2
none_device
  4

  6

 40
0.0
 41
0.0
 42
0.0
 43
0.0
 44
0.0
 45
0.0
 46
0.0
 47
0.0
 48
0.0
 49
0.0
140
0.0
141
0.0
142
1.0
143
1.0
 70
   688
 72
     1
 73
     0
 74
     5
  7

 75
    16
147
1.0
148
0.0
149
0.0
100
AcDbLayout
  1
Layout2
 70
     1
 71
     2
 10
0.0
 20
0.0
 11
0.0
 21
0.0
 12
0.0
 22
0.0
 32
0.0
 14
0.0
 24
0.0
 34
0.0
 15
0.0
 25
0.0
 35
0.0
146
0.0
 13
0.0
 23
0.0
 33
0.0
 16
1.0
 26
0.0
 36
0.0
 17
0.0
 27
1.0
 37
0.0
 76
     0
330
23
  0
LAYOUT
  5
22
102
{ACAD_REACTORS
330
1A
102
}
330
1A
100
AcDbPlotSettings
  1

  2
none_device
  4
Letter_(8.50_x_11.00_Inches)
  6

 40
6.35
 41
6.35
 42
6.35000508
 43
6.35000508
 44
215.9
 45
279.4
 46
0.0
 47
0.0
 48
0.0
 49
0.0
140
0.0
141
0.0
142
1.0
143
1.0
 70
  1712
 72
     1
 73
     0
 74
     0
  7

 75
     0
147
1.0
148
0.0
149
0.0
100
AcDbLayout
  1
Model
 70
     1
 71
     0
 10
0.0
 20
0.0
 11
500.0
 21
1400.0
 12
0.0
 22
0.0
 32
0.0
 14
0.0
 24
0.0
 34
0.0
 15
500.0
 25
1400.0
 35
0.0
146
0.0
 13
0.0
 23
0.0
 33
0.0
 16
1.0
 26
0.0
 36
0.0
 17
0.0
 27
1.0
 37
0.0
 76
     0
330
1F
331
29
  0
MLINESTYLE
  5
18
102
{ACAD_REACTORS
330
17
102
}
330
17
100
AcDbMlineStyle
  2
Standard
 70
     0
  3

 62
   256
 51
90.0
 52
90.0
 71
     2
 49
0.5
 62
   256
  6
BYLAYER
 49
-0.5
 62
   256
  6
BYLAYER
  0
ACDBPLACEHOLDER
  5
F
102
{ACAD_REACTORS
330
E
102
}
330
E
  0
SCALE
  5
48
102
{ACAD_REACTORS
330
47
102
}
330
47
100
AcDbScale
 70
     0
300
1:1
140
1.0
141
1.0
290
     1
  0
SCALE
  5
49
102
{ACAD_REACTORS
330
47
102
}
330
47
100
AcDbScale
 70
     0
300
1:2
140
1.0
141
2.0
290
     0
  0
SCALE
  5
4A
102
{ACAD_REACTORS
330
47
102
}
330
47
100
AcDbScale
 70
     0
300
1:4
140
1.0
141
4.0
290
     0
  0
SCALE
  5
4B
102
{ACAD_REACTORS
330
47
102
}
330
47
100
AcDbScale
 70
     0
300
1:5
140
1.0
141
5.0
290
     0
  0
SCALE
  5
4C
102
{ACAD_REACTORS
330
47
102
}
330
47
100
AcDbScale
 70
     0
300
1:8
140
1.0
141
8.0
290
     0
  0
SCALE
  5
4D
102
{ACAD_REACTORS
330
47
102
}
330
47
100
AcDbScale
 70
     0
300
1:10
140
1.0
141
10.0
290
     0
  0
SCALE
  5
4E
102
{ACAD_REACTORS
330
47
102
}
330
47
100
AcDbScale
 70
     0
300
1:16
140
1.0
141
16.0
290
     0
  0
SCALE
  5
4F
102
{ACAD_REACTORS
330
47
102
}
330
47
100
AcDbScale
 70
     0
300
1:20
140
1.0
141
20.0
290
     0
  0
SCALE
  5
50
102
{ACAD_REACTORS
330
47
102
}
330
47
100
AcDbScale
 70
     0
300
1:30
140
1.0
141
30.0
290
     0
  0
SCALE
  5
51
102
{ACAD_REACTORS
330
47
102
}
330
47
100
AcDbScale
 70
     0
300
1:40
140
1.0
141
40.0
290
     0
  0
SCALE
  5
52
102
{ACAD_REACTORS
330
47
102
}
330
47
100
AcDbScale
 70
     0
300
1:50
140
1.0
141
50.0
290
     0
  0
SCALE
  5
53
102
{ACAD_REACTORS
330
47
102
}
330
47
100
AcDbScale
 70
     0
300
1:100
140
1.0
141
100.0
290
     0
  0
SCALE
  5
54
102
{ACAD_REACTORS
330
47
102
}
330
47
100
AcDbScale
 70
     0
300
2:1
140
2.0
141
1.0
290
     0
  0
SCALE
  5
55
102
{ACAD_REACTORS
330
47
102
}
330
47
100
AcDbScale
 70
     0
300
4:1
140
4.0
141
1.0
290
     0
  0
SCALE
  5
56
102
{ACAD_REACTORS
330
47
102
}
330
47
100
AcDbScale
 70
     0
300
8:1
140
8.0
141
1.0
290
     0
  0
SCALE
  5
57
102
{ACAD_REACTORS
330
47
102
}
330
47
100
AcDbScale
 70
     0
300
10:1
140
10.0
141
1.0
290
     0
  0
SCALE
  5
58
102
{ACAD_REACTORS
330
47
102
}
330
47
100
AcDbScale
 70
     0
300
100:1
140
100.0
141
1.0
290
     0
  0
SCALE
  5
59
102
{ACAD_REACTORS
330
47
102
}
330
47
100
AcDbScale
 70
     0
300
1/128" = 1'-0"
140
0.0078125
141
12.0
290
     0
  0
SCALE
  5
5A
102
{ACAD_REACTORS
330
47
102
}
330
47
100
AcDbScale
 70
     0
300
1/64" = 1'-0"
140
0.015625
141
12.0
290
     0
  0
SCALE
  5
5B
102
{ACAD_REACTORS
330
47
102
}
330
47
100
AcDbScale
 70
     0
300
1/32" = 1'-0"
140
0.03125
141
12.0
290
     0
  0
SCALE
  5
5C
102
{ACAD_REACTORS
330
47
102
}
330
47
100
AcDbScale
 70
     0
300
1/16" = 1'-0"
140
0.0625
141
12.0
290
     0
  0
SCALE
  5
5D
102
{ACAD_REACTORS
330
47
102
}
330
47
100
AcDbScale
 70
     0
300
3/32" = 1'-0"
140
0.09375
141
12.0
290
     0
  0
SCALE
  5
5E
102
{ACAD_REACTORS
330
47
102
}
330
47
100
AcDbScale
 70
     0
300
1/8" = 1'-0"
140
0.125
141
12.0
290
     0
  0
SCALE
  5
5F
102
{ACAD_REACTORS
330
47
102
}
330
47
100
AcDbScale
 70
     0
300
3/16" = 1'-0"
140
0.1875
141
12.0
290
     0
  0
SCALE
  5
60
102
{ACAD_REACTORS
330
47
102
}
330
47
100
AcDbScale
 70
     0
300
1/4" = 1'-0"
140
0.25
141
12.0
290
     0
  0
SCALE
  5
61
102
{ACAD_REACTORS
330
47
102
}
330
47
100
AcDbScale
 70
     0
300
3/8" = 1'-0"
140
0.375
141
12.0
290
     0
  0
SCALE
  5
62
102
{ACAD_REACTORS
330
47
102
}
330
47
100
AcDbScale
 70
     0
300
1/2" = 1'-0"
140
0.5
141
12.0
290
     0
  0
SCALE
  5
63
102
{ACAD_REACTORS
330
47
102
}
330
47
100
AcDbScale
 70
     0
300
3/4" = 1'-0"
140
0.75
141
12.0
290
     0
  0
SCALE
  5
64
102
{ACAD_REACTORS
330
47
102
}
330
47
100
AcDbScale
 70
     0
300
1" = 1'-0"
140
1.0
141
12.0
290
     0
  0
SCALE
  5
65
102
{ACAD_REACTORS
330
47
102
}
330
47
100
AcDbScale
 70
     0
300
1-1/2" = 1'-0"
140
1.5
141
12.0
290
     0
  0
SCALE
  5
66
102
{ACAD_REACTORS
330
47
102
}
330
47
100
AcDbScale
 70
     0
300
3" = 1'-0"
140
3.0
141
12.0
290
     0
  0
SCALE
  5
67
102
{ACAD_REACTORS
330
47
102
}
330
47
100
AcDbScale
 70
     0
300
6" = 1'-0"
140
6.0
141
12.0
290
     0
  0
SCALE
  5
68
102
{ACAD_REACTORS
330
47
102
}
330
47
100
AcDbScale
 70
     0
300
1'-0" = 1'-0"
140
12.0
141
12.0
290
     0
  0
ENDSEC
  0
EOF
