  0
SECTION
  2
HEADER
  9
$ACADVER
  1
AC1015
  9
$ACADMAINTVER
 70
     6
  9
$DWGCODEPAGE
  3
ANSI_1252
  9
$INSBASE
 10
0.0
 20
0.0
 30
0.0
  9
$EXTMIN
 10
0.0
 20
0.0
 30
0.0
  9
$EXTMAX
 10
935.0
 20
935.0
 30
0.0
  9
$LIMMIN
 10
0.0
 20
0.0
  9
$LIMMAX
 10
935.0
 20
935.0
  9
$ORTHOMODE
 70
     0
  9
$REGENMODE
 70
     1
  9
$FILLMODE
 70
     1
  9
$QTEXTMODE
 70
     0
  9
$MIRRTEXT
 70
     1
  9
$LTSCALE
 40
1.0
  9
$ATTMODE
 70
     1
  9
$TEXTSIZE
 40
3.5
  9
$TRACEWID
 40
1.0
  9
$TEXTSTYLE
  7
Standard
  9
$CLAYER
  8
0
  9
$CELTYPE
  6
ByLayer
  9
$CECOLOR
 62
   256
  9
$CELTSCALE
 40
1.0
  9
$DISPSILH
 70
     0
  9
$DIMSCALE
 40
1.0
  9
$DIMASZ
 40
3.302
  9
$DIMEXO
 40
1.0
  9
$DIMDLI
 40
3.75
  9
$DIMRND
 40
0.0
  9
$DIMDLE
 40
0.0
  9
$DIMEXE
 40
1.0
  9
$DIMTP
 40
0.0
  9
$DIMTM
 40
0.0
  9
$DIMTXT
 40
3.5
  9
$DIMCEN
 40
2.5
  9
$DIMTSZ
 40
0.0
  9
$DIMTOL
 70
     0
  9
$DIMLIM
 70
     0
  9
$DIMTIH
 70
     1
  9
$DIMTOH
 70
     1
  9
$DIMSE1
 70
     0
  9
$DIMSE2
 70
     0
  9
$DIMTAD
 70
     1
  9
$DIMZIN
 70
     0
  9
$DIMBLK
  1

  9
$DIMASO
 70
     1
  9
$DIMSHO
 70
     1
  9
$DIMPOST
  1

  9
$DIMAPOST
  1

  9
$DIMALT
 70
     0
  9
$DIMALTD
 70
     3
  9
$DIMALTF
 40
0.0393700787
  9
$DIMLFAC
 40
1.0
  9
$DIMTOFL
 70
     1
  9
$DIMTVP
 40
0.0
  9
$DIMTIX
 70
     0
  9
$DIMSOXD
 70
     0
  9
$DIMSAH
 70
     0
  9
$DIMBLK1
  1

  9
$DIMBLK2
  1

  9
$DIMSTYLE
  2
ISO-25
  9
$DIMCLRD
 70
     0
  9
$DIMCLRE
 70
     0
  9
$DIMCLRT
 70
     0
  9
$DIMTFAC
 40
1.0
  9
$DIMGAP
 40
1.524
  9
$DIMJUST
 70
     0
  9
$DIMSD1
 70
     0
  9
$DIMSD2
 70
     0
  9
$DIMTOLJ
 70
     0
  9
$DIMTZIN
 70
     0
  9
$DIMALTZ
 70
     0
  9
$DIMALTTZ
 70
     0
  9
$DIMUPT
 70
     0
  9
$DIMDEC
 70
     3
  9
$DIMTDEC
 70
     3
  9
$DIMALTU
 70
     2
  9
$DIMALTTD
 70
     3
  9
$DIMTXSTY
  7
Standard
  9
$DIMAUNIT
 70
     0
  9
$DIMADEC
 70
     2
  9
$DIMALTRND
 40
0.0
  9
$DIMAZIN
 70
     0
  9
$DIMDSEP
 70
    44
  9
$DIMATFIT
 70
     3
  9
$DIMFRAC
 70
     0
  9
$DIMLDRBLK
  1

  9
$DIMLUNIT
 70
     2
  9
$DIMLWD
 70
    -2
  9
$DIMLWE
 70
    -2
  9
$DIMTMOVE
 70
     0
  9
$LUNITS
 70
     2
  9
$LUPREC
 70
     8
  9
$SKETCHINC
 40
1.0
  9
$FILLETRAD
 40
10.0
  9
$AUNITS
 70
     0
  9
$AUPREC
 70
     8
  9
$MENU
  1
.
  9
$ELEVATION
 40
0.0
  9
$PELEVATION
 40
0.0
  9
$THICKNESS
 40
0.0
  9
$LIMCHECK
 70
     0
  9
$CHAMFERA
 40
0.0
  9
$CHAMFERB
 40
0.0
  9
$CHAMFERC
 40
0.0
  9
$CHAMFERD
 40
0.0
  9
$SKPOLY
 70
     0
  9
$TDCREATE
 40
2458401.392782812
  9
$TDUCREATE
 40
2458401.351116146
  9
$TDUPDATE
 40
2458401.392784792
  9
$TDUUPDATE
 40
2458401.351118125
  9
$TDINDWG
 40
0.0000000116
  9
$TDUSRTIMER
 40
0.0000000116
  9
$USRTIMER
 70
     1
  9
$ANGBASE
 50
0.0
  9
$ANGDIR
 70
     0
  9
$PDMODE
 70
     0
  9
$PDSIZE
 40
-1.0
  9
$PLINEWID
 40
0.0
  9
$SPLFRAME
 70
     0
  9
$SPLINETYPE
 70
     6
  9
$SPLINESEGS
 70
     8
  9
$HANDSEED
  5
2E5
  9
$SURFTAB1
 70
     6
  9
$SURFTAB2
 70
     6
  9
$SURFTYPE
 70
     6
  9
$SURFU
 70
     6
  9
$SURFV
 70
     6
  9
$UCSBASE
  2

  9
$UCSNAME
  2

  9
$UCSORG
 10
0.0
 20
0.0
 30
0.0
  9
$UCSXDIR
 10
1.0
 20
0.0
 30
0.0
  9
$UCSYDIR
 10
0.0
 20
1.0
 30
0.0
  9
$UCSORTHOREF
  2

  9
$UCSORTHOVIEW
 70
     0
  9
$UCSORGTOP
 10
0.0
 20
0.0
 30
0.0
  9
$UCSORGBOTTOM
 10
0.0
 20
0.0
 30
0.0
  9
$UCSORGLEFT
 10
0.0
 20
0.0
 30
0.0
  9
$UCSORGRIGHT
 10
0.0
 20
0.0
 30
0.0
  9
$UCSORGFRONT
 10
0.0
 20
0.0
 30
0.0
  9
$UCSORGBACK
 10
0.0
 20
0.0
 30
0.0
  9
$PUCSBASE
  2

  9
$PUCSNAME
  2

  9
$PUCSORG
 10
0.0
 20
0.0
 30
0.0
  9
$PUCSXDIR
 10
1.0
 20
0.0
 30
0.0
  9
$PUCSYDIR
 10
0.0
 20
1.0
 30
0.0
  9
$PUCSORTHOREF
  2

  9
$PUCSORTHOVIEW
 70
     0
  9
$PUCSORGTOP
 10
0.0
 20
0.0
 30
0.0
  9
$PUCSORGBOTTOM
 10
0.0
 20
0.0
 30
0.0
  9
$PUCSORGLEFT
 10
0.0
 20
0.0
 30
0.0
  9
$PUCSORGRIGHT
 10
0.0
 20
0.0
 30
0.0
  9
$PUCSORGFRONT
 10
0.0
 20
0.0
 30
0.0
  9
$PUCSORGBACK
 10
0.0
 20
0.0
 30
0.0
  9
$USERI1
 70
     0
  9
$USERI2
 70
     0
  9
$USERI3
 70
     0
  9
$USERI4
 70
     0
  9
$USERI5
 70
     0
  9
$USERR1
 40
0.0
  9
$USERR2
 40
0.0
  9
$USERR3
 40
0.0
  9
$USERR4
 40
0.0
  9
$USERR5
 40
0.0
  9
$WORLDVIEW
 70
     1
  9
$SHADEDGE
 70
     3
  9
$SHADEDIF
 70
    70
  9
$TILEMODE
 70
     1
  9
$MAXACTVP
 70
    64
  9
$PINSBASE
 10
0.0
 20
0.0
 30
0.0
  9
$PLIMCHECK
 70
     0
  9
$PEXTMIN
 10
1.0000000000E+20
 20
1.0000000000E+20
 30
1.0000000000E+20
  9
$PEXTMAX
 10
-1.0000000000E+20
 20
-1.0000000000E+20
 30
-1.0000000000E+20
  9
$PLIMMIN
 10
0.0
 20
0.0
  9
$PLIMMAX
 10
420.0
 20
297.0
  9
$UNITMODE
 70
     0
  9
$VISRETAIN
 70
     1
  9
$PLINEGEN
 70
     0
  9
$PSLTSCALE
 70
     1
  9
$TREEDEPTH
 70
  3020
  9
$CMLSTYLE
  2
Standard
  9
$CMLJUST
 70
     0
  9
$CMLSCALE
 40
20.0
  9
$PROXYGRAPHICS
 70
     1
  9
$MEASUREMENT
 70
     1
  9
$CELWEIGHT
370
    -1
  9
$ENDCAPS
280
     0
  9
$JOINSTYLE
280
     0
  9
$LWDISPLAY
290
     1
  9
$INSUNITS
 70
     4
  9
$HYPERLINKBASE
  1

  9
$STYLESHEET
  1

  9
$XEDIT
290
     1
  9
$CEPSNTYPE
380
     0
  9
$PSTYLEMODE
290
     1
  9
$FINGERPRINTGUID
  2
{F71C6D25-F0D8-4E73-84F7-831949F00607}
  9
$VERSIONGUID
  2
{FAEB1C32-E019-11D5-929B-00C0DF256EC4}
  9
$EXTNAMES
290
     1
  9
$PSVPSCALE
 40
0.0
  9
$OLESTARTUP
290
     0
  0
ENDSEC
  0
SECTION
  2
CLASSES
  0
CLASS
  1
ACDBDICTIONARYWDFLT
  2
AcDbDictionaryWithDefault
  3
ObjectDBX Classes
 90
        0
280
     0
281
     0
  0
CLASS
  1
VISUALSTYLE
  2
AcDbVisualStyle
  3
ObjectDBX Classes
 90
     4095
280
     0
281
     0
  0
CLASS
  1
MATERIAL
  2
AcDbMaterial
  3
ObjectDBX Classes
 90
     1153
280
     0
281
     0
  0
CLASS
  1
SCALE
  2
AcDbScale
  3
ObjectDBX Classes
 90
     1153
280
     0
281
     0
  0
CLASS
  1
TABLESTYLE
  2
AcDbTableStyle
  3
ObjectDBX Classes
 90
     4095
280
     0
281
     0
  0
CLASS
  1
MLEADERSTYLE
  2
AcDbMLeaderStyle
  3
ACDB_MLEADERSTYLE_CLASS
 90
     4095
280
     0
281
     0
  0
CLASS
  1
SUN
  2
AcDbSun
  3
SCENEOE
 90
     1153
280
     0
281
     0
  0
CLASS
  1
ACDBPLACEHOLDER
  2
AcDbPlaceHolder
  3
ObjectDBX Classes
 90
        0
280
     0
281
     0
  0
CLASS
  1
LAYOUT
  2
AcDbLayout
  3
ObjectDBX Classes
 90
        0
280
     0
281
     0
  0
ENDSEC
  0
SECTION
  2
TABLES
  0
TABLE
  2
VPORT
  5
8
330
0
100
AcDbSymbolTable
 70
     1
  0
VPORT
  5
29
330
8
100
AcDbSymbolTableRecord
100
AcDbViewportTableRecord
  2
*Active
 70
     0
 10
0.0
 20
0.0
 11
1.0
 21
1.0
 12
467.5
 22
467.5
 13
0.0
 23
0.0
 14
10.0
 24
10.0
 15
10.0
 25
10.0
 16
0.0
 26
0.0
 36
1.0
 17
0.0
 27
0.0
 37
0.0
 40
935.0
 41
1.0
 42
50.0
 43
0.0
 44
0.0
 50
0.0
 51
0.0
 71
     0
 72
  2000
 73
     1
 74
     3
 75
     0
 76
     0
 77
     0
 78
     0
281
     0
 65
     1
110
0.0
120
0.0
130
0.0
111
1.0
121
0.0
131
0.0
112
0.0
122
1.0
132
0.0
 79
     0
146
0.0
  0
ENDTAB
  0
TABLE
  2
LTYPE
  5
5
330
0
100
AcDbSymbolTable
 70
     6
  0
LTYPE
  5
14
330
5
100
AcDbSymbolTableRecord
100
AcDbLinetypeTableRecord
  2
ByBlock
 70
     0
  3

 72
    65
 73
     0
 40
0.0
  0
LTYPE
  5
15
330
5
100
AcDbSymbolTableRecord
100
AcDbLinetypeTableRecord
  2
ByLayer
 70
     0
  3

 72
    65
 73
     0
 40
0.0
  0
LTYPE
  5
16
330
5
100
AcDbSymbolTableRecord
100
AcDbLinetypeTableRecord
  2
Continuous
 70
     0
  3
Solid line
 72
    65
 73
     0
 40
0.0
  0
LTYPE
  5
6E
330
5
100
AcDbSymbolTableRecord
100
AcDbLinetypeTableRecord
  2
HIDDEN
 70
     0
  3
Hidden __ __ __ __ __ __ __ __ __ __ __ __ __ __
 72
    65
 73
     2
 40
1.905
 49
1.27
 74
     0
 49
-0.635
 74
     0
  0
LTYPE
  5
6F
330
5
100
AcDbSymbolTableRecord
100
AcDbLinetypeTableRecord
  2
PHANTOM
 70
     0
  3
Phantom ______  __  __  ______  __  __  ______
 72
    65
 73
     6
 40
12.7
 49
6.35
 74
     0
 49
-1.27
 74
     0
 49
1.27
 74
     0
 49
-1.27
 74
     0
 49
1.27
 74
     0
 49
-1.27
 74
     0
  0
LTYPE
  5
70
330
5
100
AcDbSymbolTableRecord
100
AcDbLinetypeTableRecord
  2
CENTER
 70
     0
  3
Center ____ _ ____ _ ____ _ ____ _ ____ _ ____
 72
    65
 73
     4
 40
10.16
 49
6.35
 74
     0
 49
-1.27
 74
     0
 49
1.27
 74
     0
 49
-1.27
 74
     0
  0
LTYPE
  5
71
330
5
100
AcDbSymbolTableRecord
100
AcDbLinetypeTableRecord
  2
CENTERX2
 70
     0
  3
Center (2x) ________  __  ________  __  _____
 72
    65
 73
     4
 40
20.32
 49
12.7
 74
     0
 49
-2.54
 74
     0
 49
2.54
 74
     0
 49
-2.54
 74
     0
  0
LTYPE
  5
72
330
5
100
AcDbSymbolTableRecord
100
AcDbLinetypeTableRecord
  2
DOT2
 70
     0
  3
Dot (.5x) ........................................
 72
    65
 73
     2
 40
0.635
 49
0.0
 74
     0
 49
-0.635
 74
     0
  0
ENDTAB
  0
TABLE
  2
LAYER
  5
2
330
0
100
AcDbSymbolTable
 70
     1
  0
LAYER
  5
10
330
2
100
AcDbSymbolTableRecord
100
AcDbLayerTableRecord
  2
0
 70
     0
 62
     7
  6
Continuous
370
    -3
390
F
  0
ENDTAB
  0
TABLE
  2
STYLE
  5
3
330
0
100
AcDbSymbolTable
 70
     1
  0
STYLE
  5
11
330
3
100
AcDbSymbolTableRecord
100
AcDbTextStyleTableRecord
  2
Standard
 70
     0
 40
0.0
 41
1.0
 50
0.0
 71
     0
 42
3.5
  3
txt
  4

  0
ENDTAB
  0
TABLE
  2
VIEW
  5
6
330
0
100
AcDbSymbolTable
 70
     0
  0
ENDTAB
  0
TABLE
  2
UCS
  5
7
330
0
100
AcDbSymbolTable
 70
     0
  0
ENDTAB
  0
TABLE
  2
APPID
  5
9
330
0
100
AcDbSymbolTable
 70
     1
  0
APPID
  5
12
330
9
100
AcDbSymbolTableRecord
100
AcDbRegAppTableRecord
  2
ACAD
 70
     0
  0
ENDTAB
  0
TABLE
  2
DIMSTYLE
  5
A
330
0
100
AcDbSymbolTable
 70
     1
100
AcDbDimStyleTable
  0
DIMSTYLE
105
27
330
A
100
AcDbSymbolTableRecord
100
AcDbDimStyleTableRecord
  2
ISO-25
 70
     0
 41
2.5
 42
0.625
 43
3.75
 44
1.25
 73
     0
 74
     0
 77
     1
 78
     8
140
2.5
141
2.5
143
0.0393700787
147
0.625
171
     3
172
     1
178
     0
271
     2
272
     2
274
     3
278
    44
283
     0
284
     8
340
11
  0
ENDTAB
  0
TABLE
  2
BLOCK_RECORD
  5
1
330
0
100
AcDbSymbolTable
 70
     1
  0
BLOCK_RECORD
  5
1F
330
1
100
AcDbSymbolTableRecord
100
AcDbBlockTableRecord
  2
*Model_Space
340
22
  0
BLOCK_RECORD
  5
1B
330
1
100
AcDbSymbolTableRecord
100
AcDbBlockTableRecord
  2
*Paper_Space
340
1E
  0
BLOCK_RECORD
  5
23
330
1
100
AcDbSymbolTableRecord
100
AcDbBlockTableRecord
  2
*Paper_Space0
340
26
  0
ENDTAB
  0
ENDSEC
  0
SECTION
  2
BLOCKS
  0
BLOCK
  5
20
330
1F
100
AcDbEntity
  8
0
100
AcDbBlockBegin
  2
*Model_Space
 70
     0
 10
0.0
 20
0.0
 30
0.0
  3
*Model_Space
  1

  0
ENDBLK
  5
21
330
1F
100
AcDbEntity
  8
0
100
AcDbBlockEnd
  0
BLOCK
  5
1C
330
1B
100
AcDbEntity
 67
     1
  8
0
100
AcDbBlockBegin
  2
*Paper_Space
 70
     0
 10
0.0
 20
0.0
 30
0.0
  3
*Paper_Space
  1

  0
ENDBLK
  5
1D
330
1B
100
AcDbEntity
 67
     1
  8
0
100
AcDbBlockEnd
  0
BLOCK
  5
24
330
23
100
AcDbEntity
  8
0
100
AcDbBlockBegin
  2
*Paper_Space0
 70
     0
 10
0.0
 20
0.0
 30
0.0
  3
*Paper_Space0
  1

  0
ENDBLK
  5
25
330
23
100
AcDbEntity
  8
0
100
AcDbBlockEnd
  0
ENDSEC
  0
SECTION
  2
ENTITIES
  0
ARC
  5
73
330
1F
100
AcDbEntity
  8
0
  6
Continuous
 62
     7
370
    25
100
AcDbCircle
 10
878.9427598267
 20
449.7706512621
 30
0.0
 40
6.500000000000028
100
AcDbArc
 50
43.1851400632
 51
58.8221621317
  0
ARC
  5
74
330
1F
100
AcDbEntity
  8
0
  6
Continuous
 62
     7
370
    25
100
AcDbCircle
 10
878.9427598267
 20
449.7706512621
 30
0.0
 40
6.500000000000001
100
AcDbArc
 50
351.1778378683
 51
6.8148599368
  0
ARC
  5
75
330
1F
100
AcDbEntity
  8
0
  6
Continuous
 62
     7
370
    25
100
AcDbCircle
 10
34.3718456377
 20
302.4159956227
 30
0.0
 40
5.000000000000007
100
AcDbArc
 50
180.0
 51
270.0
  0
ARC
  5
76
330
1F
100
AcDbEntity
  8
0
  6
Continuous
 62
     7
370
    25
100
AcDbCircle
 10
54.0718456377
 20
302.4159956227
 30
0.0
 40
5.0
100
AcDbArc
 50
270.0
 51
0.0
  0
LINE
  5
77
330
1F
100
AcDbEntity
  8
0
  6
Continuous
 62
     7
370
    25
100
AcDbLine
 10
29.3718454548
 20
317.9159983883
 30
0.0
 11
29.3718454548
 21
315.5159875641
 31
0.0
  0
LINE
  5
78
330
1F
100
AcDbEntity
  8
0
  6
Continuous
 62
     7
370
    25
100
AcDbLine
 10
59.0718452939
 20
315.5159875641
 30
0.0
 11
59.0718452939
 21
317.9159983883
 31
0.0
  0
LINE
  5
79
330
1F
100
AcDbEntity
  8
0
  6
Continuous
 62
     7
370
    25
100
AcDbLine
 10
29.3718454548
 20
311.6159960518
 30
0.0
 11
29.3718454548
 21
302.4159893284
 31
0.0
  0
LINE
  5
7A
330
1F
100
AcDbEntity
  8
0
  6
Continuous
 62
     7
370
    25
100
AcDbLine
 10
59.0718452939
 20
302.4159893284
 30
0.0
 11
59.0718452939
 21
311.6159960518
 31
0.0
  0
LINE
  5
7B
330
1F
100
AcDbEntity
  8
0
  6
Continuous
 62
     7
370
    25
100
AcDbLine
 10
58.2218458065
 20
317.9159983883
 30
0.0
 11
58.2218458065
 21
323.4159871826
 31
0.0
  0
LINE
  5
7C
330
1F
100
AcDbEntity
  8
0
  6
Continuous
 62
     7
370
    25
100
AcDbLine
 10
30.2218449422
 20
323.4159871826
 30
0.0
 11
30.2218449422
 21
317.9159983883
 31
0.0
  0
LINE
  5
7D
330
1F
100
AcDbEntity
  8
0
  6
Continuous
 62
     7
370
    25
100
AcDbLine
 10
57.2218437799
 20
323.4159871826
 30
0.0
 11
57.2218437799
 21
325.4159912357
 31
0.0
  0
LINE
  5
7E
330
1F
100
AcDbEntity
  8
0
  6
Continuous
 62
     7
370
    25
100
AcDbLine
 10
31.2218451061
 20
325.4159912357
 30
0.0
 11
31.2218451061
 21
323.4159871826
 31
0.0
  0
LINE
  5
7F
330
1F
100
AcDbEntity
  8
0
  6
Continuous
 62
     7
370
    25
100
AcDbLine
 10
27.4718449571
 20
315.5159875641
 30
0.0
 11
27.4718449571
 21
311.6159960518
 31
0.0
  0
LINE
  5
80
330
1F
100
AcDbEntity
  8
0
  6
Continuous
 62
     7
370
    25
100
AcDbLine
 10
60.9718439289
 20
311.6159960518
 30
0.0
 11
60.9718439289
 21
315.5159875641
 31
0.0
  0
LINE
  5
81
330
1F
100
AcDbEntity
  8
0
  6
Continuous
 62
     7
370
    25
100
AcDbLine
 10
878.0490149864
 20
440.8027157078
 30
0.0
 11
878.9553632148
 21
441.2253424415
 31
0.0
  0
LINE
  5
82
330
1F
100
AcDbEntity
  8
0
  6
Continuous
 62
     7
370
    25
100
AcDbLine
 10
872.4047531494
 20
455.2731141338
 30
0.0
 11
871.4984645256
 21
454.8504948506
 31
0.0
  0
LINE
  5
83
330
1F
100
AcDbEntity
  8
0
  6
Continuous
 62
     7
370
    25
100
AcDbLine
 10
878.9764632591
 20
441.1800280103
 30
0.0
 11
881.6625465759
 21
443.7014385948
 31
0.0
  0
LINE
  5
84
330
1F
100
AcDbEntity
  8
0
  6
Continuous
 62
     7
370
    25
100
AcDbLine
 10
876.0417093643
 20
455.7553380618
 30
0.0
 11
872.3836531051
 21
455.318428565
 31
0.0
  0
LINE
  5
85
330
1F
100
AcDbEntity
  8
0
  6
Continuous
 62
     7
370
    25
100
AcDbLine
 10
875.8026947387
 20
443.7218978891
 30
0.0
 11
875.802813948
 21
443.7267556677
 31
0.0
  0
LINE
  5
86
330
1F
100
AcDbEntity
  8
0
  6
Continuous
 62
     7
370
    25
100
AcDbLine
 10
872.2945441612
 20
451.2502625475
 30
0.0
 11
872.2907890686
 21
451.2532874832
 31
0.0
  0
ARC
  5
87
330
1F
100
AcDbEntity
  8
0
  6
Continuous
 62
     7
370
    25
100
AcDbCircle
 10
871.018197246
 20
472.4438143579
 30
0.0
 40
2.000000000000027
100
AcDbArc
 50
205.0
 51
292.0
  0
ARC
  5
88
330
1F
100
AcDbEntity
  8
0
  6
Continuous
 62
     7
370
    25
100
AcDbCircle
 10
891.2175997852
 20
429.1260558225
 30
0.0
 40
2.000000000000051
100
AcDbArc
 50
118.0
 51
205.0
  0
LINE
  5
89
330
1F
100
AcDbEntity
  8
0
  6
Continuous
 62
     7
370
    25
100
AcDbLine
 10
890.2786363968
 20
430.8919533977
 30
0.0
 11
893.0236687072
 21
432.3515072355
 31
0.0
  0
LINE
  5
8A
330
1F
100
AcDbEntity
  8
0
  6
Continuous
 62
     7
370
    25
100
AcDbLine
 10
874.6499409088
 20
471.7540740857
 30
0.0
 11
871.7674006828
 21
470.5894440303
 31
0.0
  0
LINE
  5
8B
330
1F
100
AcDbEntity
  8
0
  6
Continuous
 62
     7
370
    25
100
AcDbLine
 10
902.2439112076
 20
388.9166042099
 30
0.0
 11
902.6859988579
 21
389.1516551266
 31
0.0
  0
LINE
  5
8C
330
1F
100
AcDbEntity
  8
0
  6
Continuous
 62
     7
370
    25
100
AcDbLine
 10
897.4897851356
 20
397.2189500818
 30
0.0
 11
897.4878181823
 21
397.2179964075
 31
0.0
  0
LINE
  5
8D
330
1F
100
AcDbEntity
  8
0
  6
Continuous
 62
     7
370
    25
100
AcDbLine
 10
899.6293534645
 20
392.6254883299
 30
0.0
 11
899.6313204178
 21
392.6263823995
 31
0.0
  0
LINE
  5
8E
330
1F
100
AcDbEntity
  8
0
  6
Continuous
 62
     7
370
    25
100
AcDbLine
 10
856.0731996902
 20
486.0371127615
 30
0.0
 11
856.0712327369
 21
486.0361590872
 31
0.0
  0
LINE
  5
8F
330
1F
100
AcDbEntity
  8
0
  6
Continuous
 62
     7
370
    25
100
AcDbLine
 10
858.2127680191
 20
481.4436584601
 30
0.0
 11
858.2147349724
 21
481.4445376286
 31
0.0
  0
ARC
  5
90
330
1F
100
AcDbEntity
  8
0
  6
Continuous
 62
     7
370
    25
100
AcDbCircle
 10
38.7718456377
 20
317.3659956227
 30
0.0
 40
0.2500000000000284
100
AcDbArc
 50
180.0
 51
209.4734267881
  0
LINE
  5
91
330
1F
100
AcDbEntity
  8
0
  6
Continuous
 62
     7
370
    25
100
AcDbLine
 10
38.5218438812
 20
318.0659934768
 30
0.0
 11
38.5218438812
 21
317.3659965286
 31
0.0
  0
SPLINE
  5
92
330
1F
100
AcDbEntity
  8
0
  6
Continuous
 62
     7
370
    25
100
AcDbSpline
210
0.0
220
0.0
230
1.0
 70
     8
 71
     3
 72
    13
 73
     9
 74
     0
 42
0.000000001
 43
0.00000001
 40
0.0
 40
0.0
 40
0.0
 40
0.0
 40
0.0546611706522282
 40
0.2134699002877023
 40
0.3745769823302227
 40
0.5445024206117113
 40
0.7475343414601727
 40
1.0
 40
1.0
 40
1.0
 40
1.0
 10
51.17612230860891
 20
318.56589763258
 30
0.0
 10
51.17661465121115
 20
318.5563187661813
 30
0.0
 10
51.17853741146211
 20
318.5189101334976
 30
0.0
 10
51.16451558098161
 20
318.4550557413506
 30
0.0
 10
51.13686357824038
 20
318.3876794395728
 30
0.0
 10
51.09996065087014
 20
318.3400637887277
 30
0.0
 10
51.06518378096519
 20
318.3172096552914
 30
0.0
 10
51.05335507515563
 20
318.3167606603331
 30
0.0
 10
51.0467988558978
 20
318.3165117988398
 30
0.0
  0
LINE
  5
93
330
1F
100
AcDbEntity
  8
0
  6
Continuous
 62
     7
370
    25
100
AcDbLine
 10
51.1779961296
 20
323.6659988651
 30
0.0
 11
51.1779961296
 21
318.5659870395
 31
0.0
  0
ARC
  5
94
330
1F
100
AcDbEntity
  8
0
  6
Continuous
 62
     7
370
    25
100
AcDbCircle
 10
51.4279953874
 20
323.6659956227
 30
0.0
 40
0.2500000000000284
100
AcDbArc
 50
90.0
 51
180.0
  0
ARC
  5
95
330
1F
100
AcDbEntity
  8
0
  6
Continuous
 62
     7
370
    25
100
AcDbCircle
 10
56.1279657866
 20
323.6659956227
 30
0.0
 40
0.2500000000000284
100
AcDbArc
 50
0.0
 51
90.0
  0
LINE
  5
96
330
1F
100
AcDbEntity
  8
0
  6
Continuous
 62
     7
370
    25
100
AcDbLine
 10
56.3779649445
 20
318.5659870395
 30
0.0
 11
56.3779649445
 21
323.6659988651
 31
0.0
  0
ARC
  5
97
330
1F
100
AcDbEntity
  8
0
  6
Continuous
 62
     7
370
    25
100
AcDbCircle
 10
55.6718456377
 20
317.3659956227
 30
0.0
 40
0.2500000000000284
100
AcDbArc
 50
270.0
 51
0.0
  0
LINE
  5
98
330
1F
100
AcDbEntity
  8
0
  6
Continuous
 62
     7
370
    25
100
AcDbLine
 10
38.0657267877
 20
323.6659988651
 30
0.0
 11
38.0657267877
 21
318.5659870395
 31
0.0
  0
ARC
  5
99
330
1F
100
AcDbEntity
  8
0
  6
Continuous
 62
     7
370
    25
100
AcDbCircle
 10
38.3157254888
 20
323.6659956227
 30
0.0
 40
0.2499999999999716
100
AcDbArc
 50
90.0
 51
180.0
  0
SPLINE
  5
9A
330
1F
100
AcDbEntity
  8
0
  6
Continuous
 62
     7
370
    25
100
AcDbSpline
210
0.0
220
0.0
230
1.0
 70
     8
 71
     3
 72
    13
 73
     9
 74
     0
 42
0.000000001
 43
0.00000001
 40
0.0
 40
0.0
 40
0.0
 40
0.0
 40
0.0634902819863933
 40
0.2470645511989845
 40
0.4311222869285566
 40
0.6187884352942851
 40
0.8315542351915287
 40
1.0
 40
1.0
 40
1.0
 40
1.0
 10
44.11268878066244
 20
318.0661126861384
 30
0.0
 10
44.11221682503557
 20
318.076338698659
 30
0.0
 10
44.11038026829817
 20
318.1161319570117
 30
0.0
 10
44.1237196417128
 20
318.1836928492336
 30
0.0
 10
44.14967842912854
 20
318.2537800925655
 30
0.0
 10
44.18163561016863
 20
318.3002594090347
 30
0.0
 10
44.2046577895625
 20
318.3162574193228
 30
0.0
 10
44.20391436193955
 20
318.3155657353522
 30
0.0
 10
44.20358586394491
 20
318.3152601012995
 30
0.0
  0
LINE
  5
9B
330
1F
100
AcDbEntity
  8
0
  6
Continuous
 62
     7
370
    25
100
AcDbLine
 10
44.1108931907
 20
312.9659816513
 30
0.0
 11
44.1108931907
 21
318.0659934768
 31
0.0
  0
ARC
  5
9C
330
1F
100
AcDbEntity
  8
0
  6
Continuous
 62
     7
370
    25
100
AcDbCircle
 10
43.8608938141
 20
312.9659956227
 30
0.0
 40
0.2500000000000568
100
AcDbArc
 50
270.0
 51
0.0
  0
ARC
  5
9D
330
1F
100
AcDbEntity
  8
0
  6
Continuous
 62
     7
370
    25
100
AcDbCircle
 10
38.8041996418
 20
312.9659956227
 30
0.0
 40
0.25
100
AcDbArc
 50
180.0
 51
270.0
  0
LINE
  5
9E
330
1F
100
AcDbEntity
  8
0
  6
Continuous
 62
     7
370
    25
100
AcDbLine
 10
38.5541980275
 20
318.0659934768
 30
0.0
 11
38.5541980275
 21
312.9659816513
 31
0.0
  0
ARC
  5
9F
330
1F
100
AcDbEntity
  8
0
  6
Continuous
 62
     7
370
    25
100
AcDbCircle
 10
38.7718456377
 20
318.5659956227
 30
0.0
 40
0.2500000000000284
100
AcDbArc
 50
180.0
 51
232.7089330725
  0
ARC
  5
A0
330
1F
100
AcDbEntity
  8
0
  6
Continuous
 62
     7
370
    25
100
AcDbCircle
 10
38.7718456377
 20
319.2659956227
 30
0.0
 40
0.2500000000000284
100
AcDbArc
 50
90.0
 51
180.0
  0
LINE
  5
A1
330
1F
100
AcDbEntity
  8
0
  6
Continuous
 62
     7
370
    25
100
AcDbLine
 10
38.5218438812
 20
319.2659839878
 30
0.0
 11
38.5218438812
 21
318.5659870395
 31
0.0
  0
ARC
  5
A2
330
1F
100
AcDbEntity
  8
0
  6
Continuous
 62
     7
370
    25
100
AcDbCircle
 10
55.6394916336
 20
312.9659956227
 30
0.0
 40
0.2500000000000284
100
AcDbArc
 50
270.0
 51
0.0
  0
LINE
  5
A3
330
1F
100
AcDbEntity
  8
0
  6
Continuous
 62
     7
370
    25
100
AcDbLine
 10
55.8894899794
 20
312.9659816513
 30
0.0
 11
55.8894899794
 21
317.2430023441
 31
0.0
  0
LINE
  5
A4
330
1F
100
AcDbEntity
  8
0
  6
Continuous
 62
     7
370
    25
100
AcDbLine
 10
42.1325926789
 20
325.0175341854
 30
0.0
 11
42.2218469092
 21
324.96600597
 31
0.0
  0
LINE
  5
A5
330
1F
100
AcDbEntity
  8
0
  6
Continuous
 62
     7
370
    25
100
AcDbLine
 10
52.221844823
 20
324.96600597
 30
0.0
 11
52.311095328
 21
325.0175341854
 31
0.0
  0
LINE
  5
A6
330
1F
100
AcDbEntity
  8
0
  6
Continuous
 62
     7
370
    25
100
AcDbLine
 10
41.760153056
 20
312.1825680027
 30
0.0
 11
42.2218469092
 21
311.9159862289
 31
0.0
  0
LINE
  5
A7
330
1F
100
AcDbEntity
  8
0
  6
Continuous
 62
     7
370
    25
100
AcDbLine
 10
52.6835386761
 20
316.8494328747
 30
0.0
 11
52.221844823
 21
317.1159848461
 31
0.0
  0
LINE
  5
A8
330
1F
100
AcDbEntity
  8
0
  6
Continuous
 62
     7
370
    25
100
AcDbLine
 10
52.221844823
 20
311.9159862289
 30
0.0
 11
52.6835386761
 21
312.1825680027
 31
0.0
  0
LINE
  5
A9
330
1F
100
AcDbEntity
  8
0
  6
Continuous
 62
     7
370
    25
100
AcDbLine
 10
52.4692264506
 20
324.5731815586
 30
0.0
 11
52.221844823
 21
324.7159942875
 31
0.0
  0
LINE
  5
AA
330
1F
100
AcDbEntity
  8
0
  6
Continuous
 62
     7
370
    25
100
AcDbLine
 10
41.9744652816
 20
319.6588083992
 30
0.0
 11
42.2218469092
 21
319.5159956703
 31
0.0
  0
LINE
  5
AB
330
1F
100
AcDbEntity
  8
0
  6
Continuous
 62
     7
370
    25
100
AcDbLine
 10
42.2218469092
 20
324.7159942875
 30
0.0
 11
41.9744652816
 21
324.5731815586
 31
0.0
  0
LINE
  5
AC
330
1F
100
AcDbEntity
  8
0
  6
Continuous
 62
     7
370
    25
100
AcDbLine
 10
44.221847237
 20
324.96600597
 30
0.0
 11
44.221847237
 21
324.7159942875
 31
0.0
  0
LINE
  5
AD
330
1F
100
AcDbEntity
  8
0
  6
Continuous
 62
     7
370
    25
100
AcDbLine
 10
50.2218444952
 20
324.7159942875
 30
0.0
 11
50.2218444952
 21
324.96600597
 31
0.0
  0
ARC
  5
AE
330
1F
100
AcDbEntity
  8
0
  6
Continuous
 62
     7
370
    25
100
AcDbCircle
 10
33.6807383306
 20
605.8159956227
 30
0.0
 40
2.000000000000004
100
AcDbArc
 50
90.0
 51
180.0
  0
ARC
  5
AF
330
1F
100
AcDbEntity
  8
0
  6
Continuous
 62
     7
370
    25
100
AcDbCircle
 10
48.6807383306
 20
605.8159956227
 30
0.0
 40
2.0
100
AcDbArc
 50
0.0
 51
90.0
  0
LINE
  5
B0
330
1F
100
AcDbEntity
  8
0
  6
Continuous
 62
     7
370
    25
100
AcDbLine
 10
50.68073693
 20
596.3159948478
 30
0.0
 11
50.68073693
 21
605.8159954736
 31
0.0
  0
LINE
  5
B1
330
1F
100
AcDbEntity
  8
0
  6
Continuous
 62
     7
370
    25
100
AcDbLine
 10
31.680737541
 20
605.8159954736
 30
0.0
 11
31.680737541
 21
596.3159948478
 31
0.0
  0
LINE
  5
B2
330
1F
100
AcDbEntity
  8
0
  6
Continuous
 62
     7
370
    25
100
AcDbLine
 10
893.7426795372
 20
405.2545651684
 30
0.0
 11
893.7407125839
 21
405.2536561975
 31
0.0
  0
LINE
  5
B3
330
1F
100
AcDbEntity
  8
0
  6
Continuous
 62
     7
370
    25
100
AcDbLine
 10
895.431219519
 20
401.6284271965
 30
0.0
 11
895.4331864723
 21
401.6293361673
 31
0.0
  0
LINE
  5
B4
330
1F
100
AcDbEntity
  8
0
  6
Continuous
 62
     7
370
    25
100
AcDbLine
 10
899.3845571884
 20
423.4430268297
 30
0.0
 11
906.7571153053
 21
431.2944337616
 31
0.0
  0
LINE
  5
B5
330
1F
100
AcDbEntity
  8
0
  6
Continuous
 62
     7
370
    25
100
AcDbLine
 10
874.9190558799
 20
482.5209453592
 30
0.0
 11
871.9143261322
 21
482.3530316243
 31
0.0
  0
LINE
  5
B6
330
1F
100
AcDbEntity
  8
0
  6
Continuous
 62
     7
370
    25
100
AcDbLine
 10
882.6678981193
 20
482.9539805541
 30
0.0
 11
879.8973550209
 21
482.7991500387
 31
0.0
  0
LINE
  5
B7
330
1F
100
AcDbEntity
  8
0
  6
Continuous
 62
     7
370
    25
100
AcDbLine
 10
883.170663298
 20
482.9607605824
 30
0.0
 11
882.6678981193
 21
482.9539805541
 31
0.0
  0
LINE
  5
B8
330
1F
100
AcDbEntity
  8
0
  6
Continuous
 62
     7
370
    25
100
AcDbLine
 10
906.7571153053
 20
431.2944337616
 30
0.0
 11
920.6574549087
 21
447.4138989935
 31
0.0
  0
ARC
  5
B9
330
1F
100
AcDbEntity
  8
0
  6
Continuous
 62
     7
370
    25
100
AcDbCircle
 10
919.9001604922
 20
448.0669597155
 30
0.0
 40
1.000000000000116
100
AcDbArc
 50
319.227745318
 51
25.0
  0
LINE
  5
BA
330
1F
100
AcDbEntity
  8
0
  6
Continuous
 62
     7
370
    25
100
AcDbLine
 10
886.8442763694
 20
445.6032290945
 30
0.0
 11
888.6716951736
 21
446.4168175945
 31
0.0
  0
LINE
  5
BB
330
1F
100
AcDbEntity
  8
0
  6
Continuous
 62
     7
370
    25
100
AcDbLine
 10
879.9062957176
 20
482.8096702585
 30
0.0
 11
874.9086250671
 21
482.5303777942
 31
0.0
  0
ARC
  5
BC
330
1F
100
AcDbEntity
  8
0
  6
Continuous
 62
     7
370
    25
100
AcDbCircle
 10
170.2218456377
 20
231.4159956227
 30
0.0
 40
2.0
100
AcDbArc
 50
270.0
 51
0.0
  0
ARC
  5
BD
330
1F
100
AcDbEntity
  8
0
  6
Continuous
 62
     7
370
    25
100
AcDbCircle
 10
117.2218456377
 20
231.4159956227
 30
0.0
 40
2.0
100
AcDbArc
 50
180.0
 51
270.0
  0
LINE
  5
BE
330
1F
100
AcDbEntity
  8
0
  6
Continuous
 62
     7
370
    25
100
AcDbLine
 10
172.2218384155
 20
231.4160093555
 30
0.0
 11
172.2218384155
 21
235.4159876594
 31
0.0
  0
LINE
  5
BF
330
1F
100
AcDbEntity
  8
0
  6
Continuous
 62
     7
370
    25
100
AcDbLine
 10
115.221842111
 20
235.4159876594
 30
0.0
 11
115.221842111
 21
231.4160093555
 31
0.0
  0
LINE
  5
C0
330
1F
100
AcDbEntity
  8
0
  6
Continuous
 62
     7
370
    25
100
AcDbLine
 10
751.2218346008
 20
231.4160093555
 30
0.0
 11
751.2218346008
 21
235.4159876594
 31
0.0
  0
LINE
  5
C1
330
1F
100
AcDbEntity
  8
0
  6
Continuous
 62
     7
370
    25
100
AcDbLine
 10
694.2218531975
 20
235.4159876594
 30
0.0
 11
694.2218531975
 21
231.4160093555
 31
0.0
  0
ARC
  5
C2
330
1F
100
AcDbEntity
  8
0
  6
Continuous
 62
     7
370
    25
100
AcDbCircle
 10
749.2218456377
 20
231.4159956227
 30
0.0
 40
2.0
100
AcDbArc
 50
270.0
 51
0.0
  0
ARC
  5
C3
330
1F
100
AcDbEntity
  8
0
  6
Continuous
 62
     7
370
    25
100
AcDbCircle
 10
696.2218456377
 20
231.4159956227
 30
0.0
 40
2.0
100
AcDbArc
 50
180.0
 51
270.0
  0
LINE
  5
C4
330
1F
100
AcDbEntity
  8
0
  6
Continuous
 62
     7
370
    25
100
AcDbLine
 10
172.0218499311
 20
235.4159876594
 30
0.0
 11
172.0218499311
 21
264.4160017261
 31
0.0
  0
LINE
  5
C5
330
1F
100
AcDbEntity
  8
0
  6
Continuous
 62
     7
370
    25
100
AcDbLine
 10
115.4218454965
 20
264.4160017261
 30
0.0
 11
115.4218454965
 21
235.4159876594
 31
0.0
  0
LINE
  5
C6
330
1F
100
AcDbEntity
  8
0
  6
Continuous
 62
     7
370
    25
100
AcDbLine
 10
751.0218610176
 20
235.4159876594
 30
0.0
 11
751.0218610176
 21
264.4160017261
 31
0.0
  0
LINE
  5
C7
330
1F
100
AcDbEntity
  8
0
  6
Continuous
 62
     7
370
    25
100
AcDbLine
 10
694.4218267807
 20
264.4160017261
 30
0.0
 11
694.4218267807
 21
235.4159876594
 31
0.0
  0
ARC
  5
C8
330
1F
100
AcDbEntity
  8
0
  6
Continuous
 62
     7
370
    25
100
AcDbCircle
 10
177.1218456377
 20
325.9159956227
 30
0.0
 40
1.500000000000057
100
AcDbArc
 50
90.0
 51
180.0
  0
ARC
  5
C9
330
1F
100
AcDbEntity
  8
0
  6
Continuous
 62
     7
370
    25
100
AcDbCircle
 10
110.3218456377
 20
325.9159956227
 30
0.0
 40
1.500000000000057
100
AcDbArc
 50
0.0
 51
90.0
  0
ARC
  5
CA
330
1F
100
AcDbEntity
  8
0
  6
Continuous
 62
     7
370
    25
100
AcDbCircle
 10
170.9218456377
 20
270.4485615683
 30
0.0
 40
4.700000000000017
100
AcDbArc
 50
350.5402980318
 51
0.0
  0
ARC
  5
CB
330
1F
100
AcDbEntity
  8
0
  6
Continuous
 62
     7
370
    25
100
AcDbCircle
 10
116.5218456377
 20
270.4485615683
 30
0.0
 40
4.700000000000045
100
AcDbArc
 50
180.0
 51
189.4597019682
  0
LINE
  5
CC
330
1F
100
AcDbEntity
  8
0
  6
Continuous
 62
     7
370
    25
100
AcDbLine
 10
175.6218512663
 20
270.4485580215
 30
0.0
 11
175.6218512663
 21
325.9159847984
 31
0.0
  0
LINE
  5
CD
330
1F
100
AcDbEntity
  8
0
  6
Continuous
 62
     7
370
    25
100
AcDbLine
 10
111.8218441614
 20
325.9159847984
 30
0.0
 11
111.8218441614
 21
270.4485580215
 31
0.0
  0
LINE
  5
CE
330
1F
100
AcDbEntity
  8
0
  6
Continuous
 62
     7
370
    25
100
AcDbLine
 10
111.8857552417
 20
269.6761116276
 30
0.0
 11
112.7621968397
 21
264.4160017261
 31
0.0
  0
LINE
  5
CF
330
1F
100
AcDbEntity
  8
0
  6
Continuous
 62
     7
370
    25
100
AcDbLine
 10
174.681498588
 20
264.4160017261
 30
0.0
 11
175.5579252847
 21
269.6761116276
 31
0.0
  0
ARC
  5
D0
330
1F
100
AcDbEntity
  8
0
  6
Continuous
 62
     7
370
    25
100
AcDbCircle
 10
756.1218456377
 20
325.9159956227
 30
0.0
 40
1.5
100
AcDbArc
 50
90.0
 51
180.0
  0
ARC
  5
D1
330
1F
100
AcDbEntity
  8
0
  6
Continuous
 62
     7
370
    25
100
AcDbCircle
 10
689.3218456377
 20
325.9159956227
 30
0.0
 40
1.5
100
AcDbArc
 50
0.0
 51
90.0
  0
LINE
  5
D2
330
1F
100
AcDbEntity
  8
0
  6
Continuous
 62
     7
370
    25
100
AcDbLine
 10
754.6218623527
 20
270.4485580215
 30
0.0
 11
754.6218623527
 21
325.9159847984
 31
0.0
  0
LINE
  5
D3
330
1F
100
AcDbEntity
  8
0
  6
Continuous
 62
     7
370
    25
100
AcDbLine
 10
690.8218254455
 20
325.9159847984
 30
0.0
 11
690.8218254455
 21
270.4485580215
 31
0.0
  0
ARC
  5
D4
330
1F
100
AcDbEntity
  8
0
  6
Continuous
 62
     7
370
    25
100
AcDbCircle
 10
749.9218456377
 20
270.4485615683
 30
0.0
 40
4.700000000000045
100
AcDbArc
 50
350.5402980318
 51
0.0
  0
ARC
  5
D5
330
1F
100
AcDbEntity
  8
0
  6
Continuous
 62
     7
370
    25
100
AcDbCircle
 10
695.5218456377
 20
270.4485615683
 30
0.0
 40
4.700000000000122
100
AcDbArc
 50
180.0
 51
189.4597019682
  0
LINE
  5
D6
330
1F
100
AcDbEntity
  8
0
  6
Continuous
 62
     7
370
    25
100
AcDbLine
 10
690.8857812294
 20
269.6761116276
 30
0.0
 11
691.7622079262
 21
264.4160017261
 31
0.0
  0
LINE
  5
D7
330
1F
100
AcDbEntity
  8
0
  6
Continuous
 62
     7
370
    25
100
AcDbLine
 10
753.6814798721
 20
264.4160017261
 30
0.0
 11
754.5579065689
 21
269.6761116276
 31
0.0
  0
LINE
  5
D8
330
1F
100
AcDbEntity
  8
0
  6
Continuous
 62
     7
370
    25
100
AcDbLine
 10
442.0307268509
 20
317.5428137073
 30
0.0
 11
442.3194219478
 21
317.0427903423
 31
0.0
  0
LINE
  5
D9
330
1F
100
AcDbEntity
  8
0
  6
Continuous
 62
     7
370
    25
100
AcDbLine
 10
490.0420596012
 20
317.0427903423
 30
0.0
 11
490.3307248958
 21
317.5428137073
 31
0.0
  0
LINE
  5
DA
330
1F
100
AcDbEntity
  8
0
  6
Continuous
 62
     7
370
    25
100
AcDbLine
 10
442.0307268509
 20
329.1159942636
 30
0.0
 11
442.0307268509
 21
317.5428137073
 31
0.0
  0
LINE
  5
DB
330
1F
100
AcDbEntity
  8
0
  6
Continuous
 62
     7
370
    25
100
AcDbLine
 10
490.3307248958
 20
317.5428137073
 30
0.0
 11
490.3307248958
 21
329.1159942636
 31
0.0
  0
ARC
  5
DC
330
1F
100
AcDbEntity
  8
0
  6
Continuous
 62
     7
370
    25
100
AcDbCircle
 10
879.1057621635
 20
449.9643617035
 30
0.0
 40
6.250343967133764
100
AcDbArc
 50
6.8275669474
 51
17.1388918705
  0
ARC
  5
DD
330
1F
100
AcDbEntity
  8
0
  6
Continuous
 62
     7
370
    25
100
AcDbCircle
 10
885.1069453248
 20
450.4989972605
 30
0.0
 40
0.2922242613935956
100
AcDbArc
 50
4.502670847
 51
45.4963353368
  0
ARC
  5
DE
330
1F
100
AcDbEntity
  8
0
  6
Continuous
 62
     7
370
    25
100
AcDbCircle
 10
879.1915945236
 20
449.7787731216
 30
0.0
 40
6.251006841064296
100
AcDbArc
 50
6.8278902737
 51
17.1382529435
  0
LWPOLYLINE
  5
DF
330
1F
100
AcDbEntity
  8
0
  6
Continuous
 62
     7
370
    25
100
AcDbPolyline
 90
        8
 70
   128
 43
0.0
 10
885.1650347122
 20
451.6208097229
 10
885.1554383644
 20
451.6412839184
 10
885.1444115051
 20
451.6650512705
 10
885.1318349251
 20
451.6920223722
 10
885.1178278335
 20
451.7220631132
 10
885.1023902305
 20
451.7550989876
 10
885.08570093
 20
451.7909660826
 10
885.0829591163
 20
451.7968073377
  0
LWPOLYLINE
  5
E0
330
1F
100
AcDbEntity
  8
0
  6
Continuous
 62
     7
370
    25
100
AcDbPolyline
 90
        3
 70
   128
 43
0.0
 10
884.4863762268
 20
452.4775221834
 10
884.5472921737
 20
452.3660167942
 10
884.5947970756
 20
452.2754922399
  0
ARC
  5
E1
330
1F
100
AcDbEntity
  8
0
  6
Continuous
 62
     7
370
    25
100
AcDbCircle
 10
883.8096791522
 20
452.9591262309
 30
0.0
 40
0.8305789483037157
100
AcDbArc
 50
324.5606127415
 51
347.9368685545
  0
LWPOLYLINE
  5
E2
330
1F
100
AcDbEntity
  8
0
  6
Continuous
 62
     7
370
    25
100
AcDbPolyline
 90
        8
 70
   128
 43
0.0
 10
884.621917189
 20
452.7855440864
 10
884.5970620521
 20
452.83884554
 10
884.5728029617
 20
452.8907760868
 10
884.5493187317
 20
452.9411122093
 10
884.5267285713
 20
452.9896750936
 10
884.5049728759
 20
453.0362710247
 10
884.4842304596
 20
453.0807062874
 10
884.4761242279
 20
453.0981257448
  0
LWPOLYLINE
  5
E3
330
1F
100
AcDbEntity
  8
0
  6
Continuous
 62
     7
370
    25
100
AcDbPolyline
 90
        3
 70
   128
 43
0.0
 10
883.6677660354
 20
454.2329311261
 10
883.6842169174
 20
454.2167782674
 10
883.6963166603
 20
454.2022868881
  0
ARC
  5
E4
330
1F
100
AcDbEntity
  8
0
  6
Continuous
 62
     7
370
    25
100
AcDbCircle
 10
879.1139215202
 20
449.9598254316
 30
0.0
 40
6.244752368567347
100
AcDbArc
 50
32.8574581031
 51
43.1783369245
  0
LINE
  5
E5
330
1F
100
AcDbEntity
  8
0
  6
Continuous
 62
     7
370
    25
100
AcDbLine
 10
884.359656752
 20
453.3479213605
 30
0.0
 11
884.4761838325
 21
453.0980661402
 31
0.0
  0
ARC
  5
E6
330
1F
100
AcDbEntity
  8
0
  6
Continuous
 62
     7
370
    25
100
AcDbCircle
 10
884.0877877326
 20
452.3667401382
 30
0.0
 40
0.8280635552762027
100
AcDbArc
 50
62.0279094534
 51
85.4784696048
  0
ARC
  5
E7
330
1F
100
AcDbEntity
  8
0
  6
Continuous
 62
     7
370
    25
100
AcDbCircle
 10
878.1299214671
 20
449.8264550808
 30
0.0
 40
6.899760903188647
100
AcDbArc
 50
20.806500405
 51
29.1967323181
  0
ARC
  5
E8
330
1F
100
AcDbEntity
  8
0
  6
Continuous
 62
     7
370
    25
100
AcDbCircle
 10
884.5144067023
 20
451.4519927597
 30
0.0
 40
0.8279272242079162
100
AcDbArc
 50
62.0251341421
 51
85.4755661014
  0
LWPOLYLINE
  5
E9
330
1F
100
AcDbEntity
  8
0
  6
Continuous
 62
     7
370
    25
100
AcDbPolyline
 90
        9
 70
   128
 43
0.0
 10
884.9027742752
 20
452.1831795463
 10
884.9276294121
 20
452.1298780927
 10
884.9518288978
 20
452.077947546
 10
884.9753131279
 20
452.0276114235
 10
884.9979628929
 20
451.9790485391
 10
885.0197185882
 20
451.9324526081
 10
885.0404014
 20
451.8880173454
 10
885.0600709327
 20
451.8459066639
 10
885.0785483726
 20
451.8062695751
  0
SPLINE
  5
EA
330
1F
100
AcDbEntity
  8
0
  6
Continuous
 62
     7
370
    25
100
AcDbSpline
210
0.0
220
0.0
230
1.0
 70
     8
 71
     3
 72
     9
 73
     5
 74
     0
 42
0.000000001
 43
0.00000001
 40
0.0
 40
0.0
 40
0.0
 40
0.0
 40
0.7456840177953535
 40
1.0
 40
1.0
 40
1.0
 40
1.0
 10
884.6219171889992
 20
452.7855440864374
 30
0.0
 10
884.5438552373246
 20
452.7506581276154
 30
0.0
 10
884.4391702101395
 20
452.7038742915809
 30
0.0
 10
884.3344837544737
 20
452.6571834784447
 30
0.0
 10
884.3078603156775
 20
452.6453092584421
 30
0.0
  0
LINE
  5
EB
330
1F
100
AcDbEntity
  8
0
  6
Continuous
 62
     7
370
    25
100
AcDbLine
 10
803.3282746681
 20
328.0410095939
 30
0.0
 11
877.3282756218
 21
328.0410095939
 31
0.0
  0
LINE
  5
EC
330
1F
100
AcDbEntity
  8
0
  6
Continuous
 62
     7
370
    25
100
AcDbLine
 10
803.3282746681
 20
328.0410095939
 30
0.0
 11
803.3282746681
 21
328.1159922371
 31
0.0
  0
LINE
  5
ED
330
1F
100
AcDbEntity
  8
0
  6
Continuous
 62
     7
370
    25
100
AcDbLine
 10
803.3282746681
 20
328.1159922371
 30
0.0
 11
877.3282756218
 21
328.1159922371
 31
0.0
  0
LINE
  5
EE
330
1F
100
AcDbEntity
  8
0
  6
Continuous
 62
     7
370
    25
100
AcDbLine
 10
877.3282756218
 20
328.0410095939
 30
0.0
 11
877.3282756218
 21
328.1159922371
 31
0.0
  0
LINE
  5
EF
330
1F
100
AcDbEntity
  8
0
  6
Continuous
 62
     7
370
    25
100
AcDbLine
 10
867.3282851585
 20
328.1159922371
 30
0.0
 11
867.3282851585
 21
328.3159956226
 31
0.0
  0
LINE
  5
F0
330
1F
100
AcDbEntity
  8
0
  6
Continuous
 62
     7
370
    25
100
AcDbLine
 10
813.3282651314
 20
328.1159922371
 30
0.0
 11
813.3282651314
 21
328.3159956226
 31
0.0
  0
LINE
  5
F1
330
1F
100
AcDbEntity
  8
0
  6
Continuous
 62
     7
370
    25
100
AcDbLine
 10
90.6807397612
 20
681.6159933696
 30
0.0
 11
89.8807411202
 21
681.6159933696
 31
0.0
  0
LINE
  5
F2
330
1F
100
AcDbEntity
  8
0
  6
Continuous
 62
     7
370
    25
100
AcDbLine
 10
89.8807411202
 20
681.6159933696
 30
0.0
 11
89.8807411202
 21
686.6159960518
 31
0.0
  0
LINE
  5
F3
330
1F
100
AcDbEntity
  8
0
  6
Continuous
 62
     7
370
    25
100
AcDbLine
 10
90.6807397612
 20
686.6159960518
 30
0.0
 11
90.6807397612
 21
681.6159933696
 31
0.0
  0
ARC
  5
F4
330
1F
100
AcDbEntity
  8
0
  6
Continuous
 62
     7
370
    25
100
AcDbCircle
 10
91.6807383306
 20
699.8159956227
 30
0.0
 40
1.800000000000026
100
AcDbArc
 50
0.0
 51
180.0
  0
ARC
  5
F5
330
1F
100
AcDbEntity
  8
0
  6
Continuous
 62
     7
370
    25
100
AcDbCircle
 10
91.6807383306
 20
699.8159956227
 30
0.0
 40
1.0
100
AcDbArc
 50
0.0
 51
180.0
  0
LINE
  5
F6
330
1F
100
AcDbEntity
  8
0
  6
Continuous
 62
     7
370
    25
100
AcDbLine
 10
92.6807363638
 20
699.7966393719
 30
0.0
 11
92.6807363638
 21
699.8159959802
 31
0.0
  0
LINE
  5
F7
330
1F
100
AcDbEntity
  8
0
  6
Continuous
 62
     7
370
    25
100
AcDbLine
 10
93.4807350048
 20
699.6982097516
 30
0.0
 11
93.4807350048
 21
699.8159959802
 31
0.0
  0
LINE
  5
F8
330
1F
100
AcDbEntity
  8
0
  6
Continuous
 62
     7
370
    25
100
AcDbLine
 10
89.8807411202
 20
699.8159959802
 30
0.0
 11
89.8807411202
 21
686.6159960518
 31
0.0
  0
LINE
  5
F9
330
1F
100
AcDbEntity
  8
0
  6
Continuous
 62
     7
370
    25
100
AcDbLine
 10
90.6807397612
 20
699.8159959802
 30
0.0
 11
90.6807397612
 21
686.6159960518
 31
0.0
  0
LINE
  5
FA
330
1F
100
AcDbEntity
  8
0
  6
Continuous
 62
     7
370
    25
100
AcDbLine
 10
146.6807414898
 20
578.3159956227
 30
0.0
 11
146.6807414898
 21
581.0659956077
 31
0.0
  0
LINE
  5
FB
330
1F
100
AcDbEntity
  8
0
  6
Continuous
 62
     7
370
    25
100
AcDbLine
 10
787.6807441124
 20
581.0659956077
 30
0.0
 11
787.6807441124
 21
578.3159956227
 31
0.0
  0
LINE
  5
FC
330
1F
100
AcDbEntity
  8
0
  6
Continuous
 62
     7
370
    25
100
AcDbLine
 10
763.7735595115
 20
617.1324588249
 30
0.0
 11
93.9307351717
 21
699.6619850287
 31
0.0
  0
ARC
  5
FD
330
1F
100
AcDbEntity
  8
0
  6
Continuous
 62
     7
370
    25
100
AcDbCircle
 10
762.5507556684
 20
607.2075044735
 30
0.0
 40
10.0
100
AcDbArc
 50
40.0
 51
82.9761397373
  0
LINE
  5
FE
330
1F
100
AcDbEntity
  8
0
  6
Continuous
 62
     7
370
    25
100
AcDbLine
 10
146.6807414898
 20
581.8159957306
 30
0.0
 11
146.6807414898
 21
581.0659956077
 31
0.0
  0
LINE
  5
FF
330
1F
100
AcDbEntity
  8
0
  6
Continuous
 62
     7
370
    25
100
AcDbLine
 10
145.9307362446
 20
581.8159957306
 30
0.0
 11
146.6807414898
 21
581.8159957306
 31
0.0
  0
LINE
  5
100
330
1F
100
AcDbEntity
  8
0
  6
Continuous
 62
     7
370
    25
100
AcDbLine
 10
145.9307362446
 20
579.8159956357
 30
0.0
 11
145.9307362446
 21
581.8159957306
 31
0.0
  0
LINE
  5
101
330
1F
100
AcDbEntity
  8
0
  6
Continuous
 62
     7
370
    25
100
AcDbLine
 10
93.9307351717
 20
579.8159956357
 30
0.0
 11
145.9307362446
 21
579.8159956357
 31
0.0
  0
LINE
  5
102
330
1F
100
AcDbEntity
  8
0
  6
Continuous
 62
     7
370
    25
100
AcDbLine
 10
785.3412022003
 20
595.6041701028
 30
0.0
 11
770.2112187752
 21
613.6353798101
 31
0.0
  0
LINE
  5
103
330
1F
100
AcDbEntity
  8
0
  6
Continuous
 62
     7
370
    25
100
AcDbLine
 10
787.6807441124
 20
581.0659956077
 30
0.0
 11
787.6807441124
 21
589.1762934515
 31
0.0
  0
ARC
  5
104
330
1F
100
AcDbEntity
  8
0
  6
Continuous
 62
     7
370
    25
100
AcDbCircle
 10
777.6807383306
 20
589.17629328
 30
0.0
 40
10.00000000000011
100
AcDbArc
 50
0.0
 51
40.0
  0
SPLINE
  5
105
330
1F
100
AcDbEntity
  8
0
  6
Continuous
 62
     7
370
    25
100
AcDbSpline
210
0.0
220
0.0
230
1.0
 70
     8
 71
     3
 72
    11
 73
     7
 74
     0
 42
0.000000001
 43
0.00000001
 40
0.0
 40
0.0
 40
0.0
 40
0.0
 40
0.2500000067108238
 40
0.4999990057014139
 40
0.7499999932891762
 40
0.9999999999999999
 40
0.9999999999999999
 40
0.9999999999999999
 40
0.9999999999999999
 10
91.18074077450933
 20
699.8159959802439
 30
0.0
 10
91.22207765793333
 20
699.8031602928226
 30
0.0
 10
91.3047512581573
 20
699.7774889697187
 30
0.0
 10
91.9406860269889
 20
699.7389966792388
 30
0.0
 10
92.8496763708267
 20
699.7004890794872
 30
0.0
 10
93.57038270933926
 20
699.6748196955267
 30
0.0
 10
93.93073517167272
 20
699.6619850287249
 30
0.0
  0
LINE
  5
106
330
1F
100
AcDbEntity
  8
0
  6
Continuous
 62
     7
370
    25
100
AcDbLine
 10
92.6807363638
 20
699.8159959802
 30
0.0
 11
91.1807407745
 21
699.8159959802
 31
0.0
  0
LINE
  5
107
330
1F
100
AcDbEntity
  8
0
  6
Continuous
 62
     7
370
    25
100
AcDbLine
 10
91.1807407745
 20
579.8159956357
 30
0.0
 11
91.1807407745
 21
699.8159959802
 31
0.0
  0
LINE
  5
108
330
1F
100
AcDbEntity
  8
0
  6
Continuous
 62
     7
370
    25
100
AcDbLine
 10
93.9307351717
 20
579.8159956357
 30
0.0
 11
91.1807407745
 21
579.8159956357
 31
0.0
  0
LINE
  5
109
330
1F
100
AcDbEntity
  8
0
  6
Continuous
 62
     7
370
    25
100
AcDbLine
 10
788.930713118
 20
590.3159957269
 30
0.0
 11
788.930713118
 21
581.0659956077
 31
0.0
  0
LINE
  5
10A
330
1F
100
AcDbEntity
  8
0
  6
Continuous
 62
     7
370
    25
100
AcDbLine
 10
790.4307236084
 20
590.3159957269
 30
0.0
 11
790.4307236084
 21
581.0659956077
 31
0.0
  0
LINE
  5
10B
330
1F
100
AcDbEntity
  8
0
  6
Continuous
 62
     7
370
    25
100
AcDbLine
 10
790.4307236084
 20
590.3159957269
 30
0.0
 11
788.930713118
 21
590.3159957269
 31
0.0
  0
ARC
  5
10C
330
1F
100
AcDbEntity
  8
0
  6
Continuous
 62
     7
370
    25
100
AcDbCircle
 10
787.6807383306
 20
581.0659956227
 30
0.0
 40
2.75
100
AcDbArc
 50
270.0
 51
0.0
  0
ARC
  5
10D
330
1F
100
AcDbEntity
  8
0
  6
Continuous
 62
     7
370
    25
100
AcDbCircle
 10
787.6807383306
 20
581.0659956227
 30
0.0
 40
1.25
100
AcDbArc
 50
270.0
 51
0.0
  0
ARC
  5
10E
330
1F
100
AcDbEntity
  8
0
  6
Continuous
 62
     7
370
    25
100
AcDbCircle
 10
146.6807383306
 20
581.0659956227
 30
0.0
 40
1.250000000000131
100
AcDbArc
 50
233.1301023542
 51
270.0
  0
ARC
  5
10F
330
1F
100
AcDbEntity
  8
0
  6
Continuous
 62
     7
370
    25
100
AcDbCircle
 10
146.6807383306
 20
581.0659956227
 30
0.0
 40
2.750000000000114
100
AcDbArc
 50
207.0356917893
 51
270.0
  0
LINE
  5
110
330
1F
100
AcDbEntity
  8
0
  6
Continuous
 62
     7
370
    25
100
AcDbLine
 10
37.0350805231
 20
315.5159875641
 30
0.0
 11
37.0350805231
 21
311.6159960518
 31
0.0
  0
LINE
  5
111
330
1F
100
AcDbEntity
  8
0
  6
Continuous
 62
     7
370
    25
100
AcDbLine
 10
51.9407865711
 20
311.6159960518
 30
0.0
 11
51.9407865711
 21
311.9159862289
 31
0.0
  0
LINE
  5
112
330
1F
100
AcDbEntity
  8
0
  6
Continuous
 62
     7
370
    25
100
AcDbLine
 10
37.0350805231
 20
311.6159960518
 30
0.0
 11
51.9407865711
 21
311.6159960518
 31
0.0
  0
LINE
  5
113
330
1F
100
AcDbEntity
  8
0
  6
Continuous
 62
     7
370
    25
100
AcDbLine
 10
37.0350805231
 20
315.5159875641
 30
0.0
 11
38.5541980275
 21
315.5159875641
 31
0.0
  0
LINE
  5
114
330
1F
100
AcDbEntity
  8
0
  6
Continuous
 62
     7
370
    25
100
AcDbLine
 10
58.3393526384
 20
329.1159942636
 30
0.0
 11
58.3393526384
 21
325.4159912357
 31
0.0
  0
LINE
  5
115
330
1F
100
AcDbEntity
  8
0
  6
Continuous
 62
     7
370
    25
100
AcDbLine
 10
52.6724186846
 20
325.4159912357
 30
0.0
 11
58.3393526384
 21
325.4159912357
 31
0.0
  0
LINE
  5
116
330
1F
100
AcDbEntity
  8
0
  6
Continuous
 62
     7
370
    25
100
AcDbLine
 10
54.071846337
 20
297.4159940967
 30
0.0
 11
34.3718462744
 21
297.4159940967
 31
0.0
  0
LINE
  5
117
330
1F
100
AcDbEntity
  8
0
  6
Continuous
 62
     7
370
    25
100
AcDbLine
 10
29.3718454548
 20
317.9159983883
 30
0.0
 11
38.1544445761
 21
317.9159983883
 31
0.0
  0
LINE
  5
118
330
1F
100
AcDbEntity
  8
0
  6
Continuous
 62
     7
370
    25
100
AcDbLine
 10
56.2952672251
 20
317.9159983883
 30
0.0
 11
59.0718452939
 21
317.9159983883
 31
0.0
  0
LINE
  5
119
330
1F
100
AcDbEntity
  8
0
  6
Continuous
 62
     7
370
    25
100
AcDbLine
 10
30.2218449422
 20
323.4159871826
 30
0.0
 11
38.0657267877
 21
323.4159871826
 31
0.0
  0
LINE
  5
11A
330
1F
100
AcDbEntity
  8
0
  6
Continuous
 62
     7
370
    25
100
AcDbLine
 10
56.3779649445
 20
323.4159871826
 30
0.0
 11
58.2218458065
 21
323.4159871826
 31
0.0
  0
LINE
  5
11B
330
1F
100
AcDbEntity
  8
0
  6
Continuous
 62
     7
370
    25
100
AcDbLine
 10
30.432990671
 20
325.4159912357
 30
0.0
 11
30.432990671
 21
329.1159942636
 31
0.0
  0
LINE
  5
11C
330
1F
100
AcDbEntity
  8
0
  6
Continuous
 62
     7
370
    25
100
AcDbLine
 10
30.432990671
 20
325.4159912357
 30
0.0
 11
41.7712730476
 21
325.4159912357
 31
0.0
  0
LINE
  5
11D
330
1F
100
AcDbEntity
  8
0
  6
Continuous
 62
     7
370
    25
100
AcDbLine
 10
53.7313138255
 20
312.7159997711
 30
0.0
 11
53.7313138255
 21
311.6159960518
 31
0.0
  0
LINE
  5
11E
330
1F
100
AcDbEntity
  8
0
  6
Continuous
 62
     7
370
    25
100
AcDbLine
 10
51.9407865711
 20
311.6159960518
 30
0.0
 11
53.7313138255
 21
311.6159960518
 31
0.0
  0
LINE
  5
11F
330
1F
100
AcDbEntity
  8
0
  6
Continuous
 62
     7
370
    25
100
AcDbLine
 10
35.2074940809
 20
311.6159960518
 30
0.0
 11
35.2074940809
 21
315.5159875641
 31
0.0
  0
LINE
  5
120
330
1F
100
AcDbEntity
  8
0
  6
Continuous
 62
     7
370
    25
100
AcDbLine
 10
35.2074940809
 20
311.6159960518
 30
0.0
 11
37.0350805231
 21
311.6159960518
 31
0.0
  0
LINE
  5
121
330
1F
100
AcDbEntity
  8
0
  6
Continuous
 62
     7
370
    25
100
AcDbLine
 10
35.2074940809
 20
315.5159875641
 30
0.0
 11
37.0350805231
 21
315.5159875641
 31
0.0
  0
LINE
  5
122
330
1F
100
AcDbEntity
  8
0
  6
Continuous
 62
     7
370
    25
100
AcDbLine
 10
27.5256139346
 20
315.5159875641
 30
0.0
 11
27.5256139346
 21
311.6159960518
 31
0.0
  0
LINE
  5
123
330
1F
100
AcDbEntity
  8
0
  6
Continuous
 62
     7
370
    25
100
AcDbLine
 10
27.5256139346
 20
311.6159960518
 30
0.0
 11
35.2074940809
 21
311.6159960518
 31
0.0
  0
LINE
  5
124
330
1F
100
AcDbEntity
  8
0
  6
Continuous
 62
     7
370
    25
100
AcDbLine
 10
27.5256139346
 20
315.5159875641
 30
0.0
 11
35.2074940809
 21
315.5159875641
 31
0.0
  0
LINE
  5
125
330
1F
100
AcDbEntity
  8
0
  6
Continuous
 62
     7
370
    25
100
AcDbLine
 10
60.9551397272
 20
311.6159960518
 30
0.0
 11
60.9551397272
 21
315.5159875641
 31
0.0
  0
LINE
  5
126
330
1F
100
AcDbEntity
  8
0
  6
Continuous
 62
     7
370
    25
100
AcDbLine
 10
53.7313138255
 20
311.6159960518
 30
0.0
 11
60.9551397272
 21
311.6159960518
 31
0.0
  0
LINE
  5
127
330
1F
100
AcDbEntity
  8
0
  6
Continuous
 62
     7
370
    25
100
AcDbLine
 10
55.8894899794
 20
315.5159875641
 30
0.0
 11
60.9551397272
 21
315.5159875641
 31
0.0
  0
LINE
  5
128
330
1F
100
AcDbEntity
  8
0
  6
Continuous
 62
     7
370
    25
100
AcDbLine
 10
29.3564357915
 20
329.1159942636
 30
0.0
 11
29.3564357915
 21
325.4159912357
 31
0.0
  0
LINE
  5
129
330
1F
100
AcDbEntity
  8
0
  6
Continuous
 62
     7
370
    25
100
AcDbLine
 10
29.3564357915
 20
325.4159912357
 30
0.0
 11
30.432990671
 21
325.4159912357
 31
0.0
  0
LINE
  5
12A
330
1F
100
AcDbEntity
  8
0
  6
Continuous
 62
     7
370
    25
100
AcDbLine
 10
59.3517151781
 20
325.4159912357
 30
0.0
 11
59.3517151781
 21
329.1159942636
 31
0.0
  0
LINE
  5
12B
330
1F
100
AcDbEntity
  8
0
  6
Continuous
 62
     7
370
    25
100
AcDbLine
 10
58.3393526384
 20
325.4159912357
 30
0.0
 11
59.3517151781
 21
325.4159912357
 31
0.0
  0
LINE
  5
12C
330
1F
100
AcDbEntity
  8
0
  6
Continuous
 62
     7
370
    25
100
AcDbLine
 10
29.0919774332
 20
325.4159912357
 30
0.0
 11
29.0919774332
 21
329.1159942636
 31
0.0
  0
LINE
  5
12D
330
1F
100
AcDbEntity
  8
0
  6
Continuous
 62
     7
370
    25
100
AcDbLine
 10
29.0919774332
 20
325.4159912357
 30
0.0
 11
29.3564357915
 21
325.4159912357
 31
0.0
  0
LINE
  5
12E
330
1F
100
AcDbEntity
  8
0
  6
Continuous
 62
     7
370
    25
100
AcDbLine
 10
27.4718449571
 20
311.6159960518
 30
0.0
 11
27.5256139346
 21
311.6159960518
 31
0.0
  0
LINE
  5
12F
330
1F
100
AcDbEntity
  8
0
  6
Continuous
 62
     7
370
    25
100
AcDbLine
 10
27.4718449571
 20
315.5159875641
 30
0.0
 11
27.5256139346
 21
315.5159875641
 31
0.0
  0
LINE
  5
130
330
1F
100
AcDbEntity
  8
0
  6
Continuous
 62
     7
370
    25
100
AcDbLine
 10
60.9551397272
 20
311.6159960518
 30
0.0
 11
60.9718439289
 21
311.6159960518
 31
0.0
  0
LINE
  5
131
330
1F
100
AcDbEntity
  8
0
  6
Continuous
 62
     7
370
    25
100
AcDbLine
 10
60.9551397272
 20
315.5159875641
 30
0.0
 11
60.9718439289
 21
315.5159875641
 31
0.0
  0
LWPOLYLINE
  5
132
330
1F
100
AcDbEntity
  8
0
  6
Continuous
 62
     7
370
    25
100
AcDbPolyline
 90
       16
 70
   128
 43
0.0
 10
876.0417093643
 20
455.7553380618
 10
876.0464777359
 20
455.745138217
 10
876.1597861656
 20
455.5021375308
 10
876.4182319053
 20
454.9478813896
 10
876.8079270729
 20
454.1122317204
 10
877.307771624
 20
453.0402496347
 10
877.8908838638
 20
451.7897292862
 10
878.5258521446
 20
450.4280760774
 10
879.1784037956
 20
449.0287080297
 10
879.8133720764
 20
447.667054821
 10
880.3964843162
 20
446.4165344724
 10
880.8963288673
 20
445.3445449362
 10
881.2860240349
 20
444.5089027176
 10
881.5444697746
 20
443.9546391258
 10
881.6577782043
 20
443.7116458902
 10
881.6625465759
 20
443.7014385948
  0
LWPOLYLINE
  5
133
330
1F
100
AcDbEntity
  8
0
  6
Continuous
 62
     7
370
    25
100
AcDbPolyline
 90
       16
 70
   128
 43
0.0
 10
872.3836531051
 20
455.318428565
 10
872.4270452865
 20
455.2253037581
 10
872.6177801498
 20
454.8163488397
 10
872.9516257652
 20
454.1003256926
 10
873.4130849251
 20
453.110717226
 10
873.980580748
 20
451.8937840948
 10
874.6274699577
 20
450.506426383
 10
875.3236522087
 20
449.0135386476
 10
876.0364641556
 20
447.4849030266
 10
876.7325868019
 20
445.9920152912
 10
877.3795356163
 20
444.6046724806
 10
877.9469718345
 20
443.3877393493
 10
878.408490599
 20
442.3981234321
 10
878.7423362144
 20
441.6821077356
 10
878.9330710777
 20
441.2731453666
 10
878.9764632591
 20
441.1800280103
  0
LWPOLYLINE
  5
134
330
1F
100
AcDbEntity
  8
0
  6
Continuous
 62
     7
370
    25
100
AcDbPolyline
 90
       22
 70
   128
 43
0.0
 10
868.3828105339
 20
473.3630418668
 10
868.9474453338
 20
472.1520990023
 10
869.6449984916
 20
470.656208683
 10
870.4664697059
 20
468.8945561538
 10
871.4013685592
 20
466.8897390256
 10
872.4375953087
 20
464.6674767027
 10
873.5619773277
 20
462.2562751064
 10
874.7600306877
 20
459.6870690474
 10
876.0163773903
 20
456.9928273449
 10
877.3149241813
 20
454.208098341
 10
878.6389817604
 20
451.3686075697
 10
879.9716224083
 20
448.5107883701
 10
881.2956799873
 20
445.6712975988
 10
882.5942267784
 20
442.8865685949
 10
883.850573481
 20
440.1923194418
 10
885.0486268409
 20
437.6231208334
 10
886.1729492553
 20
435.2119192371
 10
887.2092356094
 20
432.9896643648
 10
888.1440748581
 20
430.9848472366
 10
888.9655460724
 20
429.2231872568
 10
889.6630992302
 20
427.7272894869
 10
890.2277936348
 20
426.5163615236
  0
LWPOLYLINE
  5
135
330
1F
100
AcDbEntity
  8
0
  6
Continuous
 62
     7
370
    25
100
AcDbPolyline
 90
       26
 70
   128
 43
0.0
 10
874.6499409088
 20
471.7540740857
 10
874.6688355812
 20
471.7135950813
 10
874.8193969139
 20
471.390761424
 10
875.1179565796
 20
470.7504063735
 10
875.5597462066
 20
469.8030352483
 10
876.1374344238
 20
468.5642048607
 10
876.8415440925
 20
467.0542552957
 10
877.6605119117
 20
465.2979820857
 10
878.5808672317
 20
463.3242189774
 10
879.5875300773
 20
461.1653908977
 10
880.663989962
 20
458.8569253573
 10
881.7925443062
 20
456.4367383609
 10
882.9546560653
 20
453.9445638547
 10
884.1312517532
 20
451.421327878
 10
885.3030194648
 20
448.9084705601
 10
886.4507665046
 20
446.4472308645
 10
887.5555385956
 20
444.0780356417
 10
888.5992159256
 20
441.8397918234
 10
889.5647515663
 20
439.7692456732
 10
890.4361714729
 20
437.9003867397
 10
891.19928974
 20
436.2639114151
 10
891.8415297874
 20
434.8866864929
 10
892.3522819885
 20
433.791346837
 10
892.7232016929
 20
432.9958334455
 10
892.9482688316
 20
432.5132593403
 10
893.0236687072
 20
432.3515072355
  0
SPLINE
  5
136
330
1F
100
AcDbEntity
  8
0
  6
Continuous
 62
     7
370
    25
100
AcDbSpline
210
0.0
220
0.0
230
1.0
 70
     8
 71
     3
 72
    11
 73
     7
 74
     0
 42
0.000000001
 43
0.00000001
 40
0.0
 40
0.0
 40
0.0
 40
0.0
 40
0.1499492391847331
 40
0.4331769582609316
 40
0.7165905875460638
 40
0.9999999999999999
 40
0.9999999999999999
 40
0.9999999999999999
 40
0.9999999999999999
 10
891.7949189552039
 20
423.155553627949
 30
0.0
 10
891.6948081471514
 20
423.3702692872587
 30
0.0
 10
891.4056056439781
 20
423.9905450332146
 30
0.0
 10
890.9491923134354
 20
424.9691324565207
 30
0.0
 10
890.4915064775291
 20
425.950830384572
 30
0.0
 10
890.3156974797171
 20
426.3278520788705
 30
0.0
 10
890.2277936347693
 20
426.5163615236094
 30
0.0
  0
SPLINE
  5
137
330
1F
100
AcDbEntity
  8
0
  6
Continuous
 62
     7
370
    25
100
AcDbSpline
210
0.0
220
0.0
230
1.0
 70
     8
 71
     3
 72
    11
 73
     7
 74
     0
 42
0.000000001
 43
0.00000001
 40
0.0
 40
0.0
 40
0.0
 40
0.0
 40
0.1499513852254951
 40
0.4331728118696216
 40
0.716592770776874
 40
1.0
 40
1.0
 40
1.0
 40
1.0
 10
868.3828105338782
 20
473.3630418667605
 30
0.0
 10
868.3406520513125
 20
473.4534504996067
 30
0.0
 10
868.2188665245584
 20
473.7146188886045
 30
0.0
 10
867.8889584529389
 20
474.4221802888816
 30
0.0
 10
867.3855567916344
 20
475.5015494052512
 30
0.0
 10
867.0055998254131
 20
476.3164224101124
 30
0.0
 10
866.8156256087989
 20
476.7238497624209
 30
0.0
  0
LINE
  5
138
330
1F
100
AcDbEntity
  8
0
  6
Continuous
 62
     7
370
    25
100
AcDbLine
 10
853.691398085
 20
493.161611248
 30
0.0
 11
854.1070808777
 21
493.3295547852
 31
0.0
  0
SPLINE
  5
139
330
1F
100
AcDbEntity
  8
0
  6
Continuous
 62
     7
370
    25
100
AcDbSpline
210
0.0
220
0.0
230
1.0
 70
     8
 71
     3
 72
    14
 73
    10
 74
     0
 42
0.000000001
 43
0.00000001
 40
0.0
 40
0.0
 40
0.0
 40
0.0
 40
0.0000068050892645
 40
0.0730547277436544
 40
0.2154933248914724
 40
0.4037800092458237
 40
0.5887463144655847
 40
0.8882363257162464
 40
1.0
 40
1.0
 40
1.0
 40
1.0
 10
854.1070808776587
 20
493.3295547852327
 30
0.0
 10
854.1071007458563
 20
493.3295622358521
 30
0.0
 10
854.3203919607911
 20
493.4095469279073
 30
0.0
 10
854.9673134013988
 20
493.6059539003288
 30
0.0
 10
856.2481008102909
 20
493.6046301960362
 30
0.0
 10
857.8185588009469
 20
493.1335065071567
 30
0.0
 10
859.5105904816055
 20
491.8257070972728
 30
0.0
 10
860.5032572656266
 20
490.2144549975072
 30
0.0
 10
861.0584038398606
 20
489.060341064246
 30
0.0
 10
861.2092723258704
 20
488.7466952094843
 30
0.0
  0
SPLINE
  5
13A
330
1F
100
AcDbEntity
  8
0
  6
Continuous
 62
     7
370
    25
100
AcDbSpline
210
0.0
220
0.0
230
1.0
 70
     8
 71
     3
 72
    15
 73
    11
 74
     0
 42
0.000000001
 43
0.00000001
 40
0.0
 40
0.0
 40
0.0
 40
0.0
 40
0.0125267612646623
 40
0.2274775269981299
 40
0.4424398995664156
 40
0.499996023245117
 40
0.7148728750796115
 40
0.929749858720291
 40
0.9874750674137338
 40
1.0
 40
1.0
 40
1.0
 40
1.0
 10
854.5354594596595
 20
491.3514852413942
 30
0.0
 10
854.5302553328441
 20
491.363443058237
 30
0.0
 10
854.4357519034944
 20
491.5805889386604
 30
0.0
 10
854.2493554303322
 20
492.0036363026606
 30
0.0
 10
854.0645209007467
 20
492.4113181063847
 30
0.0
 10
853.9070190517876
 20
492.7513032658025
 30
0.0
 10
853.7771507569946
 20
493.0221488275005
 30
0.0
 10
853.7087114564015
 20
493.1469251150946
 30
0.0
 10
853.6936343596096
 20
493.1619643688381
 30
0.0
 10
853.6917364620872
 20
493.1616710029313
 30
0.0
 10
853.6913980849952
 20
493.1616186985781
 30
0.0
  0
SPLINE
  5
13B
330
1F
100
AcDbEntity
  8
0
  6
Continuous
 62
     7
370
    25
100
AcDbSpline
210
0.0
220
0.0
230
1.0
 70
     8
 71
     3
 72
     9
 73
     5
 74
     0
 42
0.000000001
 43
0.00000001
 40
0.0
 40
0.0
 40
0.0
 40
0.0
 40
0.0000219036342763
 40
1.0
 40
1.0
 40
1.0
 40
1.0
 10
903.7405838378638
 20
397.538088251095
 30
0.0
 10
903.7405838377867
 20
397.5380683828659
 30
0.0
 10
903.7405803140603
 20
396.6309938386916
 30
0.0
 10
904.2231763676899
 20
395.8123901462541
 30
0.0
 10
904.7057618507117
 20
394.9938043842127
 30
0.0
  0
LINE
  5
13C
330
1F
100
AcDbEntity
  8
0
  6
Continuous
 62
     7
370
    25
100
AcDbLine
 10
853.691398085
 20
493.161611248
 30
0.0
 11
853.6428202995
 21
493.1419938693
 31
0.0
  0
LINE
  5
13D
330
1F
100
AcDbEntity
  8
0
  6
Continuous
 62
     7
370
    25
100
AcDbLine
 10
861.2092723259
 20
488.7466952095
 30
0.0
 11
866.8156256088
 21
476.7238497624
 31
0.0
  0
LINE
  5
13E
330
1F
100
AcDbEntity
  8
0
  6
Continuous
 62
     7
370
    25
100
AcDbLine
 10
891.7949189552
 20
423.1555536279
 30
0.0
 11
903.7405838379
 21
397.5380882511
 31
0.0
  0
SPLINE
  5
13F
330
1F
100
AcDbEntity
  8
0
  6
Continuous
 62
     7
370
    25
100
AcDbSpline
210
0.0
220
0.0
230
1.0
 70
     8
 71
     3
 72
    20
 73
    16
 74
     0
 42
0.000000001
 43
0.00000001
 40
0.0
 40
0.0
 40
0.0
 40
0.0
 40
0.2070584665169848
 40
0.4203773413637257
 40
0.7011164033457663
 40
0.8834527518007899
 40
0.9282284397540841
 40
0.9524788866409127
 40
0.9675012513220073
 40
0.9773815006571211
 40
0.9840917449630917
 40
0.9887375091682755
 40
0.991993901273326
 40
0.9977328884890476
 40
1.0
 40
1.0
 40
1.0
 40
1.0
 10
904.7057618507117
 20
394.9938043842127
 30
0.0
 10
904.8106522614911
 20
394.5046900249772
 30
0.0
 10
905.0236044423884
 20
393.5116729442614
 30
0.0
 10
904.8250677177135
 20
391.8029139460638
 30
0.0
 10
904.19102739275
 20
390.5061128310635
 30
0.0
 10
903.5202906575843
 20
389.7383865099947
 30
0.0
 10
903.1099108801129
 20
389.4169041050519
 30
0.0
 10
902.9644366130626
 20
389.3167879204395
 30
0.0
 10
902.8765355573615
 20
389.2609187051892
 30
0.0
 10
902.8188797032841
 20
389.2261651875566
 30
0.0
 10
902.7796382366771
 20
389.2033346221119
 30
0.0
 10
902.7524158220036
 20
389.1878884557564
 30
0.0
 10
902.7267449148673
 20
389.1736908723846
 30
0.0
 10
902.7055575181398
 20
389.1620837147383
 30
0.0
 10
902.6903151000839
 20
389.1539565271638
 30
0.0
 10
902.6859988578528
 20
389.1516551265528
 30
0.0
  0
SPLINE
  5
140
330
1F
100
AcDbEntity
  8
0
  6
Continuous
 62
     7
370
    25
100
AcDbSpline
210
0.0
220
0.0
230
1.0
 70
     8
 71
     3
 72
    10
 73
     6
 74
     0
 42
0.000000001
 43
0.00000001
 40
0.0
 40
0.0
 40
0.0
 40
0.0
 40
0.4549824721834064
 40
0.9100843676124071
 40
1.0
 40
1.0
 40
1.0
 40
1.0
 10
904.8278321632118
 20
392.1968862304498
 30
0.0
 10
904.835417644942
 20
392.249509360549
 30
0.0
 10
904.8505905994305
 20
392.3547694332024
 30
0.0
 10
904.9739691799734
 20
392.8337230988732
 30
0.0
 10
904.9325893377417
 20
393.3053456583607
 30
0.0
 10
904.9257625945777
 20
393.3831527719309
 30
0.0
  0
SPLINE
  5
141
330
1F
100
AcDbEntity
  8
0
  6
Continuous
 62
     7
370
    25
100
AcDbSpline
210
0.0
220
0.0
230
1.0
 70
     8
 71
     3
 72
    12
 73
     8
 74
     0
 42
0.000000001
 43
0.00000001
 40
0.0
 40
0.0
 40
0.0
 40
0.0
 40
0.4616814382764492
 40
0.7307709828292234
 40
0.91757309273664
 40
0.9719268180088642
 40
1.0
 40
1.0
 40
1.0
 40
1.0
 10
904.6847214111061
 20
395.0691893586923
 30
0.0
 10
904.6547431200667
 20
395.1777554199053
 30
0.0
 10
904.6072920783092
 20
395.3495988614583
 30
0.0
 10
904.5354966428482
 20
395.573655654087
 30
0.0
 10
904.4941550926557
 20
395.698077261823
 30
0.0
 10
904.4715888575105
 20
395.7637174825628
 30
0.0
 10
904.4646426389572
 20
395.7838142634866
 30
0.0
 10
904.4622768768043
 20
395.7906588802149
 30
0.0
  0
LINE
  5
142
330
1F
100
AcDbEntity
  8
0
  6
Continuous
 62
     7
370
    25
100
AcDbLine
 10
859.8394383796
 20
491.0078346619
 30
0.0
 11
859.3938340553
 21
491.7427226791
 31
0.0
  0
LINE
  5
143
330
1F
100
AcDbEntity
  8
0
  6
Continuous
 62
     7
370
    25
100
AcDbLine
 10
903.7867178329
 20
397.4385484943
 30
0.0
 11
903.7446965584
 21
397.5291922579
 31
0.0
  0
SPLINE
  5
144
330
1F
100
AcDbEntity
  8
0
  6
Continuous
 62
     7
370
    25
100
AcDbSpline
210
0.0
220
0.0
230
1.0
 70
     8
 71
     3
 72
     9
 73
     5
 74
     0
 42
0.000000001
 43
0.00000001
 40
0.0
 40
0.0
 40
0.0
 40
0.0
 40
0.5000110740494853
 40
1.0
 40
1.0
 40
1.0
 40
1.0
 10
904.254554689762
 20
396.3509127387812
 30
0.0
 10
904.1865815706002
 20
396.5196289435152
 30
0.0
 10
904.0506383431606
 20
396.8570538796625
 30
0.0
 10
903.87469003736
 20
397.2447198181221
 30
0.0
 10
903.78671783292
 20
397.4385484943201
 30
0.0
  0
SPLINE
  5
145
330
1F
100
AcDbEntity
  8
0
  6
Continuous
 62
     7
370
    25
100
AcDbSpline
210
0.0
220
0.0
230
1.0
 70
     8
 71
     3
 72
    13
 73
     9
 74
     0
 42
0.000000001
 43
0.00000001
 40
0.0
 40
0.0
 40
0.0
 40
0.0
 40
0.1254595988972584
 40
0.2502383815546443
 40
0.3760693347305902
 40
0.501912887900506
 40
0.7508288138722656
 40
1.0
 40
1.0
 40
1.0
 40
1.0
 10
859.3938340553016
 20
491.7427226791193
 30
0.0
 10
859.3061672797838
 20
491.8399964486536
 30
0.0
 10
859.131309459302
 20
492.0340161240703
 30
0.0
 10
858.8576253620381
 20
492.2934092023825
 30
0.0
 10
858.5906115859833
 20
492.5168832777094
 30
0.0
 10
858.2657537167347
 20
492.7553535283345
 30
0.0
 10
857.9330967522192
 20
492.9529185627426
 30
0.0
 10
857.8801413198269
 20
492.9798813732975
 30
0.0
 10
857.8536500343056
 20
492.9933696875383
 30
0.0
  0
SPLINE
  5
146
330
1F
100
AcDbEntity
  8
0
  6
Continuous
 62
     7
370
    25
100
AcDbSpline
210
0.0
220
0.0
230
1.0
 70
     8
 71
     3
 72
     9
 73
     5
 74
     0
 42
0.000000001
 43
0.00000001
 40
0.0
 40
0.0
 40
0.0
 40
0.0
 40
0.8821724070863481
 40
1.0
 40
1.0
 40
1.0
 40
1.0
 10
904.944001615879
 20
393.1880220660975
 30
0.0
 10
904.9509899729827
 20
393.1987080854024
 30
0.0
 10
904.9589117318674
 20
393.2108213857267
 30
0.0
 10
904.9392812770359
 20
393.4611803562452
 30
0.0
 10
904.9369682677955
 20
393.4906795511057
 30
0.0
  0
SPLINE
  5
147
330
1F
100
AcDbEntity
  8
0
  6
Continuous
 62
     7
370
    25
100
AcDbSpline
210
0.0
220
0.0
230
1.0
 70
     8
 71
     3
 72
     9
 73
     5
 74
     0
 42
0.000000001
 43
0.00000001
 40
0.0
 40
0.0
 40
0.0
 40
0.0
 40
0.037011222146032
 40
0.9999999999999999
 40
0.9999999999999999
 40
0.9999999999999999
 40
0.9999999999999999
 10
904.697715223667
 20
395.0150087365915
 30
0.0
 10
904.6951675354892
 20
395.0278849085283
 30
0.0
 10
904.6263319761588
 20
395.3757840372288
 30
0.0
 10
904.4369384907802
 20
395.8725411825337
 30
0.0
 10
904.254554689762
 20
396.3509127387812
 30
0.0
  0
LINE
  5
148
330
1F
100
AcDbEntity
  8
0
  6
Continuous
 62
     7
370
    25
100
AcDbLine
 10
904.4622768768
 20
395.7906588802
 30
0.0
 11
904.2931784996
 21
396.2357565651
 31
0.0
  0
LINE
  5
149
330
1F
100
AcDbEntity
  8
0
  6
Continuous
 62
     7
370
    25
100
AcDbLine
 10
902.0021547683
 20
387.542180706
 30
0.0
 11
846.0952629455
 21
507.4348449597
 31
0.0
  0
LINE
  5
14A
330
1F
100
AcDbEntity
  8
0
  6
Continuous
 62
     7
370
    25
100
AcDbLine
 10
902.7271856674
 20
387.8802731523
 30
0.0
 11
846.8202938446
 21
507.7729448566
 31
0.0
  0
ARC
  5
14B
330
1F
100
AcDbEntity
  8
0
  6
Continuous
 62
     7
370
    25
100
AcDbCircle
 10
847.9531939271
 20
508.3012144938
 30
0.0
 40
1.250000000000029
100
AcDbArc
 50
115.0
 51
205.0
  0
ARC
  5
14C
330
1F
100
AcDbEntity
  8
0
  6
Continuous
 62
     7
370
    25
100
AcDbCircle
 10
847.9531939271
 20
508.3012144938
 30
0.0
 40
2.050000000000033
100
AcDbArc
 50
115.0
 51
205.0
  0
LINE
  5
14D
330
1F
100
AcDbEntity
  8
0
  6
Continuous
 62
     7
370
    25
100
AcDbLine
 10
813.6989464172
 20
328.3159956226
 30
0.0
 11
872.3282803901
 21
328.3159956226
 31
0.0
  0
LINE
  5
14E
330
1F
100
AcDbEntity
  8
0
  6
Continuous
 62
     7
370
    25
100
AcDbLine
 10
813.6989464172
 20
329.1159942636
 30
0.0
 11
872.3282803901
 21
329.1159942636
 31
0.0
  0
ARC
  5
14F
330
1F
100
AcDbEntity
  8
0
  6
Continuous
 62
     7
370
    25
100
AcDbCircle
 10
892.9390547194
 20
383.3159956226
 30
0.0
 40
10.79999999999996
100
AcDbArc
 50
335.0
 51
25.0
  0
ARC
  5
150
330
1F
100
AcDbEntity
  8
0
  6
Continuous
 62
     7
370
    25
100
AcDbCircle
 10
892.9390547194
 20
383.3159956226
 30
0.0
 40
9.999999999999929
100
AcDbArc
 50
335.0
 51
25.0
  0
LWPOLYLINE
  5
151
330
1F
100
AcDbEntity
  8
0
  6
Continuous
 62
     7
370
    25
100
AcDbPolyline
 90
        9
 70
   128
 43
0.0
 10
859.7298254379
 20
516.0546712467
 10
860.0834597954
 20
516.2195674965
 10
860.4235042938
 20
516.3781270275
 10
860.7368459114
 20
516.52425899
 10
861.0115041145
 20
516.6523419211
 10
861.236928881
 20
516.7574584374
 10
861.4044775375
 20
516.8355665991
 10
861.507593573
 20
516.8836675474
 10
861.5424622902
 20
516.8999060879
  0
LINE
  5
152
330
1F
100
AcDbEntity
  8
0
  6
Continuous
 62
     7
370
    25
100
AcDbLine
 10
861.5424622902
 20
516.8999060879
 30
0.0
 11
861.8805398353
 21
516.1748602876
 31
0.0
  0
LWPOLYLINE
  5
153
330
1F
100
AcDbEntity
  8
0
  6
Continuous
 62
     7
370
    25
100
AcDbPolyline
 90
        9
 70
   128
 43
0.0
 10
861.8805398353
 20
516.1748602876
 10
861.8457307228
 20
516.1586180219
 10
861.7425550827
 20
516.1105207989
 10
861.5750660309
 20
516.0324126372
 10
861.3496412643
 20
515.9272961209
 10
861.0749234565
 20
515.7992094645
 10
860.761581839
 20
515.6530812273
 10
860.4215373405
 20
515.494517971
 10
860.0679029831
 20
515.3296217212
  0
LINE
  5
154
330
1F
100
AcDbEntity
  8
0
  6
Continuous
 62
     7
370
    25
100
AcDbLine
 10
847.086845816
 20
510.1591423044
 30
0.0
 11
859.7298254379
 21
516.0546712467
 31
0.0
  0
LINE
  5
155
330
1F
100
AcDbEntity
  8
0
  6
Continuous
 62
     7
370
    25
100
AcDbLine
 10
847.4249233612
 20
509.4340965042
 30
0.0
 11
860.0679029831
 21
515.3296217212
 31
0.0
  0
LINE
  5
156
330
1F
100
AcDbEntity
  8
0
  6
Continuous
 62
     7
370
    25
100
AcDbLine
 10
882.1163763412
 20
334.5517143497
 30
0.0
 11
902.7271856674
 21
378.7517174969
 31
0.0
  0
LINE
  5
157
330
1F
100
AcDbEntity
  8
0
  6
Continuous
 62
     7
370
    25
100
AcDbLine
 10
881.3913454422
 20
334.8898067961
 30
0.0
 11
902.0021547683
 21
379.0898099432
 31
0.0
  0
ARC
  5
158
330
1F
100
AcDbEntity
  8
0
  6
Continuous
 62
     7
370
    25
100
AcDbCircle
 10
872.328256229
 20
339.1159956226
 30
0.0
 40
10.00000000000003
100
AcDbArc
 50
270.0
 51
335.0
  0
ARC
  5
159
330
1F
100
AcDbEntity
  8
0
  6
Continuous
 62
     7
370
    25
100
AcDbCircle
 10
872.328256229
 20
339.1159956226
 30
0.0
 40
10.80000000000006
100
AcDbArc
 50
270.0
 51
335.0
  0
LINE
  5
15A
330
1F
100
AcDbEntity
  8
0
  6
Continuous
 62
     7
370
    25
100
AcDbLine
 10
811.6989721664
 20
328.3159956226
 30
0.0
 11
811.6989721664
 21
329.1159942636
 31
0.0
  0
LINE
  5
15B
330
1F
100
AcDbEntity
  8
0
  6
Continuous
 62
     7
370
    25
100
AcDbLine
 10
813.6989464172
 20
328.3159956226
 30
0.0
 11
811.6989721664
 21
328.3159956226
 31
0.0
  0
LINE
  5
15C
330
1F
100
AcDbEntity
  8
0
  6
Continuous
 62
     7
370
    25
100
AcDbLine
 10
811.6989721664
 20
329.1159942636
 30
0.0
 11
813.6989464172
 21
329.1159942636
 31
0.0
  0
LINE
  5
15D
330
1F
100
AcDbEntity
  8
0
  6
Continuous
 62
     7
370
    25
100
AcDbLine
 10
861.5857352623
 20
516.9927552233
 30
0.0
 11
861.5424622902
 21
516.8999060879
 31
0.0
  0
ARC
  5
15E
330
1F
100
AcDbEntity
  8
0
  6
Continuous
 62
     7
370
    25
100
AcDbCircle
 10
859.2857330198
 20
517.5026558714
 30
0.0
 40
1.500000000000044
100
AcDbArc
 50
295.0
 51
312.0404506671
  0
LINE
  5
15F
330
1F
100
AcDbEntity
  8
0
  6
Continuous
 62
     7
370
    25
100
AcDbLine
 10
883.8783492454
 20
453.9967849741
 30
0.0
 11
884.9122514137
 21
454.4789045939
 31
0.0
  0
LINE
  5
160
330
1F
100
AcDbEntity
  8
0
  6
Continuous
 62
     7
370
    25
100
AcDbLine
 10
883.8662495025
 20
454.0110453853
 30
0.0
 11
884.9046220192
 21
454.4952586183
 31
0.0
  0
LINE
  5
161
330
1F
100
AcDbEntity
  8
0
  6
Continuous
 62
     7
370
    25
100
AcDbLine
 10
870.6855167755
 20
454.7009393463
 30
0.0
 11
870.6835498222
 21
454.7000229249
 31
0.0
  0
LINE
  5
162
330
1F
100
AcDbEntity
  8
0
  6
Continuous
 62
     7
370
    25
100
AcDbLine
 10
870.6500520118
 20
454.7769054661
 30
0.0
 11
870.6480850586
 21
454.7759890446
 31
0.0
  0
LINE
  5
163
330
1F
100
AcDbEntity
  8
0
  6
Continuous
 62
     7
370
    25
100
AcDbLine
 10
870.6403960594
 20
454.7976180801
 30
0.0
 11
870.6384291061
 21
454.7967016587
 31
0.0
  0
LINE
  5
164
330
1F
100
AcDbEntity
  8
0
  6
Continuous
 62
     7
370
    25
100
AcDbLine
 10
870.6049909004
 20
454.8735841999
 30
0.0
 11
870.6030239471
 21
454.8726677785
 31
0.0
  0
LINE
  5
165
330
1F
100
AcDbEntity
  8
0
  6
Continuous
 62
     7
370
    25
100
AcDbLine
 10
870.6014146217
 20
454.8761173973
 30
0.0
 11
870.603381575
 21
454.8770338187
 31
0.0
  0
LINE
  5
166
330
1F
100
AcDbEntity
  8
0
  6
Continuous
 62
     7
370
    25
100
AcDbLine
 10
870.6871261009
 20
454.6974897275
 30
0.0
 11
870.6851591476
 21
454.6965733061
 31
0.0
  0
LINE
  5
167
330
1F
100
AcDbEntity
  8
0
  6
Continuous
 62
     7
370
    25
100
AcDbLine
 10
880.8279027351
 20
432.9453483114
 30
0.0
 11
880.8298696884
 21
432.9462572822
 31
0.0
  0
LINE
  5
168
330
1F
100
AcDbEntity
  8
0
  6
Continuous
 62
     7
370
    25
100
AcDbLine
 10
137.1807445892
 20
578.3159956227
 30
0.0
 11
137.1807445892
 21
579.8159956357
 31
0.0
  0
LINE
  5
169
330
1F
100
AcDbEntity
  8
0
  6
Continuous
 62
     7
370
    25
100
AcDbLine
 10
95.1807414302
 20
579.8159956357
 30
0.0
 11
95.1807414302
 21
578.3159956227
 31
0.0
  0
LINE
  5
16A
330
1F
100
AcDbEntity
  8
0
  6
Continuous
 62
     7
370
    25
100
AcDbLine
 10
93.6807383903
 20
579.8159956357
 30
0.0
 11
93.6807383903
 21
578.3159956227
 31
0.0
  0
LINE
  5
16B
330
1F
100
AcDbEntity
  8
0
  6
Continuous
 62
     7
370
    25
100
AcDbLine
 10
138.6807401785
 20
578.3159956227
 30
0.0
 11
138.6807401785
 21
579.8159956357
 31
0.0
  0
SPLINE
  5
16C
330
1F
100
AcDbEntity
  8
0
  6
Continuous
 62
     7
370
    25
100
AcDbSpline
210
0.0
220
0.0
230
1.0
 70
     8
 71
     3
 72
    13
 73
     9
 74
     0
 42
0.000000001
 43
0.00000001
 40
0.0
 40
0.0
 40
0.0
 40
0.0
 40
0.1695272579873154
 40
0.3386486680644953
 40
0.5184829550384454
 40
0.7277218107178793
 40
0.992453854502314
 40
1.0
 40
1.0
 40
1.0
 40
1.0
 10
50.76544258081617
 20
318.0659934768487
 30
0.0
 10
50.76589151220256
 20
318.0906009088977
 30
0.0
 10
50.76678830023457
 20
318.1397568628536
 30
0.0
 10
50.77358886069988
 20
318.2059006274342
 30
0.0
 10
50.78377628402747
 20
318.2615541583552
 30
0.0
 10
50.79827669857323
 20
318.3043407209782
 30
0.0
 10
50.80987916796098
 20
318.315694875156
 30
0.0
 10
50.81633007441
 20
318.3159967917891
 30
0.0
 10
50.81650886022749
 20
318.3160051593592
 30
0.0
  0
LINE
  5
16D
330
1F
100
AcDbEntity
  8
0
  6
Continuous
 62
     7
370
    25
100
AcDbLine
 10
44.3986048111
 20
318.3160051594
 30
0.0
 11
50.8165088602
 21
318.3160051594
 31
0.0
  0
SPLINE
  5
16E
330
1F
100
AcDbEntity
  8
0
  6
Continuous
 62
     7
370
    25
100
AcDbSpline
210
0.0
220
0.0
230
1.0
 70
     8
 71
     3
 72
    13
 73
     9
 74
     0
 42
0.000000001
 43
0.00000001
 40
0.0
 40
0.0
 40
0.0
 40
0.0
 40
0.0075461454976859
 40
0.2722781892821207
 40
0.4815170449615547
 40
0.6613513319355048
 40
0.8304727420126847
 40
1.0
 40
1.0
 40
1.0
 40
1.0
 10
50.81650886022749
 20
317.1159848460962
 30
0.0
 10
50.81633007441
 20
317.1159932136662
 30
0.0
 10
50.8098791679607
 20
317.1162951302984
 30
0.0
 10
50.79827669857334
 20
317.1276492844773
 30
0.0
 10
50.78377628402747
 20
317.1704358471002
 30
0.0
 10
50.77358886069988
 20
317.2260893780211
 30
0.0
 10
50.76678830023457
 20
317.2922331426018
 30
0.0
 10
50.76589151220256
 20
317.3413890965576
 30
0.0
 10
50.76544258081617
 20
317.3659965286066
 30
0.0
  0
LINE
  5
16F
330
1F
100
AcDbEntity
  8
0
  6
Continuous
 62
     7
370
    25
100
AcDbLine
 10
50.8165088602
 20
317.1159848461
 30
0.0
 11
44.1108931907
 21
317.1159848461
 31
0.0
  0
LINE
  5
170
330
1F
100
AcDbEntity
  8
0
  6
Continuous
 62
     7
370
    25
100
AcDbLine
 10
50.7654425808
 20
318.0659934768
 30
0.0
 11
50.7654425808
 21
317.3659965286
 31
0.0
  0
SPLINE
  5
171
330
1F
100
AcDbEntity
  8
0
  6
Continuous
 62
     7
370
    25
100
AcDbSpline
210
0.0
220
0.0
230
1.0
 70
     8
 71
     3
 72
    12
 73
     8
 74
     0
 42
0.000000001
 43
0.00000001
 40
0.0
 40
0.0
 40
0.0
 40
0.0
 40
0.228948164641638
 40
0.4594264263946946
 40
0.6825364190230071
 40
0.8947196775879439
 40
1.0
 40
1.0
 40
1.0
 40
1.0
 10
55.21676588141622
 20
317.1159848460962
 30
0.0
 10
55.3508586507434
 20
317.1333290867754
 30
0.0
 10
55.61994035276874
 20
317.1681334824613
 30
0.0
 10
55.97254410397373
 20
317.441997128513
 30
0.0
 10
56.22555932705847
 20
317.839021884199
 30
0.0
 10
56.33890182568435
 20
318.2398932517311
 30
0.0
 10
56.34854195010897
 20
318.4847765032328
 30
0.0
 10
56.35173890077772
 20
318.5659870395472
 30
0.0
  0
LINE
  5
172
330
1F
100
AcDbEntity
  8
0
  6
Continuous
 62
     7
370
    25
100
AcDbLine
 10
55.2167658814
 20
317.1159848461
 30
0.0
 11
51.046672196
 21
317.1159848461
 31
0.0
  0
LINE
  5
173
330
1F
100
AcDbEntity
  8
0
  6
Continuous
 62
     7
370
    25
100
AcDbLine
 10
51.9578670272
 20
323.9159807453
 30
0.0
 11
56.1279644378
 21
323.9159807453
 31
0.0
  0
LINE
  5
174
330
1F
100
AcDbEntity
  8
0
  6
Continuous
 62
     7
370
    25
100
AcDbLine
 10
51.4279966363
 20
323.9159807453
 30
0.0
 11
51.9578670272
 21
323.9159807453
 31
0.0
  0
LINE
  5
175
330
1F
100
AcDbEntity
  8
0
  6
Continuous
 62
     7
370
    25
100
AcDbLine
 10
50.8165088602
 20
318.3160051594
 30
0.0
 11
51.046672196
 21
318.3160051594
 31
0.0
  0
LINE
  5
176
330
1F
100
AcDbEntity
  8
0
  6
Continuous
 62
     7
370
    25
100
AcDbLine
 10
51.046672196
 20
317.1159848461
 30
0.0
 11
50.8165088602
 21
317.1159848461
 31
0.0
  0
LINE
  5
177
330
1F
100
AcDbEntity
  8
0
  6
Continuous
 62
     7
370
    25
100
AcDbLine
 10
56.3517389008
 20
318.5659870395
 30
0.0
 11
56.3779649445
 21
318.5659870395
 31
0.0
  0
LINE
  5
178
330
1F
100
AcDbEntity
  8
0
  6
Continuous
 62
     7
370
    25
100
AcDbLine
 10
55.6718473443
 20
317.1159848461
 30
0.0
 11
55.2167658814
 21
317.1159848461
 31
0.0
  0
SPLINE
  5
179
330
1F
100
AcDbEntity
  8
0
  6
Continuous
 62
     7
370
    25
100
AcDbSpline
210
0.0
220
0.0
230
1.0
 70
     8
 71
     3
 72
    11
 73
     7
 74
     0
 42
0.000000001
 43
0.00000001
 40
0.0
 40
0.0
 40
0.0
 40
0.0
 40
0.0796384142132956
 40
0.4594979097835736
 40
0.820753298882746
 40
1.0
 40
1.0
 40
1.0
 40
1.0
 10
38.55419802748861
 20
317.4144849071314
 30
0.0
 10
38.53013592690452
 20
317.4314529963216
 30
0.0
 10
38.39130236231614
 20
317.5293555172713
 30
0.0
 10
38.22203805155245
 20
317.8476599141073
 30
0.0
 10
38.10436941111567
 20
318.2389636617328
 30
0.0
 10
38.095045064373
 20
318.4845449275668
 30
0.0
 10
38.09195283138456
 20
318.5659870395472
 30
0.0
  0
ARC
  5
17A
330
1F
100
AcDbEntity
  8
0
  6
Continuous
 62
     7
370
    25
100
AcDbCircle
 10
38.8332147381
 20
323.6772671209
 30
0.0
 40
0.2390345829501202
100
AcDbArc
 50
357.2980359006
 51
87.0305203546
  0
LINE
  5
17B
330
1F
100
AcDbEntity
  8
0
  6
Continuous
 62
     7
370
    25
100
AcDbLine
 10
38.3157272943
 20
323.9159807453
 30
0.0
 11
38.8455976852
 21
323.9159807453
 31
0.0
  0
LINE
  5
17C
330
1F
100
AcDbEntity
  8
0
  6
Continuous
 62
     7
370
    25
100
AcDbLine
 10
38.8455976852
 20
323.9159807453
 30
0.0
 11
41.5816594967
 21
323.9159807453
 31
0.0
  0
SPLINE
  5
17D
330
1F
100
AcDbEntity
  8
0
  6
Continuous
 62
     7
370
    25
100
AcDbSpline
210
0.0
220
0.0
230
1.0
 70
     8
 71
     3
 72
    13
 73
     9
 74
     0
 42
0.000000001
 43
0.00000001
 40
0.0
 40
0.0
 40
0.0
 40
0.0
 40
0.1695809260896548
 40
0.3386394735841722
 40
0.5185061480341532
 40
0.727733707131932
 40
0.9924647855387752
 40
1.0
 40
1.0
 40
1.0
 40
1.0
 10
44.49083927356901
 20
319.2659839877894
 30
0.0
 10
44.49013728917184
 20
319.2906040412669
 30
0.0
 10
44.48873548277648
 20
319.3397683083899
 30
0.0
 10
44.47808936350034
 20
319.4058865962159
 30
0.0
 10
44.46210967037106
 20
319.4616048539544
 30
0.0
 10
44.4392136145883
 20
319.5042356232723
 30
0.0
 10
44.42078731462995
 20
319.5160596482345
 30
0.0
 10
44.4104685932103
 20
319.5159973932621
 30
0.0
 10
44.41018301331701
 20
319.5159956702997
 30
0.0
  0
LINE
  5
17E
330
1F
100
AcDbEntity
  8
0
  6
Continuous
 62
     7
370
    25
100
AcDbLine
 10
44.4101830133
 20
319.5159956703
 30
0.0
 11
51.1779961296
 21
319.5159956703
 31
0.0
  0
SPLINE
  5
17F
330
1F
100
AcDbEntity
  8
0
  6
Continuous
 62
     7
370
    25
100
AcDbSpline
210
0.0
220
0.0
230
1.0
 70
     8
 71
     3
 72
    13
 73
     9
 74
     0
 42
0.000000001
 43
0.00000001
 40
0.0
 40
0.0
 40
0.0
 40
0.0
 40
0.0075356285955545
 40
0.2722812565853315
 40
0.4815203148004085
 40
0.6613496445619762
 40
0.8304774484524913
 40
1.0
 40
1.0
 40
1.0
 40
1.0
 10
44.41018301331701
 20
318.3160051593592
 30
0.0
 10
44.41046859309711
 20
318.3160034367943
 30
0.0
 10
44.42078731042798
 20
318.3159411961849
 30
0.0
 10
44.4392143869588
 20
318.3277624930366
 30
0.0
 10
44.46210603257295
 20
318.3703998660383
 30
0.0
 10
44.47809462638047
 20
318.4260885823519
 30
0.0
 10
44.488731996223
 20
318.4922192537307
 30
0.0
 10
44.4901363021441
 20
318.5413786767209
 30
0.0
 10
44.49083927356901
 20
318.5659870395472
 30
0.0
  0
LINE
  5
180
330
1F
100
AcDbEntity
  8
0
  6
Continuous
 62
     7
370
    25
100
AcDbLine
 10
50.8165088602
 20
318.3160051594
 30
0.0
 11
44.4101830133
 21
318.3160051594
 31
0.0
  0
LINE
  5
181
330
1F
100
AcDbEntity
  8
0
  6
Continuous
 62
     7
370
    25
100
AcDbLine
 10
44.4908392736
 20
318.5659870395
 30
0.0
 11
44.4908392736
 21
319.2659839878
 31
0.0
  0
SPLINE
  5
182
330
1F
100
AcDbEntity
  8
0
  6
Continuous
 62
     7
370
    25
100
AcDbSpline
210
0.0
220
0.0
230
1.0
 70
     8
 71
     3
 72
    12
 73
     8
 74
     0
 42
0.000000001
 43
0.00000001
 40
0.0
 40
0.0
 40
0.0
 40
0.0
 40
0.2289433180914323
 40
0.4594203653170995
 40
0.6825394986004335
 40
0.8947205058171188
 40
1.0
 40
1.0
 40
1.0
 40
1.0
 10
39.62271931850614
 20
319.5159956702997
 30
0.0
 10
39.50090723779176
 20
319.4986633097608
 30
0.0
 10
39.25646703709773
 20
319.4638824763348
 30
0.0
 10
38.93652812854326
 20
319.1900105165026
 30
0.0
 10
38.70708398937922
 20
318.7929638464033
 30
0.0
 10
38.60433868000096
 20
318.3920870325098
 30
0.0
 10
38.595600479365
 20
318.1472040671762
 30
0.0
 10
38.59270262801351
 20
318.0659934768487
 30
0.0
  0
LINE
  5
183
330
1F
100
AcDbEntity
  8
0
  6
Continuous
 62
     7
370
    25
100
AcDbLine
 10
39.6227193185
 20
319.5159956703
 30
0.0
 11
44.203433127
 21
319.5159956703
 31
0.0
  0
LINE
  5
184
330
1F
100
AcDbEntity
  8
0
  6
Continuous
 62
     7
370
    25
100
AcDbLine
 10
43.384916068
 20
312.7159997711
 30
0.0
 11
38.8041985341
 21
312.7159997711
 31
0.0
  0
LINE
  5
185
330
1F
100
AcDbEntity
  8
0
  6
Continuous
 62
     7
370
    25
100
AcDbLine
 10
43.8608926841
 20
312.7159997711
 30
0.0
 11
43.384916068
 21
312.7159997711
 31
0.0
  0
LINE
  5
186
330
1F
100
AcDbEntity
  8
0
  6
Continuous
 62
     7
370
    25
100
AcDbLine
 10
44.203433127
 20
319.5159956703
 30
0.0
 11
44.4101830133
 21
319.5159956703
 31
0.0
  0
LINE
  5
187
330
1F
100
AcDbEntity
  8
0
  6
Continuous
 62
     7
370
    25
100
AcDbLine
 10
44.4101830133
 20
318.3160051594
 30
0.0
 11
44.203433127
 21
318.3160051594
 31
0.0
  0
LINE
  5
188
330
1F
100
AcDbEntity
  8
0
  6
Continuous
 62
     7
370
    25
100
AcDbLine
 10
38.592702628
 20
318.0659934768
 30
0.0
 11
38.5541980275
 21
318.0659934768
 31
0.0
  0
LINE
  5
189
330
1F
100
AcDbEntity
  8
0
  6
Continuous
 62
     7
370
    25
100
AcDbLine
 10
38.7718443879
 20
319.5159956703
 30
0.0
 11
39.6227193185
 21
319.5159956703
 31
0.0
  0
ARC
  5
18A
330
1F
100
AcDbEntity
  8
0
  6
Continuous
 62
     7
370
    25
100
AcDbCircle
 10
55.1826279469
 20
312.9495507384
 30
0.0
 40
0.2343319035440257
100
AcDbArc
 50
175.9792282555
 51
265.3210286629
  0
LINE
  5
18B
330
1F
100
AcDbEntity
  8
0
  6
Continuous
 62
     7
370
    25
100
AcDbLine
 10
55.1635128566
 20
312.7159997711
 30
0.0
 11
52.9516329178
 21
312.7159997711
 31
0.0
  0
LINE
  5
18C
330
1F
100
AcDbEntity
  8
0
  6
Continuous
 62
     7
370
    25
100
AcDbLine
 10
55.639493198
 20
312.7159997711
 30
0.0
 11
55.1635128566
 21
312.7159997711
 31
0.0
  0
LINE
  5
18D
330
1F
100
AcDbEntity
  8
0
  6
Continuous
 62
     7
370
    25
100
AcDbLine
 10
51.5958991953
 20
329.1159942636
 30
0.0
 11
51.5958991953
 21
325.4125639686
 31
0.0
  0
SPLINE
  5
18E
330
1F
100
AcDbEntity
  8
0
  6
Continuous
 62
     7
370
    25
100
AcDbSpline
210
0.0
220
0.0
230
1.0
 70
     8
 71
     3
 72
     9
 73
     5
 74
     0
 42
0.000000001
 43
0.00000001
 40
0.0
 40
0.0
 40
0.0
 40
0.0
 40
0.0701996452807326
 40
1.0
 40
1.0
 40
1.0
 40
1.0
 10
48.8706146486968
 20
324.9660059699823
 30
0.0
 10
48.93521913804078
 20
324.9664465451489
 30
0.0
 10
49.85551565927837
 20
324.9727225763867
 30
0.0
 10
50.75736207659093
 20
325.2006432476505
 30
0.0
 10
51.59589919531049
 20
325.4125639686396
 30
0.0
  0
LINE
  5
18F
330
1F
100
AcDbEntity
  8
0
  6
Continuous
 62
     7
370
    25
100
AcDbLine
 10
46.1453263768
 20
325.4125639686
 30
0.0
 11
48.8706146487
 21
324.96600597
 31
0.0
  0
LINE
  5
190
330
1F
100
AcDbEntity
  8
0
  6
Continuous
 62
     7
370
    25
100
AcDbLine
 10
46.1453263768
 20
329.1159942636
 30
0.0
 11
46.1453263768
 21
325.4125639686
 31
0.0
  0
SPLINE
  5
191
330
1F
100
AcDbEntity
  8
0
  6
Continuous
 62
     7
370
    25
100
AcDbSpline
210
0.0
220
0.0
230
1.0
 70
     8
 71
     3
 72
     9
 73
     5
 74
     0
 42
0.000000001
 43
0.00000001
 40
0.0
 40
0.0
 40
0.0
 40
0.0
 40
0.0702008572743606
 40
1.0
 40
1.0
 40
1.0
 40
1.0
 10
43.95829784953298
 20
324.9660059699823
 30
0.0
 10
44.01014343922571
 20
324.9664465315779
 30
0.0
 10
44.74867558407014
 20
324.9727222611443
 30
0.0
 10
45.47240416379689
 20
325.2006432389069
 30
0.0
 10
46.14532637679281
 20
325.4125639686396
 30
0.0
  0
LINE
  5
192
330
1F
100
AcDbEntity
  8
0
  6
Continuous
 62
     7
370
    25
100
AcDbLine
 10
48.8706146487
 20
324.96600597
 30
0.0
 11
43.9582978495
 21
324.96600597
 31
0.0
  0
LINE
  5
193
330
1F
100
AcDbEntity
  8
0
  6
Continuous
 62
     7
370
    25
100
AcDbLine
 10
41.7712730476
 20
325.4125639686
 30
0.0
 11
43.9582978495
 21
324.96600597
 31
0.0
  0
LINE
  5
194
330
1F
100
AcDbEntity
  8
0
  6
Continuous
 62
     7
370
    25
100
AcDbLine
 10
41.7712730476
 20
329.1159942636
 30
0.0
 11
41.7712730476
 21
325.4125639686
 31
0.0
  0
SPLINE
  5
195
330
1F
100
AcDbEntity
  8
0
  6
Continuous
 62
     7
370
    25
100
AcDbSpline
210
0.0
220
0.0
230
1.0
 70
     8
 71
     3
 72
     9
 73
     5
 74
     0
 42
0.000000001
 43
0.00000001
 40
0.0
 40
0.0
 40
0.0
 40
0.0
 40
0.2575498353655586
 40
1.0
 40
1.0
 40
1.0
 40
1.0
 10
51.59589919531049
 20
325.4125639686396
 30
0.0
 10
51.64108751129132
 20
325.3451555655972
 30
0.0
 10
51.81654216035641
 20
325.0834260135411
 30
0.0
 10
51.99882386117333
 20
325.016038121513
 30
0.0
 10
52.13415893995466
 20
324.9660059699823
 30
0.0
  0
LINE
  5
196
330
1F
100
AcDbEntity
  8
0
  6
Continuous
 62
     7
370
    25
100
AcDbLine
 10
52.13415894
 20
324.96600597
 30
0.0
 11
48.8706146487
 21
324.96600597
 31
0.0
  0
SPLINE
  5
197
330
1F
100
AcDbEntity
  8
0
  6
Continuous
 62
     7
370
    25
100
AcDbSpline
210
0.0
220
0.0
230
1.0
 70
     8
 71
     3
 72
     9
 73
     5
 74
     0
 42
0.000000001
 43
0.00000001
 40
0.0
 40
0.0
 40
0.0
 40
0.0
 40
0.257549284205943
 40
1.0
 40
1.0
 40
1.0
 40
1.0
 10
41.77127304756345
 20
325.4125639686396
 30
0.0
 10
41.81645992398969
 20
325.3451555637531
 30
0.0
 10
41.99190935909697
 20
325.083425444431
 30
0.0
 10
42.17419482073537
 20
325.0160379003333
 30
0.0
 10
42.30953279220762
 20
324.9660059699823
 30
0.0
  0
LINE
  5
198
330
1F
100
AcDbEntity
  8
0
  6
Continuous
 62
     7
370
    25
100
AcDbLine
 10
43.9582978495
 20
324.96600597
 30
0.0
 11
42.2298674592
 21
324.96600597
 31
0.0
  0
LINE
  5
199
330
1F
100
AcDbEntity
  8
0
  6
Continuous
 62
     7
370
    25
100
AcDbLine
 10
52.6724186846
 20
329.1159942636
 30
0.0
 11
52.6724186846
 21
325.4125639686
 31
0.0
  0
SPLINE
  5
19A
330
1F
100
AcDbEntity
  8
0
  6
Continuous
 62
     7
370
    25
100
AcDbSpline
210
0.0
220
0.0
230
1.0
 70
     8
 71
     3
 72
     9
 73
     5
 74
     0
 42
0.000000001
 43
0.00000001
 40
0.0
 40
0.0
 40
0.0
 40
0.0
 40
0.2686340018124898
 40
1.0
 40
1.0
 40
1.0
 40
1.0
 10
52.13415893995466
 20
324.9660059699823
 30
0.0
 10
52.18310185371894
 20
324.97263142057
 30
0.0
 10
52.36529365905279
 20
324.9972949052478
 30
0.0
 10
52.54268251032257
 20
325.2371454416603
 30
0.0
 10
52.67241868459882
 20
325.4125639686396
 30
0.0
  0
LINE
  5
19B
330
1F
100
AcDbEntity
  8
0
  6
Continuous
 62
     7
370
    25
100
AcDbLine
 10
44.9710738965
 20
316.6694268474
 30
0.0
 11
47.8359674224
 21
317.1159848461
 31
0.0
  0
SPLINE
  5
19C
330
1F
100
AcDbEntity
  8
0
  6
Continuous
 62
     7
370
    25
100
AcDbSpline
210
0.0
220
0.0
230
1.0
 70
     8
 71
     3
 72
     9
 73
     5
 74
     0
 42
0.000000001
 43
0.00000001
 40
0.0
 40
0.0
 40
0.0
 40
0.0
 40
0.0702007300608826
 40
0.9999999999999999
 40
0.9999999999999999
 40
0.9999999999999999
 40
0.9999999999999999
 10
47.83596742236318
 20
317.1159848460962
 30
0.0
 10
47.90388277576213
 20
317.1155442830762
 30
0.0
 10
48.87132789121929
 20
317.1092685218457
 30
0.0
 10
49.81937108176338
 20
316.881347576254
 30
0.0
 10
50.70086094820203
 20
316.669426847439
 30
0.0
  0
LINE
  5
19D
330
1F
100
AcDbEntity
  8
0
  6
Continuous
 62
     7
370
    25
100
AcDbLine
 10
50.7008609482
 20
316.6694268474
 30
0.0
 11
50.7008609482
 21
312.3625740299
 31
0.0
  0
SPLINE
  5
19E
330
1F
100
AcDbEntity
  8
0
  6
Continuous
 62
     7
370
    25
100
AcDbSpline
210
0.0
220
0.0
230
1.0
 70
     8
 71
     3
 72
     9
 73
     5
 74
     0
 42
0.000000001
 43
0.00000001
 40
0.0
 40
0.0
 40
0.0
 40
0.0
 40
0.0702008422521415
 40
1.0
 40
1.0
 40
1.0
 40
1.0
 10
47.83596742236318
 20
311.915986228924
 30
0.0
 10
47.90388277177237
 20
311.9164370734866
 30
0.0
 10
48.87132628427654
 20
311.9228592836506
 30
0.0
 10
49.81937036263573
 20
312.1507144697655
 30
0.0
 10
50.70086094820203
 20
312.3625740299036
 30
0.0
  0
LINE
  5
19F
330
1F
100
AcDbEntity
  8
0
  6
Continuous
 62
     7
370
    25
100
AcDbLine
 10
44.9710738965
 20
312.3625740299
 30
0.0
 11
47.8359674224
 21
311.9159862289
 31
0.0
  0
LINE
  5
1A0
330
1F
100
AcDbEntity
  8
0
  6
Continuous
 62
     7
370
    25
100
AcDbLine
 10
44.9710738965
 20
316.6694268474
 30
0.0
 11
44.9710738965
 21
312.3625740299
 31
0.0
  0
SPLINE
  5
1A1
330
1F
100
AcDbEntity
  8
0
  6
Continuous
 62
     7
370
    25
100
AcDbSpline
210
0.0
220
0.0
230
1.0
 70
     8
 71
     3
 72
     9
 73
     5
 74
     0
 42
0.000000001
 43
0.00000001
 40
0.0
 40
0.0
 40
0.0
 40
0.0
 40
0.2575495155381779
 40
1.0
 40
1.0
 40
1.0
 40
1.0
 10
44.97107389652433
 20
312.3625740299036
 30
0.0
 10
44.82503876477284
 20
312.2951660695559
 30
0.0
 10
44.25802107325693
 20
312.0334379113535
 30
0.0
 10
43.66893312522535
 20
311.9660318740074
 30
0.0
 10
43.23156449281873
 20
311.915986228924
 30
0.0
  0
LINE
  5
1A2
330
1F
100
AcDbEntity
  8
0
  6
Continuous
 62
     7
370
    25
100
AcDbLine
 10
47.8359674224
 20
311.9159862289
 30
0.0
 11
43.2315644928
 21
311.9159862289
 31
0.0
  0
SPLINE
  5
1A3
330
1F
100
AcDbEntity
  8
0
  6
Continuous
 62
     7
370
    25
100
AcDbSpline
210
0.0
220
0.0
230
1.0
 70
     8
 71
     3
 72
     9
 73
     5
 74
     0
 42
0.000000001
 43
0.00000001
 40
0.0
 40
0.0
 40
0.0
 40
0.0
 40
0.5173968411445988
 40
1.0
 40
1.0
 40
1.0
 40
1.0
 10
44.97107389652433
 20
316.669426847439
 30
0.0
 10
44.82553092889597
 20
316.7411697189195
 30
0.0
 10
44.54423240510452
 20
316.8798309278318
 30
0.0
 10
44.25194973203877
 20
316.9217625531583
 30
0.0
 10
44.11089319073858
 20
316.9419988879969
 30
0.0
  0
LINE
  5
1A4
330
1F
100
AcDbEntity
  8
0
  6
Continuous
 62
     7
370
    25
100
AcDbLine
 10
50.7008609482
 20
316.6694268474
 30
0.0
 11
51.8262487956
 21
317.1159848461
 31
0.0
  0
LINE
  5
1A5
330
1F
100
AcDbEntity
  8
0
  6
Continuous
 62
     7
370
    25
100
AcDbLine
 10
50.7008609482
 20
312.3625740299
 30
0.0
 11
51.8262487956
 21
311.9159862289
 31
0.0
  0
LINE
  5
1A6
330
1F
100
AcDbEntity
  8
0
  6
Continuous
 62
     7
370
    25
100
AcDbLine
 10
51.8262487956
 20
311.9159862289
 30
0.0
 11
47.8359674224
 21
311.9159862289
 31
0.0
  0
SPLINE
  5
1A7
330
1F
100
AcDbEntity
  8
0
  6
Continuous
 62
     7
370
    25
100
AcDbSpline
210
0.0
220
0.0
230
1.0
 70
     8
 71
     3
 72
     9
 73
     5
 74
     0
 42
0.000000001
 43
0.00000001
 40
0.0
 40
0.0
 40
0.0
 40
0.0
 40
0.2686342301839018
 40
0.9999999999999999
 40
0.9999999999999999
 40
0.9999999999999999
 40
0.9999999999999999
 10
43.23156449281873
 20
311.915986228924
 30
0.0
 10
43.07339541740707
 20
311.92262293568
 30
0.0
 10
42.48460568907137
 20
311.9473283008577
 30
0.0
 10
41.91133175009698
 20
312.1871653914858
 30
0.0
 10
41.49205881440344
 20
312.3625740299036
 30
0.0
  0
LINE
  5
1A8
330
1F
100
AcDbEntity
  8
0
  6
Continuous
 62
     7
370
    25
100
AcDbLine
 10
41.4920588144
 20
312.7159997711
 30
0.0
 11
41.4920588144
 21
312.3625740299
 31
0.0
  0
LINE
  5
1A9
330
1F
100
AcDbEntity
  8
0
  6
Continuous
 62
     7
370
    25
100
AcDbLine
 10
52.9516329178
 20
316.6694268474
 30
0.0
 11
52.9516329178
 21
312.3625740299
 31
0.0
  0
SPLINE
  5
1AA
330
1F
100
AcDbEntity
  8
0
  6
Continuous
 62
     7
370
    25
100
AcDbSpline
210
0.0
220
0.0
230
1.0
 70
     8
 71
     3
 72
     9
 73
     5
 74
     0
 42
0.000000001
 43
0.00000001
 40
0.0
 40
0.0
 40
0.0
 40
0.0
 40
0.0701999851385541
 40
1.0
 40
1.0
 40
1.0
 40
1.0
 10
51.82624879562559
 20
311.915986228924
 30
0.0
 10
51.85292694319848
 20
311.9164370830798
 30
0.0
 10
52.23295761585811
 20
311.9228595083106
 30
0.0
 10
52.60536682736511
 20
312.1507144768082
 30
0.0
 10
52.95163291775884
 20
312.3625740299036
 30
0.0
  0
LINE
  5
1AB
330
1F
100
AcDbEntity
  8
0
  6
Continuous
 62
     7
370
    25
100
AcDbLine
 10
41.7908084699
 20
312.2356459389
 30
0.0
 11
41.4920588144
 21
312.3625740299
 31
0.0
  0
LINE
  5
1AC
330
1F
100
AcDbEntity
  8
0
  6
Continuous
 62
     7
370
    25
100
AcDbLine
 10
43.2315644928
 20
311.9159862289
 30
0.0
 11
42.2218469092
 21
311.9159862289
 31
0.0
  0
LINE
  5
1AD
330
1F
100
AcDbEntity
  8
0
  6
Continuous
 62
     7
370
    25
100
AcDbLine
 10
52.221844823
 20
311.9159862289
 30
0.0
 11
51.8262487956
 21
311.9159862289
 31
0.0
  0
LINE
  5
1AE
330
1F
100
AcDbEntity
  8
0
  6
Continuous
 62
     7
370
    25
100
AcDbLine
 10
43.3334698089
 20
324.2694064865
 30
0.0
 11
46.1535592684
 21
324.7159942875
 31
0.0
  0
SPLINE
  5
1AF
330
1F
100
AcDbEntity
  8
0
  6
Continuous
 62
     7
370
    25
100
AcDbSpline
210
0.0
220
0.0
230
1.0
 70
     8
 71
     3
 72
     9
 73
     5
 74
     0
 42
0.000000001
 43
0.00000001
 40
0.0
 40
0.0
 40
0.0
 40
0.0
 40
0.0702009410393689
 40
1.0
 40
1.0
 40
1.0
 40
1.0
 10
46.15355926835241
 20
324.715994287472
 30
0.0
 10
46.2204124019503
 20
324.715553753141
 30
0.0
 10
47.17272347653206
 20
324.7092784194419
 30
0.0
 10
48.10594446043071
 20
324.4813417692984
 30
0.0
 10
48.97365245306196
 20
324.2694064864924
 30
0.0
  0
LINE
  5
1B0
330
1F
100
AcDbEntity
  8
0
  6
Continuous
 62
     7
370
    25
100
AcDbLine
 10
48.9736524531
 20
324.2694064865
 30
0.0
 11
48.9736524531
 21
319.9625834713
 31
0.0
  0
SPLINE
  5
1B1
330
1F
100
AcDbEntity
  8
0
  6
Continuous
 62
     7
370
    25
100
AcDbSpline
210
0.0
220
0.0
230
1.0
 70
     8
 71
     3
 72
     9
 73
     5
 74
     0
 42
0.000000001
 43
0.00000001
 40
0.0
 40
0.0
 40
0.0
 40
0.0
 40
0.0702011701786858
 40
1.0
 40
1.0
 40
1.0
 40
1.0
 10
46.15355926835241
 20
319.5159956702997
 30
0.0
 10
46.22041239392893
 20
319.516446511192
 30
0.0
 10
47.17272024586844
 20
319.5228686390735
 30
0.0
 10
48.1059430146688
 20
319.7507239084472
 30
0.0
 10
48.97365245306196
 20
319.9625834712793
 30
0.0
  0
LINE
  5
1B2
330
1F
100
AcDbEntity
  8
0
  6
Continuous
 62
     7
370
    25
100
AcDbLine
 10
43.3334698089
 20
319.9625834713
 30
0.0
 11
46.1535592684
 21
319.5159956703
 31
0.0
  0
LINE
  5
1B3
330
1F
100
AcDbEntity
  8
0
  6
Continuous
 62
     7
370
    25
100
AcDbLine
 10
43.3334698089
 20
324.2694064865
 30
0.0
 11
43.3334698089
 21
319.9625834713
 31
0.0
  0
LINE
  5
1B4
330
1F
100
AcDbEntity
  8
0
  6
Continuous
 62
     7
370
    25
100
AcDbLine
 10
48.9736524531
 20
324.2694064865
 30
0.0
 11
50.9178404816
 21
324.7159942875
 31
0.0
  0
LINE
  5
1B5
330
1F
100
AcDbEntity
  8
0
  6
Continuous
 62
     7
370
    25
100
AcDbLine
 10
46.1535592684
 20
324.7159942875
 30
0.0
 11
50.9178404816
 21
324.7159942875
 31
0.0
  0
LINE
  5
1B6
330
1F
100
AcDbEntity
  8
0
  6
Continuous
 62
     7
370
    25
100
AcDbLine
 10
48.9736524531
 20
319.9625834713
 30
0.0
 11
50.9178404816
 21
319.5159956703
 31
0.0
  0
SPLINE
  5
1B7
330
1F
100
AcDbEntity
  8
0
  6
Continuous
 62
     7
370
    25
100
AcDbSpline
210
0.0
220
0.0
230
1.0
 70
     8
 71
     3
 72
     9
 73
     5
 74
     0
 42
0.000000001
 43
0.00000001
 40
0.0
 40
0.0
 40
0.0
 40
0.0
 40
0.2575524375098354
 40
1.0
 40
1.0
 40
1.0
 40
1.0
 10
43.33346980893316
 20
324.2694064864924
 30
0.0
 10
43.25993489146096
 20
324.3368260942113
 30
0.0
 10
42.97442053879868
 20
324.5985965063684
 30
0.0
 10
42.6777941741795
 20
324.6659717224901
 30
0.0
 10
42.4575646527976
 20
324.715994287472
 30
0.0
  0
LINE
  5
1B8
330
1F
100
AcDbEntity
  8
0
  6
Continuous
 62
     7
370
    25
100
AcDbLine
 10
42.4575646528
 20
324.7159942875
 30
0.0
 11
46.1535592684
 21
324.7159942875
 31
0.0
  0
SPLINE
  5
1B9
330
1F
100
AcDbEntity
  8
0
  6
Continuous
 62
     7
370
    25
100
AcDbSpline
210
0.0
220
0.0
230
1.0
 70
     8
 71
     3
 72
     9
 73
     5
 74
     0
 42
0.000000001
 43
0.00000001
 40
0.0
 40
0.0
 40
0.0
 40
0.0
 40
0.2575524375098354
 40
1.0
 40
1.0
 40
1.0
 40
1.0
 10
43.33346980893316
 20
319.9625834712793
 30
0.0
 10
43.25993489146096
 20
319.8951638635603
 30
0.0
 10
42.97442053879868
 20
319.6333934514032
 30
0.0
 10
42.6777941741795
 20
319.5660182352814
 30
0.0
 10
42.4575646527976
 20
319.5159956702997
 30
0.0
  0
SPLINE
  5
1BA
330
1F
100
AcDbEntity
  8
0
  6
Continuous
 62
     7
370
    25
100
AcDbSpline
210
0.0
220
0.0
230
1.0
 70
     8
 71
     3
 72
     9
 73
     5
 74
     0
 42
0.000000001
 43
0.00000001
 40
0.0
 40
0.0
 40
0.0
 40
0.0
 40
0.0702011689216274
 40
1.0
 40
1.0
 40
1.0
 40
1.0
 10
50.91784048163595
 20
324.715994287472
 30
0.0
 10
50.96393030712104
 20
324.7155537556928
 30
0.0
 10
51.62046959546996
 20
324.7092784787156
 30
0.0
 10
52.26383335962792
 20
324.481341770941
 30
0.0
 10
52.86203223550024
 20
324.2694064864924
 30
0.0
  0
LINE
  5
1BB
330
1F
100
AcDbEntity
  8
0
  6
Continuous
 62
     7
370
    25
100
AcDbLine
 10
52.8620322355
 20
324.2694064865
 30
0.0
 11
52.8620322355
 21
323.9159807453
 31
0.0
  0
SPLINE
  5
1BC
330
1F
100
AcDbEntity
  8
0
  6
Continuous
 62
     7
370
    25
100
AcDbSpline
210
0.0
220
0.0
230
1.0
 70
     8
 71
     3
 72
     9
 73
     5
 74
     0
 42
0.000000001
 43
0.00000001
 40
0.0
 40
0.0
 40
0.0
 40
0.0
 40
0.5278807053443916
 40
1.0
 40
1.0
 40
1.0
 40
1.0
 10
50.91784048163595
 20
319.5159956702997
 30
0.0
 10
50.96407142218495
 20
319.5140759875993
 30
0.0
 10
51.0516498088942
 20
319.5104394032708
 30
0.0
 10
51.13747595164875
 20
319.5362397537754
 30
0.0
 10
51.17799612962904
 20
319.5484205970575
 30
0.0
  0
LINE
  5
1BD
330
1F
100
AcDbEntity
  8
0
  6
Continuous
 62
     7
370
    25
100
AcDbLine
 10
41.9855852731
 20
319.7020813713
 30
0.0
 11
41.5816594967
 21
319.9625834713
 31
0.0
  0
LINE
  5
1BE
330
1F
100
AcDbEntity
  8
0
  6
Continuous
 62
     7
370
    25
100
AcDbLine
 10
41.5816594967
 20
324.2694064865
 30
0.0
 11
41.5816594967
 21
319.9625834713
 31
0.0
  0
SPLINE
  5
1BF
330
1F
100
AcDbEntity
  8
0
  6
Continuous
 62
     7
370
    25
100
AcDbSpline
210
0.0
220
0.0
230
1.0
 70
     8
 71
     3
 72
     9
 73
     5
 74
     0
 42
0.000000001
 43
0.00000001
 40
0.0
 40
0.0
 40
0.0
 40
0.0
 40
0.2686332400303121
 40
1.0
 40
1.0
 40
1.0
 40
1.0
 10
42.4575646527976
 20
324.715994287472
 30
0.0
 10
42.3779198211367
 20
324.7093692860875
 30
0.0
 10
42.08143815099075
 20
324.6847074036501
 30
0.0
 10
41.79277680789239
 20
324.4448385747227
 30
0.0
 10
41.58165949666204
 20
324.2694064864924
 30
0.0
  0
SPLINE
  5
1C0
330
1F
100
AcDbEntity
  8
0
  6
Continuous
 62
     7
370
    25
100
AcDbSpline
210
0.0
220
0.0
230
1.0
 70
     8
 71
     3
 72
     9
 73
     5
 74
     0
 42
0.000000001
 43
0.00000001
 40
0.0
 40
0.0
 40
0.0
 40
0.0
 40
0.5569349314897201
 40
1.0
 40
1.0
 40
1.0
 40
1.0
 10
52.86203223550024
 20
324.2694064864924
 30
0.0
 10
52.78878483292565
 20
324.3418221465878
 30
0.0
 10
52.65726605320275
 20
324.4718474978472
 30
0.0
 10
52.52060208915022
 20
324.5119787977364
 30
0.0
 10
52.46005106055441
 20
324.5297595748713
 30
0.0
  0
LINE
  5
1C1
330
1F
100
AcDbEntity
  8
0
  6
Continuous
 62
     7
370
    25
100
AcDbLine
 10
50.9178404816
 20
324.7159942875
 30
0.0
 11
52.221844823
 21
324.7159942875
 31
0.0
  0
LINE
  5
1C2
330
1F
100
AcDbEntity
  8
0
  6
Continuous
 62
     7
370
    25
100
AcDbLine
 10
42.4575646528
 20
324.7159942875
 30
0.0
 11
42.2218469092
 21
324.7159942875
 31
0.0
  0
LINE
  5
1C3
330
1F
100
AcDbEntity
  8
0
  6
Continuous
 62
     7
370
    25
100
AcDbLine
 10
33.6807378688
 20
607.8159958014
 30
0.0
 11
48.6804199525
 21
607.8159958014
 31
0.0
  0
LINE
  5
1C4
330
1F
100
AcDbEntity
  8
0
  6
Continuous
 62
     7
370
    25
100
AcDbLine
 10
76.4307369598
 20
576.6159956001
 30
0.0
 11
18.9307387107
 21
576.6159956001
 31
0.0
  0
LINE
  5
1C5
330
1F
100
AcDbEntity
  8
0
  6
Continuous
 62
     7
370
    25
100
AcDbLine
 10
18.9307387107
 20
576.6159956001
 30
0.0
 11
18.9307387107
 21
578.7159956125
 31
0.0
  0
LINE
  5
1C6
330
1F
100
AcDbEntity
  8
0
  6
Continuous
 62
     7
370
    25
100
AcDbLine
 10
76.4307369598
 20
578.9159956511
 30
0.0
 11
76.4307369598
 21
576.6159956001
 31
0.0
  0
LINE
  5
1C7
330
1F
100
AcDbEntity
  8
0
  6
Continuous
 62
     7
370
    25
100
AcDbLine
 10
7.9307383046
 20
593.5159958789
 30
0.0
 11
7.9307383046
 21
594.3159963826
 31
0.0
  0
LINE
  5
1C8
330
1F
100
AcDbEntity
  8
0
  6
Continuous
 62
     7
370
    25
100
AcDbLine
 10
74.4307403573
 20
594.3159963826
 30
0.0
 11
74.4307403573
 21
593.5159958789
 31
0.0
  0
LINE
  5
1C9
330
1F
100
AcDbEntity
  8
0
  6
Continuous
 62
     7
370
    25
100
AcDbLine
 10
18.9307387107
 20
578.7159956125
 30
0.0
 11
7.9307383046
 21
578.7159956125
 31
0.0
  0
LINE
  5
1CA
330
1F
100
AcDbEntity
  8
0
  6
Continuous
 62
     7
370
    25
100
AcDbLine
 10
5.9307384425
 20
580.7159957366
 30
0.0
 11
5.9307384425
 21
591.517996032
 31
0.0
  0
LINE
  5
1CB
330
1F
100
AcDbEntity
  8
0
  6
Continuous
 62
     7
370
    25
100
AcDbLine
 10
7.9287382894
 20
593.5159958789
 30
0.0
 11
7.9307383046
 21
593.5159958789
 31
0.0
  0
LINE
  5
1CC
330
1F
100
AcDbEntity
  8
0
  6
Continuous
 62
     7
370
    25
100
AcDbLine
 10
74.4307403573
 20
593.5159958789
 30
0.0
 11
74.4327371129
 21
593.5159958789
 31
0.0
  0
ARC
  5
1CD
330
1F
100
AcDbEntity
  8
0
  6
Continuous
 62
     7
370
    25
100
AcDbCircle
 10
74.4327383306
 20
591.5179956227
 30
0.0
 40
1.99799999999999
100
AcDbArc
 50
0.0
 51
90.0
  0
LINE
  5
1CE
330
1F
100
AcDbEntity
  8
0
  6
Continuous
 62
     7
370
    25
100
AcDbLine
 10
7.9307383046
 20
593.5159958789
 30
0.0
 11
7.9307383046
 21
592.015995633
 31
0.0
  0
LINE
  5
1CF
330
1F
100
AcDbEntity
  8
0
  6
Continuous
 62
     7
370
    25
100
AcDbLine
 10
76.4307369598
 20
591.517996032
 30
0.0
 11
76.4307369598
 21
578.9159956511
 31
0.0
  0
ARC
  5
1D0
330
1F
100
AcDbEntity
  8
0
  6
Continuous
 62
     7
370
    25
100
AcDbCircle
 10
7.9287383306
 20
591.5179956227
 30
0.0
 40
1.997999999999999
100
AcDbArc
 50
90.0
 51
180.0
  0
LINE
  5
1D1
330
1F
100
AcDbEntity
  8
0
  6
Continuous
 62
     7
370
    25
100
AcDbLine
 10
74.4307403573
 20
592.015995633
 30
0.0
 11
74.4307403573
 21
593.5159958789
 31
0.0
  0
ARC
  5
1D2
330
1F
100
AcDbEntity
  8
0
  6
Continuous
 62
     7
370
    25
100
AcDbCircle
 10
7.9307383306
 20
580.7159956227
 30
0.0
 40
2.000000000000002
100
AcDbArc
 50
180.0
 51
270.0
  0
LINE
  5
1D3
330
1F
100
AcDbEntity
  8
0
  6
Continuous
 62
     7
370
    25
100
AcDbLine
 10
18.9307387107
 20
578.9159956511
 30
0.0
 11
18.9307387107
 21
578.7159956125
 31
0.0
  0
LWPOLYLINE
  5
1D4
330
1F
100
AcDbEntity
  8
0
  6
Continuous
 62
     7
370
    25
100
AcDbPolyline
 90
       31
 70
   128
 43
0.0
 10
899.3845571884
 20
423.4430268297
 10
899.3108858474
 20
423.6009046325
 10
899.0876068481
 20
424.0797385464
 10
898.7171043762
 20
424.8743280659
 10
898.2034315475
 20
425.9759411106
 10
897.5521911987
 20
427.3725226412
 10
896.7705358871
 20
429.048769165
 10
895.8670486816
 20
430.9863075504
 10
894.8516239532
 20
433.1639185438
 10
893.7353481659
 20
435.5577304849
 10
892.5304998764
 20
438.1415322313
 10
891.2502517112
 20
440.8870115766
 10
889.9086703666
 20
443.7640979776
 10
888.5204185852
 20
446.741245676
 10
887.1006955513
 20
449.7858509311
 10
885.6650580772
 20
452.8645500431
 10
884.2292417892
 20
455.9436142335
 10
882.8090419182
 20
458.9893147239
 10
881.419896067
 20
461.9682729134
 10
880.0771226295
 20
464.8478627095
 10
878.7954439529
 20
467.5965234527
 10
877.5888075241
 20
470.184147347
 10
876.4704455742
 20
472.5823774824
 10
875.4527558693
 20
474.7649431119
 10
874.546705664
 20
476.7079278717
 10
873.7623085388
 20
478.3900529036
 10
873.1081475624
 20
479.7928780207
 10
872.5914348968
 20
480.9010326752
 10
872.2177137741
 20
481.7023873219
 10
871.9912161239
 20
482.1881502757
 10
871.9143261322
 20
482.3530092726
  0
LWPOLYLINE
  5
1D5
330
1F
100
AcDbEntity
  8
0
  6
Continuous
 62
     7
370
    25
100
AcDbPolyline
 90
        7
 70
   128
 43
0.0
 10
884.7041715988
 20
478.5871803651
 10
883.9861144432
 20
480.127081264
 10
883.416651667
 20
481.3482835779
 10
883.003710688
 20
482.2338744888
 10
882.7529539474
 20
482.7715828905
 10
882.6678981193
 20
482.9539656529
 10
882.6678981193
 20
482.9539805541
  0
LWPOLYLINE
  5
1D6
330
1F
100
AcDbEntity
  8
0
  6
Continuous
 62
     7
370
    25
100
AcDbPolyline
 90
        6
 70
   128
 43
0.0
 10
906.7571153053
 20
431.2944337616
 10
906.675278128
 20
431.4699396381
 10
906.4277400383
 20
432.0008382091
 10
906.0178388962
 20
432.8798130045
 10
905.4513563522
 20
434.0946897754
 10
904.7361006149
 20
435.6286153087
  0
LINE
  5
1D7
330
1F
100
AcDbEntity
  8
0
  6
Continuous
 62
     7
370
    25
100
AcDbLine
 10
880.5278529533
 20
471.7049375067
 30
0.0
 11
880.112110556
 21
472.5981280098
 31
0.0
  0
LINE
  5
1D8
330
1F
100
AcDbEntity
  8
0
  6
Continuous
 62
     7
370
    25
100
AcDbLine
 10
881.4370026001
 20
471.4944586048
 30
0.0
 11
880.5278529533
 21
471.7049375067
 31
0.0
  0
LINE
  5
1D9
330
1F
100
AcDbEntity
  8
0
  6
Continuous
 62
     7
370
    25
100
AcDbLine
 10
884.5869888672
 20
472.8087857256
 30
0.0
 11
881.1381449112
 21
472.1528664121
 31
0.0
  0
SPLINE
  5
1DA
330
1F
100
AcDbEntity
  8
0
  6
Continuous
 62
     7
370
    25
100
AcDbSpline
210
0.0
220
0.0
230
1.0
 70
     8
 71
     3
 72
     9
 73
     5
 74
     0
 42
0.000000001
 43
0.00000001
 40
0.0
 40
0.0
 40
0.0
 40
0.0
 40
0.4990222756140726
 40
1.0
 40
1.0
 40
1.0
 40
1.0
 10
892.5322284110755
 20
447.9465708026697
 30
0.0
 10
892.6167292384301
 20
447.9404942347614
 30
0.0
 10
892.7860620147087
 20
447.9283172875483
 30
0.0
 10
892.9431719766793
 20
448.0039457507756
 30
0.0
 10
893.0218805679053
 20
448.041833926182
 30
0.0
  0
SPLINE
  5
1DB
330
1F
100
AcDbEntity
  8
0
  6
Continuous
 62
     7
370
    25
100
AcDbSpline
210
0.0
220
0.0
230
1.0
 70
     8
 71
     3
 72
     9
 73
     5
 74
     0
 42
0.000000001
 43
0.00000001
 40
0.0
 40
0.0
 40
0.0
 40
0.0
 40
0.8207238625078058
 40
1.0
 40
1.0
 40
1.0
 40
1.0
 10
893.8261856445044
 20
448.9917382488062
 30
0.0
 10
893.5883703008402
 20
449.0777716629386
 30
0.0
 10
893.2986073799262
 20
449.182597924319
 30
0.0
 10
892.9943003553774
 20
449.1859543103339
 30
0.0
 10
892.9397453674048
 20
449.1865560302546
 30
0.0
  0
LINE
  5
1DC
330
1F
100
AcDbEntity
  8
0
  6
Continuous
 62
     7
370
    25
100
AcDbLine
 10
895.5185403236
 20
448.4311416635
 30
0.0
 11
893.8261856445
 21
448.9917382488
 31
0.0
  0
LINE
  5
1DD
330
1F
100
AcDbEntity
  8
0
  6
Continuous
 62
     7
370
    25
100
AcDbLine
 10
893.936335028
 20
450.9929343948
 30
0.0
 11
894.5723761924
 21
451.3623788843
 31
0.0
  0
LINE
  5
1DE
330
1F
100
AcDbEntity
  8
0
  6
Continuous
 62
     7
370
    25
100
AcDbLine
 10
894.6081389793
 20
449.5824202785
 30
0.0
 11
893.936335028
 21
450.9929343948
 31
0.0
  0
SPLINE
  5
1DF
330
1F
100
AcDbEntity
  8
0
  6
Continuous
 62
     7
370
    25
100
AcDbSpline
210
0.0
220
0.0
230
1.0
 70
     8
 71
     3
 72
     9
 73
     5
 74
     0
 42
0.000000001
 43
0.00000001
 40
0.0
 40
0.0
 40
0.0
 40
0.0
 40
0.5972101507644372
 40
1.0
 40
1.0
 40
1.0
 40
1.0
 10
891.9553150542945
 20
449.8021379003336
 30
0.0
 10
892.1166238156859
 20
449.8742784061445
 30
0.0
 10
892.3867276663738
 20
449.9950742528302
 30
0.0
 10
892.6768965225269
 20
449.9916671921757
 30
0.0
 10
892.7937735923499
 20
449.9902948627283
 30
0.0
  0
SPLINE
  5
1E0
330
1F
100
AcDbEntity
  8
0
  6
Continuous
 62
     7
370
    25
100
AcDbSpline
210
0.0
220
0.0
230
1.0
 70
     8
 71
     3
 72
    12
 73
     8
 74
     0
 42
0.000000001
 43
0.00000001
 40
0.0
 40
0.0
 40
0.0
 40
0.0
 40
0.2500590547790721
 40
0.3754487701558704
 40
0.5008642775160922
 40
0.7505711495681032
 40
1.0
 40
1.0
 40
1.0
 40
1.0
 10
891.4774646171302
 20
447.9380771407892
 30
0.0
 10
891.4142598527849
 20
448.103995703205
 30
0.0
 10
891.3193616653849
 20
448.3531125378666
 30
0.0
 10
891.3118231626132
 20
448.7154328940428
 30
0.0
 10
891.3671056344552
 20
449.0685506133851
 30
0.0
 10
891.5557982404924
 20
449.485414964182
 30
0.0
 10
891.8221922440517
 20
449.6966027992507
 30
0.0
 10
891.9553150542946
 20
449.8021379003335
 30
0.0
  0
SPLINE
  5
1E1
330
1F
100
AcDbEntity
  8
0
  6
Continuous
 62
     7
370
    25
100
AcDbSpline
210
0.0
220
0.0
230
1.0
 70
     8
 71
     3
 72
    11
 73
     7
 74
     0
 42
0.000000001
 43
0.00000001
 40
0.0
 40
0.0
 40
0.0
 40
0.0
 40
0.2003103928289917
 40
0.4015612522990221
 40
0.6009013701821128
 40
1.0
 40
1.0
 40
1.0
 40
1.0
 10
892.5497521766395
 20
447.1143707523157
 30
0.0
 10
892.4590027688574
 20
447.127502939135
 30
0.0
 10
892.2770778805893
 20
447.1538289690035
 30
0.0
 10
892.0240443220385
 20
447.273349754444
 30
0.0
 10
891.7223843918573
 20
447.5048463131624
 30
0.0
 10
891.5754530722115
 20
447.7647484680023
 30
0.0
 10
891.4774646171302
 20
447.9380771407892
 30
0.0
  0
SPLINE
  5
1E2
330
1F
100
AcDbEntity
  8
0
  6
Continuous
 62
     7
370
    25
100
AcDbSpline
210
0.0
220
0.0
230
1.0
 70
     8
 71
     3
 72
    12
 73
     8
 74
     0
 42
0.000000001
 43
0.00000001
 40
0.0
 40
0.0
 40
0.0
 40
0.0
 40
0.1253629277428176
 40
0.2506021789938512
 40
0.5003942979297865
 40
0.7501409027854635
 40
1.0
 40
1.0
 40
1.0
 40
1.0
 10
901.003240526554
 20
429.3104484567453
 30
0.0
 10
901.0097027149687
 20
429.2997531338
 30
0.0
 10
901.0226207165422
 20
429.2783730393542
 30
0.0
 10
901.0635139324826
 20
429.2527146229189
 30
0.0
 10
901.1373225149895
 20
429.2515874684595
 30
0.0
 10
901.2488784081374
 20
429.2888657875881
 30
0.0
 10
901.3344992279624
 20
429.3491850193946
 30
0.0
 10
901.3773192771645
 20
429.3793514261056
 30
0.0
  0
LINE
  5
1E3
330
1F
100
AcDbEntity
  8
0
  6
Continuous
 62
     7
370
    25
100
AcDbLine
 10
901.7458547958
 20
429.8699721584
 30
0.0
 11
901.6857137092
 21
429.9353733549
 31
0.0
  0
SPLINE
  5
1E4
330
1F
100
AcDbEntity
  8
0
  6
Continuous
 62
     7
370
    25
100
AcDbSpline
210
0.0
220
0.0
230
1.0
 70
     8
 71
     3
 72
    12
 73
     8
 74
     0
 42
0.000000001
 43
0.00000001
 40
0.0
 40
0.0
 40
0.0
 40
0.0
 40
0.2503921956318925
 40
0.4997038372160983
 40
0.6248696314625877
 40
0.7502089528248456
 40
1.0
 40
1.0
 40
1.0
 40
1.0
 10
902.817844332096
 20
430.7254776248743
 30
0.0
 10
902.8773408040327
 20
430.7947969051345
 30
0.0
 10
902.9960769940828
 20
430.9331363220309
 30
0.0
 10
903.1150009311112
 20
431.119350693426
 30
0.0
 10
903.1704838947171
 20
431.2538885741338
 30
0.0
 10
903.1998013186561
 20
431.3754520730705
 30
0.0
 10
903.1823703390648
 20
431.4370106597638
 30
0.0
 10
903.1707634338111
 20
431.4780011663248
 30
0.0
  0
LINE
  5
1E5
330
1F
100
AcDbEntity
  8
0
  6
Continuous
 62
     7
370
    25
100
AcDbLine
 10
902.9523124107
 20
430.4117932806
 30
0.0
 11
902.8178443321
 21
430.7254776249
 31
0.0
  0
SPLINE
  5
1E6
330
1F
100
AcDbEntity
  8
0
  6
Continuous
 62
     7
370
    25
100
AcDbSpline
210
0.0
220
0.0
230
1.0
 70
     8
 71
     3
 72
    15
 73
    11
 74
     0
 42
0.000000001
 43
0.00000001
 40
0.0
 40
0.0
 40
0.0
 40
0.0
 40
0.0733925238088991
 40
0.1467546393207686
 40
0.2932190336238541
 40
0.4396586889503005
 40
0.5862199846784217
 40
0.7327554650361431
 40
0.8793052522119524
 40
1.0
 40
1.0
 40
1.0
 40
1.0
 10
902.4041880973548
 20
431.6446557531168
 30
0.0
 10
902.439264429391
 20
431.6787594979672
 30
0.0
 10
902.5094025604906
 20
431.7469528576621
 30
0.0
 10
902.6536115370743
 20
431.8708254361044
 30
0.0
 10
902.8369156972257
 20
432.0051612987176
 30
0.0
 10
903.049281289486
 20
432.1178171039077
 30
0.0
 10
903.2459736456395
 20
432.1862634585941
 30
0.0
 10
903.4158936202966
 20
432.2057451005447
 30
0.0
 10
903.5574666841273
 20
432.1920139491704
 30
0.0
 10
903.6036678967065
 20
432.1322545035911
 30
0.0
 10
903.6245335944861
 20
432.1052655467798
 30
0.0
  0
SPLINE
  5
1E7
330
1F
100
AcDbEntity
  8
0
  6
Continuous
 62
     7
370
    25
100
AcDbSpline
210
0.0
220
0.0
230
1.0
 70
     8
 71
     3
 72
    11
 73
     7
 74
     0
 42
0.000000001
 43
0.00000001
 40
0.0
 40
0.0
 40
0.0
 40
0.0
 40
0.2502139530476069
 40
0.5001038266524682
 40
0.7499077113661623
 40
1.0
 40
1.0
 40
1.0
 40
1.0
 10
901.7869820007056
 20
430.4935112485697
 30
0.0
 10
901.7943674564966
 20
430.5743284215928
 30
0.0
 10
901.8091288023676
 20
430.7358580924836
 30
0.0
 10
901.9377626254361
 20
431.0425510180597
 30
0.0
 10
902.1397143214846
 20
431.3628021223749
 30
0.0
 10
902.3159962714215
 20
431.5506684144506
 30
0.0
 10
902.4041880973548
 20
431.6446557531168
 30
0.0
  0
SPLINE
  5
1E8
330
1F
100
AcDbEntity
  8
0
  6
Continuous
 62
     7
370
    25
100
AcDbSpline
210
0.0
220
0.0
230
1.0
 70
     8
 71
     3
 72
    12
 73
     8
 74
     0
 42
0.000000001
 43
0.00000001
 40
0.0
 40
0.0
 40
0.0
 40
0.0
 40
0.1252776379072812
 40
0.2504290851043771
 40
0.5000888211457041
 40
0.7498617869222785
 40
1.0
 40
1.0
 40
1.0
 40
1.0
 10
900.9959687598914
 20
430.0987049827387
 30
0.0
 10
901.0315997246083
 20
430.1326674927253
 30
0.0
 10
901.1028257633851
 20
430.2005583026565
 30
0.0
 10
901.2496415922939
 20
430.3183481544523
 30
0.0
 10
901.4324143154589
 20
430.4293944222235
 30
0.0
 10
901.6314333357212
 20
430.4982380702665
 30
0.0
 10
901.7351071968269
 20
430.4950876230664
 30
0.0
 10
901.7869820007056
 20
430.4935112485697
 30
0.0
  0
SPLINE
  5
1E9
330
1F
100
AcDbEntity
  8
0
  6
Continuous
 62
     7
370
    25
100
AcDbSpline
210
0.0
220
0.0
230
1.0
 70
     8
 71
     3
 72
    13
 73
     9
 74
     0
 42
0.000000001
 43
0.00000001
 40
0.0
 40
0.0
 40
0.0
 40
0.0
 40
0.2497362887320126
 40
0.4991021021951882
 40
0.6243808263528617
 40
0.7495704783587236
 40
0.8747528597379868
 40
1.0
 40
1.0
 40
1.0
 40
1.0
 10
900.425015867588
 20
428.7509992608835
 30
0.0
 10
900.4038609484493
 20
428.8249077509295
 30
0.0
 10
900.3615824927732
 20
428.9726150902966
 30
0.0
 10
900.4453208759254
 20
429.2720784137484
 30
0.0
 10
900.5646128909572
 20
429.5279185157585
 30
0.0
 10
900.6827077447975
 20
429.7265174559241
 30
0.0
 10
900.8281931817852
 20
429.9226697349548
 30
0.0
 10
900.9400339268434
 20
430.0400164518661
 30
0.0
 10
900.9959687598914
 20
430.0987049827387
 30
0.0
  0
LINE
  5
1EA
330
1F
100
AcDbEntity
  8
0
  6
Continuous
 62
     7
370
    25
100
AcDbLine
 10
900.5106677421
 20
428.6779090652
 30
0.0
 11
900.4250158676
 21
428.7509992609
 31
0.0
  0
SPLINE
  5
1EB
330
1F
100
AcDbEntity
  8
0
  6
Continuous
 62
     7
370
    25
100
AcDbSpline
210
0.0
220
0.0
230
1.0
 70
     8
 71
     3
 72
    16
 73
    12
 74
     0
 42
0.000000001
 43
0.00000001
 40
0.0
 40
0.0
 40
0.0
 40
0.0
 40
0.0046928701731687
 40
0.1291730365433922
 40
0.2535625125951641
 40
0.3779472415628565
 40
0.5023326821909766
 40
0.6267200124987878
 40
0.7511003108962407
 40
0.8754844372963655
 40
1.0
 40
1.0
 40
1.0
 40
1.0
 10
874.9191154845923
 20
482.5204536208918
 30
0.0
 10
874.9166314555896
 20
482.5204798539872
 30
0.0
 10
874.8482576124414
 20
482.5212019299167
 30
0.0
 10
875.0708669979647
 20
482.5163826476917
 30
0.0
 10
875.5935449793394
 20
482.5106564703458
 30
0.0
 10
876.4360960987422
 20
482.5191451075664
 30
0.0
 10
877.4139401371635
 20
482.5571664092817
 30
0.0
 10
878.3949450785765
 20
482.6265922618489
 30
0.0
 10
879.2175069208081
 20
482.7099260101896
 30
0.0
 10
879.7917393629148
 20
482.7829382562992
 30
0.0
 10
879.8665871067662
 20
482.793982585755
 30
0.0
 10
879.9040307410926
 20
482.799507666569
 30
0.0
  0
LINE
  5
1EC
330
1F
100
AcDbEntity
  8
0
  6
Continuous
 62
     7
370
    25
100
AcDbLine
 10
893.0261721023
 20
448.0413421879
 30
0.0
 11
893.3563818344
 21
447.3082050571
 31
0.0
  0
SPLINE
  5
1ED
330
1F
100
AcDbEntity
  8
0
  6
Continuous
 62
     7
370
    25
100
AcDbSpline
210
0.0
220
0.0
230
1.0
 70
     8
 71
     3
 72
    13
 73
     9
 74
     0
 42
0.000000001
 43
0.00000001
 40
0.0
 40
0.0
 40
0.0
 40
0.0
 40
0.2498525912621267
 40
0.3750313848926239
 40
0.5002208704024695
 40
0.6259804850810892
 40
0.7505755105890436
 40
1.0
 40
1.0
 40
1.0
 40
1.0
 10
893.3563818343849
 20
447.3082050571252
 30
0.0
 10
893.18294224826
 20
447.232557002764
 30
0.0
 10
892.9226075931297
 20
447.1190084722155
 30
0.0
 10
892.5530701591433
 20
447.1028343324649
 30
0.0
 10
892.2817259362321
 20
447.1561503243253
 30
0.0
 10
892.0283057656872
 20
447.2720749756086
 30
0.0
 10
891.7267021237167
 20
447.5048066467024
 30
0.0
 10
891.579752962199
 20
447.7645486268572
 30
0.0
 10
891.481756151554
 20
447.9377642164042
 30
0.0
  0
SPLINE
  5
1EE
330
1F
100
AcDbEntity
  8
0
  6
Continuous
 62
     7
370
    25
100
AcDbSpline
210
0.0
220
0.0
230
1.0
 70
     8
 71
     3
 72
    12
 73
     8
 74
     0
 42
0.000000001
 43
0.00000001
 40
0.0
 40
0.0
 40
0.0
 40
0.0
 40
0.2500919105566248
 40
0.3754914211418258
 40
0.500911468830624
 40
0.7506000270811113
 40
1.0
 40
1.0
 40
1.0
 40
1.0
 10
891.4816965469092
 20
447.9377791175654
 30
0.0
 10
891.4184611439292
 20
448.1037413517298
 30
0.0
 10
891.323518643476
 20
448.3529193240343
 30
0.0
 10
891.3160141028025
 20
448.7153224586834
 30
0.0
 10
891.3711765904047
 20
449.0685054435488
 30
0.0
 10
891.5598364442524
 20
449.4854473789318
 30
0.0
 10
891.8262422756568
 20
449.6966548380883
 30
0.0
 10
891.9593681701392
 20
449.8021975049784
 30
0.0
  0
SPLINE
  5
1EF
330
1F
100
AcDbEntity
  8
0
  6
Continuous
 62
     7
370
    25
100
AcDbSpline
210
0.0
220
0.0
230
1.0
 70
     8
 71
     3
 72
    10
 73
     6
 74
     0
 42
0.000000001
 43
0.00000001
 40
0.0
 40
0.0
 40
0.0
 40
0.0
 40
0.2494640354948651
 40
0.4995888044842146
 40
1.0
 40
1.0
 40
1.0
 40
1.0
 10
891.9593681701392
 20
449.8021975049784
 30
0.0
 10
892.1208172358329
 20
449.8705295773449
 30
0.0
 10
892.4441429831902
 20
450.0073747072399
 30
0.0
 10
893.1453977650441
 20
450.0172733473291
 30
0.0
 10
893.6445434180678
 20
449.8741345293157
 30
0.0
 10
893.9773430236548
 20
449.7786983737757
 30
0.0
  0
LINE
  5
1F0
330
1F
100
AcDbEntity
  8
0
  6
Continuous
 62
     7
370
    25
100
AcDbLine
 10
893.9773430237
 20
449.7786983738
 30
0.0
 11
894.6124305137
 21
449.5820775518
 31
0.0
  0
LINE
  5
1F1
330
1F
100
AcDbEntity
  8
0
  6
Continuous
 62
     7
370
    25
100
AcDbLine
 10
894.6124305137
 20
449.5820775518
 30
0.0
 11
893.9403881439
 21
450.9930387029
 31
0.0
  0
LINE
  5
1F2
330
1F
100
AcDbEntity
  8
0
  6
Continuous
 62
     7
370
    25
100
AcDbLine
 10
893.9403881439
 20
450.9930387029
 30
0.0
 11
894.5764293083
 21
451.3624682913
 31
0.0
  0
LINE
  5
1F3
330
1F
100
AcDbEntity
  8
0
  6
Continuous
 62
     7
370
    25
100
AcDbLine
 10
894.5764293083
 20
451.3624682913
 30
0.0
 11
895.8519687065
 21
448.6211463699
 31
0.0
  0
LINE
  5
1F4
330
1F
100
AcDbEntity
  8
0
  6
Continuous
 62
     7
370
    25
100
AcDbLine
 10
895.8519687065
 20
448.6211463699
 30
0.0
 11
895.5229510673
 21
448.4303817043
 31
0.0
  0
LINE
  5
1F5
330
1F
100
AcDbEntity
  8
0
  6
Continuous
 62
     7
370
    25
100
AcDbLine
 10
895.5229510673
 20
448.4303817043
 30
0.0
 11
893.8304175743
 21
448.9913508186
 31
0.0
  0
SPLINE
  5
1F6
330
1F
100
AcDbEntity
  8
0
  6
Continuous
 62
     7
370
    25
100
AcDbSpline
210
0.0
220
0.0
230
1.0
 70
     8
 71
     3
 72
    10
 73
     6
 74
     0
 42
0.000000001
 43
0.00000001
 40
0.0
 40
0.0
 40
0.0
 40
0.0
 40
0.5008426433980719
 40
0.7509087744497368
 40
1.0
 40
1.0
 40
1.0
 40
1.0
 10
893.8304175742835
 20
448.9913508186152
 30
0.0
 10
893.5928027793365
 20
449.0670091918644
 30
0.0
 10
893.2365491000284
 20
449.1804430958706
 30
0.0
 10
892.7309911444577
 20
449.2205653285237
 30
0.0
 10
892.4930261931163
 20
449.1302221110982
 30
0.0
 10
892.3742761024207
 20
449.0851387271692
 30
0.0
  0
SPLINE
  5
1F7
330
1F
100
AcDbEntity
  8
0
  6
Continuous
 62
     7
370
    25
100
AcDbSpline
210
0.0
220
0.0
230
1.0
 70
     8
 71
     3
 72
    14
 73
    10
 74
     0
 42
0.000000001
 43
0.00000001
 40
0.0
 40
0.0
 40
0.0
 40
0.0
 40
0.249243805543661
 40
0.3735808475843367
 40
0.4993941532580312
 40
0.6238239950599633
 40
0.7495926745109387
 40
0.8747099701088812
 40
1.0
 40
1.0
 40
1.0
 40
1.0
 10
892.3742761024207
 20
449.0851387271692
 30
0.0
 10
892.3123086402367
 20
449.0411745799626
 30
0.0
 10
892.2194282695697
 20
448.9752786057741
 30
0.0
 10
892.1371410588002
 20
448.8403880172058
 30
0.0
 10
892.0954284971989
 20
448.7287505445485
 30
0.0
 10
892.0751241464251
 20
448.6094651113619
 30
0.0
 10
892.0778938536173
 20
448.4888110191072
 30
0.0
 10
892.1021460277391
 20
448.3708968671384
 30
0.0
 10
892.1327990143959
 20
448.2986921096102
 30
0.0
 10
892.1481360801429
 20
448.2625648269465
 30
0.0
  0
SPLINE
  5
1F8
330
1F
100
AcDbEntity
  8
0
  6
Continuous
 62
     7
370
    25
100
AcDbSpline
210
0.0
220
0.0
230
1.0
 70
     8
 71
     3
 72
    13
 73
     9
 74
     0
 42
0.000000001
 43
0.00000001
 40
0.0
 40
0.0
 40
0.0
 40
0.0
 40
0.125208674586765
 40
0.2502946684058995
 40
0.3721817038466823
 40
0.5005725061997515
 40
0.7498485688270213
 40
1.0
 40
1.0
 40
1.0
 40
1.0
 10
892.1481360801429
 20
448.2625648269465
 30
0.0
 10
892.1692519210425
 20
448.2224928941736
 30
0.0
 10
892.2114629133199
 20
448.1423882915264
 30
0.0
 10
892.3036986724909
 20
448.0482039250171
 30
0.0
 10
892.4132478933278
 20
447.9795987391216
 30
0.0
 10
892.5745952417212
 20
447.9293977362231
 30
0.0
 10
892.7913015691934
 20
447.9321574934134
 30
0.0
 10
892.9477904962744
 20
448.0049047872518
 30
0.0
 10
893.0261721023292
 20
448.0413421878626
 30
0.0
  0
SPLINE
  5
1F9
330
1F
100
AcDbEntity
  8
0
  6
Continuous
 62
     7
370
    25
100
AcDbSpline
210
0.0
220
0.0
230
1.0
 70
    24
 71
     3
 72
     9
 73
     5
 74
     0
 42
0.000000001
 43
0.00000001
 40
0.0
 40
0.0
 40
0.0
 40
0.0
 40
0.5001703186189982
 40
1.0
 40
1.0
 40
1.0
 40
1.0
 10
891.9593681701392
 20
449.8021975049784
 30
0.0
 10
891.9586927659636
 20
449.8021875725641
 30
0.0
 10
891.9573424175916
 20
449.8021677144998
 30
0.0
 10
891.9559906885771
 20
449.8021478361319
 30
0.0
 10
891.9553150542945
 20
449.8021379003336
 30
0.0
  0
SPLINE
  5
1FA
330
1F
100
AcDbEntity
  8
0
  6
Continuous
 62
     7
370
    25
100
AcDbSpline
210
0.0
220
0.0
230
1.0
 70
     8
 71
     3
 72
     9
 73
     5
 74
     0
 42
0.000000001
 43
0.00000001
 40
0.0
 40
0.0
 40
0.0
 40
0.0
 40
0.4987381293714728
 40
1.0
 40
1.0
 40
1.0
 40
1.0
 10
891.4816965469092
 20
447.9377791175654
 30
0.0
 10
891.4810052158888
 20
447.9378288504649
 30
0.0
 10
891.4796190555383
 20
447.937928567925
 30
0.0
 10
891.4781839705273
 20
447.9380275332468
 30
0.0
 10
891.4774646171302
 20
447.9380771407892
 30
0.0
  0
SPLINE
  5
1FB
330
1F
100
AcDbEntity
  8
0
  6
Continuous
 62
     7
370
    25
100
AcDbSpline
210
0.0
220
0.0
230
1.0
 70
     8
 71
     3
 72
     9
 73
     5
 74
     0
 42
0.000000001
 43
0.00000001
 40
0.0
 40
0.0
 40
0.0
 40
0.0
 40
0.4999632393893523
 40
0.9999999999999999
 40
0.9999999999999999
 40
0.9999999999999999
 40
0.9999999999999999
 10
893.0261721023292
 20
448.0413421878626
 30
0.0
 10
893.0254568203022
 20
448.0414204221538
 30
0.0
 10
893.0240261510644
 20
448.0415769022406
 30
0.0
 10
893.0225957973456
 20
448.0417482473357
 30
0.0
 10
893.0218805679053
 20
448.041833926182
 30
0.0
  0
LINE
  5
1FC
330
1F
100
AcDbEntity
  8
0
  6
Continuous
 62
     7
370
    25
100
AcDbLine
 10
895.5229510673
 20
448.4303817043
 30
0.0
 11
895.5185403236
 21
448.4311416635
 31
0.0
  0
LINE
  5
1FD
330
1F
100
AcDbEntity
  8
0
  6
Continuous
 62
     7
370
    25
100
AcDbLine
 10
894.5764293083
 20
451.3624682913
 30
0.0
 11
894.5723761924
 21
451.3623788843
 31
0.0
  0
LINE
  5
1FE
330
1F
100
AcDbEntity
  8
0
  6
Continuous
 62
     7
370
    25
100
AcDbLine
 10
893.9403881439
 20
450.9930387029
 30
0.0
 11
893.936335028
 21
450.9929343948
 31
0.0
  0
LWPOLYLINE
  5
1FF
330
1F
100
AcDbEntity
  8
0
  6
Continuous
 62
     7
370
    25
100
AcDbPolyline
 90
       17
 70
   128
 43
0.0
 10
885.4800452598
 20
476.9232496509
 10
886.3601674446
 20
475.0358983764
 10
887.3468031296
 20
472.9200228939
 10
888.4274353393
 20
470.6026092062
 10
889.5882357963
 20
468.1132361183
 10
890.8144225486
 20
465.4836580047
 10
892.0903791794
 20
462.7474173794
 10
893.3997740158
 20
459.939442564
 10
894.7258581527
 20
457.0955484996
 10
896.0518230804
 20
454.252012063
 10
897.3607410797
 20
451.4451250324
 10
898.6358036407
 20
448.7107023487
 10
899.8608579048
 20
446.0836127291
 10
901.0201682457
 20
443.5973986873
 10
902.0990123161
 20
441.2837549934
 10
903.0836810478
 20
439.1722157488
 10
903.9614786514
 20
437.2897222528
  0
LINE
  5
200
330
1F
100
AcDbEntity
  8
0
  6
Continuous
 62
     7
370
    25
100
AcDbLine
 10
880.5288066276
 20
471.7116951833
 30
0.0
 11
880.112945021
 21
472.6051464567
 31
0.0
  0
LINE
  5
201
330
1F
100
AcDbEntity
  8
0
  6
Continuous
 62
     7
370
    25
100
AcDbLine
 10
880.112945021
 20
472.6051464567
 30
0.0
 11
884.3122710594
 21
473.4042659292
 31
0.0
  0
LINE
  5
202
330
1F
100
AcDbEntity
  8
0
  6
Continuous
 62
     7
370
    25
100
AcDbLine
 10
884.3122710594
 20
473.4042659292
 30
0.0
 11
884.5878829368
 21
472.8156253586
 31
0.0
  0
LINE
  5
203
330
1F
100
AcDbEntity
  8
0
  6
Continuous
 62
     7
370
    25
100
AcDbLine
 10
884.5878829368
 20
472.8156253586
 30
0.0
 11
881.1390389808
 21
472.1597134957
 31
0.0
  0
LINE
  5
204
330
1F
100
AcDbEntity
  8
0
  6
Continuous
 62
     7
370
    25
100
AcDbLine
 10
881.1390389808
 20
472.1597134957
 30
0.0
 11
881.438015879
 21
471.5011045227
 31
0.0
  0
LINE
  5
205
330
1F
100
AcDbEntity
  8
0
  6
Continuous
 62
     7
370
    25
100
AcDbLine
 10
881.438015879
 20
471.5011045227
 30
0.0
 11
880.5288066276
 21
471.7116951833
 31
0.0
  0
LINE
  5
206
330
1F
100
AcDbEntity
  8
0
  6
Continuous
 62
     7
370
    25
100
AcDbLine
 10
880.5288066276
 20
471.7116951833
 30
0.0
 11
880.5278529533
 21
471.7049375067
 31
0.0
  0
LINE
  5
207
330
1F
100
AcDbEntity
  8
0
  6
Continuous
 62
     7
370
    25
100
AcDbLine
 10
881.438015879
 20
471.5011045227
 30
0.0
 11
881.4370026001
 21
471.4944586048
 31
0.0
  0
LINE
  5
208
330
1F
100
AcDbEntity
  8
0
  6
Continuous
 62
     7
370
    25
100
AcDbLine
 10
880.112945021
 20
472.6051464567
 30
0.0
 11
880.112110556
 21
472.5981280098
 31
0.0
  0
LINE
  5
209
330
1F
100
AcDbEntity
  8
0
  6
Continuous
 62
     7
370
    25
100
AcDbLine
 10
884.5878829368
 20
472.8156253586
 30
0.0
 11
884.5869888672
 21
472.8087857256
 31
0.0
  0
SPLINE
  5
20A
330
1F
100
AcDbEntity
  8
0
  6
Continuous
 62
     7
370
    25
100
AcDbSpline
210
0.0
220
0.0
230
1.0
 70
     8
 71
     3
 72
    12
 73
     8
 74
     0
 42
0.000000001
 43
0.00000001
 40
0.0
 40
0.0
 40
0.0
 40
0.0
 40
0.0304805338736089
 40
0.0888084028397323
 40
0.3925690195836277
 40
0.6963030132022349
 40
1.0
 40
1.0
 40
1.0
 40
1.0
 10
885.5338086494178
 20
477.8887107858469
 30
0.0
 10
885.5295362662854
 20
477.8984174993346
 30
0.0
 10
885.5170882060291
 20
477.92669908145
 30
0.0
 10
885.45543340062
 20
478.0501944075796
 30
0.0
 10
885.3095450370342
 20
478.24688927991
 30
0.0
 10
885.0396718218572
 20
478.4622120277276
 30
0.0
 10
884.8317364099818
 20
478.5324126563924
 30
0.0
 10
884.7277750381202
 20
478.5675108322908
 30
0.0
  0
SPLINE
  5
20B
330
1F
100
AcDbEntity
  8
0
  6
Continuous
 62
     7
370
    25
100
AcDbSpline
210
0.0
220
0.0
230
1.0
 70
     8
 71
     3
 72
    11
 73
     7
 74
     0
 42
0.000000001
 43
0.00000001
 40
0.0
 40
0.0
 40
0.0
 40
0.0
 40
0.3699256567912867
 40
0.743779566495495
 40
0.9434412910585349
 40
0.9999999999999999
 40
0.9999999999999999
 40
0.9999999999999999
 40
0.9999999999999999
 10
884.7041715987891
 20
478.5871803650667
 30
0.0
 10
884.7056507031643
 20
478.5843880555949
 30
0.0
 10
884.7086246185742
 20
478.5787737850235
 30
0.0
 10
884.7159282967081
 20
478.5720853586857
 30
0.0
 10
884.7234459922984
 20
478.5686349285468
 30
0.0
 10
884.7269922325896
 20
478.5677140985076
 30
0.0
 10
884.7277750381202
 20
478.5675108322908
 30
0.0
  0
SPLINE
  5
20C
330
1F
100
AcDbEntity
  8
0
  6
Continuous
 62
     7
370
    25
100
AcDbSpline
210
0.0
220
0.0
230
1.0
 70
     8
 71
     3
 72
    12
 73
     8
 74
     0
 42
0.000000001
 43
0.00000001
 40
0.0
 40
0.0
 40
0.0
 40
0.0
 40
0.0304649831524519
 40
0.0887971478185504
 40
0.3925571334663547
 40
0.6962777359600659
 40
1.0
 40
1.0
 40
1.0
 40
1.0
 10
904.7343124755591
 20
436.7131069192698
 30
0.0
 10
904.7390124820073
 20
436.7035980537339
 30
0.0
 10
904.7527117236983
 20
436.6758822944848
 30
0.0
 10
904.8075449662344
 20
436.5490952470696
 30
0.0
 10
904.8647243010929
 20
436.310907120063
 30
0.0
 10
904.8560854374487
 20
435.9657238825604
 30
0.0
 10
904.7761751014707
 20
435.761419478678
 30
0.0
 10
904.736219824192
 20
435.6592669973185
 30
0.0
  0
SPLINE
  5
20D
330
1F
100
AcDbEntity
  8
0
  6
Continuous
 62
     7
370
    25
100
AcDbSpline
210
0.0
220
0.0
230
1.0
 70
     8
 71
     3
 72
    10
 73
     6
 74
     0
 42
0.000000001
 43
0.00000001
 40
0.0
 40
0.0
 40
0.0
 40
0.0
 40
0.2119900625491792
 40
0.4879824152814206
 40
1.0
 40
1.0
 40
1.0
 40
1.0
 10
904.736219824192
 20
435.6592669973185
 30
0.0
 10
904.7350968294892
 20
435.6565250004015
 30
0.0
 10
904.7325117947905
 20
435.6502131654875
 30
0.0
 10
904.7320829182008
 20
435.6390644417015
 30
0.0
 10
904.7345182396633
 20
435.6327307137851
 30
0.0
 10
904.7361006149024
 20
435.6286153087427
 30
0.0
  0
SPLINE
  5
20E
330
1F
100
AcDbEntity
  8
0
  6
Continuous
 62
     7
370
    25
100
AcDbSpline
210
0.0
220
0.0
230
1.0
 70
     8
 71
     3
 72
    12
 73
     8
 74
     0
 42
0.000000001
 43
0.00000001
 40
0.0
 40
0.0
 40
0.0
 40
0.0
 40
0.2239297533877439
 40
0.4478223641802653
 40
0.6716968525901441
 40
0.895573556977555
 40
1.0
 40
1.0
 40
1.0
 40
1.0
 10
883.1678618797035
 20
482.9607158789445
 30
0.0
 10
883.170616988045
 20
482.9607433053907
 30
0.0
 10
883.1761267477461
 20
482.9607981537338
 30
0.0
 10
883.2191914882935
 20
482.9611019526083
 30
0.0
 10
883.2825687366663
 20
482.9616373137856
 30
0.0
 10
883.3477694571224
 20
482.9623100004881
 30
0.0
 10
883.3885881193888
 20
482.9628302697215
 30
0.0
 10
883.4015716918677
 20
482.9629957566073
 30
0.0
  0
ELLIPSE
  5
20F
330
1F
100
AcDbEntity
  8
0
  6
Continuous
 62
     7
370
    25
100
AcDbEllipse
 10
883.6922243436
 20
444.0580638614
 30
0.0
 11
-0.5243823988528219
 21
38.90265597379374
 31
0.0
210
0.0
220
0.0
230
1.0
 40
0.0004165658
 41
6.281809327953596
 42
6.282709882716159
  0
SPLINE
  5
210
330
1F
100
AcDbEntity
  8
0
  6
Continuous
 62
     7
370
    25
100
AcDbSpline
210
0.0
220
0.0
230
1.0
 70
     8
 71
     3
 72
    12
 73
     8
 74
     0
 42
0.000000001
 43
0.00000001
 40
0.0
 40
0.0
 40
0.0
 40
0.0
 40
0.2239989961143695
 40
0.4478111332202128
 40
0.6716878622462599
 40
0.8955854816860745
 40
1.0
 40
1.0
 40
1.0
 40
1.0
 10
883.4018697150916
 20
482.9624444136431
 30
0.0
 10
883.3739828097918
 20
482.9621153169547
 30
0.0
 10
883.31823226233
 20
482.9614573981088
 30
0.0
 10
883.2462562969913
 20
482.9608954012437
 30
0.0
 10
883.1938405308392
 20
482.9606419525591
 30
0.0
 10
883.1704804986143
 20
482.9606144419306
 30
0.0
 10
883.1684937377793
 20
482.9606687915723
 30
0.0
 10
883.1678618797034
 20
482.9606860766222
 30
0.0
  0
LINE
  5
211
330
1F
100
AcDbEntity
  8
0
  6
Continuous
 62
     7
370
    25
100
AcDbLine
 10
883.4018697151
 20
482.9624444136
 30
0.0
 11
902.4972905525
 21
483.1692650804
 31
0.0
  0
LINE
  5
212
330
1F
100
AcDbEntity
  8
0
  6
Continuous
 62
     7
370
    25
100
AcDbLine
 10
902.4972905525
 20
483.1692650804
 30
0.0
 11
903.9759029754
 21
483.1876456628
 31
0.0
  0
LINE
  5
213
330
1F
100
AcDbEntity
  8
0
  6
Continuous
 62
     7
370
    25
100
AcDbLine
 10
901.3842930206
 20
429.3732717523
 30
0.0
 11
901.5182842621
 21
429.0658458957
 31
0.0
  0
SPLINE
  5
214
330
1F
100
AcDbEntity
  8
0
  6
Continuous
 62
     7
370
    25
100
AcDbSpline
210
0.0
220
0.0
230
1.0
 70
     8
 71
     3
 72
     9
 73
     5
 74
     0
 42
0.000000001
 43
0.00000001
 40
0.0
 40
0.0
 40
0.0
 40
0.0
 40
0.5005575780953391
 40
0.9999999999999999
 40
0.9999999999999999
 40
0.9999999999999999
 40
0.9999999999999999
 10
901.5182842620582
 20
429.0658458957483
 30
0.0
 10
901.410830826468
 20
428.9727796006245
 30
0.0
 10
901.1961633430607
 20
428.7868543460755
 30
0.0
 10
901.0010760401718
 20
428.6910718866441
 30
0.0
 10
900.9036411651344
 20
428.6432340631296
 30
0.0
  0
SPLINE
  5
215
330
1F
100
AcDbEntity
  8
0
  6
Continuous
 62
     7
370
    25
100
AcDbSpline
210
0.0
220
0.0
230
1.0
 70
     8
 71
     3
 72
     9
 73
     5
 74
     0
 42
0.000000001
 43
0.00000001
 40
0.0
 40
0.0
 40
0.0
 40
0.0
 40
0.4996345835157502
 40
1.0
 40
1.0
 40
1.0
 40
1.0
 10
900.9036411651343
 20
428.6432191619684
 30
0.0
 10
900.7924060850966
 20
428.6128264567177
 30
0.0
 10
900.5697732175822
 20
428.5519965897439
 30
0.0
 10
900.4779001247438
 20
428.6806203236004
 30
0.0
 10
900.4319300063819
 20
428.7449791917612
 30
0.0
  0
SPLINE
  5
216
330
1F
100
AcDbEntity
  8
0
  6
Continuous
 62
     7
370
    25
100
AcDbSpline
210
0.0
220
0.0
230
1.0
 70
     8
 71
     3
 72
    14
 73
    10
 74
     0
 42
0.000000001
 43
0.00000001
 40
0.0
 40
0.0
 40
0.0
 40
0.0
 40
0.2497281877179903
 40
0.4990580838079218
 40
0.6242982105451704
 40
0.7494706591283905
 40
0.8746039716838752
 40
0.9372823094224042
 40
1.0
 40
1.0
 40
1.0
 40
1.0
 10
900.431930006382
 20
428.7449791917612
 30
0.0
 10
900.4107460855843
 20
428.8189099421112
 30
0.0
 10
900.3684120302356
 20
428.9666535306158
 30
0.0
 10
900.4521988179571
 20
429.2661747905561
 30
0.0
 10
900.5714140502585
 20
429.5219935380344
 30
0.0
 10
900.6894391810566
 20
429.7208583309283
 30
0.0
 10
900.8111997247614
 20
429.883425588541
 30
0.0
 10
900.9182054533005
 20
430.0062616494513
 30
0.0
 10
900.9746114465257
 20
430.0639903292172
 30
0.0
 10
901.0028232940406
 20
430.0928637275507
 30
0.0
  0
SPLINE
  5
217
330
1F
100
AcDbEntity
  8
0
  6
Continuous
 62
     7
370
    25
100
AcDbSpline
210
0.0
220
0.0
230
1.0
 70
     8
 71
     3
 72
    11
 73
     7
 74
     0
 42
0.000000001
 43
0.00000001
 40
0.0
 40
0.0
 40
0.0
 40
0.0
 40
0.2499004507856593
 40
0.4997188344470594
 40
0.7496680756114029
 40
1.0
 40
1.0
 40
1.0
 40
1.0
 10
901.0028232940407
 20
430.0928637275507
 30
0.0
 10
901.0749717587615
 20
430.1592912122013
 30
0.0
 10
901.2192449947001
 20
430.2921243667654
 30
0.0
 10
901.4394883198928
 20
430.423049959417
 30
0.0
 10
901.638241157073
 20
430.4924798125082
 30
0.0
 10
901.741944966658
 20
430.4892144943659
 30
0.0
 10
901.7938365348548
 20
430.4875805864145
 30
0.0
  0
SPLINE
  5
218
330
1F
100
AcDbEntity
  8
0
  6
Continuous
 62
     7
370
    25
100
AcDbSpline
210
0.0
220
0.0
230
1.0
 70
     8
 71
     3
 72
    11
 73
     7
 74
     0
 42
0.000000001
 43
0.00000001
 40
0.0
 40
0.0
 40
0.0
 40
0.0
 40
0.2502404070745096
 40
0.5001334114132169
 40
0.7499182582993452
 40
1.0
 40
1.0
 40
1.0
 40
1.0
 10
901.7938365348548
 20
430.4875805864145
 30
0.0
 10
901.8012277458218
 20
430.5684101713584
 30
0.0
 10
901.8159999067159
 20
430.7299571274783
 30
0.0
 10
901.9445308182957
 20
431.0367008653495
 30
0.0
 10
902.1465041982062
 20
431.3569853322359
 30
0.0
 10
902.3228282446267
 20
431.5448441840022
 30
0.0
 10
902.411042631504
 20
431.63882939909
 30
0.0
  0
SPLINE
  5
219
330
1F
100
AcDbEntity
  8
0
  6
Continuous
 62
     7
370
    25
100
AcDbSpline
210
0.0
220
0.0
230
1.0
 70
     8
 71
     3
 72
    14
 73
    10
 74
     0
 42
0.000000001
 43
0.00000001
 40
0.0
 40
0.0
 40
0.0
 40
0.0
 40
0.1250758169283238
 40
0.2500922431830473
 40
0.3751115529453419
 40
0.5002229872999151
 40
0.6253070806176441
 40
0.7504360371520253
 40
1.0
 40
1.0
 40
1.0
 40
1.0
 10
902.411042631504
 20
431.63882939909
 30
0.0
 10
902.4817787352085
 20
431.7057787903066
 30
0.0
 10
902.6232173544718
 20
431.8396457826661
 30
0.0
 10
902.8438438980805
 20
431.9989078420189
 30
0.0
 10
903.056202221635
 20
432.1121839509649
 30
0.0
 10
903.2524546740854
 20
432.1798989999616
 30
0.0
 10
903.4241660484485
 20
432.2015152622751
 30
0.0
 10
903.6151578882495
 20
432.1714608355495
 30
0.0
 10
903.6862555472462
 20
432.0678955481943
 30
0.0
 10
903.7336100944251
 20
431.9989159593393
 30
0.0
  0
SPLINE
  5
21A
330
1F
100
AcDbEntity
  8
0
  6
Continuous
 62
     7
370
    25
100
AcDbSpline
210
0.0
220
0.0
230
1.0
 70
     8
 71
     3
 72
    13
 73
     9
 74
     0
 42
0.000000001
 43
0.00000001
 40
0.0
 40
0.0
 40
0.0
 40
0.0
 40
0.2495855347445209
 40
0.3747660071505464
 40
0.4999165783215604
 40
0.6240354802703713
 40
0.7502524902047917
 40
1.0
 40
1.0
 40
1.0
 40
1.0
 10
903.7336100944252
 20
431.9989159593393
 30
0.0
 10
903.7584524638788
 20
431.9116698908657
 30
0.0
 10
903.7957546080828
 20
431.7806652605095
 30
0.0
 10
903.7317945541939
 20
431.5239856760432
 30
0.0
 10
903.6416447170153
 20
431.3103390680465
 30
0.0
 10
903.5113844924587
 20
431.0817747972204
 30
0.0
 10
903.2938793112955
 20
430.77017292856
 30
0.0
 10
903.0928361002078
 20
430.5511216980441
 30
0.0
 10
902.959286154148
 20
430.4056092986872
 30
0.0
  0
LINE
  5
21B
330
1F
100
AcDbEntity
  8
0
  6
Continuous
 62
     7
370
    25
100
AcDbLine
 10
902.9592861541
 20
430.4056092987
 30
0.0
 11
902.8248180755
 21
430.7193830499
 31
0.0
  0
SPLINE
  5
21C
330
1F
100
AcDbEntity
  8
0
  6
Continuous
 62
     7
370
    25
100
AcDbSpline
210
0.0
220
0.0
230
1.0
 70
     8
 71
     3
 72
    12
 73
     8
 74
     0
 42
0.000000001
 43
0.00000001
 40
0.0
 40
0.0
 40
0.0
 40
0.0
 40
0.2503709854046007
 40
0.4996343586310038
 40
0.6247958012793824
 40
0.7501755505392322
 40
1.0
 40
1.0
 40
1.0
 40
1.0
 10
902.8248180755347
 20
430.719383049946
 30
0.0
 10
902.884320220588
 20
430.7887051457989
 30
0.0
 10
903.0030612801121
 20
430.927042664599
 30
0.0
 10
903.1219122473005
 20
431.1132892576118
 30
0.0
 10
903.1774058686096
 20
431.2478157240633
 30
0.0
 10
903.2067109091071
 20
431.3694269877649
 30
0.0
 10
903.189282220374
 20
431.4309990829757
 30
0.0
 10
903.177677572605
 20
431.4719959983637
 30
0.0
  0
SPLINE
  5
21D
330
1F
100
AcDbEntity
  8
0
  6
Continuous
 62
     7
370
    25
100
AcDbSpline
210
0.0
220
0.0
230
1.0
 70
     8
 71
     3
 72
    12
 73
     8
 74
     0
 42
0.000000001
 43
0.00000001
 40
0.0
 40
0.0
 40
0.0
 40
0.0
 40
0.2501486623533916
 40
0.4997689121941531
 40
0.6262917089639208
 40
0.7505339232624085
 40
1.0
 40
1.0
 40
1.0
 40
1.0
 10
903.177677572605
 20
431.4719959983637
 30
0.0
 10
903.1558763956787
 20
431.5021108094833
 30
0.0
 10
903.1123200944986
 20
431.5622768173787
 30
0.0
 10
902.9865661796468
 20
431.5521131161883
 30
0.0
 10
902.8706090263412
 20
431.5068808317367
 30
0.0
 10
902.743768465062
 20
431.4348940153528
 30
0.0
 10
902.6474307421396
 20
431.3473468579685
 30
0.0
 10
902.5831212409705
 20
431.2889054307749
 30
0.0
  0
SPLINE
  5
21E
330
1F
100
AcDbEntity
  8
0
  6
Continuous
 62
     7
370
    25
100
AcDbSpline
210
0.0
220
0.0
230
1.0
 70
     8
 71
     3
 72
    13
 73
     9
 74
     0
 42
0.000000001
 43
0.00000001
 40
0.0
 40
0.0
 40
0.0
 40
0.0
 40
0.1244693255514047
 40
0.2497270788657041
 40
0.3738581910087595
 40
0.5000452531006127
 40
0.7495793919018453
 40
1.0
 40
1.0
 40
1.0
 40
1.0
 10
902.5831212409706
 20
431.2889054307748
 30
0.0
 10
902.5430429557383
 20
431.2463847789527
 30
0.0
 10
902.4626325168397
 20
431.1610741361581
 30
0.0
 10
902.3642375191849
 20
431.0175123907911
 30
0.0
 10
902.2932287209057
 20
430.8774642354695
 30
0.0
 10
902.2297328497017
 20
430.7030422214369
 30
0.0
 10
902.2144766554331
 20
430.5217891742766
 30
0.0
 10
902.248106773407
 20
430.4225296190336
 30
0.0
 10
902.2649516471595
 20
430.3728118428995
 30
0.0
  0
LINE
  5
21F
330
1F
100
AcDbEntity
  8
0
  6
Continuous
 62
     7
370
    25
100
AcDbLine
 10
902.2649516472
 20
430.3728118429
 30
0.0
 11
901.7527689346
 21
429.863922287
 31
0.0
  0
SPLINE
  5
220
330
1F
100
AcDbEntity
  8
0
  6
Continuous
 62
     7
370
    25
100
AcDbSpline
210
0.0
220
0.0
230
1.0
 70
     8
 71
     3
 72
    14
 73
    10
 74
     0
 42
0.000000001
 43
0.00000001
 40
0.0
 40
0.0
 40
0.0
 40
0.0
 40
0.250480481301083
 40
0.4998634011222453
 40
0.6270683375930833
 40
0.7498651828334111
 40
0.8748264283614826
 40
0.9373792190833914
 40
1.0
 40
1.0
 40
1.0
 40
1.0
 10
901.7527689346045
 20
429.8639222869684
 30
0.0
 10
901.7309964197296
 20
429.8920191425349
 30
0.0
 10
901.6875467933164
 20
429.9480897381812
 30
0.0
 10
901.6008339758725
 20
429.9871140721501
 30
0.0
 10
901.4988838191329
 20
429.9690986966408
 30
0.0
 10
901.4104503434967
 20
429.9310035632283
 30
0.0
 10
901.331061836471
 20
429.8805207414108
 30
0.0
 10
901.2666998638687
 20
429.8278075206807
 30
0.0
 10
901.2353489587077
 20
429.7978280466849
 30
0.0
 10
901.2196649917335
 20
429.7828301677515
 30
0.0
  0
SPLINE
  5
221
330
1F
100
AcDbEntity
  8
0
  6
Continuous
 62
     7
370
    25
100
AcDbSpline
210
0.0
220
0.0
230
1.0
 70
     8
 71
     3
 72
    13
 73
     9
 74
     0
 42
0.000000001
 43
0.00000001
 40
0.0
 40
0.0
 40
0.0
 40
0.0
 40
0.2492127500508179
 40
0.3727707886150389
 40
0.4995373032816922
 40
0.625182425026471
 40
0.7500021512831873
 40
1.0
 40
1.0
 40
1.0
 40
1.0
 10
901.2196649917336
 20
429.7828301677515
 30
0.0
 10
901.1794615657799
 20
429.7394787783045
 30
0.0
 10
901.119325546275
 20
429.6746340557596
 30
0.0
 10
901.0593812036302
 20
429.5793290005474
 30
0.0
 10
901.0255294752151
 20
429.51023106808
 30
0.0
 10
901.0031296844526
 20
429.4456379119965
 30
0.0
 10
900.9898263251664
 20
429.3691813803611
 30
0.0
 10
901.0020209971946
 20
429.3303459522119
 30
0.0
 10
901.010154665348
 20
429.3044432887842
 30
0.0
  0
SPLINE
  5
222
330
1F
100
AcDbEntity
  8
0
  6
Continuous
 62
     7
370
    25
100
AcDbSpline
210
0.0
220
0.0
230
1.0
 70
     8
 71
     3
 72
    12
 73
     8
 74
     0
 42
0.000000001
 43
0.00000001
 40
0.0
 40
0.0
 40
0.0
 40
0.0
 40
0.2498541530993757
 40
0.4996506045782542
 40
0.7494328279467622
 40
0.8746401971626072
 40
1.0
 40
1.0
 40
1.0
 40
1.0
 10
901.010154665348
 20
429.3044432887842
 30
0.0
 10
901.0247510030765
 20
429.2846879747815
 30
0.0
 10
901.0539403076378
 20
429.2451819090922
 30
0.0
 10
901.1446798566599
 20
429.2456569834779
 30
0.0
 10
901.2373261786731
 20
429.2776636025624
 30
0.0
 10
901.3200841245798
 20
429.3261890181865
 30
0.0
 10
901.3628813766308
 20
429.357571143804
 30
0.0
 10
901.3842930206031
 20
429.3732717523386
 30
0.0
  0
SPLINE
  5
223
330
1F
100
AcDbEntity
  8
0
  6
Continuous
 62
     7
370
    25
100
AcDbSpline
210
0.0
220
0.0
230
1.0
 70
     8
 71
     3
 72
     9
 73
     5
 74
     0
 42
0.000000001
 43
0.00000001
 40
0.0
 40
0.0
 40
0.0
 40
0.0
 40
0.5020367117068159
 40
1.0
 40
1.0
 40
1.0
 40
1.0
 10
901.0028232940406
 20
430.0928637275507
 30
0.0
 10
901.0016682757084
 20
430.0938352710367
 30
0.0
 10
900.9993676106268
 20
430.0957704751032
 30
0.0
 10
900.997098629296
 20
430.0977294734701
 30
0.0
 10
900.9959687598914
 20
430.0987049827387
 30
0.0
  0
SPLINE
  5
224
330
1F
100
AcDbEntity
  8
0
  6
Continuous
 62
     7
370
    25
100
AcDbSpline
210
0.0
220
0.0
230
1.0
 70
    24
 71
     3
 72
     9
 73
     5
 74
     0
 42
0.000000001
 43
0.00000001
 40
0.0
 40
0.0
 40
0.0
 40
0.0
 40
0.4998502819877604
 40
0.9999999999999999
 40
0.9999999999999999
 40
0.9999999999999999
 40
0.9999999999999999
 10
900.431930006382
 20
428.7449791917612
 30
0.0
 10
900.430777477491
 20
428.7459826867438
 30
0.0
 10
900.4284717292853
 20
428.7479902778541
 30
0.0
 10
900.4261680514219
 20
428.7499960663386
 30
0.0
 10
900.425015867588
 20
428.7509992608835
 30
0.0
  0
SPLINE
  5
225
330
1F
100
AcDbEntity
  8
0
  6
Continuous
 62
     7
370
    25
100
AcDbSpline
210
0.0
220
0.0
230
1.0
 70
     8
 71
     3
 72
     9
 73
     5
 74
     0
 42
0.000000001
 43
0.00000001
 40
0.0
 40
0.0
 40
0.0
 40
0.0
 40
0.5026238017217333
 40
1.0
 40
1.0
 40
1.0
 40
1.0
 10
902.411042631504
 20
431.63882939909
 30
0.0
 10
902.4098882846944
 20
431.6398016217384
 30
0.0
 10
902.4075916429401
 20
431.6417359166226
 30
0.0
 10
902.4053186366048
 20
431.6436858851726
 30
0.0
 10
902.4041880973548
 20
431.6446557531168
 30
0.0
  0
SPLINE
  5
226
330
1F
100
AcDbEntity
  8
0
  6
Continuous
 62
     7
370
    25
100
AcDbSpline
210
0.0
220
0.0
230
1.0
 70
     8
 71
     3
 72
     9
 73
     5
 74
     0
 42
0.000000001
 43
0.00000001
 40
0.0
 40
0.0
 40
0.0
 40
0.0
 40
0.497956016488103
 40
1.0
 40
1.0
 40
1.0
 40
1.0
 10
901.7938365348548
 20
430.4875805864145
 30
0.0
 10
901.7927066571342
 20
430.4885710340185
 30
0.0
 10
901.7904376259685
 20
430.4905600603005
 30
0.0
 10
901.7881370107394
 20
430.492524841826
 30
0.0
 10
901.7869820007056
 20
430.4935112485697
 30
0.0
  0
LINE
  5
227
330
1F
100
AcDbEntity
  8
0
  6
Continuous
 62
     7
370
    25
100
AcDbLine
 10
901.7527689346
 20
429.863922287
 30
0.0
 11
901.7458547958
 21
429.8699721584
 31
0.0
  0
SPLINE
  5
228
330
1F
100
AcDbEntity
  8
0
  6
Continuous
 62
     7
370
    25
100
AcDbSpline
210
0.0
220
0.0
230
1.0
 70
     8
 71
     3
 72
     9
 73
     5
 74
     0
 42
0.000000001
 43
0.00000001
 40
0.0
 40
0.0
 40
0.0
 40
0.0
 40
0.5005968937913992
 40
1.0
 40
1.0
 40
1.0
 40
1.0
 10
903.177677572605
 20
431.4719959983637
 30
0.0
 10
903.1765259056182
 20
431.4729999891131
 30
0.0
 10
903.174225318057
 20
431.4750055763671
 30
0.0
 10
903.1719164764706
 20
431.4770034313437
 30
0.0
 10
903.1707634338111
 20
431.4780011663248
 30
0.0
  0
SPLINE
  5
229
330
1F
100
AcDbEntity
  8
0
  6
Continuous
 62
     7
370
    25
100
AcDbSpline
210
0.0
220
0.0
230
1.0
 70
     8
 71
     3
 72
     9
 73
     5
 74
     0
 42
0.000000001
 43
0.00000001
 40
0.0
 40
0.0
 40
0.0
 40
0.0
 40
0.5020657861714244
 40
1.0
 40
1.0
 40
1.0
 40
1.0
 10
901.3842930206031
 20
429.3732717523386
 30
0.0
 10
901.383118208621
 20
429.3742829207138
 30
0.0
 10
901.3807782523562
 20
429.3762969364126
 30
0.0
 10
901.3784690887359
 20
429.3783360711523
 30
0.0
 10
901.3773192771644
 20
429.3793514261057
 30
0.0
  0
LINE
  5
22A
330
1F
100
AcDbEntity
  8
0
  6
Continuous
 62
     7
370
    25
100
AcDbLine
 10
902.8248180755
 20
430.7193830499
 30
0.0
 11
902.8178443321
 21
430.7254776249
 31
0.0
  0
SPLINE
  5
22B
330
1F
100
AcDbEntity
  8
0
  6
Continuous
 62
     7
370
    25
100
AcDbSpline
210
0.0
220
0.0
230
1.0
 70
     8
 71
     3
 72
     9
 73
     5
 74
     0
 42
0.000000001
 43
0.00000001
 40
0.0
 40
0.0
 40
0.0
 40
0.0
 40
0.498378741463972
 40
0.9999999999999999
 40
0.9999999999999999
 40
0.9999999999999999
 40
0.9999999999999999
 10
902.9592861541481
 20
430.4056092986871
 30
0.0
 10
902.9581368604362
 20
430.4066453397708
 30
0.0
 10
902.9558307955573
 20
430.4087241625564
 30
0.0
 10
902.9534877381262
 20
430.4107680321466
 30
0.0
 10
902.9523124107093
 20
430.4117932805826
 30
0.0
  0
LWPOLYLINE
  5
22C
330
1F
100
AcDbEntity
  8
0
  6
Continuous
 62
     7
370
    25
100
AcDbPolyline
 90
        9
 70
   128
 43
0.0
 10
906.2646021255
 20
479.6747043619
 10
907.886086882
 20
476.1974364409
 10
909.5273007759
 20
472.6778715739
 10
911.1816872963
 20
469.129934896
 10
912.8428091415
 20
465.5676483998
 10
914.504050196
 20
462.0051085839
 10
916.1588539489
 20
458.4564044962
 10
917.8006638893
 20
454.9355655799
 10
919.4229831108
 20
451.4565244207
  0
LWPOLYLINE
  5
22D
330
1F
100
AcDbEntity
  8
0
  6
Continuous
 62
     7
370
    25
100
AcDbPolyline
 90
        9
 70
   128
 43
0.0
 10
904.8968543419
 20
482.6078489313
 10
904.9553264984
 20
482.4824258575
 10
905.0470580467
 20
482.2856858263
 10
905.1716913589
 20
482.0184707532
 10
905.3286303886
 20
481.6818982253
 10
905.5172790893
 20
481.2773913035
 10
905.7367433914
 20
480.8066487202
 10
905.9862484344
 20
480.2716746816
 10
906.2646021255
 20
479.6747043619
  0
SPLINE
  5
22E
330
1F
100
AcDbEntity
  8
0
  6
Continuous
 62
     7
370
    25
100
AcDbSpline
210
0.0
220
0.0
230
1.0
 70
     8
 71
     3
 72
    11
 73
     7
 74
     0
 42
0.000000001
 43
0.00000001
 40
0.0
 40
0.0
 40
0.0
 40
0.0
 40
0.2932931287657896
 40
0.5865817953739892
 40
0.8804918272780421
 40
1.0
 40
1.0
 40
1.0
 40
1.0
 10
903.9759029754371
 20
483.1876456627657
 30
0.0
 10
904.088594607781
 20
483.177972765946
 30
0.0
 10
904.3139761579804
 20
483.1586271194698
 30
0.0
 10
904.6147254944228
 20
482.9894278652174
 30
0.0
 10
904.8031763829267
 20
482.7888286081402
 30
0.0
 10
904.875847159308
 20
482.6484334311403
 30
0.0
 10
904.8968543418616
 20
482.6078489312937
 30
0.0
  0
LWPOLYLINE
  5
22F
330
1F
100
AcDbEntity
  8
0
  6
Continuous
 62
     7
370
    25
100
AcDbPolyline
 90
        5
 70
   128
 43
0.0
 10
919.4229831108
 20
451.4565244207
 10
920.0189699539
 20
450.1784071216
 10
920.4540838608
 20
449.2452964077
 10
920.7185496696
 20
448.6781284103
 10
920.8064665207
 20
448.4895840177
  0
LINE
  5
230
330
1F
100
AcDbEntity
  8
0
  6
Continuous
 62
     7
370
    25
100
AcDbLine
 10
884.1768493065
 20
453.5817652831
 30
0.0
 11
885.1245631584
 21
454.0236145148
 31
0.0
  0
LINE
  5
231
330
1F
100
AcDbEntity
  8
0
  6
Continuous
 62
     7
370
    25
100
AcDbLine
 10
884.1921677002
 20
453.5941854009
 30
0.0
 11
885.1225366005
 21
454.0280178079
 31
0.0
  0
LINE
  5
232
330
1F
100
AcDbEntity
  8
0
  6
Continuous
 62
     7
370
    25
100
AcDbLine
 10
886.1958374389
 20
451.7262205372
 30
0.0
 11
885.2530707725
 21
451.3064548263
 31
0.0
  0
LINE
  5
233
330
1F
100
AcDbEntity
  8
0
  6
Continuous
 62
     7
370
    25
100
AcDbLine
 10
887.452601374
 20
449.0311071167
 30
0.0
 11
885.638414801
 21
448.189266015
 31
0.0
  0
SPLINE
  5
234
330
1F
100
AcDbEntity
  8
0
  6
Continuous
 62
     7
370
    25
100
AcDbSpline
210
0.0
220
0.0
230
1.0
 70
     8
 71
     3
 72
    16
 73
    12
 74
     0
 42
0.000000001
 43
0.00000001
 40
0.0
 40
0.0
 40
0.0
 40
0.0
 40
0.0048134526455357
 40
0.1292714534019318
 40
0.2537184746052778
 40
0.3781520630949549
 40
0.5025802849936855
 40
0.6270024829919111
 40
0.751423695977925
 40
0.8759390215278674
 40
1.0
 40
1.0
 40
1.0
 40
1.0
 10
874.9186982520789
 20
482.5304373988916
 30
0.0
 10
874.9161707870801
 20
482.5304636925661
 30
0.0
 10
874.8482924681475
 20
482.5311698429664
 30
0.0
 10
875.0704188188121
 20
482.5263622215149
 30
0.0
 10
875.5937205195468
 20
482.5206283858365
 30
0.0
 10
876.4369015687691
 20
482.5291342490152
 30
0.0
 10
877.4154053302018
 20
482.5672263424557
 30
0.0
 10
878.3967164555773
 20
482.6367503158239
 30
0.0
 10
879.2192501910741
 20
482.7201473624463
 30
0.0
 10
879.791872850804
 20
482.7930236493411
 30
0.0
 10
879.8663325155169
 20
482.804008872413
 30
0.0
 10
879.9034942992896
 20
482.8094914445688
 30
0.0
  0
LINE
  5
235
330
1F
100
AcDbEntity
  8
0
  6
Continuous
 62
     7
370
    25
100
AcDbLine
 10
904.8968543419
 20
482.6078489313
 30
0.0
 11
904.8954238304
 21
482.6109409222
 31
0.0
  0
LINE
  5
236
330
1F
100
AcDbEntity
  8
0
  6
Continuous
 62
     7
370
    25
100
AcDbLine
 10
170.2218492635
 20
229.4160053024
 30
0.0
 11
117.2218461641
 21
229.4160053024
 31
0.0
  0
LINE
  5
237
330
1F
100
AcDbEntity
  8
0
  6
Continuous
 62
     7
370
    25
100
AcDbLine
 10
172.2218384155
 20
235.4159876594
 30
0.0
 11
115.221842111
 21
235.4159876594
 31
0.0
  0
LINE
  5
238
330
1F
100
AcDbEntity
  8
0
  6
Continuous
 62
     7
370
    25
100
AcDbLine
 10
751.2218346008
 20
235.4159876594
 30
0.0
 11
694.2218531975
 21
235.4159876594
 31
0.0
  0
LINE
  5
239
330
1F
100
AcDbEntity
  8
0
  6
Continuous
 62
     7
370
    25
100
AcDbLine
 10
749.22186035
 20
229.4160053024
 30
0.0
 11
696.2218274482
 21
229.4160053024
 31
0.0
  0
LINE
  5
23A
330
1F
100
AcDbEntity
  8
0
  6
Continuous
 62
     7
370
    25
100
AcDbLine
 10
98.7218459257
 20
327.4159952888
 30
0.0
 11
98.7218459257
 21
329.1159942636
 31
0.0
  0
LINE
  5
23B
330
1F
100
AcDbEntity
  8
0
  6
Continuous
 62
     7
370
    25
100
AcDbLine
 10
188.721849502
 20
327.4159952888
 30
0.0
 11
188.721849502
 21
329.1159942636
 31
0.0
  0
LINE
  5
23C
330
1F
100
AcDbEntity
  8
0
  6
Continuous
 62
     7
370
    25
100
AcDbLine
 10
98.7218459257
 20
327.4159952888
 30
0.0
 11
188.721849502
 21
327.4159952888
 31
0.0
  0
LINE
  5
23D
330
1F
100
AcDbEntity
  8
0
  6
Continuous
 62
     7
370
    25
100
AcDbLine
 10
174.681498588
 20
264.4160017261
 30
0.0
 11
112.7621968397
 21
264.4160017261
 31
0.0
  0
LINE
  5
23E
330
1F
100
AcDbEntity
  8
0
  6
Continuous
 62
     7
370
    25
100
AcDbLine
 10
767.7218307861
 20
327.4159952888
 30
0.0
 11
767.7218307861
 21
329.1159942636
 31
0.0
  0
LINE
  5
23F
330
1F
100
AcDbEntity
  8
0
  6
Continuous
 62
     7
370
    25
100
AcDbLine
 10
677.7218570121
 20
327.4159952888
 30
0.0
 11
767.7218307861
 21
327.4159952888
 31
0.0
  0
LINE
  5
240
330
1F
100
AcDbEntity
  8
0
  6
Continuous
 62
     7
370
    25
100
AcDbLine
 10
677.7218570121
 20
327.4159952888
 30
0.0
 11
677.7218570121
 21
329.1159942636
 31
0.0
  0
LINE
  5
241
330
1F
100
AcDbEntity
  8
0
  6
Continuous
 62
     7
370
    25
100
AcDbLine
 10
753.6814798721
 20
264.4160017261
 30
0.0
 11
691.7622079262
 21
264.4160017261
 31
0.0
  0
LINE
  5
242
330
1F
100
AcDbEntity
  8
0
  6
Continuous
 62
     7
370
    25
100
AcDbLine
 10
691.4289583572
 20
266.4160057792
 30
0.0
 11
175.0147332557
 21
266.4160057792
 31
0.0
  0
LINE
  5
243
330
1F
100
AcDbEntity
  8
0
  6
Continuous
 62
     7
370
    25
100
AcDbLine
 10
238.9218499073
 20
289.6159812698
 30
0.0
 11
238.9218499073
 21
329.1159942636
 31
0.0
  0
LINE
  5
244
330
1F
100
AcDbEntity
  8
0
  6
Continuous
 62
     7
370
    25
100
AcDbLine
 10
297.9218353637
 20
329.1159942636
 30
0.0
 11
297.9218353637
 21
289.6159812698
 31
0.0
  0
LINE
  5
245
330
1F
100
AcDbEntity
  8
0
  6
Continuous
 62
     7
370
    25
100
AcDbLine
 10
316.9218589672
 20
289.6159812698
 30
0.0
 11
316.9218589672
 21
329.1159942636
 31
0.0
  0
ARC
  5
246
330
1F
100
AcDbEntity
  8
0
  6
Continuous
 62
     7
370
    25
100
AcDbCircle
 10
318.9218456377
 20
289.6159956227
 30
0.0
 40
2.0
100
AcDbArc
 50
180.0
 51
270.0
  0
ARC
  5
247
330
1F
100
AcDbEntity
  8
0
  6
Continuous
 62
     7
370
    25
100
AcDbCircle
 10
334.9218456377
 20
289.6159956227
 30
0.0
 40
2.0
100
AcDbArc
 50
270.0
 51
0.0
  0
LINE
  5
248
330
1F
100
AcDbEntity
  8
0
  6
Continuous
 62
     7
370
    25
100
AcDbLine
 10
373.9218403705
 20
287.616007019
 30
0.0
 11
357.9218377479
 21
287.616007019
 31
0.0
  0
ARC
  5
249
330
1F
100
AcDbEntity
  8
0
  6
Continuous
 62
     7
370
    25
100
AcDbCircle
 10
373.9218456377
 20
289.6159956227
 30
0.0
 40
2.0
100
AcDbArc
 50
270.0
 51
0.0
  0
LINE
  5
24A
330
1F
100
AcDbEntity
  8
0
  6
Continuous
 62
     7
370
    25
100
AcDbLine
 10
433.9218427547
 20
289.6159812698
 30
0.0
 11
433.9218427547
 21
329.1159942636
 31
0.0
  0
LINE
  5
24B
330
1F
100
AcDbEntity
  8
0
  6
Continuous
 62
     7
370
    25
100
AcDbLine
 10
451.9218494304
 20
287.616007019
 30
0.0
 11
435.9218468078
 21
287.616007019
 31
0.0
  0
ARC
  5
24C
330
1F
100
AcDbEntity
  8
0
  6
Continuous
 62
     7
370
    25
100
AcDbCircle
 10
451.9218456377
 20
289.6159956227
 30
0.0
 40
2.0
100
AcDbArc
 50
270.0
 51
0.0
  0
LINE
  5
24D
330
1F
100
AcDbEntity
  8
0
  6
Continuous
 62
     7
370
    25
100
AcDbLine
 10
453.9218534836
 20
329.1159942636
 30
0.0
 11
453.9218534836
 21
289.6159812698
 31
0.0
  0
LINE
  5
24E
330
1F
100
AcDbEntity
  8
0
  6
Continuous
 62
     7
370
    25
100
AcDbLine
 10
472.9218472847
 20
289.6159812698
 30
0.0
 11
472.9218472847
 21
329.1159942636
 31
0.0
  0
LINE
  5
24F
330
1F
100
AcDbEntity
  8
0
  6
Continuous
 62
     7
370
    25
100
AcDbLine
 10
490.9218539604
 20
287.616007019
 30
0.0
 11
474.9218513378
 21
287.616007019
 31
0.0
  0
ARC
  5
250
330
1F
100
AcDbEntity
  8
0
  6
Continuous
 62
     7
370
    25
100
AcDbCircle
 10
490.9218456377
 20
289.6159956227
 30
0.0
 40
2.0
100
AcDbArc
 50
270.0
 51
0.0
  0
LINE
  5
251
330
1F
100
AcDbEntity
  8
0
  6
Continuous
 62
     7
370
    25
100
AcDbLine
 10
492.9218580135
 20
329.1159942636
 30
0.0
 11
492.9218580135
 21
289.6159812698
 31
0.0
  0
LINE
  5
252
330
1F
100
AcDbEntity
  8
0
  6
Continuous
 62
     7
370
    25
100
AcDbLine
 10
511.9218220123
 20
289.6159812698
 30
0.0
 11
511.9218220123
 21
329.1159942636
 31
0.0
  0
ARC
  5
253
330
1F
100
AcDbEntity
  8
0
  6
Continuous
 62
     7
370
    25
100
AcDbCircle
 10
513.9218456377
 20
289.6159956227
 30
0.0
 40
2.0
100
AcDbArc
 50
180.0
 51
270.0
  0
LINE
  5
254
330
1F
100
AcDbEntity
  8
0
  6
Continuous
 62
     7
370
    25
100
AcDbLine
 10
529.921828688
 20
287.616007019
 30
0.0
 11
513.9218558677
 21
287.616007019
 31
0.0
  0
ARC
  5
255
330
1F
100
AcDbEntity
  8
0
  6
Continuous
 62
     7
370
    25
100
AcDbCircle
 10
529.9218456377
 20
289.6159956227
 30
0.0
 40
2.0
100
AcDbArc
 50
270.0
 51
0.0
  0
ARC
  5
256
330
1F
100
AcDbEntity
  8
0
  6
Continuous
 62
     7
370
    25
100
AcDbCircle
 10
552.9218456377
 20
289.6159956227
 30
0.0
 40
2.0
100
AcDbArc
 50
180.0
 51
270.0
  0
LINE
  5
257
330
1F
100
AcDbEntity
  8
0
  6
Continuous
 62
     7
370
    25
100
AcDbLine
 10
568.9218630203
 20
287.616007019
 30
0.0
 11
552.9218305954
 21
287.616007019
 31
0.0
  0
LINE
  5
258
330
1F
100
AcDbEntity
  8
0
  6
Continuous
 62
     7
370
    25
100
AcDbLine
 10
607.9218377479
 20
287.616007019
 30
0.0
 11
591.9218649276
 21
287.616007019
 31
0.0
  0
ARC
  5
259
330
1F
100
AcDbEntity
  8
0
  6
Continuous
 62
     7
370
    25
100
AcDbCircle
 10
630.9218456377
 20
289.6159956227
 30
0.0
 40
2.0
100
AcDbArc
 50
180.0
 51
270.0
  0
LINE
  5
25A
330
1F
100
AcDbEntity
  8
0
  6
Continuous
 62
     7
370
    25
100
AcDbLine
 10
646.9218720802
 20
287.616007019
 30
0.0
 11
630.9218396553
 21
287.616007019
 31
0.0
  0
LINE
  5
25B
330
1F
100
AcDbEntity
  8
0
  6
Continuous
 62
     7
370
    25
100
AcDbLine
 10
648.921846331
 20
329.1159942636
 30
0.0
 11
648.921846331
 21
289.6159812698
 31
0.0
  0
LINE
  5
25C
330
1F
100
AcDbEntity
  8
0
  6
Continuous
 62
     7
370
    25
100
AcDbLine
 10
199.9218453773
 20
289.6159812698
 30
0.0
 11
199.9218453773
 21
329.1159942636
 31
0.0
  0
ARC
  5
25D
330
1F
100
AcDbEntity
  8
0
  6
Continuous
 62
     7
370
    25
100
AcDbCircle
 10
201.9218456377
 20
289.6159956227
 30
0.0
 40
2.000000000000057
100
AcDbArc
 50
180.0
 51
270.0
  0
LINE
  5
25E
330
1F
100
AcDbEntity
  8
0
  6
Continuous
 62
     7
370
    25
100
AcDbLine
 10
219.921841205
 20
329.1159942636
 30
0.0
 11
219.921841205
 21
289.6159812698
 31
0.0
  0
ARC
  5
25F
330
1F
100
AcDbEntity
  8
0
  6
Continuous
 62
     7
370
    25
100
AcDbCircle
 10
474.9218456377
 20
289.6159956227
 30
0.0
 40
2.000000000000057
100
AcDbArc
 50
180.0
 51
270.0
  0
ARC
  5
260
330
1F
100
AcDbEntity
  8
0
  6
Continuous
 62
     7
370
    25
100
AcDbCircle
 10
435.9218456377
 20
289.6159956227
 30
0.0
 40
2.0
100
AcDbArc
 50
180.0
 51
270.0
  0
ARC
  5
261
330
1F
100
AcDbEntity
  8
0
  6
Continuous
 62
     7
370
    25
100
AcDbCircle
 10
646.9218456377
 20
289.6159956227
 30
0.0
 40
2.0
100
AcDbArc
 50
270.0
 51
0.0
  0
LINE
  5
262
330
1F
100
AcDbEntity
  8
0
  6
Continuous
 62
     7
370
    25
100
AcDbLine
 10
256.921856583
 20
287.616007019
 30
0.0
 11
240.9218390592
 21
287.616007019
 31
0.0
  0
LINE
  5
263
330
1F
100
AcDbEntity
  8
0
  6
Continuous
 62
     7
370
    25
100
AcDbLine
 10
258.9218308338
 20
329.1159942636
 30
0.0
 11
258.9218308338
 21
289.6159812698
 31
0.0
  0
LINE
  5
264
330
1F
100
AcDbEntity
  8
0
  6
Continuous
 62
     7
370
    25
100
AcDbLine
 10
355.9218336948
 20
289.6159812698
 30
0.0
 11
355.9218336948
 21
329.1159942636
 31
0.0
  0
ARC
  5
265
330
1F
100
AcDbEntity
  8
0
  6
Continuous
 62
     7
370
    25
100
AcDbCircle
 10
568.9218456377
 20
289.6159956227
 30
0.0
 40
2.0
100
AcDbArc
 50
270.0
 51
0.0
  0
ARC
  5
266
330
1F
100
AcDbEntity
  8
0
  6
Continuous
 62
     7
370
    25
100
AcDbCircle
 10
279.9218456377
 20
289.6159956227
 30
0.0
 40
2.0
100
AcDbArc
 50
180.0
 51
270.0
  0
LINE
  5
267
330
1F
100
AcDbEntity
  8
0
  6
Continuous
 62
     7
370
    25
100
AcDbLine
 10
334.9218358406
 20
287.616007019
 30
0.0
 11
318.921833218
 21
287.616007019
 31
0.0
  0
ARC
  5
268
330
1F
100
AcDbEntity
  8
0
  6
Continuous
 62
     7
370
    25
100
AcDbCircle
 10
256.9218456377
 20
289.6159956227
 30
0.0
 40
2.0
100
AcDbArc
 50
270.0
 51
0.0
  0
LINE
  5
269
330
1F
100
AcDbEntity
  8
0
  6
Continuous
 62
     7
370
    25
100
AcDbLine
 10
570.9218372711
 20
329.1159942636
 30
0.0
 11
570.9218372711
 21
289.6159812698
 31
0.0
  0
ARC
  5
26A
330
1F
100
AcDbEntity
  8
0
  6
Continuous
 62
     7
370
    25
100
AcDbCircle
 10
591.9218456377
 20
289.6159956227
 30
0.0
 40
2.0
100
AcDbArc
 50
180.0
 51
270.0
  0
LINE
  5
26B
330
1F
100
AcDbEntity
  8
0
  6
Continuous
 62
     7
370
    25
100
AcDbLine
 10
336.9218398937
 20
329.1159942636
 30
0.0
 11
336.9218398937
 21
289.6159812698
 31
0.0
  0
ARC
  5
26C
330
1F
100
AcDbEntity
  8
0
  6
Continuous
 62
     7
370
    25
100
AcDbCircle
 10
240.9218456377
 20
289.6159956227
 30
0.0
 40
2.0
100
AcDbArc
 50
180.0
 51
270.0
  0
LINE
  5
26D
330
1F
100
AcDbEntity
  8
0
  6
Continuous
 62
     7
370
    25
100
AcDbLine
 10
628.9218654045
 20
289.6159812698
 30
0.0
 11
628.9218654045
 21
329.1159942636
 31
0.0
  0
ARC
  5
26E
330
1F
100
AcDbEntity
  8
0
  6
Continuous
 62
     7
370
    25
100
AcDbCircle
 10
607.9218456377
 20
289.6159956227
 30
0.0
 40
2.0
100
AcDbArc
 50
270.0
 51
0.0
  0
ARC
  5
26F
330
1F
100
AcDbEntity
  8
0
  6
Continuous
 62
     7
370
    25
100
AcDbCircle
 10
357.9218456377
 20
289.6159956227
 30
0.0
 40
2.0
100
AcDbArc
 50
180.0
 51
270.0
  0
LINE
  5
270
330
1F
100
AcDbEntity
  8
0
  6
Continuous
 62
     7
370
    25
100
AcDbLine
 10
375.9218444236
 20
329.1159942636
 30
0.0
 11
375.9218444236
 21
289.6159812698
 31
0.0
  0
LINE
  5
271
330
1F
100
AcDbEntity
  8
0
  6
Continuous
 62
     7
370
    25
100
AcDbLine
 10
531.9218625435
 20
329.1159942636
 30
0.0
 11
531.9218625435
 21
289.6159812698
 31
0.0
  0
LINE
  5
272
330
1F
100
AcDbEntity
  8
0
  6
Continuous
 62
     7
370
    25
100
AcDbLine
 10
589.9218310722
 20
289.6159812698
 30
0.0
 11
589.9218310722
 21
329.1159942636
 31
0.0
  0
LINE
  5
273
330
1F
100
AcDbEntity
  8
0
  6
Continuous
 62
     7
370
    25
100
AcDbLine
 10
217.921852053
 20
287.616007019
 30
0.0
 11
201.9218494304
 21
287.616007019
 31
0.0
  0
LINE
  5
274
330
1F
100
AcDbEntity
  8
0
  6
Continuous
 62
     7
370
    25
100
AcDbLine
 10
295.9218313106
 20
287.616007019
 30
0.0
 11
279.9218584903
 21
287.616007019
 31
0.0
  0
ARC
  5
275
330
1F
100
AcDbEntity
  8
0
  6
Continuous
 62
     7
370
    25
100
AcDbCircle
 10
217.9218456377
 20
289.6159956227
 30
0.0
 40
2.0
100
AcDbArc
 50
270.0
 51
0.0
  0
LINE
  5
276
330
1F
100
AcDbEntity
  8
0
  6
Continuous
 62
     7
370
    25
100
AcDbLine
 10
609.9218716034
 20
329.1159942636
 30
0.0
 11
609.9218716034
 21
289.6159812698
 31
0.0
  0
ARC
  5
277
330
1F
100
AcDbEntity
  8
0
  6
Continuous
 62
     7
370
    25
100
AcDbCircle
 10
295.9218456377
 20
289.6159956227
 30
0.0
 40
2.0
100
AcDbArc
 50
270.0
 51
0.0
  0
LINE
  5
278
330
1F
100
AcDbEntity
  8
0
  6
Continuous
 62
     7
370
    25
100
AcDbLine
 10
550.9218563446
 20
289.6159812698
 30
0.0
 11
550.9218563446
 21
329.1159942636
 31
0.0
  0
LINE
  5
279
330
1F
100
AcDbEntity
  8
0
  6
Continuous
 62
     7
370
    25
100
AcDbLine
 10
277.9218544372
 20
289.6159812698
 30
0.0
 11
277.9218544372
 21
329.1159942636
 31
0.0
  0
LINE
  5
27A
330
1F
100
AcDbEntity
  8
0
  6
Continuous
 62
     7
370
    25
100
AcDbLine
 10
752.2442926773
 20
257.4552222976
 30
0.0
 11
751.6442527183
 21
256.4159855137
 31
0.0
  0
LWPOLYLINE
  5
27B
330
1F
100
AcDbEntity
  8
0
  6
Continuous
 62
     7
370
    25
100
AcDbPolyline
 90
        8
 70
   128
 43
0.0
 10
751.0218610176
 20
258.1610008964
 10
751.1750449547
 20
258.0725476036
 10
751.47449869
 20
257.8996643314
 10
751.7369975456
 20
257.7481195221
 10
751.9523491272
 20
257.6237544308
 10
752.112447203
 20
257.531337429
 10
752.2109736809
 20
257.4744447956
 10
752.2442926773
 20
257.4552222976
  0
LWPOLYLINE
  5
27C
330
1F
100
AcDbEntity
  8
0
  6
Continuous
 62
     7
370
    25
100
AcDbPolyline
 90
        6
 70
   128
 43
0.0
 10
751.6442527183
 20
256.4159855137
 10
751.6109933265
 20
256.4352080116
 10
751.5124072441
 20
256.4921304474
 10
751.3523687729
 20
256.5845176468
 10
751.1369575866
 20
256.7088827381
 10
751.0218610176
 20
256.7753717193
  0
LINE
  5
27D
330
1F
100
AcDbEntity
  8
0
  6
Continuous
 62
     7
370
    25
100
AcDbLine
 10
754.6218623527
 20
312.6159831772
 30
0.0
 11
818.4130181679
 21
312.6159831772
 31
0.0
  0
SPLINE
  5
27E
330
1F
100
AcDbEntity
  8
0
  6
Continuous
 62
     7
370
    25
100
AcDbSpline
210
0.0
220
0.0
230
1.0
 70
     8
 71
     3
 72
    12
 73
     8
 74
     0
 42
0.000000001
 43
0.00000001
 40
0.0
 40
0.0
 40
0.0
 40
0.0
 40
0.2286719161723447
 40
0.45741605537776
 40
0.6861589739755312
 40
0.9148993828974181
 40
1.0
 40
1.0
 40
1.0
 40
1.0
 10
819.5923556693763
 20
310.5660006294062
 30
0.0
 10
819.502438975248
 20
310.8114763312563
 30
0.0
 10
819.3225771879801
 20
311.3025052652456
 30
0.0
 10
819.0526475031234
 20
311.9456406745541
 30
0.0
 10
818.782980026692
 20
312.4098356292085
 30
0.0
 10
818.569219220739
 20
312.5985949114291
 30
0.0
 10
818.4463383444274
 20
312.612273982676
 30
0.0
 10
818.4130181678505
 20
312.6159831771661
 30
0.0
  0
LINE
  5
27F
330
1F
100
AcDbEntity
  8
0
  6
Continuous
 62
     7
370
    25
100
AcDbLine
 10
819.5923556694
 20
291.8159887085
 30
0.0
 11
818.4130181679
 21
291.8159887085
 31
0.0
  0
SPLINE
  5
280
330
1F
100
AcDbEntity
  8
0
  6
Continuous
 62
     7
370
    25
100
AcDbSpline
210
0.0
220
0.0
230
1.0
 70
     8
 71
     3
 72
    16
 73
    12
 74
     0
 42
0.000000001
 43
0.00000001
 40
0.0
 40
0.0
 40
0.0
 40
0.0
 40
0.1246331487521461
 40
0.2443052954812771
 40
0.3609717850733608
 40
0.4776272683103718
 40
0.5961242456625815
 40
0.7165966310125457
 40
0.8383651500889584
 40
0.9725611408120497
 40
1.0
 40
1.0
 40
1.0
 40
1.0
 10
818.4130181678504
 20
291.8159887084772
 30
0.0
 10
815.6520815496194
 20
291.8356760479811
 30
0.0
 10
810.2401069419378
 20
291.8742670756722
 30
0.0
 10
802.2424894368262
 20
291.802733451948
 30
0.0
 10
794.4343640876256
 20
291.1329281763747
 30
0.0
 10
786.8054189364376
 20
289.4377014115037
 30
0.0
 10
779.3230821913432
 20
286.9453080786906
 30
0.0
 10
771.9168632759882
 20
283.9359487602807
 30
0.0
 10
764.2709384963325
 20
280.6105220797589
 30
0.0
 10
758.5483238660462
 20
278.0152888542596
 30
0.0
 10
755.1916804680225
 20
276.7675274063186
 30
0.0
 10
754.621862352726
 20
276.5557095298578
 30
0.0
  0
LINE
  5
281
330
1F
100
AcDbEntity
  8
0
  6
Continuous
 62
     7
370
    25
100
AcDbLine
 10
819.5923556694
 20
310.5660006294
 30
0.0
 11
819.5923556694
 21
291.8159887085
 31
0.0
  0
LINE
  5
282
330
1F
100
AcDbEntity
  8
0
  6
Continuous
 62
     7
370
    25
100
AcDbLine
 10
648.921846331
 20
312.6159831772
 30
0.0
 11
628.9218654045
 21
312.6159831772
 31
0.0
  0
LINE
  5
283
330
1F
100
AcDbEntity
  8
0
  6
Continuous
 62
     7
370
    25
100
AcDbLine
 10
609.9218716034
 20
312.6159831772
 30
0.0
 11
589.9218310722
 21
312.6159831772
 31
0.0
  0
LINE
  5
284
330
1F
100
AcDbEntity
  8
0
  6
Continuous
 62
     7
370
    25
100
AcDbLine
 10
570.9218372711
 20
312.6159831772
 30
0.0
 11
550.9218563446
 21
312.6159831772
 31
0.0
  0
LINE
  5
285
330
1F
100
AcDbEntity
  8
0
  6
Continuous
 62
     7
370
    25
100
AcDbLine
 10
531.9218625435
 20
312.6159831772
 30
0.0
 11
511.9218220123
 21
312.6159831772
 31
0.0
  0
LINE
  5
286
330
1F
100
AcDbEntity
  8
0
  6
Continuous
 62
     7
370
    25
100
AcDbLine
 10
492.9218580135
 20
312.6159831772
 30
0.0
 11
472.9218472847
 21
312.6159831772
 31
0.0
  0
LINE
  5
287
330
1F
100
AcDbEntity
  8
0
  6
Continuous
 62
     7
370
    25
100
AcDbLine
 10
453.9218534836
 20
312.6159831772
 30
0.0
 11
433.9218427547
 21
312.6159831772
 31
0.0
  0
LINE
  5
288
330
1F
100
AcDbEntity
  8
0
  6
Continuous
 62
     7
370
    25
100
AcDbLine
 10
375.9218444236
 20
312.6159831772
 30
0.0
 11
355.9218336948
 21
312.6159831772
 31
0.0
  0
LINE
  5
289
330
1F
100
AcDbEntity
  8
0
  6
Continuous
 62
     7
370
    25
100
AcDbLine
 10
336.9218398937
 20
312.6159831772
 30
0.0
 11
316.9218589672
 21
312.6159831772
 31
0.0
  0
LINE
  5
28A
330
1F
100
AcDbEntity
  8
0
  6
Continuous
 62
     7
370
    25
100
AcDbLine
 10
297.9218353637
 20
312.6159831772
 30
0.0
 11
277.9218544372
 21
312.6159831772
 31
0.0
  0
LINE
  5
28B
330
1F
100
AcDbEntity
  8
0
  6
Continuous
 62
     7
370
    25
100
AcDbLine
 10
258.9218308338
 20
312.6159831772
 30
0.0
 11
238.9218499073
 21
312.6159831772
 31
0.0
  0
LINE
  5
28C
330
1F
100
AcDbEntity
  8
0
  6
Continuous
 62
     7
370
    25
100
AcDbLine
 10
219.921841205
 20
312.6159831772
 30
0.0
 11
199.9218453773
 21
312.6159831772
 31
0.0
  0
LINE
  5
28D
330
1F
100
AcDbEntity
  8
0
  6
Continuous
 62
     7
370
    25
100
AcDbLine
 10
819.6630467781
 20
310.5660006294
 30
0.0
 11
820.4630603203
 21
310.5660006294
 31
0.0
  0
LINE
  5
28E
330
1F
100
AcDbEntity
  8
0
  6
Continuous
 62
     7
370
    25
100
AcDbLine
 10
820.4630603203
 20
310.5660006294
 30
0.0
 11
820.4630603203
 21
290.9780666122
 31
0.0
  0
LINE
  5
28F
330
1F
100
AcDbEntity
  8
0
  6
Continuous
 62
     7
370
    25
100
AcDbLine
 10
819.6630467781
 20
290.9780666122
 30
0.0
 11
820.4630603203
 21
290.9780666122
 31
0.0
  0
LINE
  5
290
330
1F
100
AcDbEntity
  8
0
  6
Continuous
 62
     7
370
    25
100
AcDbLine
 10
819.6630467781
 20
310.5660006294
 30
0.0
 11
819.6630467781
 21
290.9780666122
 31
0.0
  0
SPLINE
  5
291
330
1F
100
AcDbEntity
  8
0
  6
Continuous
 62
     7
370
    25
100
AcDbSpline
210
0.0
220
0.0
230
1.0
 70
     8
 71
     3
 72
    11
 73
     7
 74
     0
 42
0.000000001
 43
0.00000001
 40
0.0
 40
0.0
 40
0.0
 40
0.0
 40
0.2500027372135928
 40
0.5000021212946794
 40
0.7500053058196366
 40
1.0
 40
1.0
 40
1.0
 40
1.0
 10
818.4130181678504
 20
312.6159831771662
 30
0.0
 10
818.6816503639919
 20
312.5851700168652
 30
0.0
 10
819.218911153277
 20
312.5235441095409
 30
0.0
 10
819.8965244532917
 20
312.0494761499575
 30
0.0
 10
820.3706218357944
 20
311.3718753837219
 30
0.0
 10
820.4322478409206
 20
310.8346225065237
 30
0.0
 10
820.4630603202553
 20
310.5660006294061
 30
0.0
  0
SPLINE
  5
292
330
1F
100
AcDbEntity
  8
0
  6
Continuous
 62
     7
370
    25
100
AcDbSpline
210
0.0
220
0.0
230
1.0
 70
     8
 71
     3
 72
    10
 73
     6
 74
     0
 42
0.000000001
 43
0.00000001
 40
0.0
 40
0.0
 40
0.0
 40
0.0
 40
0.0710904870931422
 40
0.5355540767220504
 40
1.0
 40
1.0
 40
1.0
 40
1.0
 10
819.2348470100135
 20
311.4913627395441
 30
0.0
 10
819.2558731296579
 20
311.477976045885
 30
0.0
 10
819.4142715955244
 20
311.3771285393323
 30
0.0
 10
819.6008968152005
 20
311.048440435198
 30
0.0
 10
819.6423303864533
 20
310.7268118590522
 30
0.0
 10
819.6630467780799
 20
310.5660006294062
 30
0.0
  0
LINE
  5
293
330
1F
100
AcDbEntity
  8
0
  6
Continuous
 62
     7
370
    25
100
AcDbLine
 10
820.4630603203
 20
286.8159934768
 30
0.0
 11
819.6630467781
 21
286.8159934768
 31
0.0
  0
LINE
  5
294
330
1F
100
AcDbEntity
  8
0
  6
Continuous
 62
     7
370
    25
100
AcDbLine
 10
819.6630467781
 20
286.8159934768
 30
0.0
 11
819.6630467781
 21
290.9780666122
 31
0.0
  0
LINE
  5
295
330
1F
100
AcDbEntity
  8
0
  6
Continuous
 62
     7
370
    25
100
AcDbLine
 10
820.4630603203
 20
286.8159934768
 30
0.0
 11
820.4630603203
 21
290.9780666122
 31
0.0
  0
LINE
  5
296
330
1F
100
AcDbEntity
  8
0
  6
Continuous
 62
     7
370
    25
100
AcDbLine
 10
862.2486581215
 20
517.3018835375
 30
0.0
 11
846.0600962051
 21
509.7530335078
 31
0.0
  0
SPLINE
  5
297
330
1F
100
AcDbEntity
  8
0
  6
Continuous
 62
     7
370
    25
100
AcDbSpline
210
0.0
220
0.0
230
1.0
 70
     8
 71
     3
 72
    11
 73
     7
 74
     0
 42
0.000000001
 43
0.00000001
 40
0.0
 40
0.0
 40
0.0
 40
0.0
 40
0.2889799892346858
 40
0.5779539012948515
 40
0.86743840654552
 40
1.0
 40
1.0
 40
1.0
 40
1.0
 10
846.0600962051125
 20
509.7530335078051
 30
0.0
 10
845.7565551051698
 20
509.6627564366813
 30
0.0
 10
845.1494792886753
 20
509.482204192937
 30
0.0
 10
844.0009924957449
 20
509.721587567918
 30
0.0
 10
842.9664483576652
 20
510.1133803205303
 30
0.0
 10
842.3395006254707
 20
510.3802162871052
 30
0.0
 10
842.1425809272498
 20
510.4640275130083
 30
0.0
  0
SPLINE
  5
298
330
1F
100
AcDbEntity
  8
0
  6
Continuous
 62
     7
370
    25
100
AcDbSpline
210
0.0
220
0.0
230
1.0
 70
     8
 71
     3
 72
    11
 73
     7
 74
     0
 42
0.000000001
 43
0.00000001
 40
0.0
 40
0.0
 40
0.0
 40
0.0
 40
0.2888008978094128
 40
0.5776147027804089
 40
0.866934349969848
 40
1.0
 40
1.0
 40
1.0
 40
1.0
 10
842.1425809272498
 20
510.4640275130083
 30
0.0
 10
842.5902650488478
 20
510.327818279549
 30
0.0
 10
843.4856533000536
 20
510.0553937251332
 30
0.0
 10
844.632824034282
 20
509.5554000127952
 30
0.0
 10
845.3076938965565
 20
509.0191356287162
 30
0.0
 10
845.5290737273504
 20
508.6200956585096
 30
0.0
 10
845.5988158591956
 20
508.4943845758249
 30
0.0
  0
LINE
  5
299
330
1F
100
AcDbEntity
  8
0
  6
Continuous
 62
     7
370
    25
100
AcDbLine
 10
845.5988158592
 20
508.4943845758
 30
0.0
 11
901.9997109779
 21
387.542180706
 31
0.0
  0
SPLINE
  5
29A
330
1F
100
AcDbEntity
  8
0
  6
Continuous
 62
     7
370
    25
100
AcDbSpline
210
0.0
220
0.0
230
1.0
 70
     8
 71
     3
 72
    12
 73
     8
 74
     0
 42
0.000000001
 43
0.00000001
 40
0.0
 40
0.0
 40
0.0
 40
0.0
 40
0.2096811920135163
 40
0.4420445912748965
 40
0.6744350798205261
 40
0.9068227536226783
 40
1.0
 40
1.0
 40
1.0
 40
1.0
 10
6.033515942183154
 20
331.4159884939005
 30
0.0
 10
5.781184851212595
 20
331.3117075238926
 30
0.0
 10
5.249226820533249
 20
331.0918650176464
 30
0.0
 10
4.527843022777922
 20
330.7558950287517
 30
0.0
 10
3.984491493389031
 20
330.408990877672
 30
0.0
 10
3.755867041317251
 20
330.1306000464635
 30
0.0
 10
3.738489422836444
 20
329.9692497046566
 30
0.0
 10
3.733515918204144
 20
329.9230709562113
 30
0.0
  0
LINE
  5
29B
330
1F
100
AcDbEntity
  8
0
  6
Continuous
 62
     7
370
    25
100
AcDbLine
 10
3.7335159182
 20
575.5089246558
 30
0.0
 11
3.7335159182
 21
329.9230709562
 31
0.0
  0
SPLINE
  5
29C
330
1F
100
AcDbEntity
  8
0
  6
Continuous
 62
     7
370
    25
100
AcDbSpline
210
0.0
220
0.0
230
1.0
 70
     8
 71
     3
 72
    12
 73
     8
 74
     0
 42
0.000000001
 43
0.00000001
 40
0.0
 40
0.0
 40
0.0
 40
0.0
 40
0.2096825750781572
 40
0.442044535565162
 40
0.6744327616643008
 40
0.9068207560766326
 40
1.0
 40
1.0
 40
1.0
 40
1.0
 10
3.733515918204144
 20
575.508924655806
 30
0.0
 10
3.75785551858665
 20
575.4046396219874
 30
0.0
 10
3.809167304236583
 20
575.1847900263614
 30
0.0
 10
4.230101539461573
 20
574.8488188060657
 30
0.0
 10
4.881888818100921
 20
574.501915204265
 30
0.0
 10
5.531329398929197
 20
574.2235383100628
 30
0.0
 10
5.921769660384046
 20
574.0621777972119
 30
0.0
 10
6.033515942183154
 20
574.0159954765846
 30
0.0
  0
LINE
  5
29D
330
1F
100
AcDbEntity
  8
0
  6
Continuous
 62
     7
370
    25
100
AcDbLine
 10
3.7335159182
 20
575.5089246558
 30
0.0
 11
4.5335159291
 21
575.5089246558
 31
0.0
  0
SPLINE
  5
29E
330
1F
100
AcDbEntity
  8
0
  6
Continuous
 62
     7
370
    25
100
AcDbSpline
210
0.0
220
0.0
230
1.0
 70
     8
 71
     3
 72
    11
 73
     7
 74
     0
 42
0.000000001
 43
0.00000001
 40
0.0
 40
0.0
 40
0.0
 40
0.0
 40
0.2543215474648705
 40
0.5088649475529573
 40
0.7634124318836517
 40
0.9999999999999999
 40
0.9999999999999999
 40
0.9999999999999999
 40
0.9999999999999999
 10
4.533515929144638
 20
575.508924655806
 30
0.0
 10
4.556869520594309
 20
575.382343865112
 30
0.0
 10
4.603597075560407
 20
575.1290718633498
 30
0.0
 10
4.962489544547255
 20
574.7491220967468
 30
0.0
 10
5.461708564263368
 20
574.377900860786
 30
0.0
 10
5.84761747874346
 20
574.1336533757855
 30
0.0
 10
6.033515942183154
 20
574.0159954765846
 30
0.0
  0
CIRCLE
  5
29F
330
1F
100
AcDbEntity
  8
0
  6
Continuous
 62
     7
370
    25
100
AcDbCircle
 10
81.2807383282
 20
556.3159956227
 30
0.0
 40
6.34766310537168
  0
CIRCLE
  5
2A0
330
1F
100
AcDbEntity
  8
0
  6
Continuous
 62
     7
370
    25
100
AcDbCircle
 10
851.2807383282
 20
556.3159956227
 30
0.0
 40
6.34766310537168
  0
CIRCLE
  5
2A1
330
1F
100
AcDbEntity
  8
0
  6
Continuous
 62
     7
370
    25
100
AcDbCircle
 10
471.2807383282
 20
556.3159956227
 30
0.0
 40
6.34766310537168
  0
SPLINE
  5
2A2
330
1F
100
AcDbEntity
  8
0
  6
Continuous
 62
     7
370
    25
100
AcDbSpline
210
0.0
220
0.0
230
1.0
 70
     8
 71
     3
 72
    12
 73
     8
 74
     0
 42
0.000000001
 43
0.00000001
 40
0.0
 40
0.0
 40
0.0
 40
0.0
 40
0.2096820604191347
 40
0.4420453402457458
 40
0.6744350675120839
 40
0.9068219468234874
 40
1.0
 40
1.0
 40
1.0
 40
1.0
 10
6.033515942183154
 20
574.0159954765846
 30
0.0
 10
5.929230835991173
 20
574.2683264525173
 30
0.0
 10
5.709380147968234
 20
574.8002829388649
 30
0.0
 10
5.37340977030909
 20
575.521667505579
 30
0.0
 10
5.026508766200422
 20
576.0650202861322
 30
0.0
 10
4.748130924074334
 20
576.2936449383973
 30
0.0
 10
4.586769355492681
 20
576.3110221084536
 30
0.0
 10
4.540586995792406
 20
576.3159955276211
 30
0.0
  0
SPLINE
  5
2A3
330
1F
100
AcDbEntity
  8
0
  6
Continuous
 62
     7
370
    25
100
AcDbSpline
210
0.0
220
0.0
230
1.0
 70
     8
 71
     3
 72
    11
 73
     7
 74
     0
 42
0.000000001
 43
0.00000001
 40
0.0
 40
0.0
 40
0.0
 40
0.0
 40
0.2543210077297895
 40
0.5088687955287383
 40
0.7634131044419261
 40
1.0
 40
1.0
 40
1.0
 40
1.0
 10
6.033515942183154
 20
574.0159954765846
 30
0.0
 10
5.906934322276348
 20
574.2159713459224
 30
0.0
 10
5.653658208623624
 20
574.616101404674
 30
0.0
 10
5.273721151705768
 20
575.1177159673545
 30
0.0
 10
4.902488930089433
 20
575.4537881373112
 30
0.0
 10
4.658244169811199
 20
575.4957715457451
 30
0.0
 10
4.540586995792406
 20
575.5159957224538
 30
0.0
  0
LINE
  5
2A4
330
1F
100
AcDbEntity
  8
0
  6
Continuous
 62
     7
370
    25
100
AcDbLine
 10
4.5405869958
 20
576.3159955276
 30
0.0
 11
4.5405869958
 21
575.5159957225
 31
0.0
  0
SPLINE
  5
2A5
330
1F
100
AcDbEntity
  8
0
  6
Continuous
 62
     7
370
    25
100
AcDbSpline
210
0.0
220
0.0
230
1.0
 70
     8
 71
     3
 72
    11
 73
     7
 74
     0
 42
0.000000001
 43
0.00000001
 40
0.0
 40
0.0
 40
0.0
 40
0.0
 40
0.2543189764238164
 40
0.5088685560436371
 40
0.7634143090105323
 40
0.9999999999999999
 40
0.9999999999999999
 40
0.9999999999999999
 40
0.9999999999999999
 10
6.033515942183154
 20
331.4159884939005
 30
0.0
 10
5.833539451811087
 20
331.2894125006247
 30
0.0
 10
5.433405142805769
 20
331.0361457415579
 30
0.0
 10
4.93179654916659
 20
330.6562002666673
 30
0.0
 10
4.595724467949647
 20
330.2849628826024
 30
0.0
 10
4.55374033974576
 20
330.0407244335821
 30
0.0
 10
4.533515929144638
 20
329.9230709562113
 30
0.0
  0
LINE
  5
2A6
330
1F
100
AcDbEntity
  8
0
  6
Continuous
 62
     7
370
    25
100
AcDbLine
 10
3.7335159182
 20
329.9230709562
 30
0.0
 11
4.5335159291
 21
329.9230709562
 31
0.0
  0
LINE
  5
2A7
330
1F
100
AcDbEntity
  8
0
  6
Continuous
 62
     7
370
    25
100
AcDbLine
 10
4.5405869958
 20
576.3159955276
 30
0.0
 11
7.9307383046
 21
576.3159955276
 31
0.0
  0
LINE
  5
2A8
330
1F
100
AcDbEntity
  8
0
  6
Continuous
 62
     7
370
    25
100
AcDbLine
 10
18.6807382041
 20
576.3159955276
 30
0.0
 11
80.9307386287
 21
576.3159955276
 31
0.0
  0
LINE
  5
2A9
330
1F
100
AcDbEntity
  8
0
  6
Continuous
 62
     7
370
    25
100
AcDbLine
 10
144.2878385195
 20
576.3159955276
 30
0.0
 11
144.3878402122
 21
576.3159955276
 31
0.0
  0
LINE
  5
2AA
330
1F
100
AcDbEntity
  8
0
  6
Continuous
 62
     7
370
    25
100
AcDbLine
 10
789.9736155876
 20
576.3159955276
 30
0.0
 11
790.2646054634
 21
576.3159955276
 31
0.0
  0
SPLINE
  5
2AB
330
1F
100
AcDbEntity
  8
0
  6
Continuous
 62
     7
370
    25
100
AcDbSpline
210
0.0
220
0.0
230
1.0
 70
     8
 71
     3
 72
    12
 73
     8
 74
     0
 42
0.000000001
 43
0.00000001
 40
0.0
 40
0.0
 40
0.0
 40
0.0
 40
0.2096826901614376
 40
0.4420466771792279
 40
0.6744342033389034
 40
0.9068217597641198
 40
1.0
 40
1.0
 40
1.0
 40
1.0
 10
4.540586995792406
 20
329.1159942636301
 30
0.0
 10
4.644872217478002
 20
329.1403305868181
 30
0.0
 10
4.864723153621187
 20
329.1916356840186
 30
0.0
 10
5.20069011383506
 20
329.6125918594129
 30
0.0
 10
5.547597258394155
 20
330.2643680016303
 30
0.0
 10
5.825971740518742
 20
330.9138071075148
 30
0.0
 10
5.987333544875351
 20
331.3042439107193
 30
0.0
 10
6.033515942183154
 20
331.4159884939005
 30
0.0
  0
LINE
  5
2AC
330
1F
100
AcDbEntity
  8
0
  6
Continuous
 62
     7
370
    25
100
AcDbLine
 10
4.5405869958
 20
329.1159942636
 30
0.0
 11
4.5405869958
 21
329.9159929046
 31
0.0
  0
SPLINE
  5
2AD
330
1F
100
AcDbEntity
  8
0
  6
Continuous
 62
     7
370
    25
100
AcDbSpline
210
0.0
220
0.0
230
1.0
 70
     8
 71
     3
 72
    11
 73
     7
 74
     0
 42
0.000000001
 43
0.00000001
 40
0.0
 40
0.0
 40
0.0
 40
0.0
 40
0.2543226479015152
 40
0.5088664295657639
 40
0.7634121936133165
 40
0.9999999999999999
 40
0.9999999999999999
 40
0.9999999999999999
 40
0.9999999999999999
 10
4.540586995792406
 20
329.9159929046442
 30
0.0
 10
4.667167664795802
 20
329.9393498434156
 30
0.0
 10
4.920439064803994
 20
329.9860840298368
 30
0.0
 10
5.300387497795322
 20
330.3449720554983
 30
0.0
 10
5.671612921743286
 20
330.8441825175525
 30
0.0
 10
5.915858491876258
 20
331.230089981184
 30
0.0
 10
6.033515942183154
 20
331.4159884939005
 30
0.0
  0
LINE
  5
2AE
330
1F
100
AcDbEntity
  8
0
  6
Continuous
 62
     7
370
    25
100
AcDbLine
 10
881.3889612564
 20
334.8898067961
 30
0.0
 11
901.9997109779
 21
379.0898099432
 31
0.0
  0
LINE
  5
2AF
330
1F
100
AcDbEntity
  8
0
  6
Continuous
 62
     7
370
    25
100
AcDbLine
 10
811.6989721664
 20
329.1159942636
 30
0.0
 11
4.5405869958
 21
329.1159942636
 31
0.0
  0
CIRCLE
  5
2B0
330
1F
100
AcDbEntity
  8
0
  6
Continuous
 62
     7
370
    25
100
AcDbCircle
 10
851.2807383282
 20
556.3159956227
 30
0.0
 40
2.700000000000045
  0
CIRCLE
  5
2B1
330
1F
100
AcDbEntity
  8
0
  6
Continuous
 62
     7
370
    25
100
AcDbCircle
 10
471.2807383282
 20
556.3159956227
 30
0.0
 40
2.700000000000045
  0
CIRCLE
  5
2B2
330
1F
100
AcDbEntity
  8
0
  6
Continuous
 62
     7
370
    25
100
AcDbCircle
 10
81.2807383282
 20
556.3159956227
 30
0.0
 40
2.700000000000045
  0
LINE
  5
2B3
330
1F
100
AcDbEntity
  8
0
  6
Continuous
 62
     7
370
    25
100
AcDbLine
 10
442.0307268509
 20
317.5428137073
 30
0.0
 11
453.9218534836
 21
317.5428137073
 31
0.0
  0
LINE
  5
2B4
330
1F
100
AcDbEntity
  8
0
  6
Continuous
 62
     7
370
    25
100
AcDbLine
 10
472.9218472847
 20
317.5428137073
 30
0.0
 11
490.3307248958
 21
317.5428137073
 31
0.0
  0
LINE
  5
2B5
330
1F
100
AcDbEntity
  8
0
  6
Continuous
 62
     7
370
    25
100
AcDbLine
 10
442.3194219478
 20
317.0427903423
 30
0.0
 11
453.9218534836
 21
317.0427903423
 31
0.0
  0
LINE
  5
2B6
330
1F
100
AcDbEntity
  8
0
  6
Continuous
 62
     7
370
    25
100
AcDbLine
 10
472.9218472847
 20
317.0427903423
 30
0.0
 11
490.0420596012
 21
317.0427903423
 31
0.0
  0
CIRCLE
  5
2B7
330
1F
100
AcDbEntity
  8
0
  6
Continuous
 62
     7
370
    25
100
AcDbCircle
 10
81.2807383282
 20
556.3159956227
 30
0.0
 40
2.524999999999991
  0
CIRCLE
  5
2B8
330
1F
100
AcDbEntity
  8
0
  6
Continuous
 62
     7
370
    25
100
AcDbCircle
 10
81.2807383282
 20
556.3159956227
 30
0.0
 40
2.09999999999998
  0
CIRCLE
  5
2B9
330
1F
100
AcDbEntity
  8
0
  6
Continuous
 62
     7
370
    25
100
AcDbCircle
 10
471.2807383282
 20
556.3159956227
 30
0.0
 40
2.524999999999977
  0
CIRCLE
  5
2BA
330
1F
100
AcDbEntity
  8
0
  6
Continuous
 62
     7
370
    25
100
AcDbCircle
 10
471.2807383282
 20
556.3159956227
 30
0.0
 40
2.099999999999966
  0
LINE
  5
2BB
330
1F
100
AcDbEntity
  8
0
  6
Continuous
 62
     7
370
    25
100
AcDbLine
 10
144.3878402122
 20
576.3159955276
 30
0.0
 11
789.9736155876
 21
576.3159955276
 31
0.0
  0
LINE
  5
2BC
330
1F
100
AcDbEntity
  8
0
  6
Continuous
 62
     7
370
    25
100
AcDbLine
 10
144.3878402122
 20
578.3159956227
 30
0.0
 11
789.9736155876
 21
578.3159956227
 31
0.0
  0
LINE
  5
2BD
330
1F
100
AcDbEntity
  8
0
  6
Continuous
 62
     7
370
    25
100
AcDbLine
 10
789.9736155876
 20
578.3159956227
 30
0.0
 11
789.9736155876
 21
576.3159955276
 31
0.0
  0
LINE
  5
2BE
330
1F
100
AcDbEntity
  8
0
  6
Continuous
 62
     7
370
    25
100
AcDbLine
 10
144.3878402122
 20
578.3159956227
 30
0.0
 11
144.3878402122
 21
576.3159955276
 31
0.0
  0
LINE
  5
2BF
330
1F
100
AcDbEntity
  8
0
  6
Continuous
 62
     7
370
    25
100
AcDbLine
 10
790.2646054634
 20
578.3159956227
 30
0.0
 11
790.2646054634
 21
576.3159955276
 31
0.0
  0
LINE
  5
2C0
330
1F
100
AcDbEntity
  8
0
  6
Continuous
 62
     7
370
    25
100
AcDbLine
 10
790.2646054634
 20
578.3159956227
 30
0.0
 11
891.6807164558
 21
578.3159956227
 31
0.0
  0
LINE
  5
2C1
330
1F
100
AcDbEntity
  8
0
  6
Continuous
 62
     7
370
    25
100
AcDbLine
 10
790.2646054634
 20
576.3159955276
 30
0.0
 11
891.6807164558
 21
576.3159955276
 31
0.0
  0
ARC
  5
2C2
330
1F
100
AcDbEntity
  8
0
  6
Continuous
 62
     7
370
    25
100
AcDbCircle
 10
74.4307383306
 20
592.0659956227
 30
0.0
 40
4.250000000000028
100
AcDbArc
 50
0.0
 51
90.0
  0
ARC
  5
2C3
330
1F
100
AcDbEntity
  8
0
  6
Continuous
 62
     7
370
    25
100
AcDbCircle
 10
74.4307383306
 20
592.0659956227
 30
0.0
 40
2.249999999999972
100
AcDbArc
 50
0.0
 51
90.0
  0
ARC
  5
2C4
330
1F
100
AcDbEntity
  8
0
  6
Continuous
 62
     7
370
    25
100
AcDbCircle
 10
877.2428007598
 20
535.3537385892
 30
0.0
 40
12.00000000000015
100
AcDbArc
 50
295.0
 51
335.0
  0
ARC
  5
2C5
330
1F
100
AcDbEntity
  8
0
  6
Continuous
 62
     7
370
    25
100
AcDbCircle
 10
877.2428007598
 20
535.3537385892
 30
0.0
 40
9.999999999999977
100
AcDbArc
 50
295.0
 51
335.0
  0
ARC
  5
2C6
330
1F
100
AcDbEntity
  8
0
  6
Continuous
 62
     7
370
    25
100
AcDbCircle
 10
7.9307383306
 20
592.0659956227
 30
0.0
 40
4.249999999999977
100
AcDbArc
 50
90.0
 51
180.0
  0
ARC
  5
2C7
330
1F
100
AcDbEntity
  8
0
  6
Continuous
 62
     7
370
    25
100
AcDbCircle
 10
7.9307383306
 20
592.0659956227
 30
0.0
 40
2.249999999999975
100
AcDbArc
 50
90.0
 51
180.0
  0
LINE
  5
2C8
330
1F
100
AcDbEntity
  8
0
  6
Continuous
 62
     7
370
    25
100
AcDbLine
 10
882.3142041572
 20
524.4780443499
 30
0.0
 11
864.8964752563
 21
516.3560174296
 31
0.0
  0
LINE
  5
2C9
330
1F
100
AcDbEntity
  8
0
  6
Continuous
 62
     7
370
    25
100
AcDbLine
 10
881.4690102943
 20
526.2906625757
 30
0.0
 11
864.0512217888
 21
518.1686319301
 31
0.0
  0
ARC
  5
2CA
330
1F
100
AcDbEntity
  8
0
  6
Continuous
 62
     7
370
    25
100
AcDbCircle
 10
7.9307383306
 20
580.5659956227
 30
0.0
 40
4.25
100
AcDbArc
 50
180.0
 51
270.0
  0
ARC
  5
2CB
330
1F
100
AcDbEntity
  8
0
  6
Continuous
 62
     7
370
    25
100
AcDbCircle
 10
7.9307383306
 20
580.5659956227
 30
0.0
 40
2.25
100
AcDbArc
 50
180.0
 51
270.0
  0
LINE
  5
2CC
330
1F
100
AcDbEntity
  8
0
  6
Continuous
 62
     7
370
    25
100
AcDbLine
 10
78.6807377943
 20
580.5659955258
 30
0.0
 11
78.6807377943
 21
592.0659955481
 31
0.0
  0
LINE
  5
2CD
330
1F
100
AcDbEntity
  8
0
  6
Continuous
 62
     7
370
    25
100
AcDbLine
 10
76.6807411917
 20
580.5659955258
 30
0.0
 11
76.6807411917
 21
592.0659955481
 31
0.0
  0
LINE
  5
2CE
330
1F
100
AcDbEntity
  8
0
  6
Continuous
 62
     7
370
    25
100
AcDbLine
 10
16.6807378762
 20
578.3159956227
 30
0.0
 11
7.9307383046
 21
578.3159956227
 31
0.0
  0
LINE
  5
2CF
330
1F
100
AcDbEntity
  8
0
  6
Continuous
 62
     7
370
    25
100
AcDbLine
 10
16.6807378762
 20
576.3159955276
 30
0.0
 11
7.9307383046
 21
576.3159955276
 31
0.0
  0
LINE
  5
2D0
330
1F
100
AcDbEntity
  8
0
  6
Continuous
 62
     7
370
    25
100
AcDbLine
 10
900.7438411125
 20
562.0898138622
 30
0.0
 11
886.3058676132
 21
531.1275571475
 31
0.0
  0
LINE
  5
2D1
330
1F
100
AcDbEntity
  8
0
  6
Continuous
 62
     7
370
    25
100
AcDbLine
 10
902.5564183601
 20
561.2445771584
 30
0.0
 11
888.1185044655
 21
530.2823185811
 31
0.0
  0
LINE
  5
2D2
330
1F
100
AcDbEntity
  8
0
  6
Continuous
 62
     7
370
    25
100
AcDbLine
 10
144.2878385195
 20
578.3159956227
 30
0.0
 11
144.2878385195
 21
576.3159955276
 31
0.0
  0
LINE
  5
2D3
330
1F
100
AcDbEntity
  8
0
  6
Continuous
 62
     7
370
    25
100
AcDbLine
 10
80.9307386287
 20
576.3159955276
 30
0.0
 11
144.2878385195
 21
576.3159955276
 31
0.0
  0
LINE
  5
2D4
330
1F
100
AcDbEntity
  8
0
  6
Continuous
 62
     7
370
    25
100
AcDbLine
 10
80.9307386287
 20
578.3159956227
 30
0.0
 11
144.2878385195
 21
578.3159956227
 31
0.0
  0
LINE
  5
2D5
330
1F
100
AcDbEntity
  8
0
  6
Continuous
 62
     7
370
    25
100
AcDbLine
 10
18.6807382041
 20
578.3159956227
 30
0.0
 11
18.6807382041
 21
576.3159955276
 31
0.0
  0
LINE
  5
2D6
330
1F
100
AcDbEntity
  8
0
  6
Continuous
 62
     7
370
    25
100
AcDbLine
 10
18.6807382041
 20
576.3159955276
 30
0.0
 11
16.6807378762
 21
576.3159955276
 31
0.0
  0
LINE
  5
2D7
330
1F
100
AcDbEntity
  8
0
  6
Continuous
 62
     7
370
    25
100
AcDbLine
 10
16.6807378762
 20
578.3159956227
 30
0.0
 11
18.6807382041
 21
578.3159956227
 31
0.0
  0
LINE
  5
2D8
330
1F
100
AcDbEntity
  8
0
  6
Continuous
 62
     7
370
    25
100
AcDbLine
 10
3.680738332
 20
580.5659955258
 30
0.0
 11
3.680738332
 21
592.0659955481
 31
0.0
  0
LINE
  5
2D9
330
1F
100
AcDbEntity
  8
0
  6
Continuous
 62
     7
370
    25
100
AcDbLine
 10
5.6807382851
 20
580.5659955258
 30
0.0
 11
5.6807382851
 21
592.0659955481
 31
0.0
  0
LINE
  5
2DA
330
1F
100
AcDbEntity
  8
0
  6
Continuous
 62
     7
370
    25
100
AcDbLine
 10
7.9307383046
 20
596.3159948478
 30
0.0
 11
74.4307403573
 21
596.3159948478
 31
0.0
  0
LINE
  5
2DB
330
1F
100
AcDbEntity
  8
0
  6
Continuous
 62
     7
370
    25
100
AcDbLine
 10
7.9307383046
 20
594.3159963826
 30
0.0
 11
74.4307403573
 21
594.3159963826
 31
0.0
  0
LINE
  5
2DC
330
1F
100
AcDbEntity
  8
0
  6
Continuous
 62
     7
370
    25
100
AcDbLine
 10
863.0838384041
 20
515.5107825885
 30
0.0
 11
862.2386445411
 21
517.323397089
 31
0.0
  0
LWPOLYLINE
  5
2DD
330
1F
100
AcDbEntity
  8
0
  6
Continuous
 62
     7
370
    25
100
AcDbPolyline
 90
        9
 70
   128
 43
0.0
 10
864.8964752563
 20
516.3560174296
 10
864.5428408989
 20
516.1911174545
 10
864.2027964004
 20
516.0325579235
 10
863.8894547828
 20
515.8864296863
 10
863.6147369751
 20
515.75834303
 10
863.3893122085
 20
515.6532302389
 10
863.2218231567
 20
515.5751183519
 10
863.1187071213
 20
515.5270174036
 10
863.0838384041
 20
515.5107825885
  0
LWPOLYLINE
  5
2DE
330
1F
100
AcDbEntity
  8
0
  6
Continuous
 62
     7
370
    25
100
AcDbPolyline
 90
        9
 70
   128
 43
0.0
 10
862.2386445411
 20
517.323397089
 10
862.2734536537
 20
517.3396356294
 10
862.3765696892
 20
517.3877365777
 10
862.5441183456
 20
517.4658447394
 10
862.7695431122
 20
517.5709612558
 10
863.0442013153
 20
517.6990441868
 10
863.3576025375
 20
517.8451724241
 10
863.6975874313
 20
518.0037356803
 10
864.0512217888
 20
518.1686319301
  0
ARC
  5
2DF
330
1F
100
AcDbEntity
  8
0
  6
Continuous
 62
     7
370
    25
100
AcDbCircle
 10
80.9307383306
 20
580.5659956227
 30
0.0
 40
4.250000000000028
100
AcDbArc
 50
180.0
 51
270.0
  0
ARC
  5
2E0
330
1F
100
AcDbEntity
  8
0
  6
Continuous
 62
     7
370
    25
100
AcDbCircle
 10
80.9307383306
 20
580.5659956227
 30
0.0
 40
2.25
100
AcDbArc
 50
180.0
 51
270.0
  0
ARC
  5
2E1
330
1F
100
AcDbEntity
  8
0
  6
Continuous
 62
     7
370
    25
100
AcDbCircle
 10
891.6807383282
 20
566.3159956227
 30
0.0
 40
10.00000000000014
100
AcDbArc
 50
335.0
 51
90.0
  0
ARC
  5
2E2
330
1F
100
AcDbEntity
  8
0
  6
Continuous
 62
     7
370
    25
100
AcDbCircle
 10
891.6807383282
 20
566.3159956227
 30
0.0
 40
12.00000000000026
100
AcDbArc
 50
335.0
 51
90.0
  0
LINE
  5
2E3
330
1F
100
AcDbEntity
  8
0
  6
Continuous
 62
     7
370
    25
100
AcDbLine
 10
790.0736321815
 20
578.3159956227
 30
0.0
 11
790.0736321815
 21
576.3159955276
 31
0.0
  0
LINE
  5
2E4
330
1F
100
AcDbEntity
  8
0
  6
Continuous
 62
     7
370
    25
100
AcDbLine
 10
790.0736321815
 20
578.3159956227
 30
0.0
 11
790.2646054634
 21
578.3159956227
 31
0.0
  0
ENDSEC
  0
SECTION
  2
OBJECTS
  0
DICTIONARY
  5
C
330
0
100
AcDbDictionary
281
     1
  3
ACAD_GROUP
350
D
  3
ACAD_LAYOUT
350
1A
  3
ACAD_MLINESTYLE
350
17
  3
ACAD_PLOTSETTINGS
350
19
  3
ACAD_PLOTSTYLENAME
350
E
  3
ACAD_SCALELIST
350
47
  0
DICTIONARY
  5
D
102
{ACAD_REACTORS
330
C
102
}
330
C
100
AcDbDictionary
281
     1
  0
DICTIONARY
  5
1A
102
{ACAD_REACTORS
330
C
102
}
330
C
100
AcDbDictionary
281
     1
  3
Layout1
350
1E
  3
Layout2
350
26
  3
Model
350
22
  0
DICTIONARY
  5
17
102
{ACAD_REACTORS
330
C
102
}
330
C
100
AcDbDictionary
281
     1
  3
Standard
350
18
  0
DICTIONARY
  5
19
102
{ACAD_REACTORS
330
C
102
}
330
C
100
AcDbDictionary
281
     1
  0
ACDBDICTIONARYWDFLT
  5
E
102
{ACAD_REACTORS
330
C
102
}
330
C
100
AcDbDictionary
281
     1
  3
Normal
350
F
100
AcDbDictionaryWithDefault
340
F
  0
DICTIONARY
  5
47
102
{ACAD_REACTORS
330
C
102
}
330
C
100
AcDbDictionary
281
     1
  3
A0
350
48
  3
A1
350
49
  3
A2
350
4A
  3
A3
350
4B
  3
A4
350
4C
  3
A5
350
4D
  3
A6
350
4E
  3
A7
350
4F
  3
A8
350
50
  3
A9
350
51
  3
B0
350
52
  3
B1
350
53
  3
B2
350
54
  3
B3
350
55
  3
B4
350
56
  3
B5
350
57
  3
B6
350
58
  3
B7
350
59
  3
B8
350
5A
  3
B9
350
5B
  3
C0
350
5C
  3
C1
350
5D
  3
C2
350
5E
  3
C3
350
5F
  3
C4
350
60
  3
C5
350
61
  3
C6
350
62
  3
C7
350
63
  3
C8
350
64
  3
C9
350
65
  3
D0
350
66
  3
D1
350
67
  3
D2
350
68
  0
LAYOUT
  5
1E
102
{ACAD_REACTORS
330
1A
102
}
330
1A
100
AcDbPlotSettings
  1

  2
none_device
  4

  6

 40
0.0
 41
0.0
 42
0.0
 43
0.0
 44
0.0
 45
0.0
 46
0.0
 47
0.0
 48
0.0
 49
0.0
140
0.0
141
0.0
142
1.0
143
1.0
 70
   688
 72
     1
 73
     0
 74
     5
  7

 75
    16
147
1.0
148
0.0
149
0.0
100
AcDbLayout
  1
Layout1
 70
     1
 71
     1
 10
0.0
 20
0.0
 11
420.0
 21
297.0
 12
0.0
 22
0.0
 32
0.0
 14
1.0000000000E+20
 24
1.0000000000E+20
 34
1.0000000000E+20
 15
-1.0000000000E+20
 25
-1.0000000000E+20
 35
-1.0000000000E+20
146
0.0
 13
0.0
 23
0.0
 33
0.0
 16
1.0
 26
0.0
 36
0.0
 17
0.0
 27
1.0
 37
0.0
 76
     0
330
1B
  0
LAYOUT
  5
26
102
{ACAD_REACTORS
330
1A
102
}
330
1A
100
AcDbPlotSettings
  1

  2
none_device
  4

  6

 40
0.0
 41
0.0
 42
0.0
 43
0.0
 44
0.0
 45
0.0
 46
0.0
 47
0.0
 48
0.0
 49
0.0
140
0.0
141
0.0
142
1.0
143
1.0
 70
   688
 72
     1
 73
     0
 74
     5
  7

 75
    16
147
1.0
148
0.0
149
0.0
100
AcDbLayout
  1
Layout2
 70
     1
 71
     2
 10
0.0
 20
0.0
 11
0.0
 21
0.0
 12
0.0
 22
0.0
 32
0.0
 14
0.0
 24
0.0
 34
0.0
 15
0.0
 25
0.0
 35
0.0
146
0.0
 13
0.0
 23
0.0
 33
0.0
 16
1.0
 26
0.0
 36
0.0
 17
0.0
 27
1.0
 37
0.0
 76
     0
330
23
  0
LAYOUT
  5
22
102
{ACAD_REACTORS
330
1A
102
}
330
1A
100
AcDbPlotSettings
  1

  2
none_device
  4
Letter_(8.50_x_11.00_Inches)
  6

 40
6.35
 41
6.35
 42
6.35000508
 43
6.35000508
 44
215.9
 45
279.4
 46
0.0
 47
0.0
 48
0.0
 49
0.0
140
0.0
141
0.0
142
1.0
143
1.0
 70
  1712
 72
     1
 73
     0
 74
     0
  7

 75
     0
147
1.0
148
0.0
149
0.0
100
AcDbLayout
  1
Model
 70
     1
 71
     0
 10
0.0
 20
0.0
 11
935.0
 21
935.0
 12
0.0
 22
0.0
 32
0.0
 14
0.0
 24
0.0
 34
0.0
 15
935.0
 25
935.0
 35
0.0
146
0.0
 13
0.0
 23
0.0
 33
0.0
 16
1.0
 26
0.0
 36
0.0
 17
0.0
 27
1.0
 37
0.0
 76
     0
330
1F
331
29
  0
MLINESTYLE
  5
18
102
{ACAD_REACTORS
330
17
102
}
330
17
100
AcDbMlineStyle
  2
Standard
 70
     0
  3

 62
   256
 51
90.0
 52
90.0
 71
     2
 49
0.5
 62
   256
  6
BYLAYER
 49
-0.5
 62
   256
  6
BYLAYER
  0
ACDBPLACEHOLDER
  5
F
102
{ACAD_REACTORS
330
E
102
}
330
E
  0
SCALE
  5
48
102
{ACAD_REACTORS
330
47
102
}
330
47
100
AcDbScale
 70
     0
300
1:1
140
1.0
141
1.0
290
     1
  0
SCALE
  5
49
102
{ACAD_REACTORS
330
47
102
}
330
47
100
AcDbScale
 70
     0
300
1:2
140
1.0
141
2.0
290
     0
  0
SCALE
  5
4A
102
{ACAD_REACTORS
330
47
102
}
330
47
100
AcDbScale
 70
     0
300
1:4
140
1.0
141
4.0
290
     0
  0
SCALE
  5
4B
102
{ACAD_REACTORS
330
47
102
}
330
47
100
AcDbScale
 70
     0
300
1:5
140
1.0
141
5.0
290
     0
  0
SCALE
  5
4C
102
{ACAD_REACTORS
330
47
102
}
330
47
100
AcDbScale
 70
     0
300
1:8
140
1.0
141
8.0
290
     0
  0
SCALE
  5
4D
102
{ACAD_REACTORS
330
47
102
}
330
47
100
AcDbScale
 70
     0
300
1:10
140
1.0
141
10.0
290
     0
  0
SCALE
  5
4E
102
{ACAD_REACTORS
330
47
102
}
330
47
100
AcDbScale
 70
     0
300
1:16
140
1.0
141
16.0
290
     0
  0
SCALE
  5
4F
102
{ACAD_REACTORS
330
47
102
}
330
47
100
AcDbScale
 70
     0
300
1:20
140
1.0
141
20.0
290
     0
  0
SCALE
  5
50
102
{ACAD_REACTORS
330
47
102
}
330
47
100
AcDbScale
 70
     0
300
1:30
140
1.0
141
30.0
290
     0
  0
SCALE
  5
51
102
{ACAD_REACTORS
330
47
102
}
330
47
100
AcDbScale
 70
     0
300
1:40
140
1.0
141
40.0
290
     0
  0
SCALE
  5
52
102
{ACAD_REACTORS
330
47
102
}
330
47
100
AcDbScale
 70
     0
300
1:50
140
1.0
141
50.0
290
     0
  0
SCALE
  5
53
102
{ACAD_REACTORS
330
47
102
}
330
47
100
AcDbScale
 70
     0
300
1:100
140
1.0
141
100.0
290
     0
  0
SCALE
  5
54
102
{ACAD_REACTORS
330
47
102
}
330
47
100
AcDbScale
 70
     0
300
2:1
140
2.0
141
1.0
290
     0
  0
SCALE
  5
55
102
{ACAD_REACTORS
330
47
102
}
330
47
100
AcDbScale
 70
     0
300
4:1
140
4.0
141
1.0
290
     0
  0
SCALE
  5
56
102
{ACAD_REACTORS
330
47
102
}
330
47
100
AcDbScale
 70
     0
300
8:1
140
8.0
141
1.0
290
     0
  0
SCALE
  5
57
102
{ACAD_REACTORS
330
47
102
}
330
47
100
AcDbScale
 70
     0
300
10:1
140
10.0
141
1.0
290
     0
  0
SCALE
  5
58
102
{ACAD_REACTORS
330
47
102
}
330
47
100
AcDbScale
 70
     0
300
100:1
140
100.0
141
1.0
290
     0
  0
SCALE
  5
59
102
{ACAD_REACTORS
330
47
102
}
330
47
100
AcDbScale
 70
     0
300
1/128" = 1'-0"
140
0.0078125
141
12.0
290
     0
  0
SCALE
  5
5A
102
{ACAD_REACTORS
330
47
102
}
330
47
100
AcDbScale
 70
     0
300
1/64" = 1'-0"
140
0.015625
141
12.0
290
     0
  0
SCALE
  5
5B
102
{ACAD_REACTORS
330
47
102
}
330
47
100
AcDbScale
 70
     0
300
1/32" = 1'-0"
140
0.03125
141
12.0
290
     0
  0
SCALE
  5
5C
102
{ACAD_REACTORS
330
47
102
}
330
47
100
AcDbScale
 70
     0
300
1/16" = 1'-0"
140
0.0625
141
12.0
290
     0
  0
SCALE
  5
5D
102
{ACAD_REACTORS
330
47
102
}
330
47
100
AcDbScale
 70
     0
300
3/32" = 1'-0"
140
0.09375
141
12.0
290
     0
  0
SCALE
  5
5E
102
{ACAD_REACTORS
330
47
102
}
330
47
100
AcDbScale
 70
     0
300
1/8" = 1'-0"
140
0.125
141
12.0
290
     0
  0
SCALE
  5
5F
102
{ACAD_REACTORS
330
47
102
}
330
47
100
AcDbScale
 70
     0
300
3/16" = 1'-0"
140
0.1875
141
12.0
290
     0
  0
SCALE
  5
60
102
{ACAD_REACTORS
330
47
102
}
330
47
100
AcDbScale
 70
     0
300
1/4" = 1'-0"
140
0.25
141
12.0
290
     0
  0
SCALE
  5
61
102
{ACAD_REACTORS
330
47
102
}
330
47
100
AcDbScale
 70
     0
300
3/8" = 1'-0"
140
0.375
141
12.0
290
     0
  0
SCALE
  5
62
102
{ACAD_REACTORS
330
47
102
}
330
47
100
AcDbScale
 70
     0
300
1/2" = 1'-0"
140
0.5
141
12.0
290
     0
  0
SCALE
  5
63
102
{ACAD_REACTORS
330
47
102
}
330
47
100
AcDbScale
 70
     0
300
3/4" = 1'-0"
140
0.75
141
12.0
290
     0
  0
SCALE
  5
64
102
{ACAD_REACTORS
330
47
102
}
330
47
100
AcDbScale
 70
     0
300
1" = 1'-0"
140
1.0
141
12.0
290
     0
  0
SCALE
  5
65
102
{ACAD_REACTORS
330
47
102
}
330
47
100
AcDbScale
 70
     0
300
1-1/2" = 1'-0"
140
1.5
141
12.0
290
     0
  0
SCALE
  5
66
102
{ACAD_REACTORS
330
47
102
}
330
47
100
AcDbScale
 70
     0
300
3" = 1'-0"
140
3.0
141
12.0
290
     0
  0
SCALE
  5
67
102
{ACAD_REACTORS
330
47
102
}
330
47
100
AcDbScale
 70
     0
300
6" = 1'-0"
140
6.0
141
12.0
290
     0
  0
SCALE
  5
68
102
{ACAD_REACTORS
330
47
102
}
330
47
100
AcDbScale
 70
     0
300
1'-0" = 1'-0"
140
12.0
141
12.0
290
     0
  0
ENDSEC
  0
EOF
