  0
SECTION
  2
HEADER
  9
$ACADVER
  1
AC1015
  9
$ACADMAINTVER
 70
     6
  9
$DWGCODEPAGE
  3
ANSI_1252
  9
$INSBASE
 10
0.0
 20
0.0
 30
0.0
  9
$EXTMIN
 10
0.0
 20
0.0
 30
0.0
  9
$EXTMAX
 10
1000.0
 20
1000.0
 30
0.0
  9
$LIMMIN
 10
0.0
 20
0.0
  9
$LIMMAX
 10
1000.0
 20
1000.0
  9
$ORTHOMODE
 70
     0
  9
$REGENMODE
 70
     1
  9
$FILLMODE
 70
     1
  9
$QTEXTMODE
 70
     0
  9
$MIRRTEXT
 70
     1
  9
$LTSCALE
 40
1.0
  9
$ATTMODE
 70
     1
  9
$TEXTSIZE
 40
3.5
  9
$TRACEWID
 40
1.0
  9
$TEXTSTYLE
  7
Standard
  9
$CLAYER
  8
0
  9
$CELTYPE
  6
ByLayer
  9
$CECOLOR
 62
   256
  9
$CELTSCALE
 40
1.0
  9
$DISPSILH
 70
     0
  9
$DIMSCALE
 40
1.0
  9
$DIMASZ
 40
3.302
  9
$DIMEXO
 40
1.0
  9
$DIMDLI
 40
3.75
  9
$DIMRND
 40
0.0
  9
$DIMDLE
 40
0.0
  9
$DIMEXE
 40
1.0
  9
$DIMTP
 40
0.0
  9
$DIMTM
 40
0.0
  9
$DIMTXT
 40
3.5
  9
$DIMCEN
 40
2.5
  9
$DIMTSZ
 40
0.0
  9
$DIMTOL
 70
     0
  9
$DIMLIM
 70
     0
  9
$DIMTIH
 70
     1
  9
$DIMTOH
 70
     1
  9
$DIMSE1
 70
     0
  9
$DIMSE2
 70
     0
  9
$DIMTAD
 70
     1
  9
$DIMZIN
 70
     0
  9
$DIMBLK
  1

  9
$DIMASO
 70
     1
  9
$DIMSHO
 70
     1
  9
$DIMPOST
  1

  9
$DIMAPOST
  1

  9
$DIMALT
 70
     0
  9
$DIMALTD
 70
     3
  9
$DIMALTF
 40
0.0393700787
  9
$DIMLFAC
 40
1.0
  9
$DIMTOFL
 70
     1
  9
$DIMTVP
 40
0.0
  9
$DIMTIX
 70
     0
  9
$DIMSOXD
 70
     0
  9
$DIMSAH
 70
     0
  9
$DIMBLK1
  1

  9
$DIMBLK2
  1

  9
$DIMSTYLE
  2
ISO-25
  9
$DIMCLRD
 70
     0
  9
$DIMCLRE
 70
     0
  9
$DIMCLRT
 70
     0
  9
$DIMTFAC
 40
1.0
  9
$DIMGAP
 40
1.524
  9
$DIMJUST
 70
     0
  9
$DIMSD1
 70
     0
  9
$DIMSD2
 70
     0
  9
$DIMTOLJ
 70
     0
  9
$DIMTZIN
 70
     0
  9
$DIMALTZ
 70
     0
  9
$DIMALTTZ
 70
     0
  9
$DIMUPT
 70
     0
  9
$DIMDEC
 70
     1
  9
$DIMTDEC
 70
     1
  9
$DIMALTU
 70
     2
  9
$DIMALTTD
 70
     3
  9
$DIMTXSTY
  7
Standard
  9
$DIMAUNIT
 70
     0
  9
$DIMADEC
 70
     1
  9
$DIMALTRND
 40
0.0
  9
$DIMAZIN
 70
     0
  9
$DIMDSEP
 70
    44
  9
$DIMATFIT
 70
     3
  9
$DIMFRAC
 70
     0
  9
$DIMLDRBLK
  1

  9
$DIMLUNIT
 70
     2
  9
$DIMLWD
 70
    -2
  9
$DIMLWE
 70
    -2
  9
$DIMTMOVE
 70
     0
  9
$LUNITS
 70
     2
  9
$LUPREC
 70
     1
  9
$SKETCHINC
 40
1.0
  9
$FILLETRAD
 40
10.0
  9
$AUNITS
 70
     0
  9
$AUPREC
 70
     1
  9
$MENU
  1
.
  9
$ELEVATION
 40
0.0
  9
$PELEVATION
 40
0.0
  9
$THICKNESS
 40
0.0
  9
$LIMCHECK
 70
     0
  9
$CHAMFERA
 40
10.0
  9
$CHAMFERB
 40
10.0
  9
$CHAMFERC
 40
20.0
  9
$CHAMFERD
 40
0.0
  9
$SKPOLY
 70
     0
  9
$TDCREATE
 40
2457413.575690579
  9
$TDUCREATE
 40
2457413.575690579
  9
$TDUPDATE
 40
2457413.575690938
  9
$TDUUPDATE
 40
2457413.575690938
  9
$TDINDWG
 40
0.0000000116
  9
$TDUSRTIMER
 40
0.0000000116
  9
$USRTIMER
 70
     1
  9
$ANGBASE
 50
0.0
  9
$ANGDIR
 70
     0
  9
$PDMODE
 70
     0
  9
$PDSIZE
 40
-1.0
  9
$PLINEWID
 40
0.0
  9
$SPLFRAME
 70
     0
  9
$SPLINETYPE
 70
     6
  9
$SPLINESEGS
 70
     8
  9
$HANDSEED
  5
166
  9
$SURFTAB1
 70
     6
  9
$SURFTAB2
 70
     6
  9
$SURFTYPE
 70
     6
  9
$SURFU
 70
     6
  9
$SURFV
 70
     6
  9
$UCSBASE
  2

  9
$UCSNAME
  2

  9
$UCSORG
 10
0.0
 20
0.0
 30
0.0
  9
$UCSXDIR
 10
1.0
 20
0.0
 30
0.0
  9
$UCSYDIR
 10
0.0
 20
1.0
 30
0.0
  9
$UCSORTHOREF
  2

  9
$UCSORTHOVIEW
 70
     0
  9
$UCSORGTOP
 10
0.0
 20
0.0
 30
0.0
  9
$UCSORGBOTTOM
 10
0.0
 20
0.0
 30
0.0
  9
$UCSORGLEFT
 10
0.0
 20
0.0
 30
0.0
  9
$UCSORGRIGHT
 10
0.0
 20
0.0
 30
0.0
  9
$UCSORGFRONT
 10
0.0
 20
0.0
 30
0.0
  9
$UCSORGBACK
 10
0.0
 20
0.0
 30
0.0
  9
$PUCSBASE
  2

  9
$PUCSNAME
  2

  9
$PUCSORG
 10
0.0
 20
0.0
 30
0.0
  9
$PUCSXDIR
 10
1.0
 20
0.0
 30
0.0
  9
$PUCSYDIR
 10
0.0
 20
1.0
 30
0.0
  9
$PUCSORTHOREF
  2

  9
$PUCSORTHOVIEW
 70
     0
  9
$PUCSORGTOP
 10
0.0
 20
0.0
 30
0.0
  9
$PUCSORGBOTTOM
 10
0.0
 20
0.0
 30
0.0
  9
$PUCSORGLEFT
 10
0.0
 20
0.0
 30
0.0
  9
$PUCSORGRIGHT
 10
0.0
 20
0.0
 30
0.0
  9
$PUCSORGFRONT
 10
0.0
 20
0.0
 30
0.0
  9
$PUCSORGBACK
 10
0.0
 20
0.0
 30
0.0
  9
$USERI1
 70
     0
  9
$USERI2
 70
     0
  9
$USERI3
 70
     0
  9
$USERI4
 70
     0
  9
$USERI5
 70
     0
  9
$USERR1
 40
0.0
  9
$USERR2
 40
0.0
  9
$USERR3
 40
0.0
  9
$USERR4
 40
0.0
  9
$USERR5
 40
0.0
  9
$WORLDVIEW
 70
     1
  9
$SHADEDGE
 70
     3
  9
$SHADEDIF
 70
    70
  9
$TILEMODE
 70
     1
  9
$MAXACTVP
 70
    64
  9
$PINSBASE
 10
0.0
 20
0.0
 30
0.0
  9
$PLIMCHECK
 70
     0
  9
$PEXTMIN
 10
1.0000000000E+20
 20
1.0000000000E+20
 30
1.0000000000E+20
  9
$PEXTMAX
 10
-1.0000000000E+20
 20
-1.0000000000E+20
 30
-1.0000000000E+20
  9
$PLIMMIN
 10
0.0
 20
0.0
  9
$PLIMMAX
 10
420.0
 20
297.0
  9
$UNITMODE
 70
     0
  9
$VISRETAIN
 70
     1
  9
$PLINEGEN
 70
     0
  9
$PSLTSCALE
 70
     1
  9
$TREEDEPTH
 70
  3020
  9
$CMLSTYLE
  2
Standard
  9
$CMLJUST
 70
     0
  9
$CMLSCALE
 40
20.0
  9
$PROXYGRAPHICS
 70
     1
  9
$MEASUREMENT
 70
     1
  9
$CELWEIGHT
370
    -1
  9
$ENDCAPS
280
     0
  9
$JOINSTYLE
280
     0
  9
$LWDISPLAY
290
     1
  9
$INSUNITS
 70
     4
  9
$HYPERLINKBASE
  1

  9
$STYLESHEET
  1

  9
$XEDIT
290
     1
  9
$CEPSNTYPE
380
     0
  9
$PSTYLEMODE
290
     1
  9
$FINGERPRINTGUID
  2
{10EF6EBF-54E9-49C0-9229-95C5D756E4A8}
  9
$VERSIONGUID
  2
{FAEB1C32-E019-11D5-929B-00C0DF256EC4}
  9
$EXTNAMES
290
     1
  9
$PSVPSCALE
 40
0.0
  9
$OLESTARTUP
290
     0
  0
ENDSEC
  0
SECTION
  2
CLASSES
  0
CLASS
  1
ACDBDICTIONARYWDFLT
  2
AcDbDictionaryWithDefault
  3
ObjectDBX Classes
 90
        0
280
     0
281
     0
  0
CLASS
  1
VISUALSTYLE
  2
AcDbVisualStyle
  3
ObjectDBX Classes
 90
     4095
280
     0
281
     0
  0
CLASS
  1
MATERIAL
  2
AcDbMaterial
  3
ObjectDBX Classes
 90
     1153
280
     0
281
     0
  0
CLASS
  1
ACDBPLACEHOLDER
  2
AcDbPlaceHolder
  3
ObjectDBX Classes
 90
        0
280
     0
281
     0
  0
CLASS
  1
LAYOUT
  2
AcDbLayout
  3
ObjectDBX Classes
 90
        0
280
     0
281
     0
  0
ENDSEC
  0
SECTION
  2
TABLES
  0
TABLE
  2
VPORT
  5
8
330
0
100
AcDbSymbolTable
 70
     1
  0
VPORT
  5
29
330
8
100
AcDbSymbolTableRecord
100
AcDbViewportTableRecord
  2
*Active
 70
     0
 10
0.0
 20
0.0
 11
1.0
 21
1.0
 12
500.0
 22
500.0
 13
0.0
 23
0.0
 14
10.0
 24
10.0
 15
10.0
 25
10.0
 16
0.0
 26
0.0
 36
1.0
 17
0.0
 27
0.0
 37
0.0
 40
1000.0
 41
1.0
 42
50.0
 43
0.0
 44
0.0
 50
0.0
 51
0.0
 71
     0
 72
  2000
 73
     1
 74
     3
 75
     0
 76
     0
 77
     0
 78
     0
281
     0
 65
     1
110
0.0
120
0.0
130
0.0
111
1.0
121
0.0
131
0.0
112
0.0
122
1.0
132
0.0
 79
     0
146
0.0
  0
ENDTAB
  0
TABLE
  2
LTYPE
  5
5
330
0
100
AcDbSymbolTable
 70
     6
  0
LTYPE
  5
14
330
5
100
AcDbSymbolTableRecord
100
AcDbLinetypeTableRecord
  2
ByBlock
 70
     0
  3

 72
    65
 73
     0
 40
0.0
  0
LTYPE
  5
15
330
5
100
AcDbSymbolTableRecord
100
AcDbLinetypeTableRecord
  2
ByLayer
 70
     0
  3

 72
    65
 73
     0
 40
0.0
  0
LTYPE
  5
16
330
5
100
AcDbSymbolTableRecord
100
AcDbLinetypeTableRecord
  2
Continuous
 70
     0
  3
Solid line
 72
    65
 73
     0
 40
0.0
  0
LTYPE
  5
3F
330
5
100
AcDbSymbolTableRecord
100
AcDbLinetypeTableRecord
  2
HIDDEN
 70
     0
  3
Hidden __ __ __ __ __ __ __ __ __ __ __ __ __ __
 72
    65
 73
     2
 40
1.905
 49
1.27
 74
     0
 49
-0.635
 74
     0
  0
LTYPE
  5
40
330
5
100
AcDbSymbolTableRecord
100
AcDbLinetypeTableRecord
  2
PHANTOM
 70
     0
  3
Phantom ______  __  __  ______  __  __  ______
 72
    65
 73
     6
 40
12.7
 49
6.35
 74
     0
 49
-1.27
 74
     0
 49
1.27
 74
     0
 49
-1.27
 74
     0
 49
1.27
 74
     0
 49
-1.27
 74
     0
  0
LTYPE
  5
41
330
5
100
AcDbSymbolTableRecord
100
AcDbLinetypeTableRecord
  2
CENTER
 70
     0
  3
Center ____ _ ____ _ ____ _ ____ _ ____ _ ____
 72
    65
 73
     4
 40
10.16
 49
6.35
 74
     0
 49
-1.27
 74
     0
 49
1.27
 74
     0
 49
-1.27
 74
     0
  0
LTYPE
  5
42
330
5
100
AcDbSymbolTableRecord
100
AcDbLinetypeTableRecord
  2
CENTERX2
 70
     0
  3
Center (2x) ________  __  ________  __  _____
 72
    65
 73
     4
 40
20.32
 49
12.7
 74
     0
 49
-2.54
 74
     0
 49
2.54
 74
     0
 49
-2.54
 74
     0
  0
LTYPE
  5
43
330
5
100
AcDbSymbolTableRecord
100
AcDbLinetypeTableRecord
  2
DOT2
 70
     0
  3
Dot (.5x) ........................................
 72
    65
 73
     2
 40
0.635
 49
0.0
 74
     0
 49
-0.635
 74
     0
  0
ENDTAB
  0
TABLE
  2
LAYER
  5
2
330
0
100
AcDbSymbolTable
 70
     4
  0
LAYER
  5
10
330
2
100
AcDbSymbolTableRecord
100
AcDbLayerTableRecord
  2
0
 70
     0
 62
     7
  6
Continuous
370
    -3
390
F
  0
LAYER
  5
44
330
2
100
AcDbSymbolTableRecord
100
AcDbLayerTableRecord
  2
FORMAT
 70
     0
 62
     7
  6
Continuous
370
    -3
390
F
  0
LAYER
  5
45
330
2
100
AcDbSymbolTableRecord
100
AcDbLayerTableRecord
  2
SLD-0
 70
     0
 62
     1
  6
Continuous
370
    -3
390
F
  0
LAYER
  5
46
330
2
100
AcDbSymbolTableRecord
100
AcDbLayerTableRecord
  2
WATERMARK
 70
     0
 62
     1
  6
Continuous
370
    -3
390
F
  0
ENDTAB
  0
TABLE
  2
STYLE
  5
3
330
0
100
AcDbSymbolTable
 70
     1
  0
STYLE
  5
11
330
3
100
AcDbSymbolTableRecord
100
AcDbTextStyleTableRecord
  2
Standard
 70
     0
 40
0.0
 41
1.0
 50
0.0
 71
     0
 42
3.5
  3
txt
  4

  0
ENDTAB
  0
TABLE
  2
VIEW
  5
6
330
0
100
AcDbSymbolTable
 70
     0
  0
ENDTAB
  0
TABLE
  2
UCS
  5
7
330
0
100
AcDbSymbolTable
 70
     0
  0
ENDTAB
  0
TABLE
  2
APPID
  5
9
330
0
100
AcDbSymbolTable
 70
     1
  0
APPID
  5
12
330
9
100
AcDbSymbolTableRecord
100
AcDbRegAppTableRecord
  2
ACAD
 70
     0
  0
ENDTAB
  0
TABLE
  2
DIMSTYLE
  5
A
330
0
100
AcDbSymbolTable
 70
     1
100
AcDbDimStyleTable
  0
DIMSTYLE
105
27
330
A
100
AcDbSymbolTableRecord
100
AcDbDimStyleTableRecord
  2
ISO-25
 70
     0
 41
2.5
 42
0.625
 43
3.75
 44
1.25
 73
     0
 74
     0
 77
     1
 78
     8
140
2.5
141
2.5
143
0.0393700787
147
0.625
171
     3
172
     1
178
     0
271
     2
272
     2
274
     3
278
    44
283
     0
284
     8
340
11
  0
ENDTAB
  0
TABLE
  2
BLOCK_RECORD
  5
1
330
0
100
AcDbSymbolTable
 70
     1
  0
BLOCK_RECORD
  5
1F
330
1
100
AcDbSymbolTableRecord
100
AcDbBlockTableRecord
  2
*Model_Space
340
22
  0
BLOCK_RECORD
  5
1B
330
1
100
AcDbSymbolTableRecord
100
AcDbBlockTableRecord
  2
*Paper_Space
340
1E
  0
BLOCK_RECORD
  5
23
330
1
100
AcDbSymbolTableRecord
100
AcDbBlockTableRecord
  2
*Paper_Space0
340
26
  0
ENDTAB
  0
ENDSEC
  0
SECTION
  2
BLOCKS
  0
BLOCK
  5
20
330
1F
100
AcDbEntity
  8
0
100
AcDbBlockBegin
  2
*Model_Space
 70
     0
 10
0.0
 20
0.0
 30
0.0
  3
*Model_Space
  1

  0
ENDBLK
  5
21
330
1F
100
AcDbEntity
  8
0
100
AcDbBlockEnd
  0
BLOCK
  5
1C
330
1B
100
AcDbEntity
 67
     1
  8
0
100
AcDbBlockBegin
  2
*Paper_Space
 70
     0
 10
0.0
 20
0.0
 30
0.0
  3
*Paper_Space
  1

  0
ENDBLK
  5
1D
330
1B
100
AcDbEntity
 67
     1
  8
0
100
AcDbBlockEnd
  0
BLOCK
  5
24
330
23
100
AcDbEntity
  8
0
100
AcDbBlockBegin
  2
*Paper_Space0
 70
     0
 10
0.0
 20
0.0
 30
0.0
  3
*Paper_Space0
  1

  0
ENDBLK
  5
25
330
23
100
AcDbEntity
  8
0
100
AcDbBlockEnd
  0
ENDSEC
  0
SECTION
  2
ENTITIES
  0
LINE
  5
47
330
1F
100
AcDbEntity
  8
0
  6
Continuous
 62
     7
370
    15
100
AcDbLine
 10
299.438828818
 20
56.2958844927
 30
0.0
 11
699.4388347785
 21
56.2958844927
 31
0.0
  0
LINE
  5
48
330
1F
100
AcDbEntity
  8
0
  6
Continuous
 62
     7
370
    15
100
AcDbLine
 10
299.438828818
 20
56.2399604347
 30
0.0
 11
592.2968780915
 21
56.2399604347
 31
0.0
  0
LINE
  5
49
330
1F
100
AcDbEntity
  8
0
  6
Continuous
 62
     7
370
    15
100
AcDbLine
 10
620.4708164851
 20
56.2399604347
 30
0.0
 11
699.4388347785
 21
56.2399604347
 31
0.0
  0
SPLINE
  5
4A
330
1F
100
AcDbEntity
  8
0
  6
Continuous
 62
     7
370
    15
100
AcDbSpline
210
0.0
220
0.0
230
1.0
 70
     8
 71
     3
 72
     9
 73
     5
 74
     0
 42
0.00000001
 43
0.00000001
 12
1.0
 22
0.0
 32
0.0
 13
1.0
 23
0.0
 33
0.0
 40
0.0
 40
0.0
 40
0.0
 40
0.0
 40
0.0559469305574971
 40
1.0
 40
1.0
 40
1.0
 40
1.0
 10
616.6981404940276
 20
55.29831135540342
 30
0.0
 10
616.7028856022209
 20
55.31588516616858
 30
0.0
 10
616.7877000530947
 20
55.63000089316272
 30
0.0
 10
616.9566999006064
 20
55.94375752416786
 30
0.0
 10
617.1162447253852
 20
56.23996043472624
 30
0.0
  0
LINE
  5
4B
330
1F
100
AcDbEntity
  8
0
  6
Continuous
 62
     7
370
    15
100
AcDbLine
 10
595.6468900959
 20
56.2399604347
 30
0.0
 11
595.8377218167
 21
55.7923072007
 31
0.0
  0
ARC
  5
4C
330
1F
100
AcDbEntity
  8
0
  6
Continuous
 62
     7
370
    15
100
AcDbCircle
 10
617.0136350587
 20
45.0927049807
 30
0.0
 40
1.000000000000059
100
AcDbArc
 50
286.1036910378
 51
349.3444562998
  0
ARC
  5
4D
330
1F
100
AcDbEntity
  8
0
  6
Continuous
 62
     7
370
    15
100
AcDbCircle
 10
595.7440285378
 20
45.0927049807
 30
0.0
 40
1.000000000000004
100
AcDbArc
 50
190.6555437002
 51
253.8963089622
  0
SPLINE
  5
4E
330
1F
100
AcDbEntity
  8
0
  6
Continuous
 62
     7
370
    15
100
AcDbSpline
210
0.0
220
0.0
230
1.0
 70
     8
 71
     3
 72
    17
 73
    13
 74
     0
 42
0.00000001
 43
0.00000001
 12
1.0
 22
0.0
 32
0.0
 13
1.0
 23
0.0
 33
0.0
 40
0.0
 40
0.0
 40
0.0
 40
0.0
 40
0.0568462917053503
 40
0.1651286555558119
 40
0.2731860271822906
 40
0.3810464258844853
 40
0.4887963681175861
 40
0.5965119700633362
 40
0.7042562112508199
 40
0.8120887308020566
 40
0.9200906952771891
 40
1.0
 40
1.0
 40
1.0
 40
1.0
 10
595.4666531006484
 20
44.13194740085935
 30
0.0
 10
595.8364266490917
 20
44.02982689594376
 30
0.0
 10
596.910554918197
 20
43.73318447344771
 30
0.0
 10
598.8107722107247
 20
43.33396659356381
 30
0.0
 10
601.178182436249
 20
42.98206230143659
 30
0.0
 10
603.6278792425244
 20
42.76454518307538
 30
0.0
 10
606.1186776803171
 20
42.6820680386577
 30
0.0
 10
608.6127355356692
 20
42.7361818090094
 30
0.0
 10
611.0721991353461
 20
42.92535378266304
 30
0.0
 10
613.4554587522306
 20
43.24945840063499
 30
0.0
 10
615.5400386145153
 20
43.65645933118329
 30
0.0
 10
616.7685768602868
 20
43.99007659349164
 30
0.0
 10
617.2910129944472
 20
44.13194740085935
 30
0.0
  0
SPLINE
  5
4F
330
1F
100
AcDbEntity
  8
0
  6
Continuous
 62
     7
370
    15
100
AcDbSpline
210
0.0
220
0.0
230
1.0
 70
     8
 71
     3
 72
     9
 73
     5
 74
     0
 42
0.00000001
 43
0.00000001
 12
1.0
 22
0.0
 32
0.0
 13
1.0
 23
0.0
 33
0.0
 40
0.0
 40
0.0
 40
0.0
 40
0.0
 40
0.5357190168294116
 40
1.0
 40
1.0
 40
1.0
 40
1.0
 10
617.9972684303908
 20
44.90815633802747
 30
0.0
 10
618.3865940963723
 20
46.90851959339704
 30
0.0
 10
619.113328921441
 20
50.64249802710724
 30
0.0
 10
620.0403965944129
 20
54.46516763215725
 30
0.0
 10
620.470816485086
 20
56.23996043472624
 30
0.0
  0
SPLINE
  5
50
330
1F
100
AcDbEntity
  8
0
  6
Continuous
 62
     7
370
    15
100
AcDbSpline
210
0.0
220
0.0
230
1.0
 70
     8
 71
     3
 72
    10
 73
     6
 74
     0
 42
0.00000001
 43
0.00000001
 12
1.0
 22
0.0
 32
0.0
 13
1.0
 23
0.0
 33
0.0
 40
0.0
 40
0.0
 40
0.0
 40
0.0
 40
0.0915303163553664
 40
0.7120554260290624
 40
1.0
 40
1.0
 40
1.0
 40
1.0
 10
592.2968780914931
 20
56.23996043472624
 30
0.0
 10
592.3847571194457
 20
55.88938517049857
 30
0.0
 10
593.0684075336417
 20
53.16210278948186
 30
0.0
 10
593.9172096557174
 20
49.35806736062442
 30
0.0
 10
594.534179130966
 20
45.99096498244704
 30
0.0
 10
594.7297310749678
 20
44.92374295263624
 30
0.0
  0
LINE
  5
51
330
1F
100
AcDbEntity
  8
0
  6
Continuous
 62
     7
370
    15
100
AcDbLine
 10
528.6888314704
 20
939.3547677424
 30
0.0
 11
528.6888314704
 21
938.9547609714
 31
0.0
  0
LINE
  5
52
330
1F
100
AcDbEntity
  8
0
  6
Continuous
 62
     7
370
    15
100
AcDbLine
 10
538.3888317565
 20
938.9547609714
 30
0.0
 11
538.3888317565
 21
939.3547677424
 31
0.0
  0
ARC
  5
53
330
1F
100
AcDbEntity
  8
0
  6
Continuous
 62
     7
370
    15
100
AcDbCircle
 10
528.9888317983
 20
939.3547764209
 30
0.0
 40
0.2999999999999545
100
AcDbArc
 50
90.0
 51
180.0
  0
ARC
  5
54
330
1F
100
AcDbEntity
  8
0
  6
Continuous
 62
     7
370
    15
100
AcDbCircle
 10
538.0888317983
 20
939.3547764209
 30
0.0
 40
0.3000000000000682
100
AcDbArc
 50
0.0
 51
90.0
  0
ARC
  5
55
330
1F
100
AcDbEntity
  8
0
  6
Continuous
 62
     7
370
    15
100
AcDbCircle
 10
528.9888317983
 20
938.9547764209
 30
0.0
 40
0.3000000000000682
100
AcDbArc
 50
180.0
 51
270.0
  0
ARC
  5
56
330
1F
100
AcDbEntity
  8
0
  6
Continuous
 62
     7
370
    15
100
AcDbCircle
 10
538.0888317983
 20
938.9547764209
 30
0.0
 40
0.3000000000000682
100
AcDbArc
 50
270.0
 51
0.0
  0
ARC
  5
57
330
1F
100
AcDbEntity
  8
0
  6
Continuous
 62
     7
370
    15
100
AcDbCircle
 10
529.7388317983
 20
938.3547764209
 30
0.0
 40
0.2999999999999545
100
AcDbArc
 50
0.0
 51
90.0
  0
ARC
  5
58
330
1F
100
AcDbEntity
  8
0
  6
Continuous
 62
     7
370
    15
100
AcDbCircle
 10
537.3388317983
 20
938.3547764209
 30
0.0
 40
0.3000000000000682
100
AcDbArc
 50
90.0
 51
180.0
  0
LINE
  5
59
330
1F
100
AcDbEntity
  8
0
  6
Continuous
 62
     7
370
    15
100
AcDbLine
 10
530.0388319711
 20
938.354780617
 30
0.0
 11
530.0388319711
 21
933.7547921565
 31
0.0
  0
LINE
  5
5A
330
1F
100
AcDbEntity
  8
0
  6
Continuous
 62
     7
370
    15
100
AcDbLine
 10
537.0388312558
 20
933.7547921565
 30
0.0
 11
537.0388312558
 21
938.354780617
 31
0.0
  0
LINE
  5
5B
330
1F
100
AcDbEntity
  8
0
  6
Continuous
 62
     7
370
    15
100
AcDbLine
 10
530.0388319711
 20
933.7547921565
 30
0.0
 11
530.2888324777
 21
933.1547521976
 31
0.0
  0
LINE
  5
5C
330
1F
100
AcDbEntity
  8
0
  6
Continuous
 62
     7
370
    15
100
AcDbLine
 10
536.7888307492
 20
933.1547521976
 30
0.0
 11
537.0388312558
 21
933.7547921565
 31
0.0
  0
LINE
  5
5D
330
1F
100
AcDbEntity
  8
0
  6
Continuous
 62
     7
370
    15
100
AcDbLine
 10
665.0388336102
 20
933.7547921565
 30
0.0
 11
665.2888303916
 21
933.1547521976
 31
0.0
  0
LINE
  5
5E
330
1F
100
AcDbEntity
  8
0
  6
Continuous
 62
     7
370
    15
100
AcDbLine
 10
671.7888361136
 20
933.1547521976
 30
0.0
 11
672.038832895
 21
933.7547921565
 31
0.0
  0
LINE
  5
5F
330
1F
100
AcDbEntity
  8
0
  6
Continuous
 62
     7
370
    15
100
AcDbLine
 10
665.0388336102
 20
937.9417204288
 30
0.0
 11
665.0388336102
 21
933.7547921565
 31
0.0
  0
LINE
  5
60
330
1F
100
AcDbEntity
  8
0
  6
Continuous
 62
     7
370
    15
100
AcDbLine
 10
672.038832895
 20
933.7547921565
 30
0.0
 11
672.038832895
 21
937.7284550097
 31
0.0
  0
LINE
  5
61
330
1F
100
AcDbEntity
  8
0
  6
Continuous
 62
     7
370
    15
100
AcDbLine
 10
603.438833944
 20
908.0695413974
 30
0.0
 11
603.438833944
 21
923.4399699595
 31
0.0
  0
ARC
  5
62
330
1F
100
AcDbEntity
  8
0
  6
Continuous
 62
     7
370
    15
100
AcDbCircle
 10
619.4388317982
 20
915.7547764209
 30
0.0
 40
17.74999999999997
100
AcDbArc
 50
145.656176155
 51
154.343823845
  0
LINE
  5
63
330
1F
100
AcDbEntity
  8
0
  6
Continuous
 62
     7
370
    15
100
AcDbLine
 10
604.7832390587
 20
925.7686042216
 30
0.0
 11
618.0944240014
 21
933.4537887004
 31
0.0
  0
ARC
  5
64
330
1F
100
AcDbEntity
  8
0
  6
Continuous
 62
     7
370
    15
100
AcDbCircle
 10
619.4388317982
 20
915.7547764209
 30
0.0
 40
17.75
100
AcDbArc
 50
85.656176155
 51
94.343823845
  0
LINE
  5
65
330
1F
100
AcDbEntity
  8
0
  6
Continuous
 62
     7
370
    15
100
AcDbLine
 10
620.7832416813
 20
933.4537887004
 30
0.0
 11
634.094426624
 21
925.7686042216
 31
0.0
  0
ARC
  5
66
330
1F
100
AcDbEntity
  8
0
  6
Continuous
 62
     7
370
    15
100
AcDbCircle
 10
619.4388317982
 20
915.7547764209
 30
0.0
 40
17.75000000000005
100
AcDbArc
 50
25.656176155
 51
34.343823845
  0
LINE
  5
67
330
1F
100
AcDbEntity
  8
0
  6
Continuous
 62
     7
370
    15
100
AcDbLine
 10
635.4388391892
 20
923.4399699595
 30
0.0
 11
635.4388391892
 21
908.0695413974
 31
0.0
  0
ARC
  5
68
330
1F
100
AcDbEntity
  8
0
  6
Continuous
 62
     7
370
    15
100
AcDbCircle
 10
619.4388317982
 20
915.7547764209
 30
0.0
 40
17.75000000000005
100
AcDbArc
 50
325.656176155
 51
334.343823845
  0
LINE
  5
69
330
1F
100
AcDbEntity
  8
0
  6
Continuous
 62
     7
370
    15
100
AcDbLine
 10
634.094426624
 20
905.7409667399
 30
0.0
 11
621.6056442181
 21
898.5305928615
 31
0.0
  0
ARC
  5
6A
330
1F
100
AcDbEntity
  8
0
  6
Continuous
 62
     7
370
    15
100
AcDbCircle
 10
619.4388317982
 20
915.7547764209
 30
0.0
 40
17.74999999999997
100
AcDbArc
 50
205.656176155
 51
214.343823845
  0
LINE
  5
6B
330
1F
100
AcDbEntity
  8
0
  6
Continuous
 62
     7
370
    15
100
AcDbLine
 10
617.4285060088
 20
898.44023222
 30
0.0
 11
604.7832390587
 21
905.7409667399
 31
0.0
  0
CIRCLE
  5
6C
330
1F
100
AcDbEntity
  8
0
  6
Continuous
 62
     7
370
    15
100
AcDbCircle
 10
619.4388317982
 20
915.7547764209
 30
0.0
 40
14.0
  0
CIRCLE
  5
6D
330
1F
100
AcDbEntity
  8
0
  6
Continuous
 62
     7
370
    15
100
AcDbCircle
 10
619.4388317982
 20
915.7547764209
 30
0.0
 40
12.5
  0
CIRCLE
  5
6E
330
1F
100
AcDbEntity
  8
0
  6
Continuous
 62
     7
370
    15
100
AcDbCircle
 10
619.4388317982
 20
915.7547764209
 30
0.0
 40
9.022469820561128
  0
CIRCLE
  5
6F
330
1F
100
AcDbEntity
  8
0
  6
Continuous
 62
     7
370
    15
100
AcDbCircle
 10
619.4388317982
 20
915.7547764209
 30
0.0
 40
9.0
  0
LINE
  5
70
330
1F
100
AcDbEntity
  8
0
  6
Continuous
 62
     7
370
    15
100
AcDbLine
 10
341.0388326565
 20
177.030941191
 30
0.0
 11
341.0388326565
 21
177.8814827081
 31
0.0
  0
LINE
  5
71
330
1F
100
AcDbEntity
  8
0
  6
Continuous
 62
     7
370
    15
100
AcDbLine
 10
340.2388340155
 20
177.8814827081
 30
0.0
 11
341.0388326565
 21
177.8814827081
 31
0.0
  0
LINE
  5
72
330
1F
100
AcDbEntity
  8
0
  6
Continuous
 62
     7
370
    15
100
AcDbLine
 10
340.2388340155
 20
177.030941191
 30
0.0
 11
340.2388340155
 21
177.8814827081
 31
0.0
  0
LINE
  5
73
330
1F
100
AcDbEntity
  8
0
  6
Continuous
 62
     7
370
    15
100
AcDbLine
 10
341.0458958069
 20
177.8885533091
 30
0.0
 11
341.688836209
 21
177.8885533091
 31
0.0
  0
LINE
  5
74
330
1F
100
AcDbEntity
  8
0
  6
Continuous
 62
     7
370
    15
100
AcDbLine
 10
341.0458958069
 20
178.2647852775
 30
0.0
 11
341.0458958069
 21
177.8885533091
 31
0.0
  0
SPLINE
  5
75
330
1F
100
AcDbEntity
  8
0
  6
Continuous
 62
     7
370
    15
100
AcDbSpline
210
0.0
220
0.0
230
1.0
 70
     8
 71
     3
 72
    10
 73
     6
 74
     0
 42
0.00000001
 43
0.00000001
 12
1.0
 22
0.0
 32
0.0
 13
1.0
 23
0.0
 33
0.0
 40
0.0
 40
0.0
 40
0.0
 40
0.0
 40
0.3692263463217242
 40
0.7387042864208896
 40
0.9999999999999999
 40
0.9999999999999999
 40
0.9999999999999999
 40
0.9999999999999999
 10
341.0388326565413
 20
177.8814827081475
 30
0.0
 10
341.058953353156
 20
177.7761078264173
 30
0.0
 10
341.0992084567883
 20
177.565286259672
 30
0.0
 10
341.3600148812895
 20
177.2798837208987
 30
0.0
 10
341.6093164027871
 20
177.099865535624
 30
0.0
 10
341.7125886599212
 20
177.0252936509166
 30
0.0
  0
SPLINE
  5
76
330
1F
100
AcDbEntity
  8
0
  6
Continuous
 62
     7
370
    15
100
AcDbSpline
210
0.0
220
0.0
230
1.0
 70
     8
 71
     3
 72
    12
 73
     8
 74
     0
 42
0.00000001
 43
0.00000001
 12
1.0
 22
0.0
 32
0.0
 13
1.0
 23
0.0
 33
0.0
 40
0.0
 40
0.0
 40
0.0
 40
0.0
 40
0.3189051098365872
 40
0.4692154105207733
 40
0.6315626836797327
 40
0.807967499744758
 40
1.0
 40
1.0
 40
1.0
 40
1.0
 10
341.7709714094786
 20
177.1555037227187
 30
0.0
 10
341.6552274401886
 20
177.2696100100249
 30
0.0
 10
341.4849295917358
 20
177.4374982839658
 30
0.0
 10
341.30726293191
 20
177.6372118007488
 30
0.0
 10
341.200312393893
 20
177.7671612704135
 30
0.0
 10
341.1100556778583
 20
177.867270366129
 30
0.0
 10
341.0678787577909
 20
177.8812611827123
 30
0.0
 10
341.0458958069472
 20
177.888553309134
 30
0.0
  0
LINE
  5
77
330
1F
100
AcDbEntity
  8
0
  6
Continuous
 62
     7
370
    15
100
AcDbLine
 10
699.4388347785
 20
68.2958864596
 30
0.0
 11
699.4388347785
 21
56.2958844927
 31
0.0
  0
LINE
  5
78
330
1F
100
AcDbEntity
  8
0
  6
Continuous
 62
     7
370
    15
100
AcDbLine
 10
299.438828818
 20
68.2958864596
 30
0.0
 11
299.438828818
 21
56.2958844927
 31
0.0
  0
LINE
  5
79
330
1F
100
AcDbEntity
  8
0
  6
Continuous
 62
     7
370
    15
100
AcDbLine
 10
339.4388353745
 20
123.845884296
 30
0.0
 11
299.438828818
 21
123.845884296
 31
0.0
  0
LINE
  5
7A
330
1F
100
AcDbEntity
  8
0
  6
Continuous
 62
     7
370
    15
100
AcDbLine
 10
699.4388347785
 20
123.845884296
 30
0.0
 11
659.438828222
 21
123.845884296
 31
0.0
  0
LINE
  5
7B
330
1F
100
AcDbEntity
  8
0
  6
Continuous
 62
     7
370
    15
100
AcDbLine
 10
699.4388347785
 20
123.845884296
 30
0.0
 11
699.4388347785
 21
68.2958864596
 31
0.0
  0
LINE
  5
7C
330
1F
100
AcDbEntity
  8
0
  6
Continuous
 62
     7
370
    15
100
AcDbLine
 10
299.438828818
 20
123.845884296
 30
0.0
 11
299.438828818
 21
68.2958864596
 31
0.0
  0
LINE
  5
7D
330
1F
100
AcDbEntity
  8
0
  6
Continuous
 62
     7
370
    15
100
AcDbLine
 10
659.438828222
 20
128.0958835956
 30
0.0
 11
339.4388353745
 21
128.0958835956
 31
0.0
  0
LINE
  5
7E
330
1F
100
AcDbEntity
  8
0
  6
Continuous
 62
     7
370
    15
100
AcDbLine
 10
339.4388353745
 20
123.845884296
 30
0.0
 11
339.4388353745
 21
128.0958835956
 31
0.0
  0
LINE
  5
7F
330
1F
100
AcDbEntity
  8
0
  6
Continuous
 62
     7
370
    15
100
AcDbLine
 10
659.438828222
 20
123.845884296
 30
0.0
 11
659.438828222
 21
128.0958835956
 31
0.0
  0
LINE
  5
80
330
1F
100
AcDbEntity
  8
0
  6
Continuous
 62
     7
370
    15
100
AcDbLine
 10
659.438828222
 20
176.9960352209
 30
0.0
 11
657.1888273875
 21
176.9960352209
 31
0.0
  0
LINE
  5
81
330
1F
100
AcDbEntity
  8
0
  6
Continuous
 62
     7
370
    15
100
AcDbLine
 10
339.4388353745
 20
176.9960352209
 30
0.0
 11
341.688836209
 21
176.9960352209
 31
0.0
  0
LINE
  5
82
330
1F
100
AcDbEntity
  8
0
  6
Continuous
 62
     7
370
    15
100
AcDbLine
 10
341.688836209
 20
176.9960352209
 30
0.0
 11
341.688836209
 21
177.9958845106
 31
0.0
  0
LINE
  5
83
330
1F
100
AcDbEntity
  8
0
  6
Continuous
 62
     7
370
    15
100
AcDbLine
 10
369.4388365666
 20
177.9958845106
 30
0.0
 11
341.688836209
 21
177.9958845106
 31
0.0
  0
LINE
  5
84
330
1F
100
AcDbEntity
  8
0
  6
Continuous
 62
     7
370
    15
100
AcDbLine
 10
657.1888273875
 20
177.9958845106
 30
0.0
 11
629.4388270299
 21
177.9958845106
 31
0.0
  0
LINE
  5
85
330
1F
100
AcDbEntity
  8
0
  6
Continuous
 62
     7
370
    15
100
AcDbLine
 10
657.1888273875
 20
176.9960352209
 30
0.0
 11
657.1888273875
 21
177.9958845106
 31
0.0
  0
LINE
  5
86
330
1F
100
AcDbEntity
  8
0
  6
Continuous
 62
     7
370
    15
100
AcDbLine
 10
369.4388365666
 20
178.030788618
 30
0.0
 11
341.688836209
 21
178.030788618
 31
0.0
  0
LINE
  5
87
330
1F
100
AcDbEntity
  8
0
  6
Continuous
 62
     7
370
    15
100
AcDbLine
 10
341.688836209
 20
177.9958845106
 30
0.0
 11
341.688836209
 21
178.030788618
 31
0.0
  0
LINE
  5
88
330
1F
100
AcDbEntity
  8
0
  6
Continuous
 62
     7
370
    15
100
AcDbLine
 10
657.1888273875
 20
178.030788618
 30
0.0
 11
629.4388270299
 21
178.030788618
 31
0.0
  0
LINE
  5
89
330
1F
100
AcDbEntity
  8
0
  6
Continuous
 62
     7
370
    15
100
AcDbLine
 10
657.1888273875
 20
177.9958845106
 30
0.0
 11
657.1888273875
 21
178.030788618
 31
0.0
  0
LINE
  5
8A
330
1F
100
AcDbEntity
  8
0
  6
Continuous
 62
     7
370
    15
100
AcDbLine
 10
341.688836209
 20
177.030941191
 30
0.0
 11
339.4388353745
 21
177.030941191
 31
0.0
  0
LINE
  5
8B
330
1F
100
AcDbEntity
  8
0
  6
Continuous
 62
     7
370
    15
100
AcDbLine
 10
659.438828222
 20
177.030941191
 30
0.0
 11
657.1888273875
 21
177.030941191
 31
0.0
  0
ARC
  5
8C
330
1F
100
AcDbEntity
  8
0
  6
Continuous
 62
     7
370
    15
100
AcDbCircle
 10
420.439143446
 20
165.3000062647
 30
0.0
 40
3.999685382827819
100
AcDbArc
 50
0.0042220432
 51
90.0045164613
  0
ARC
  5
8D
330
1F
100
AcDbEntity
  8
0
  6
Continuous
 62
     7
370
    15
100
AcDbCircle
 10
368.438534113
 20
165.2999839546
 30
0.0
 40
3.999707691728195
100
AcDbArc
 50
89.9956963847
 51
179.9954583891
  0
LINE
  5
8E
330
1F
100
AcDbEntity
  8
0
  6
Continuous
 62
     7
370
    15
100
AcDbLine
 10
368.43883454
 20
169.2996916351
 30
0.0
 11
420.4388281624
 21
169.2996916351
 31
0.0
  0
LINE
  5
8F
330
1F
100
AcDbEntity
  8
0
  6
Continuous
 62
     7
370
    15
100
AcDbLine
 10
424.438828818
 20
165.3003009957
 30
0.0
 11
424.438828818
 21
143.3036515479
 31
0.0
  0
LINE
  5
90
330
1F
100
AcDbEntity
  8
0
  6
Continuous
 62
     7
370
    15
100
AcDbLine
 10
364.4388264338
 20
143.3036515479
 30
0.0
 11
364.4388264338
 21
165.3003009957
 31
0.0
  0
ARC
  5
91
330
1F
100
AcDbEntity
  8
0
  6
Continuous
 62
     7
370
    15
100
AcDbCircle
 10
368.438533035
 20
143.3039670451
 30
0.0
 40
3.999706613614878
100
AcDbArc
 50
180.0045194964
 51
270.0043190587
  0
ARC
  5
92
330
1F
100
AcDbEntity
  8
0
  6
Continuous
 62
     7
370
    15
100
AcDbCircle
 10
420.439144524
 20
143.3039447351
 30
0.0
 40
3.999684304717817
100
AcDbArc
 50
269.9954680951
 51
359.9958000715
  0
ARC
  5
93
330
1F
100
AcDbEntity
  8
0
  6
Continuous
 62
     7
370
    15
100
AcDbCircle
 10
420.4391449115
 20
143.3737544251
 30
0.0
 40
3.999683917252013
100
AcDbArc
 50
269.9954625441
 51
359.9957989514
  0
ARC
  5
94
330
1F
100
AcDbEntity
  8
0
  6
Continuous
 62
     7
370
    15
100
AcDbCircle
 10
368.4385326475
 20
143.3737767351
 30
0.0
 40
3.999706226138245
100
AcDbArc
 50
180.0045206164
 51
270.0043246098
  0
LINE
  5
95
330
1F
100
AcDbEntity
  8
0
  6
Continuous
 62
     7
370
    15
100
AcDbLine
 10
420.4388281624
 20
139.3740705204
 30
0.0
 11
368.43883454
 21
139.3740705204
 31
0.0
  0
LINE
  5
96
330
1F
100
AcDbEntity
  8
0
  6
Continuous
 62
     7
370
    15
100
AcDbLine
 10
659.438828222
 20
840.2959012416
 30
0.0
 11
659.438828222
 21
128.0958835956
 31
0.0
  0
LINE
  5
97
330
1F
100
AcDbEntity
  8
0
  6
Continuous
 62
     7
370
    15
100
AcDbLine
 10
663.6888331095
 20
844.545891228
 30
0.0
 11
699.4388347785
 21
844.545891228
 31
0.0
  0
LINE
  5
98
330
1F
100
AcDbEntity
  8
0
  6
Continuous
 62
     7
370
    15
100
AcDbLine
 10
699.4388347785
 20
844.545891228
 30
0.0
 11
699.4388347785
 21
123.845884296
 31
0.0
  0
LINE
  5
99
330
1F
100
AcDbEntity
  8
0
  6
Continuous
 62
     7
370
    15
100
AcDbLine
 10
699.4388347785
 20
123.845884296
 30
0.0
 11
663.6888331095
 21
123.845884296
 31
0.0
  0
ARC
  5
9A
330
1F
100
AcDbEntity
  8
0
  6
Continuous
 62
     7
370
    15
100
AcDbCircle
 10
657.7513245611
 20
769.93052412
 30
0.0
 40
32.24578190534299
100
AcDbArc
 50
87.0001960237
 51
90.9995213905
  0
ARC
  5
9B
330
1F
100
AcDbEntity
  8
0
  6
Continuous
 62
     7
370
    15
100
AcDbCircle
 10
657.2646211048
 20
591.5291685374
 30
0.0
 40
210.6771133500909
100
AcDbArc
 50
89.4086918081
 51
90.0206128712
  0
ARC
  5
9C
330
1F
100
AcDbEntity
  8
0
  6
Continuous
 62
     7
370
    15
100
AcDbCircle
 10
657.7511484847
 20
146.0062935992
 30
0.0
 40
32.26502943536099
100
AcDbArc
 50
87.0016740736
 51
90.9986123494
  0
LINE
  5
9D
330
1F
100
AcDbEntity
  8
0
  6
Continuous
 62
     7
370
    15
100
AcDbLine
 10
629.4388270299
 20
802.2062682536
 30
0.0
 11
657.1888273875
 21
802.2062682536
 31
0.0
  0
LINE
  5
9E
330
1F
100
AcDbEntity
  8
0
  6
Continuous
 62
     7
370
    15
100
AcDbLine
 10
629.4388270299
 20
802.1713995364
 30
0.0
 11
657.1888273875
 21
802.1713995364
 31
0.0
  0
LINE
  5
9F
330
1F
100
AcDbEntity
  8
0
  6
Continuous
 62
     7
370
    15
100
AcDbLine
 10
629.4388270299
 20
178.2664225426
 30
0.0
 11
657.1888273875
 21
178.2664225426
 31
0.0
  0
LINE
  5
A0
330
1F
100
AcDbEntity
  8
0
  6
Continuous
 62
     7
370
    15
100
AcDbLine
 10
299.438828818
 20
844.545891228
 30
0.0
 11
299.438828818
 21
123.845884296
 31
0.0
  0
LINE
  5
A1
330
1F
100
AcDbEntity
  8
0
  6
Continuous
 62
     7
370
    15
100
AcDbLine
 10
335.1888304869
 20
844.545891228
 30
0.0
 11
299.438828818
 21
844.545891228
 31
0.0
  0
LINE
  5
A2
330
1F
100
AcDbEntity
  8
0
  6
Continuous
 62
     7
370
    15
100
AcDbLine
 10
299.438828818
 20
123.845884296
 30
0.0
 11
335.1888304869
 21
123.845884296
 31
0.0
  0
LINE
  5
A3
330
1F
100
AcDbEntity
  8
0
  6
Continuous
 62
     7
370
    15
100
AcDbLine
 10
339.4388353745
 20
840.2959012416
 30
0.0
 11
339.4388353745
 21
128.0958835956
 31
0.0
  0
ARC
  5
A4
330
1F
100
AcDbEntity
  8
0
  6
Continuous
 62
     7
370
    15
100
AcDbCircle
 10
341.1263390354
 20
769.93052412
 30
0.0
 40
32.24578190534299
100
AcDbArc
 50
89.0004786095
 51
92.9998039763
  0
ARC
  5
A5
330
1F
100
AcDbEntity
  8
0
  6
Continuous
 62
     7
370
    15
100
AcDbCircle
 10
341.1265151118
 20
146.0062935992
 30
0.0
 40
32.26502943536099
100
AcDbArc
 50
89.0013876506
 51
92.9983259264
  0
ARC
  5
A6
330
1F
100
AcDbEntity
  8
0
  6
Continuous
 62
     7
370
    15
100
AcDbCircle
 10
341.6130424917
 20
591.5291685374
 30
0.0
 40
210.6771133500909
100
AcDbArc
 50
89.9793871288
 51
90.5913081919
  0
LINE
  5
A7
330
1F
100
AcDbEntity
  8
0
  6
Continuous
 62
     7
370
    15
100
AcDbLine
 10
369.4388365666
 20
802.1713995364
 30
0.0
 11
341.688836209
 21
802.1713995364
 31
0.0
  0
LINE
  5
A8
330
1F
100
AcDbEntity
  8
0
  6
Continuous
 62
     7
370
    15
100
AcDbLine
 10
369.4388365666
 20
802.2062682536
 30
0.0
 11
341.688836209
 21
802.2062682536
 31
0.0
  0
LINE
  5
A9
330
1F
100
AcDbEntity
  8
0
  6
Continuous
 62
     7
370
    15
100
AcDbLine
 10
369.4388365666
 20
178.2664225426
 30
0.0
 11
341.688836209
 21
178.2664225426
 31
0.0
  0
LINE
  5
AA
330
1F
100
AcDbEntity
  8
0
  6
Continuous
 62
     7
370
    15
100
AcDbLine
 10
699.4388347785
 20
885.5489992526
 30
0.0
 11
699.4388347785
 21
881.2990092662
 31
0.0
  0
LINE
  5
AB
330
1F
100
AcDbEntity
  8
0
  6
Continuous
 62
     7
370
    15
100
AcDbLine
 10
699.4388347785
 20
881.2990092662
 30
0.0
 11
299.438828818
 21
881.2990092662
 31
0.0
  0
LINE
  5
AC
330
1F
100
AcDbEntity
  8
0
  6
Continuous
 62
     7
370
    15
100
AcDbLine
 10
299.438828818
 20
885.5489992526
 30
0.0
 11
299.438828818
 21
881.2990092662
 31
0.0
  0
LINE
  5
AD
330
1F
100
AcDbEntity
  8
0
  6
Continuous
 62
     7
370
    15
100
AcDbLine
 10
699.4388347785
 20
956.2990569499
 30
0.0
 11
299.438828818
 21
956.2990569499
 31
0.0
  0
LINE
  5
AE
330
1F
100
AcDbEntity
  8
0
  6
Continuous
 62
     7
370
    15
100
AcDbLine
 10
299.438828818
 20
956.2990569499
 30
0.0
 11
299.438828818
 21
952.0490073588
 31
0.0
  0
LINE
  5
AF
330
1F
100
AcDbEntity
  8
0
  6
Continuous
 62
     7
370
    15
100
AcDbLine
 10
699.4388347785
 20
956.2990569499
 30
0.0
 11
699.4388347785
 21
952.0490073588
 31
0.0
  0
LINE
  5
B0
330
1F
100
AcDbEntity
  8
0
  6
Continuous
 62
     7
370
    15
100
AcDbLine
 10
299.438828818
 20
952.0490073588
 30
0.0
 11
299.438828818
 21
885.5489992526
 31
0.0
  0
LINE
  5
B1
330
1F
100
AcDbEntity
  8
0
  6
Continuous
 62
     7
370
    15
100
AcDbLine
 10
319.4388246457
 20
936.2646245387
 30
0.0
 11
319.4388246457
 21
901.3334416774
 31
0.0
  0
LINE
  5
B2
330
1F
100
AcDbEntity
  8
0
  6
Continuous
 62
     7
370
    15
100
AcDbLine
 10
679.4388389508
 20
901.3334416774
 30
0.0
 11
679.4388389508
 21
936.2646245387
 31
0.0
  0
LINE
  5
B3
330
1F
100
AcDbEntity
  8
0
  6
Continuous
 62
     7
370
    15
100
AcDbLine
 10
699.4388347785
 20
952.0490073588
 30
0.0
 11
699.4388347785
 21
885.5489992526
 31
0.0
  0
LINE
  5
B4
330
1F
100
AcDbEntity
  8
0
  6
Continuous
 62
     7
370
    15
100
AcDbLine
 10
699.4388347785
 20
881.2990092662
 30
0.0
 11
699.4388347785
 21
879.0490531352
 31
0.0
  0
LINE
  5
B5
330
1F
100
AcDbEntity
  8
0
  6
Continuous
 62
     7
370
    15
100
AcDbLine
 10
299.438828818
 20
881.2990092662
 30
0.0
 11
299.438828818
 21
879.0490531352
 31
0.0
  0
LINE
  5
B6
330
1F
100
AcDbEntity
  8
0
  6
Continuous
 62
     7
370
    15
100
AcDbLine
 10
659.438828222
 20
840.2959012416
 30
0.0
 11
339.4388353745
 21
840.2959012416
 31
0.0
  0
LINE
  5
B7
330
1F
100
AcDbEntity
  8
0
  6
Continuous
 62
     7
370
    15
100
AcDbLine
 10
659.438828222
 20
840.2959012416
 30
0.0
 11
659.438828222
 21
844.545891228
 31
0.0
  0
LINE
  5
B8
330
1F
100
AcDbEntity
  8
0
  6
Continuous
 62
     7
370
    15
100
AcDbLine
 10
339.4388353745
 20
840.2959012416
 30
0.0
 11
339.4388353745
 21
844.545891228
 31
0.0
  0
LINE
  5
B9
330
1F
100
AcDbEntity
  8
0
  6
Continuous
 62
     7
370
    15
100
AcDbLine
 10
699.4388347785
 20
844.545891228
 30
0.0
 11
659.438828222
 21
844.545891228
 31
0.0
  0
LINE
  5
BA
330
1F
100
AcDbEntity
  8
0
  6
Continuous
 62
     7
370
    15
100
AcDbLine
 10
299.438828818
 20
844.545891228
 30
0.0
 11
339.4388353745
 21
844.545891228
 31
0.0
  0
LINE
  5
BB
330
1F
100
AcDbEntity
  8
0
  6
Continuous
 62
     7
370
    15
100
AcDbLine
 10
299.438828818
 20
879.0490531352
 30
0.0
 11
299.438828818
 21
844.545891228
 31
0.0
  0
LINE
  5
BC
330
1F
100
AcDbEntity
  8
0
  6
Continuous
 62
     7
370
    15
100
AcDbLine
 10
699.4388347785
 20
879.0490531352
 30
0.0
 11
699.4388347785
 21
844.545891228
 31
0.0
  0
LINE
  5
BD
330
1F
100
AcDbEntity
  8
0
  6
Continuous
 62
     7
370
    15
100
AcDbLine
 10
657.1849679867
 20
802.5959038165
 30
0.0
 11
629.4388270299
 21
802.5959038165
 31
0.0
  0
LINE
  5
BE
330
1F
100
AcDbEntity
  8
0
  6
Continuous
 62
     7
370
    15
100
AcDbLine
 10
369.4388365666
 20
802.5959038165
 30
0.0
 11
341.6926956097
 21
802.5959038165
 31
0.0
  0
LINE
  5
BF
330
1F
100
AcDbEntity
  8
0
  6
Continuous
 62
     7
370
    15
100
AcDbLine
 10
341.6926956097
 20
803.595712128
 30
0.0
 11
341.6926956097
 21
802.5959038165
 31
0.0
  0
LINE
  5
C0
330
1F
100
AcDbEntity
  8
0
  6
Continuous
 62
     7
370
    15
100
AcDbLine
 10
341.6926956097
 20
803.595712128
 30
0.0
 11
339.4388353745
 21
803.595712128
 31
0.0
  0
LINE
  5
C1
330
1F
100
AcDbEntity
  8
0
  6
Continuous
 62
     7
370
    15
100
AcDbLine
 10
657.1849679867
 20
803.595712128
 30
0.0
 11
659.438828222
 21
803.595712128
 31
0.0
  0
LINE
  5
C2
330
1F
100
AcDbEntity
  8
0
  6
Continuous
 62
     7
370
    15
100
AcDbLine
 10
657.1849679867
 20
803.595712128
 30
0.0
 11
657.1849679867
 21
802.5959038165
 31
0.0
  0
ELLIPSE
  5
C3
330
1F
100
AcDbEntity
  8
0
  6
Continuous
 62
     7
370
    15
100
AcDbEllipse
 10
695.9311921232
 20
949.7913882841
 30
0.0
 11
1.424997215780422
 21
1.424997215780536
 31
0.0
210
0.0
220
0.0
230
1.0
 40
0.9924325091
 41
5.501585242055455
 42
7.064785372303709
  0
ELLIPSE
  5
C4
330
1F
100
AcDbEntity
  8
0
  6
Continuous
 62
     7
370
    15
100
AcDbEllipse
 10
302.9464714734
 20
949.7913882841
 30
0.0
 11
-1.424997215780536
 21
1.424997215780536
 31
0.0
210
0.0
220
0.0
230
1.0
 40
0.9924325091
 41
5.501585242055455
 42
7.064785372303701
  0
LINE
  5
C5
330
1F
100
AcDbEntity
  8
0
  6
Continuous
 62
     7
370
    15
100
AcDbLine
 10
695.9464496295
 20
951.7990254787
 30
0.0
 11
302.931213967
 21
951.7990254787
 31
0.0
  0
LINE
  5
C6
330
1F
100
AcDbEntity
  8
0
  6
Continuous
 62
     7
370
    15
100
AcDbLine
 10
697.9388391892
 20
887.7914451983
 30
0.0
 11
697.9388391892
 21
949.8066210177
 31
0.0
  0
LINE
  5
C7
330
1F
100
AcDbEntity
  8
0
  6
Continuous
 62
     7
370
    15
100
AcDbLine
 10
300.9388244073
 20
949.8066210177
 30
0.0
 11
300.9388244073
 21
887.7914451983
 31
0.0
  0
LINE
  5
C8
330
1F
100
AcDbEntity
  8
0
  6
Continuous
 62
     7
370
    15
100
AcDbLine
 10
683.9372312943
 20
930.1321410564
 30
0.0
 11
683.9372312943
 21
927.0685219195
 31
0.0
  0
LINE
  5
C9
330
1F
100
AcDbEntity
  8
0
  6
Continuous
 62
     7
370
    15
100
AcDbLine
 10
683.9372312943
 20
910.5295442966
 30
0.0
 11
683.9372312943
 21
907.4659251597
 31
0.0
  0
LINE
  5
CA
330
1F
100
AcDbEntity
  8
0
  6
Continuous
 62
     7
370
    15
100
AcDbLine
 10
493.9372388008
 20
902.2003912356
 30
0.0
 11
493.9372388008
 21
935.3976749805
 31
0.0
  0
LINE
  5
CB
330
1F
100
AcDbEntity
  8
0
  6
Continuous
 62
     7
370
    15
100
AcDbLine
 10
578.9372420231
 20
902.6906990436
 30
0.0
 11
578.9372420231
 21
934.9073671725
 31
0.0
  0
LINE
  5
CC
330
1F
100
AcDbEntity
  8
0
  6
Continuous
 62
     7
370
    15
100
AcDbLine
 10
504.9404247957
 20
935.3976749805
 30
0.0
 11
504.9404247957
 21
902.2003912356
 31
0.0
  0
LINE
  5
CD
330
1F
100
AcDbEntity
  8
0
  6
Continuous
 62
     7
370
    15
100
AcDbLine
 10
314.9404323022
 20
930.1321410564
 30
0.0
 11
314.9404323022
 21
927.0685219195
 31
0.0
  0
LINE
  5
CE
330
1F
100
AcDbEntity
  8
0
  6
Continuous
 62
     7
370
    15
100
AcDbLine
 10
314.9404323022
 20
910.5295442966
 30
0.0
 11
314.9404323022
 21
907.4659251597
 31
0.0
  0
LINE
  5
CF
330
1F
100
AcDbEntity
  8
0
  6
Continuous
 62
     7
370
    15
100
AcDbLine
 10
589.9404233615
 20
934.5856809047
 30
0.0
 11
589.9404233615
 21
903.0123853114
 31
0.0
  0
LINE
  5
D0
330
1F
100
AcDbEntity
  8
0
  6
Continuous
 62
     7
370
    15
100
AcDbLine
 10
419.9404215733
 20
934.9073671725
 30
0.0
 11
419.9404215733
 21
902.6906990436
 31
0.0
  0
LINE
  5
D1
330
1F
100
AcDbEntity
  8
0
  6
Continuous
 62
     7
370
    15
100
AcDbLine
 10
408.937240235
 20
903.0123853114
 30
0.0
 11
408.937240235
 21
934.5856809047
 31
0.0
  0
ELLIPSE
  5
D2
330
1F
100
AcDbEntity
  8
0
  6
Continuous
 62
     7
370
    15
100
AcDbEllipse
 10
695.9311921232
 20
887.8066676343
 30
0.0
 11
1.424997215780422
 21
-1.424997215780422
 31
0.0
210
0.0
220
0.0
230
1.0
 40
0.9924325091
 41
5.501585242055476
 42
7.064785372303652
  0
ELLIPSE
  5
D3
330
1F
100
AcDbEntity
  8
0
  6
Continuous
 62
     7
370
    15
100
AcDbEllipse
 10
302.9464714734
 20
887.8066676343
 30
0.0
 11
-1.424997215780536
 21
-1.424997215780422
 31
0.0
210
0.0
220
0.0
230
1.0
 40
0.9924325091
 41
5.501585242055534
 42
7.064785372303761
  0
LINE
  5
D4
330
1F
100
AcDbEntity
  8
0
  6
Continuous
 62
     7
370
    15
100
AcDbLine
 10
302.931213967
 20
885.7990407374
 30
0.0
 11
695.9464496295
 21
885.7990407374
 31
0.0
  0
SPLINE
  5
D5
330
1F
100
AcDbEntity
  8
0
  6
Continuous
 62
     7
370
    15
100
AcDbSpline
210
0.0
220
0.0
230
1.0
 70
     8
 71
     3
 72
    19
 73
    15
 74
     0
 42
0.00000001
 43
0.00000001
 12
1.0
 22
0.0
 32
0.0
 13
1.0
 23
0.0
 33
0.0
 40
0.0
 40
0.0
 40
0.0
 40
0.0
 40
0.324381703630739
 40
0.5392418483367127
 40
0.6822246354978984
 40
0.7780880860523872
 40
0.843079861269534
 40
0.8878385050095787
 40
0.9311115870467996
 40
0.9564447339999118
 40
0.972583090265551
 40
0.9849207175231237
 40
0.9973134609978377
 40
0.9999999999999999
 40
0.9999999999999999
 40
0.9999999999999999
 40
0.9999999999999999
 10
315.5528402249007
 20
910.1462864306483
 30
0.0
 10
315.485527952744
 20
910.2863697283431
 30
0.0
 10
315.373630167982
 20
910.5192397562289
 30
0.0
 10
315.2313197286967
 20
910.7649631804171
 30
0.0
 10
315.1362619956303
 20
910.8908536419578
 30
0.0
 10
315.0723181427437
 20
910.9410714348193
 30
0.0
 10
315.0289012060364
 20
910.9459055032564
 30
0.0
 10
314.9966878876972
 20
910.9214525420011
 30
0.0
 10
314.9730264723014
 20
910.8741950076997
 30
0.0
 10
314.9562142465987
 20
910.7994846554698
 30
0.0
 10
314.9469540862662
 20
910.7211966725296
 30
0.0
 10
314.9419333767979
 20
910.6386660034834
 30
0.0
 10
314.9404775012766
 20
910.5725138713482
 30
0.0
 10
314.9404391371453
 20
910.5360421350429
 30
0.0
 10
314.940432302156
 20
910.529544296554
 30
0.0
  0
SPLINE
  5
D6
330
1F
100
AcDbEntity
  8
0
  6
Continuous
 62
     7
370
    15
100
AcDbSpline
210
0.0
220
0.0
230
1.0
 70
     8
 71
     3
 72
    14
 73
    10
 74
     0
 42
0.00000001
 43
0.00000001
 12
1.0
 22
0.0
 32
0.0
 13
1.0
 23
0.0
 33
0.0
 40
0.0
 40
0.0
 40
0.0
 40
0.0
 40
0.0119882848701952
 40
0.0239923006686476
 40
0.0398827737171141
 40
0.0687367164456765
 40
0.1675517062303719
 40
0.6411399363881124
 40
1.0
 40
1.0
 40
1.0
 40
1.0
 10
314.940432302156
 20
927.0685219195399
 30
0.0
 10
314.9406519049095
 20
927.0393413064534
 30
0.0
 10
314.9410913985776
 20
926.9809417897206
 30
0.0
 10
314.9454717912927
 20
926.8952561916809
 30
0.0
 10
314.954725003619
 20
926.8053090241083
 30
0.0
 10
314.9833214245909
 20
926.6767063573632
 30
0.0
 10
315.1113120161825
 20
926.6003265221149
 30
0.0
 10
315.3057339222278
 20
926.9514785384897
 30
0.0
 10
315.4784039272398
 20
927.3010730971266
 30
0.0
 10
315.5528402249007
 20
927.4517797854456
 30
0.0
  0
LINE
  5
D7
330
1F
100
AcDbEntity
  8
0
  6
Continuous
 62
     7
370
    15
100
AcDbLine
 10
315.5528402249
 20
927.4517797854
 30
0.0
 11
316.648105375
 21
925.7291459468
 31
0.0
  0
LINE
  5
D8
330
1F
100
AcDbEntity
  8
0
  6
Continuous
 62
     7
370
    15
100
AcDbLine
 10
316.648105375
 20
911.8689202693
 30
0.0
 11
315.5528402249
 21
910.1462864306
 31
0.0
  0
LINE
  5
D9
330
1F
100
AcDbEntity
  8
0
  6
Continuous
 62
     7
370
    15
100
AcDbLine
 10
683.3248233716
 20
910.1462864306
 30
0.0
 11
682.2295582215
 21
911.8689202693
 31
0.0
  0
LINE
  5
DA
330
1F
100
AcDbEntity
  8
0
  6
Continuous
 62
     7
370
    15
100
AcDbLine
 10
682.2295582215
 20
925.7291459468
 30
0.0
 11
683.3248233716
 21
927.4517797854
 31
0.0
  0
SPLINE
  5
DB
330
1F
100
AcDbEntity
  8
0
  6
Continuous
 62
     7
370
    15
100
AcDbSpline
210
0.0
220
0.0
230
1.0
 70
     8
 71
     3
 72
    19
 73
    15
 74
     0
 42
0.00000001
 43
0.00000001
 12
1.0
 22
0.0
 32
0.0
 13
1.0
 23
0.0
 33
0.0
 40
0.0
 40
0.0
 40
0.0
 40
0.0
 40
0.3243813393923511
 40
0.5392412428383776
 40
0.6822238694485232
 40
0.7780877289370929
 40
0.8430794311769443
 40
0.8878386309523236
 40
0.9311116643995117
 40
0.9564447829068006
 40
0.9725831210511684
 40
0.9849207344551933
 40
0.997313464014471
 40
1.0
 40
1.0
 40
1.0
 40
1.0
 10
683.3248233715682
 20
927.4517797854458
 30
0.0
 10
683.3921356635944
 20
927.311698797218
 30
0.0
 10
683.5040334813868
 20
927.0788326085171
 30
0.0
 10
683.6463437540567
 20
926.8330898183044
 30
0.0
 10
683.7414019462052
 20
926.7072399936495
 30
0.0
 10
683.8053451722723
 20
926.6569366247087
 30
0.0
 10
683.8487627378854
 20
926.652070813858
 30
0.0
 10
683.8809754491496
 20
926.6766332268026
 30
0.0
 10
683.9046371439489
 20
926.7238682643956
 30
0.0
 10
683.9214493473952
 20
926.7985819289464
 30
0.0
 10
683.9307095105983
 20
926.8768694846892
 30
0.0
 10
683.935730219573
 20
926.9594002271823
 30
0.0
 10
683.9371860951966
 20
927.0255523441241
 30
0.0
 10
683.9372244593243
 20
927.062024080957
 30
0.0
 10
683.9372312943129
 20
927.0685219195399
 30
0.0
  0
SPLINE
  5
DC
330
1F
100
AcDbEntity
  8
0
  6
Continuous
 62
     7
370
    15
100
AcDbSpline
210
0.0
220
0.0
230
1.0
 70
     8
 71
     3
 72
    14
 73
    10
 74
     0
 42
0.00000001
 43
0.00000001
 12
1.0
 22
0.0
 32
0.0
 13
1.0
 23
0.0
 33
0.0
 40
0.0
 40
0.0
 40
0.0
 40
0.0
 40
0.0127171204936517
 40
0.0254499439752128
 40
0.0421364405955347
 40
0.0736059621456989
 40
0.1869944667262164
 40
0.6362550544673847
 40
1.0
 40
1.0
 40
1.0
 40
1.0
 10
683.9372312943129
 20
910.5295442965541
 30
0.0
 10
683.9369786920012
 20
910.560535642743
 30
0.0
 10
683.9364731754665
 20
910.6225566029608
 30
0.0
 10
683.931570858444
 20
910.7114702803113
 30
0.0
 10
683.9213580051222
 20
910.803573006716
 30
0.0
 10
683.8887828438948
 20
910.9358938366524
 30
0.0
 10
683.7621963449503
 20
910.973609945073
 30
0.0
 10
683.5689751954181
 20
910.6446740203144
 30
0.0
 10
683.4002930598899
 20
910.3003428512083
 30
0.0
 10
683.3248233715682
 20
910.1462864306483
 30
0.0
  0
ARC
  5
DD
330
1F
100
AcDbEntity
  8
0
  6
Continuous
 62
     7
370
    15
100
AcDbCircle
 10
309.4388317983
 20
918.7990279592
 30
0.0
 40
10.00000000000002
100
AcDbArc
 50
316.1311450389
 51
43.8688549611
  0
ARC
  5
DE
330
1F
100
AcDbEntity
  8
0
  6
Continuous
 62
     7
370
    15
100
AcDbCircle
 10
689.4388317983
 20
918.7990279592
 30
0.0
 40
10.00000000000002
100
AcDbArc
 50
136.1311450389
 51
223.8688549611
  0
ARC
  5
DF
330
1F
100
AcDbEntity
  8
0
  6
Continuous
 62
     7
370
    15
100
AcDbCircle
 10
499.4388317983
 20
6450.3406946259
 30
0.0
 40
5553.15408731135
100
AcDbArc
 50
270.1083239506
 51
270.7694911169
  0
ARC
  5
E0
330
1F
100
AcDbEntity
  8
0
  6
Continuous
 62
     7
370
    15
100
AcDbCircle
 10
499.4388317983
 20
-4612.7426387075
 30
0.0
 40
5553.15408731135
100
AcDbArc
 50
90.1083239506
 51
90.7694911169
  0
ARC
  5
E1
330
1F
100
AcDbEntity
  8
0
  6
Continuous
 62
     7
370
    15
100
AcDbCircle
 10
499.4388317983
 20
6450.3406946259
 30
0.0
 40
5553.15408731135
100
AcDbArc
 50
269.2305088831
 51
269.8916760494
  0
ARC
  5
E2
330
1F
100
AcDbEntity
  8
0
  6
Continuous
 62
     7
370
    15
100
AcDbCircle
 10
499.4388317983
 20
-4612.7426387075
 30
0.0
 40
5553.15408731135
100
AcDbArc
 50
89.2305088831
 51
89.8916760494
  0
SPLINE
  5
E3
330
1F
100
AcDbEntity
  8
0
  6
Continuous
 62
     7
370
    15
100
AcDbSpline
210
0.0
220
0.0
230
1.0
 70
     8
 71
     3
 72
    12
 73
     8
 74
     0
 42
0.00000001
 43
0.00000001
 12
1.0
 22
0.0
 32
0.0
 13
1.0
 23
0.0
 33
0.0
 40
0.0
 40
0.0
 40
0.0
 40
0.0
 40
0.2154605372783401
 40
0.4309421758325631
 40
0.6457503176077694
 40
0.859752043313675
 40
1.0
 40
1.0
 40
1.0
 40
1.0
 10
493.9372388007729
 20
935.3976749804531
 30
0.0
 10
493.8819249810409
 20
935.9620862387271
 30
0.0
 10
493.7712919243799
 20
937.0909640312796
 30
0.0
 10
492.9068607129383
 20
938.5943388190175
 30
0.0
 10
491.6355690937235
 20
939.7247628249747
 30
0.0
 10
490.2314012044017
 20
940.3193328533995
 30
0.0
 10
489.3062572522385
 20
940.3782278861604
 30
0.0
 10
488.9399914364009
 20
940.4015445139918
 30
0.0
  0
SPLINE
  5
E4
330
1F
100
AcDbEntity
  8
0
  6
Continuous
 62
     7
370
    15
100
AcDbSpline
210
0.0
220
0.0
230
1.0
 70
     8
 71
     3
 72
    12
 73
     8
 74
     0
 42
0.00000001
 43
0.00000001
 12
1.0
 22
0.0
 32
0.0
 13
1.0
 23
0.0
 33
0.0
 40
0.0
 40
0.0
 40
0.0
 40
0.0
 40
0.2154605372783401
 40
0.4309421758325631
 40
0.6457503176077694
 40
0.859752043313675
 40
1.0
 40
1.0
 40
1.0
 40
1.0
 10
504.940424795696
 20
902.2003912356411
 30
0.0
 10
504.995738615428
 20
901.6359799773675
 30
0.0
 10
505.1063716720889
 20
900.507102184815
 30
0.0
 10
505.9708028835307
 20
899.0037273970763
 30
0.0
 10
507.2420945027454
 20
897.8733033911192
 30
0.0
 10
508.6462623920672
 20
897.278733362695
 30
0.0
 10
509.5714063442304
 20
897.2198383299336
 30
0.0
 10
509.937672160068
 20
897.1965217021021
 30
0.0
  0
SPLINE
  5
E5
330
1F
100
AcDbEntity
  8
0
  6
Continuous
 62
     7
370
    15
100
AcDbSpline
210
0.0
220
0.0
230
1.0
 70
     8
 71
     3
 72
    12
 73
     8
 74
     0
 42
0.00000001
 43
0.00000001
 12
1.0
 22
0.0
 32
0.0
 13
1.0
 23
0.0
 33
0.0
 40
0.0
 40
0.0
 40
0.0
 40
0.0
 40
0.2137384738820716
 40
0.4274781353467643
 40
0.6411734277989484
 40
0.8553623612366618
 40
1.0
 40
1.0
 40
1.0
 40
1.0
 10
488.9399914364009
 20
897.1965217021022
 30
0.0
 10
489.5000059475896
 20
897.250476245189
 30
0.0
 10
490.620038081543
 20
897.3583856311476
 30
0.0
 10
492.1141061141172
 20
898.2141287219677
 30
0.0
 10
493.2435090348376
 20
899.4763778721768
 30
0.0
 10
493.8493611899161
 20
900.8855511133181
 30
0.0
 10
493.9119928947925
 20
901.8226575924098
 30
0.0
 10
493.9372388007729
 20
902.200391235641
 30
0.0
  0
SPLINE
  5
E6
330
1F
100
AcDbEntity
  8
0
  6
Continuous
 62
     7
370
    15
100
AcDbSpline
210
0.0
220
0.0
230
1.0
 70
     8
 71
     3
 72
    12
 73
     8
 74
     0
 42
0.00000001
 43
0.00000001
 12
1.0
 22
0.0
 32
0.0
 13
1.0
 23
0.0
 33
0.0
 40
0.0
 40
0.0
 40
0.0
 40
0.0
 40
0.2137389011502069
 40
0.427482669931362
 40
0.6411727104963609
 40
0.8553620721026886
 40
1.0
 40
1.0
 40
1.0
 40
1.0
 10
509.937672160068
 20
940.4015445139919
 30
0.0
 10
509.3776541075351
 20
940.3475955061988
 30
0.0
 10
508.2576052487722
 20
940.2396962619921
 30
0.0
 10
506.7635965916328
 20
939.3838668408368
 30
0.0
 10
505.6341337604415
 20
938.1216897894615
 30
0.0
 10
505.0283047446802
 20
936.7125126647243
 30
0.0
 10
504.965671373385
 20
935.775407923269
 30
0.0
 10
504.940424795696
 20
935.3976749804531
 30
0.0
  0
SPLINE
  5
E7
330
1F
100
AcDbEntity
  8
0
  6
Continuous
 62
     7
370
    15
100
AcDbSpline
210
0.0
220
0.0
230
1.0
 70
     8
 71
     3
 72
    12
 73
     8
 74
     0
 42
0.00000001
 43
0.00000001
 12
1.0
 22
0.0
 32
0.0
 13
1.0
 23
0.0
 33
0.0
 40
0.0
 40
0.0
 40
0.0
 40
0.0
 40
0.217559021065091
 40
0.4351444866201717
 40
0.6520488817690051
 40
0.8681530783409201
 40
1.0
 40
1.0
 40
1.0
 40
1.0
 10
578.937242023149
 20
934.9073671725306
 30
0.0
 10
578.8819247679841
 20
935.4717410416234
 30
0.0
 10
578.7712835337932
 20
936.6005573799488
 30
0.0
 10
577.9069446927209
 20
938.1037970268751
 30
0.0
 10
576.6356372089682
 20
939.2344385959454
 30
0.0
 10
575.2555065834773
 20
939.8180393142542
 30
0.0
 10
574.3568334442521
 20
939.8851941147984
 30
0.0
 10
574.0163049022345
 20
939.9106406596217
 30
0.0
  0
SPLINE
  5
E8
330
1F
100
AcDbEntity
  8
0
  6
Continuous
 62
     7
370
    15
100
AcDbSpline
210
0.0
220
0.0
230
1.0
 70
     8
 71
     3
 72
    12
 73
     8
 74
     0
 42
0.00000001
 43
0.00000001
 12
1.0
 22
0.0
 32
0.0
 13
1.0
 23
0.0
 33
0.0
 40
0.0
 40
0.0
 40
0.0
 40
0.0
 40
0.2175585426145059
 40
0.4351435296608454
 40
0.6520525557575952
 40
0.8681533682955104
 40
1.0
 40
1.0
 40
1.0
 40
1.0
 10
419.9404215733199
 20
902.6906990435633
 30
0.0
 10
419.9957376547618
 20
902.1263236204834
 30
0.0
 10
420.1063765413638
 20
900.9975041739954
 30
0.0
 10
420.9707397437485
 20
899.4942760403561
 30
0.0
 10
422.2419897700648
 20
898.3635468636674
 30
0.0
 10
423.6221698590452
 20
897.780037329547
 30
0.0
 10
424.5208316178151
 20
897.712875121084
 30
0.0
 10
424.8613586942344
 20
897.6874255564722
 30
0.0
  0
SPLINE
  5
E9
330
1F
100
AcDbEntity
  8
0
  6
Continuous
 62
     7
370
    15
100
AcDbSpline
210
0.0
220
0.0
230
1.0
 70
     8
 71
     3
 72
    12
 73
     8
 74
     0
 42
0.00000001
 43
0.00000001
 12
1.0
 22
0.0
 32
0.0
 13
1.0
 23
0.0
 33
0.0
 40
0.0
 40
0.0
 40
0.0
 40
0.0
 40
0.2158347940584313
 40
0.4316758651258299
 40
0.6474783522730736
 40
0.8638045147735052
 40
1.0
 40
1.0
 40
1.0
 40
1.0
 10
424.8613586942344
 20
939.9106406596217
 30
0.0
 10
424.3022261297986
 20
939.8481277314685
 30
0.0
 10
423.1839447399709
 20
939.7231000571319
 30
0.0
 10
421.7032827365636
 20
938.8444273086053
 30
0.0
 10
420.5928759516117
 20
937.5650091608791
 30
0.0
 10
420.0194663482499
 20
936.1709049437646
 30
0.0
 10
419.9624497379786
 20
935.2594893476123
 30
0.0
 10
419.9404215733199
 20
934.9073671725306
 30
0.0
  0
SPLINE
  5
EA
330
1F
100
AcDbEntity
  8
0
  6
Continuous
 62
     7
370
    15
100
AcDbSpline
210
0.0
220
0.0
230
1.0
 70
     8
 71
     3
 72
    12
 73
     8
 74
     0
 42
0.00000001
 43
0.00000001
 12
1.0
 22
0.0
 32
0.0
 13
1.0
 23
0.0
 33
0.0
 40
0.0
 40
0.0
 40
0.0
 40
0.0
 40
0.2158342556914073
 40
0.4316709694353703
 40
0.6474787307682633
 40
0.8637972038461601
 40
1.0
 40
1.0
 40
1.0
 40
1.0
 10
574.0163049022345
 20
897.6874255564722
 30
0.0
 10
574.5754337463826
 20
897.7499439450205
 30
0.0
 10
575.6936978023804
 20
897.8749814341144
 30
0.0
 10
577.1744219071471
 20
898.753568870153
 30
0.0
 10
578.2847483647881
 20
900.0330458906394
 30
0.0
 10
578.8582141472616
 20
901.4271348675887
 30
0.0
 10
578.915217698111
 20
902.3385556029662
 30
0.0
 10
578.937242023149
 20
902.6906990435633
 30
0.0
  0
ARC
  5
EB
330
1F
100
AcDbEntity
  8
0
  6
Continuous
 62
     7
370
    15
100
AcDbCircle
 10
324.6920233141
 20
910.5544460725
 30
0.0
 40
10.61242064468139
100
AcDbArc
 50
213.2125857976
 51
268.1932631805
  0
LINE
  5
EC
330
1F
100
AcDbEntity
  8
0
  6
Continuous
 62
     7
370
    15
100
AcDbLine
 10
315.8132082144
 20
904.7415160564
 30
0.0
 11
315.6058436553
 21
905.0760769275
 31
0.0
  0
ARC
  5
ED
330
1F
100
AcDbEntity
  8
0
  6
Continuous
 62
     7
370
    15
100
AcDbCircle
 10
674.1856402824
 20
927.0436098459
 30
0.0
 40
10.61242064468153
100
AcDbArc
 50
33.2125857976
 51
88.1932631805
  0
LINE
  5
EE
330
1F
100
AcDbEntity
  8
0
  6
Continuous
 62
     7
370
    15
100
AcDbLine
 10
683.064455382
 20
932.8565501597
 30
0.0
 11
683.2718199412
 21
932.5219892886
 31
0.0
  0
ARC
  5
EF
330
1F
100
AcDbEntity
  8
0
  6
Continuous
 62
     7
370
    15
100
AcDbCircle
 10
674.1856402824
 20
910.5544460725
 30
0.0
 40
10.61242064468185
100
AcDbArc
 50
271.8067368195
 51
326.7874142024
  0
LINE
  5
F0
330
1F
100
AcDbEntity
  8
0
  6
Continuous
 62
     7
370
    15
100
AcDbLine
 10
683.2718199412
 20
905.0760769275
 30
0.0
 11
683.064455382
 21
904.7415160564
 31
0.0
  0
ARC
  5
F1
330
1F
100
AcDbEntity
  8
0
  6
Continuous
 62
     7
370
    15
100
AcDbCircle
 10
324.6920233141
 20
927.0436098459
 30
0.0
 40
10.61242064468146
100
AcDbArc
 50
91.8067368195
 51
146.7874142024
  0
LINE
  5
F2
330
1F
100
AcDbEntity
  8
0
  6
Continuous
 62
     7
370
    15
100
AcDbLine
 10
315.6058436553
 20
932.5219892886
 30
0.0
 11
315.8132082144
 21
932.8565501597
 31
0.0
  0
SPLINE
  5
F3
330
1F
100
AcDbEntity
  8
0
  6
Continuous
 62
     7
370
    15
100
AcDbSpline
210
0.0
220
0.0
230
1.0
 70
     8
 71
     3
 72
    12
 73
     8
 74
     0
 42
0.00000001
 43
0.00000001
 12
1.0
 22
0.0
 32
0.0
 13
1.0
 23
0.0
 33
0.0
 40
0.0
 40
0.0
 40
0.0
 40
0.0
 40
0.211684395969836
 40
0.4233741484441997
 40
0.6349985524871167
 40
0.8470937921199964
 40
1.0
 40
1.0
 40
1.0
 40
1.0
 10
403.8636779705672
 20
898.0091118243251
 30
0.0
 10
404.4244524533124
 20
898.05446175684
 30
0.0
 10
405.5460156087531
 20
898.1451627694137
 30
0.0
 10
407.0530307208853
 20
898.9779744549442
 30
0.0
 10
408.2012668225742
 20
900.2226623595058
 30
0.0
 10
408.8400910833208
 20
901.6462456350217
 30
0.0
 10
408.9085580785888
 20
902.6090484710032
 30
0.0
 10
408.9372402350097
 20
903.0123853114161
 30
0.0
  0
SPLINE
  5
F4
330
1F
100
AcDbEntity
  8
0
  6
Continuous
 62
     7
370
    15
100
AcDbSpline
210
0.0
220
0.0
230
1.0
 70
     8
 71
     3
 72
    12
 73
     8
 74
     0
 42
0.00000001
 43
0.00000001
 12
1.0
 22
0.0
 32
0.0
 13
1.0
 23
0.0
 33
0.0
 40
0.0
 40
0.0
 40
0.0
 40
0.0
 40
0.2133968588278961
 40
0.4268299614709185
 40
0.6395788386823317
 40
0.8515210786306334
 40
1.0
 40
1.0
 40
1.0
 40
1.0
 10
589.9404233614592
 20
903.0123853114161
 30
0.0
 10
589.9957483925866
 20
902.4479619167631
 30
0.0
 10
590.1064078513725
 20
901.3190192644851
 30
0.0
 10
590.9708316579391
 20
899.8154440603212
 30
0.0
 10
592.2421880570862
 20
898.6852787032855
 30
0.0
 10
593.6703762986858
 20
898.0797473833798
 30
0.0
 10
594.6219682723311
 20
898.0297207650102
 30
0.0
 10
595.0139856259017
 20
898.009111824325
 30
0.0
  0
SPLINE
  5
F5
330
1F
100
AcDbEntity
  8
0
  6
Continuous
 62
     7
370
    15
100
AcDbSpline
210
0.0
220
0.0
230
1.0
 70
     8
 71
     3
 72
    12
 73
     8
 74
     0
 42
0.00000001
 43
0.00000001
 12
1.0
 22
0.0
 32
0.0
 13
1.0
 23
0.0
 33
0.0
 40
0.0
 40
0.0
 40
0.0
 40
0.0
 40
0.2133970207166655
 40
0.4268302852759527
 40
0.6395793238845585
 40
0.8515217246181155
 40
1.0
 40
1.0
 40
1.0
 40
1.0
 10
408.9372402350097
 20
934.5856809046778
 30
0.0
 10
408.881915187293
 20
935.1501041361147
 30
0.0
 10
408.7712556953258
 20
936.2790464619326
 30
0.0
 10
407.9068321373854
 20
937.7826241122497
 30
0.0
 10
406.6354747975362
 20
938.9127802140198
 30
0.0
 10
405.2072915973392
 20
939.5183417351687
 30
0.0
 10
404.2556957444214
 20
939.5683099628749
 30
0.0
 10
403.8636779705672
 20
939.5888947871241
 30
0.0
  0
SPLINE
  5
F6
330
1F
100
AcDbEntity
  8
0
  6
Continuous
 62
     7
370
    15
100
AcDbSpline
210
0.0
220
0.0
230
1.0
 70
     8
 71
     3
 72
    12
 73
     8
 74
     0
 42
0.00000001
 43
0.00000001
 12
1.0
 22
0.0
 32
0.0
 13
1.0
 23
0.0
 33
0.0
 40
0.0
 40
0.0
 40
0.0
 40
0.0
 40
0.2116834990805934
 40
0.423373492400452
 40
0.634998137214515
 40
0.8470936181542239
 40
1.0
 40
1.0
 40
1.0
 40
1.0
 10
595.0139856259017
 20
939.5888947871241
 30
0.0
 10
594.4532104261466
 20
939.5435696209242
 30
0.0
 10
593.3316428226112
 20
939.4529178979934
 30
0.0
 10
591.8246335360958
 20
938.6200874889726
 30
0.0
 10
590.676396595417
 20
937.3754050109773
 30
0.0
 10
590.037572543606
 20
935.9518203840717
 30
0.0
 10
589.9691055268725
 20
934.9890176869288
 30
0.0
 10
589.9404233614592
 20
934.5856809046779
 30
0.0
  0
ARC
  5
F7
330
1F
100
AcDbEntity
  8
0
  6
Continuous
 62
     7
370
    15
100
AcDbCircle
 10
499.4388317983
 20
6450.3406946259
 30
0.0
 40
5553.15408731135
100
AcDbArc
 50
268.1932631805
 51
269.0138355523
  0
ARC
  5
F8
330
1F
100
AcDbEntity
  8
0
  6
Continuous
 62
     7
370
    15
100
AcDbCircle
 10
499.4388317983
 20
-4612.7426387075
 30
0.0
 40
5553.154087311349
100
AcDbArc
 50
88.1932631805
 51
89.0138355523
  0
ARC
  5
F9
330
1F
100
AcDbEntity
  8
0
  6
Continuous
 62
     7
370
    15
100
AcDbCircle
 10
499.4388317983
 20
-4612.7426387075
 30
0.0
 40
5553.154087311349
100
AcDbArc
 50
90.9861644477
 51
91.8067368195
  0
ARC
  5
FA
330
1F
100
AcDbEntity
  8
0
  6
Continuous
 62
     7
370
    15
100
AcDbCircle
 10
499.4388317983
 20
6450.3406946259
 30
0.0
 40
5553.15408731135
100
AcDbArc
 50
270.9861644477
 51
271.8067368195
  0
SPLINE
  5
FB
330
1F
100
AcDbEntity
  8
0
  6
Continuous
 62
     7
370
    15
100
AcDbSpline
210
0.0
220
0.0
230
1.0
 70
     8
 71
     3
 72
    12
 73
     8
 74
     0
 42
0.00000001
 43
0.00000001
 12
1.0
 22
0.0
 32
0.0
 13
1.0
 23
0.0
 33
0.0
 40
0.0
 40
0.0
 40
0.0
 40
0.0
 40
0.2431866078469986
 40
0.4869640295114442
 40
0.7196756905631118
 40
0.9552525170626903
 40
1.0
 40
1.0
 40
1.0
 40
1.0
 10
683.2718199412017
 20
905.0760769274744
 30
0.0
 10
683.3716506587667
 20
905.2673831074665
 30
0.0
 10
683.571554629322
 20
905.6504602394849
 30
0.0
 10
683.7221215808066
 20
906.1764236324913
 30
0.0
 10
683.7856295262117
 20
906.5564723005152
 30
0.0
 10
683.7882829061527
 20
906.702507368787
 30
0.0
 10
683.7791306176473
 20
906.7294421673913
 30
0.0
 10
683.7776696602492
 20
906.7337417033228
 30
0.0
  0
SPLINE
  5
FC
330
1F
100
AcDbEntity
  8
0
  6
Continuous
 62
     7
370
    15
100
AcDbSpline
210
0.0
220
0.0
230
1.0
 70
     8
 71
     3
 72
    15
 73
    11
 74
     0
 42
0.00000001
 43
0.00000001
 12
1.0
 22
0.0
 32
0.0
 13
1.0
 23
0.0
 33
0.0
 40
0.0
 40
0.0
 40
0.0
 40
0.0
 40
0.3098153292085665
 40
0.5224622773619191
 40
0.6700893889192382
 40
0.8213246461693593
 40
0.8850184034024937
 40
0.9493197857275617
 40
0.9897449842354871
 40
1.0
 40
1.0
 40
1.0
 40
1.0
 10
683.7776696602492
 20
906.7337417033228
 30
0.0
 10
683.7960577551805
 20
906.765624688649
 30
0.0
 10
683.8270668275162
 20
906.8193910957704
 30
0.0
 10
683.8662936517834
 20
906.923628932113
 30
0.0
 10
683.8955153203842
 20
907.0305332246649
 30
0.0
 10
683.9155122155212
 20
907.1351455721393
 30
0.0
 10
683.9288611422288
 20
907.2522777127459
 30
0.0
 10
683.9352230337217
 20
907.3459479702044
 30
0.0
 10
683.937146788302
 20
907.4239745328305
 30
0.0
 10
683.937217072483
 20
907.4588651332194
 30
0.0
 10
683.9372312943129
 20
907.4659251597437
 30
0.0
  0
SPLINE
  5
FD
330
1F
100
AcDbEntity
  8
0
  6
Continuous
 62
     7
370
    15
100
AcDbSpline
210
0.0
220
0.0
230
1.0
 70
     8
 71
     3
 72
    12
 73
     8
 74
     0
 42
0.00000001
 43
0.00000001
 12
1.0
 22
0.0
 32
0.0
 13
1.0
 23
0.0
 33
0.0
 40
0.0
 40
0.0
 40
0.0
 40
0.0
 40
0.2406712141384879
 40
0.4814820517382804
 40
0.7183704114036057
 40
0.9505630490973991
 40
1.0
 40
1.0
 40
1.0
 40
1.0
 10
683.7776696602492
 20
930.8643245127711
 30
0.0
 10
683.7823367249497
 20
930.9041275757223
 30
0.0
 10
683.7916735619106
 20
930.98375679305
 30
0.0
 10
683.737657358373
 20
931.35621314773
 30
0.0
 10
683.5989668487425
 20
931.8533648200054
 30
0.0
 10
683.4179715414979
 20
932.266479867404
 30
0.0
 10
683.2936442231093
 20
932.4838350047983
 30
0.0
 10
683.2718199412017
 20
932.5219892886195
 30
0.0
  0
SPLINE
  5
FE
330
1F
100
AcDbEntity
  8
0
  6
Continuous
 62
     7
370
    15
100
AcDbSpline
210
0.0
220
0.0
230
1.0
 70
     8
 71
     3
 72
    12
 73
     8
 74
     0
 42
0.00000001
 43
0.00000001
 12
1.0
 22
0.0
 32
0.0
 13
1.0
 23
0.0
 33
0.0
 40
0.0
 40
0.0
 40
0.0
 40
0.0
 40
0.0402744849794102
 40
0.080386992017992
 40
0.1535253432175649
 40
0.3575448412936122
 40
1.0
 40
1.0
 40
1.0
 40
1.0
 10
683.9372312943129
 20
930.1321410563502
 30
0.0
 10
683.9369826635691
 20
930.1599638489492
 30
0.0
 10
683.936486402037
 20
930.2154975350469
 30
0.0
 10
683.9318035249205
 20
930.3091461500387
 30
0.0
 10
683.9176831500258
 20
930.459192810937
 30
0.0
 10
683.8660669637374
 20
930.710786803794
 30
0.0
 10
683.815812024685
 20
930.7980748533431
 30
0.0
 10
683.7776696602492
 20
930.8643245127711
 30
0.0
  0
SPLINE
  5
FF
330
1F
100
AcDbEntity
  8
0
  6
Continuous
 62
     7
370
    15
100
AcDbSpline
210
0.0
220
0.0
230
1.0
 70
     8
 71
     3
 72
    15
 73
    11
 74
     0
 42
0.00000001
 43
0.00000001
 12
1.0
 22
0.0
 32
0.0
 13
1.0
 23
0.0
 33
0.0
 40
0.0
 40
0.0
 40
0.0
 40
0.0
 40
0.3098167196477434
 40
0.5224646221523488
 40
0.6700923962544167
 40
0.8213283322425046
 40
0.8850223753307502
 40
0.9493474542402233
 40
0.9897449382113742
 40
1.0
 40
1.0
 40
1.0
 40
1.0
 10
315.0999939362197
 20
930.8643245127711
 30
0.0
 10
315.081605825298
 20
930.8324416379367
 30
0.0
 10
315.0505967259966
 20
930.7786754171447
 30
0.0
 10
315.0113700421137
 20
930.6744366107636
 30
0.0
 10
314.9821480281036
 20
930.5675347049483
 30
0.0
 10
314.9621521089421
 20
930.4629156136031
 30
0.0
 10
314.9488002861663
 20
930.3457859328403
 30
0.0
 10
314.9424433552218
 20
930.2520829911966
 30
0.0
 10
314.9405166149093
 20
930.174073021745
 30
0.0
 10
314.9404464979605
 20
930.1392011743444
 30
0.0
 10
314.940432302156
 20
930.1321410563502
 30
0.0
  0
SPLINE
  5
100
330
1F
100
AcDbEntity
  8
0
  6
Continuous
 62
     7
370
    15
100
AcDbSpline
210
0.0
220
0.0
230
1.0
 70
     8
 71
     3
 72
    12
 73
     8
 74
     0
 42
0.00000001
 43
0.00000001
 12
1.0
 22
0.0
 32
0.0
 13
1.0
 23
0.0
 33
0.0
 40
0.0
 40
0.0
 40
0.0
 40
0.0
 40
0.2431866078469986
 40
0.4869640295114442
 40
0.7196756905631118
 40
0.9552525170626903
 40
1.0
 40
1.0
 40
1.0
 40
1.0
 10
315.6058436552672
 20
932.5219892886195
 30
0.0
 10
315.5060129377022
 20
932.3306831086278
 30
0.0
 10
315.306108967147
 20
931.9476059766097
 30
0.0
 10
315.1555420156623
 20
931.4216425836022
 30
0.0
 10
315.0920340702572
 20
931.0415939155789
 30
0.0
 10
315.089380690316
 20
930.8955588473063
 30
0.0
 10
315.0985329788216
 20
930.8686240487027
 30
0.0
 10
315.0999939362197
 20
930.8643245127711
 30
0.0
  0
SPLINE
  5
101
330
1F
100
AcDbEntity
  8
0
  6
Continuous
 62
     7
370
    15
100
AcDbSpline
210
0.0
220
0.0
230
1.0
 70
     8
 71
     3
 72
    12
 73
     8
 74
     0
 42
0.00000001
 43
0.00000001
 12
1.0
 22
0.0
 32
0.0
 13
1.0
 23
0.0
 33
0.0
 40
0.0
 40
0.0
 40
0.0
 40
0.0
 40
0.2406794241143447
 40
0.48149298552702
 40
0.7183672258895764
 40
0.9505624899157397
 40
1.0
 40
1.0
 40
1.0
 40
1.0
 10
315.0999939362197
 20
906.733741703323
 30
0.0
 10
315.0953271265197
 20
906.6939149634572
 30
0.0
 10
315.0859909061777
 20
906.614239287182
 30
0.0
 10
315.1400004459574
 20
906.241797739062
 30
0.0
 10
315.2787055988283
 20
905.7446968497703
 30
0.0
 10
315.4596919315255
 20
905.3315859835024
 30
0.0
 10
315.584019354926
 20
905.1142311567636
 30
0.0
 10
315.6058436552672
 20
905.0760769274744
 30
0.0
  0
SPLINE
  5
102
330
1F
100
AcDbEntity
  8
0
  6
Continuous
 62
     7
370
    15
100
AcDbSpline
210
0.0
220
0.0
230
1.0
 70
     8
 71
     3
 72
    12
 73
     8
 74
     0
 42
0.00000001
 43
0.00000001
 12
1.0
 22
0.0
 32
0.0
 13
1.0
 23
0.0
 33
0.0
 40
0.0
 40
0.0
 40
0.0
 40
0.0
 40
0.0403648829996491
 40
0.080537037638583
 40
0.1538187503892978
 40
0.3585387742175384
 40
1.0
 40
1.0
 40
1.0
 40
1.0
 10
314.940432302156
 20
907.4659251597437
 30
0.0
 10
314.9406791862569
 20
907.4380374251522
 30
0.0
 10
314.9411717756726
 20
907.3823951102598
 30
0.0
 10
314.9458848710571
 20
907.2886472380255
 30
0.0
 10
314.9600223060905
 20
907.1382979778347
 30
0.0
 10
315.0117049480097
 20
906.8872217844331
 30
0.0
 10
315.0619243304259
 20
906.7999212609723
 30
0.0
 10
315.0999939362197
 20
906.7337417033228
 30
0.0
  0
LINE
  5
103
330
1F
100
AcDbEntity
  8
0
  6
Continuous
 62
     7
370
    15
100
AcDbLine
 10
315.4729849021
 20
930.4913186458
 30
0.0
 11
315.100157849
 21
930.8641456988
 31
0.0
  0
ELLIPSE
  5
104
330
1F
100
AcDbEntity
  8
0
  6
Continuous
 62
     7
370
    15
100
AcDbEllipse
 10
315.4653568676
 20
929.4951174299
 30
0.0
 11
0.0
 21
1.0
 31
0.0
210
0.0
220
0.0
230
1.0
 40
0.0874886635
 41
4.712388980384691
 42
6.195918844579542
  0
LINE
  5
105
330
1F
100
AcDbEntity
  8
0
  6
Continuous
 62
     7
370
    15
100
AcDbLine
 10
315.5528402249
 20
927.4517797854
 30
0.0
 11
315.5528402249
 21
929.4951462176
 31
0.0
  0
ELLIPSE
  5
106
330
1F
100
AcDbEntity
  8
0
  6
Continuous
 62
     7
370
    15
100
AcDbEllipse
 10
315.1154022135
 20
932.8565315966
 30
0.0
 11
0.0
 21
2.0
 31
0.0
210
0.0
220
0.0
230
1.0
 40
0.0874886635
 41
3.053409736769203
 42
3.054326190990206
  0
LINE
  5
107
330
1F
100
AcDbEntity
  8
0
  6
Continuous
 62
     7
370
    15
100
AcDbLine
 10
683.4046786944
 20
907.1067475703
 30
0.0
 11
683.7775057475
 21
906.7339205173
 31
0.0
  0
ELLIPSE
  5
108
330
1F
100
AcDbEntity
  8
0
  6
Continuous
 62
     7
370
    15
100
AcDbEllipse
 10
683.412306729
 20
908.1029384885
 30
0.0
 11
0.0
 21
1.0
 31
0.0
210
0.0
220
0.0
230
1.0
 40
0.0874886635
 41
1.570796326794897
 42
3.054326190989476
  0
LINE
  5
109
330
1F
100
AcDbEntity
  8
0
  6
Continuous
 62
     7
370
    15
100
AcDbLine
 10
683.3248233716
 20
908.1029199985
 30
0.0
 11
683.3248233716
 21
910.1462864306
 31
0.0
  0
ELLIPSE
  5
10A
330
1F
100
AcDbEntity
  8
0
  6
Continuous
 62
     7
370
    15
100
AcDbEllipse
 10
683.7622613831
 20
904.7415243218
 30
0.0
 11
0.0
 21
2.0
 31
0.0
210
0.0
220
0.0
230
1.0
 40
0.0874886635
 41
6.195002390610574
 42
6.195918844579485
  0
LINE
  5
10B
330
1F
100
AcDbEntity
  8
0
  6
Continuous
 62
     7
370
    15
100
AcDbLine
 10
683.3248233716
 20
927.4517797854
 30
0.0
 11
683.3248233716
 21
929.4951462176
 31
0.0
  0
ELLIPSE
  5
10C
330
1F
100
AcDbEntity
  8
0
  6
Continuous
 62
     7
370
    15
100
AcDbEllipse
 10
683.412306729
 20
929.4951174299
 30
0.0
 11
0.0
 21
1.0
 31
0.0
210
0.0
220
0.0
230
1.0
 40
0.0874886635
 41
0.087266462600318
 42
1.570796326794897
  0
LINE
  5
10D
330
1F
100
AcDbEntity
  8
0
  6
Continuous
 62
     7
370
    15
100
AcDbLine
 10
683.4046786944
 20
930.4913186458
 30
0.0
 11
683.7775057475
 21
930.8641456988
 31
0.0
  0
ELLIPSE
  5
10E
330
1F
100
AcDbEntity
  8
0
  6
Continuous
 62
     7
370
    15
100
AcDbEllipse
 10
683.7622613831
 20
932.8565315966
 30
0.0
 11
0.0
 21
2.0
 31
0.0
210
0.0
220
0.0
230
1.0
 40
0.0874886635
 41
3.228859116189567
 42
3.229775570159128
  0
LINE
  5
10F
330
1F
100
AcDbEntity
  8
0
  6
Continuous
 62
     7
370
    15
100
AcDbLine
 10
315.5528402249
 20
908.1029199985
 30
0.0
 11
315.5528402249
 21
910.1462864306
 31
0.0
  0
ELLIPSE
  5
110
330
1F
100
AcDbEntity
  8
0
  6
Continuous
 62
     7
370
    15
100
AcDbEllipse
 10
315.4653568676
 20
908.1029384885
 30
0.0
 11
0.0
 21
1.0
 31
0.0
210
0.0
220
0.0
230
1.0
 40
0.0874886635
 41
3.228859116190156
 42
4.712388980384691
  0
LINE
  5
111
330
1F
100
AcDbEntity
  8
0
  6
Continuous
 62
     7
370
    15
100
AcDbLine
 10
315.4729849021
 20
907.1067475703
 30
0.0
 11
315.100157849
 21
906.7339205173
 31
0.0
  0
ELLIPSE
  5
112
330
1F
100
AcDbEntity
  8
0
  6
Continuous
 62
     7
370
    15
100
AcDbEllipse
 10
315.1154022135
 20
904.7415243218
 30
0.0
 11
0.0
 21
2.0
 31
0.0
210
0.0
220
0.0
230
1.0
 40
0.0874886635
 41
0.0872664625995812
 42
0.0881829168209167
  0
LINE
  5
113
330
1F
100
AcDbEntity
  8
0
  6
Continuous
 62
     7
370
    15
100
AcDbLine
 10
299.438828818
 20
56.2399604347
 30
0.0
 11
299.438828818
 21
56.2958844927
 31
0.0
  0
LINE
  5
114
330
1F
100
AcDbEntity
  8
0
  6
Continuous
 62
     7
370
    15
100
AcDbLine
 10
699.4388347785
 20
56.2399604347
 30
0.0
 11
699.4388347785
 21
56.2958844927
 31
0.0
  0
ARC
  5
115
330
1F
100
AcDbEntity
  8
0
  6
Continuous
 62
     7
370
    15
100
AcDbCircle
 10
585.2715233651
 20
51.6619224523
 30
0.0
 40
11.43274402554291
100
AcDbArc
 50
341.0819098658
 51
22.7580092885
  0
ARC
  5
116
330
1F
100
AcDbEntity
  8
0
  6
Continuous
 62
     7
370
    15
100
AcDbCircle
 10
627.4244677424
 20
51.6585180804
 30
0.0
 40
11.37260867900239
100
AcDbArc
 50
159.9578004856
 51
197.7088427118
  0
LWPOLYLINE
  5
117
330
1F
100
AcDbEntity
  8
0
  6
Continuous
 62
     7
370
    15
100
AcDbPolyline
 90
        9
 70
   128
 43
0.0
 10
604.8788300077
 20
43.5810663727
 10
604.9930101554
 20
43.3384754684
 10
605.3181683938
 20
43.1328096417
 10
605.8048030655
 20
42.9953911331
 10
606.3788330475
 20
42.9471411732
 10
606.9528555791
 20
42.9953911331
 10
607.4394902507
 20
43.1328096417
 10
607.7646484892
 20
43.3384754684
 10
607.8788286368
 20
43.5810663727
  0
LINE
  5
118
330
1F
100
AcDbEntity
  8
0
  6
Continuous
 62
     7
370
    15
100
AcDbLine
 10
604.8788300077
 20
56.2958844927
 30
0.0
 11
604.8788300077
 21
43.5810663727
 31
0.0
  0
LINE
  5
119
330
1F
100
AcDbEntity
  8
0
  6
Continuous
 62
     7
370
    15
100
AcDbLine
 10
607.8788286368
 20
43.5810663727
 30
0.0
 11
607.8788286368
 21
56.2958844927
 31
0.0
  0
LINE
  5
11A
330
1F
100
AcDbEntity
  8
0
  6
Continuous
 62
     7
370
    15
100
AcDbLine
 10
594.7612693826
 20
44.9077987102
 30
0.0
 11
594.7581326882
 21
44.9261494902
 31
0.0
  0
LINE
  5
11B
330
1F
100
AcDbEntity
  8
0
  6
Continuous
 62
     7
370
    15
100
AcDbLine
 10
624.4388317982
 20
809.0943002131
 30
0.0
 11
374.4388317982
 21
809.0943002131
 31
0.0
  0
LINE
  5
11C
330
1F
100
AcDbEntity
  8
0
  6
Continuous
 62
     7
370
    15
100
AcDbLine
 10
374.4388317982
 20
810.1029896167
 30
0.0
 11
624.4388317982
 21
810.1029896167
 31
0.0
  0
ARC
  5
11D
330
1F
100
AcDbEntity
  8
0
  6
Continuous
 62
     7
370
    15
100
AcDbCircle
 10
624.4389246728
 20
805.0943998831
 30
0.0
 40
3.999900331176682
100
AcDbArc
 50
0.0010175669
 51
90.0013303627
  0
ARC
  5
11E
330
1F
100
AcDbEntity
  8
0
  6
Continuous
 62
     7
370
    15
100
AcDbCircle
 10
624.4389503905
 20
805.1031129783
 30
0.0
 40
4.999876639740277
100
AcDbArc
 50
0.0006900947
 51
90.0013590006
  0
ARC
  5
11F
330
1F
100
AcDbEntity
  8
0
  6
Continuous
 62
     7
370
    15
100
AcDbCircle
 10
374.4387389237
 20
805.0943998831
 30
0.0
 40
3.999900331176635
100
AcDbArc
 50
89.9986696373
 51
179.9989824331
  0
ARC
  5
120
330
1F
100
AcDbEntity
  8
0
  6
Continuous
 62
     7
370
    15
100
AcDbCircle
 10
374.438713206
 20
805.1031129783
 30
0.0
 40
4.999876639740277
100
AcDbArc
 50
89.9986409994
 51
179.9993099053
  0
LINE
  5
121
330
1F
100
AcDbEntity
  8
0
  6
Continuous
 62
     7
370
    15
100
AcDbLine
 10
628.4388250033
 20
175.1184497949
 30
0.0
 11
628.4388250033
 21
805.0944709209
 31
0.0
  0
ARC
  5
122
330
1F
100
AcDbEntity
  8
0
  6
Continuous
 62
     7
370
    15
100
AcDbCircle
 10
624.4389191926
 20
175.1185076863
 30
0.0
 40
3.999905811087615
100
AcDbArc
 50
269.9987481379
 51
359.9991707475
  0
LINE
  5
123
330
1F
100
AcDbEntity
  8
0
  6
Continuous
 62
     7
370
    15
100
AcDbLine
 10
374.4388317982
 20
171.1186018762
 30
0.0
 11
624.4388317982
 21
171.1186018762
 31
0.0
  0
ARC
  5
124
330
1F
100
AcDbEntity
  8
0
  6
Continuous
 62
     7
370
    15
100
AcDbCircle
 10
374.4387444038
 20
175.1185076863
 30
0.0
 40
3.999905811087561
100
AcDbArc
 50
180.0008292525
 51
270.0012518621
  0
LINE
  5
125
330
1F
100
AcDbEntity
  8
0
  6
Continuous
 62
     7
370
    15
100
AcDbLine
 10
370.4388385932
 20
805.0944709209
 30
0.0
 11
370.4388385932
 21
175.1184497949
 31
0.0
  0
LINE
  5
126
330
1F
100
AcDbEntity
  8
0
  6
Continuous
 62
     7
370
    15
100
AcDbLine
 10
369.4388365666
 20
175.1271762875
 30
0.0
 11
369.4388365666
 21
805.103173199
 31
0.0
  0
LINE
  5
127
330
1F
100
AcDbEntity
  8
0
  6
Continuous
 62
     7
370
    15
100
AcDbLine
 10
629.4388270299
 20
805.103173199
 30
0.0
 11
629.4388270299
 21
175.1271762875
 31
0.0
  0
ARC
  5
128
330
1F
100
AcDbEntity
  8
0
  6
Continuous
 62
     7
370
    15
100
AcDbCircle
 10
374.438713206
 20
805.2514689392
 30
0.0
 40
4.999876639740277
100
AcDbArc
 50
89.9986409994
 51
179.9993099053
  0
LINE
  5
129
330
1F
100
AcDbEntity
  8
0
  6
Continuous
 62
     7
370
    15
100
AcDbLine
 10
369.4388365666
 20
805.103173199
 30
0.0
 11
369.4388365666
 21
805.2515291598
 31
0.0
  0
ARC
  5
12A
330
1F
100
AcDbEntity
  8
0
  6
Continuous
 62
     7
370
    15
100
AcDbCircle
 10
624.4389503905
 20
805.2514689392
 30
0.0
 40
4.999876639740277
100
AcDbArc
 50
0.0006900947
 51
90.0013590006
  0
LINE
  5
12B
330
1F
100
AcDbEntity
  8
0
  6
Continuous
 62
     7
370
    15
100
AcDbLine
 10
629.4388270299
 20
805.2515291598
 30
0.0
 11
629.4388270299
 21
805.103173199
 31
0.0
  0
LINE
  5
12C
330
1F
100
AcDbEntity
  8
0
  6
Continuous
 62
     7
370
    15
100
AcDbLine
 10
624.4388317982
 20
810.2513455775
 30
0.0
 11
374.4388317982
 21
810.2513455775
 31
0.0
  0
ARC
  5
12D
330
1F
100
AcDbEntity
  8
0
  6
Continuous
 62
     7
370
    15
100
AcDbCircle
 10
624.4389417278
 20
175.1272526218
 30
0.0
 40
4.99988530269099
100
AcDbArc
 50
269.9987402716
 51
359.9991252525
  0
ARC
  5
12E
330
1F
100
AcDbEntity
  8
0
  6
Continuous
 62
     7
370
    15
100
AcDbCircle
 10
374.4387218687
 20
175.1272526218
 30
0.0
 40
4.99988530269099
100
AcDbArc
 50
180.0008747475
 51
270.0012597284
  0
LINE
  5
12F
330
1F
100
AcDbEntity
  8
0
  6
Continuous
 62
     7
370
    15
100
AcDbLine
 10
624.4388317982
 20
170.1273673204
 30
0.0
 11
374.4388317982
 21
170.1273673204
 31
0.0
  0
LINE
  5
130
330
1F
100
AcDbEntity
  8
0
  6
Continuous
 62
     7
370
    15
100
AcDbLine
 10
533.5388316135
 20
938.6547707942
 30
0.0
 11
538.0888304035
 21
938.6547707942
 31
0.0
  0
LINE
  5
131
330
1F
100
AcDbEntity
  8
0
  6
Continuous
 62
     7
370
    15
100
AcDbLine
 10
528.9888309608
 20
938.6547707942
 30
0.0
 11
533.5388316135
 21
938.6547707942
 31
0.0
  0
LINE
  5
132
330
1F
100
AcDbEntity
  8
0
  6
Continuous
 62
     7
370
    15
100
AcDbLine
 10
533.5388316135
 20
933.7547921565
 30
0.0
 11
537.0388312558
 21
933.7547921565
 31
0.0
  0
LINE
  5
133
330
1F
100
AcDbEntity
  8
0
  6
Continuous
 62
     7
370
    15
100
AcDbLine
 10
530.0388319711
 20
933.7547921565
 30
0.0
 11
533.5388316135
 21
933.7547921565
 31
0.0
  0
LINE
  5
134
330
1F
100
AcDbEntity
  8
0
  6
Continuous
 62
     7
370
    15
100
AcDbLine
 10
533.5388316135
 20
933.1547521976
 30
0.0
 11
536.7888307492
 21
933.1547521976
 31
0.0
  0
LINE
  5
135
330
1F
100
AcDbEntity
  8
0
  6
Continuous
 62
     7
370
    15
100
AcDbLine
 10
530.2888324777
 20
933.1547521976
 30
0.0
 11
533.5388316135
 21
933.1547521976
 31
0.0
  0
LINE
  5
136
330
1F
100
AcDbEntity
  8
0
  6
Continuous
 62
     7
370
    15
100
AcDbLine
 10
668.5388332526
 20
933.1547521976
 30
0.0
 11
671.7888361136
 21
933.1547521976
 31
0.0
  0
LINE
  5
137
330
1F
100
AcDbEntity
  8
0
  6
Continuous
 62
     7
370
    15
100
AcDbLine
 10
665.2888303916
 20
933.1547521976
 30
0.0
 11
668.5388332526
 21
933.1547521976
 31
0.0
  0
LINE
  5
138
330
1F
100
AcDbEntity
  8
0
  6
Continuous
 62
     7
370
    15
100
AcDbLine
 10
668.5388332526
 20
933.7547921565
 30
0.0
 11
672.038832895
 21
933.7547921565
 31
0.0
  0
LINE
  5
139
330
1F
100
AcDbEntity
  8
0
  6
Continuous
 62
     7
370
    15
100
AcDbLine
 10
665.0388336102
 20
933.7547921565
 30
0.0
 11
668.5388332526
 21
933.7547921565
 31
0.0
  0
LINE
  5
13A
330
1F
100
AcDbEntity
  8
0
  6
Continuous
 62
     7
370
    15
100
AcDbLine
 10
575.3677210132
 20
939.6547579196
 30
0.0
 11
507.4380256529
 21
939.6547579196
 31
0.0
  0
LINE
  5
13B
330
1F
100
AcDbEntity
  8
0
  6
Continuous
 62
     7
370
    15
100
AcDbLine
 10
491.5686503346
 20
939.6547579196
 30
0.0
 11
423.4713038723
 21
939.6547579196
 31
0.0
  0
LINE
  5
13C
330
1F
100
AcDbEntity
  8
0
  6
Continuous
 62
     7
370
    15
100
AcDbLine
 10
542.0388302128
 20
938.7552046207
 30
0.0
 11
542.0388302128
 21
939.6547579196
 31
0.0
  0
LINE
  5
13D
330
1F
100
AcDbEntity
  8
0
  6
Continuous
 62
     7
370
    15
100
AcDbLine
 10
657.7366685788
 20
938.1547474292
 30
0.0
 11
591.5186425964
 21
938.1547474292
 31
0.0
  0
LINE
  5
13E
330
1F
100
AcDbEntity
  8
0
  6
Continuous
 62
     7
370
    15
100
AcDbLine
 10
577.7122548143
 20
938.1547474292
 30
0.0
 11
542.0388302128
 21
938.1547474292
 31
0.0
  0
LINE
  5
13F
330
1F
100
AcDbEntity
  8
0
  6
Continuous
 62
     7
370
    15
100
AcDbLine
 10
542.0388302128
 20
938.7552046207
 30
0.0
 11
542.0388302128
 21
938.1547474292
 31
0.0
  0
LINE
  5
140
330
1F
100
AcDbEntity
  8
0
  6
Continuous
 62
     7
370
    15
100
AcDbLine
 10
679.4388389508
 20
937.7548002627
 30
0.0
 11
675.4529422442
 21
937.7548002627
 31
0.0
  0
LINE
  5
141
330
1F
100
AcDbEntity
  8
0
  6
Continuous
 62
     7
370
    15
100
AcDbLine
 10
665.0388336102
 20
937.7548002627
 30
0.0
 11
591.1498090545
 21
937.7548002627
 31
0.0
  0
LINE
  5
142
330
1F
100
AcDbEntity
  8
0
  6
Continuous
 62
     7
370
    15
100
AcDbLine
 10
577.99759715
 20
937.7548002627
 30
0.0
 11
537.0388312558
 21
937.7548002627
 31
0.0
  0
LINE
  5
143
330
1F
100
AcDbEntity
  8
0
  6
Continuous
 62
     7
370
    15
100
AcDbLine
 10
530.0388319711
 20
937.7548002627
 30
0.0
 11
505.5791747118
 21
937.7548002627
 31
0.0
  0
LINE
  5
144
330
1F
100
AcDbEntity
  8
0
  6
Continuous
 62
     7
370
    15
100
AcDbLine
 10
493.2693883138
 20
937.7548002627
 30
0.0
 11
420.878084592
 21
937.7548002627
 31
0.0
  0
LINE
  5
145
330
1F
100
AcDbEntity
  8
0
  6
Continuous
 62
     7
370
    15
100
AcDbLine
 10
407.8007510225
 20
937.7548002627
 30
0.0
 11
327.6867961804
 21
937.7548002627
 31
0.0
  0
CIRCLE
  5
146
330
1F
100
AcDbEntity
  8
0
  6
Continuous
 62
     7
370
    15
100
AcDbCircle
 10
619.4388317982
 20
915.7547764209
 30
0.0
 40
10.5
  0
CIRCLE
  5
147
330
1F
100
AcDbEntity
  8
0
  6
Continuous
 62
     7
370
    15
100
AcDbCircle
 10
659.4388317982
 20
912.7547764209
 30
0.0
 40
10.0
  0
ARC
  5
148
330
1F
100
AcDbEntity
  8
0
  6
Continuous
 62
     7
370
    15
100
AcDbCircle
 10
579.4388317982
 20
912.7547764209
 30
0.0
 40
10.00000000000007
100
AcDbArc
 50
92.8751231725
 51
267.1248768275
  0
CIRCLE
  5
149
330
1F
100
AcDbEntity
  8
0
  6
Continuous
 62
     7
370
    15
100
AcDbCircle
 10
539.4388317982
 20
912.7547764209
 30
0.0
 40
10.0
  0
CIRCLE
  5
14A
330
1F
100
AcDbEntity
  8
0
  6
Continuous
 62
     7
370
    15
100
AcDbCircle
 10
339.4388317982
 20
912.7547764209
 30
0.0
 40
10.0
  0
CIRCLE
  5
14B
330
1F
100
AcDbEntity
  8
0
  6
Continuous
 62
     7
370
    15
100
AcDbCircle
 10
379.4388317982
 20
912.7547764209
 30
0.0
 40
10.0
  0
ARC
  5
14C
330
1F
100
AcDbEntity
  8
0
  6
Continuous
 62
     7
370
    15
100
AcDbCircle
 10
419.4388317982
 20
912.7547764209
 30
0.0
 40
9.999999999999952
100
AcDbArc
 50
272.8751231733
 51
87.1248768267
  0
CIRCLE
  5
14D
330
1F
100
AcDbEntity
  8
0
  6
Continuous
 62
     7
370
    15
100
AcDbCircle
 10
459.4388317982
 20
912.7547764209
 30
0.0
 40
10.0
  0
ARC
  5
14E
330
1F
100
AcDbEntity
  8
0
  6
Continuous
 62
     7
370
    15
100
AcDbCircle
 10
499.4388317982
 20
912.7547764209
 30
0.0
 40
9.999999999999972
100
AcDbArc
 50
123.3779429047
 51
236.6220570953
  0
ARC
  5
14F
330
1F
100
AcDbEntity
  8
0
  6
Continuous
 62
     7
370
    15
100
AcDbCircle
 10
499.4388317982
 20
912.7547764209
 30
0.0
 40
10.00000000000005
100
AcDbArc
 50
303.3779429056
 51
56.6220570944
  0
ARC
  5
150
330
1F
100
AcDbEntity
  8
0
  6
Continuous
 62
     7
370
    15
100
AcDbCircle
 10
439.4388317982
 20
912.7547764209
 30
0.0
 40
10.20000000000001
100
AcDbArc
 50
172.0107308583
 51
187.9892691395
  0
ARC
  5
151
330
1F
100
AcDbEntity
  8
0
  6
Continuous
 62
     7
370
    15
100
AcDbCircle
 10
439.4388317982
 20
912.7547764209
 30
0.0
 40
10.20000000000005
100
AcDbArc
 50
352.0107314284
 51
7.9892685695
  0
ARC
  5
152
330
1F
100
AcDbEntity
  8
0
  6
Continuous
 62
     7
370
    15
100
AcDbCircle
 10
439.4388317982
 20
912.7547764209
 30
0.0
 40
5.000000000000073
100
AcDbArc
 50
347.2916783525
 51
47.2916783525
  0
SPLINE
  5
153
330
1F
100
AcDbEntity
  8
0
  6
Continuous
 62
     7
370
    15
100
AcDbSpline
210
0.0
220
0.0
230
1.0
 70
     8
 71
     3
 72
     9
 73
     5
 74
     0
 42
0.00000001
 43
0.00000001
 12
1.0
 22
0.0
 32
0.0
 13
1.0
 23
0.0
 33
0.0
 40
0.0
 40
0.0
 40
0.0
 40
0.0
 40
0.7681537542009087
 40
0.9999999999999999
 40
0.9999999999999999
 40
0.9999999999999999
 40
0.9999999999999999
 10
444.951394788423
 20
914.470841827682
 30
0.0
 10
444.4139757612891
 20
914.9669230797024
 30
0.0
 10
443.7143514683725
 20
915.6127329183024
 30
0.0
 10
442.9965759075238
 20
916.2752518755461
 30
0.0
 10
442.8301623384147
 20
916.4288544085535
 30
0.0
  0
SPLINE
  5
154
330
1F
100
AcDbEntity
  8
0
  6
Continuous
 62
     7
370
    15
100
AcDbSpline
210
0.0
220
0.0
230
1.0
 70
     8
 71
     3
 72
     9
 73
     5
 74
     0
 42
0.00000001
 43
0.00000001
 12
1.0
 22
0.0
 32
0.0
 13
1.0
 23
0.0
 33
0.0
 40
0.0
 40
0.0
 40
0.0
 40
0.0
 40
0.0702129223875606
 40
1.0
 40
1.0
 40
1.0
 40
1.0
 10
444.3163445512442
 20
911.6548203852686
 30
0.0
 10
444.3313992172939
 20
911.7215890693631
 30
0.0
 10
444.5458136802981
 20
912.6725348756918
 30
0.0
 10
444.7559825185239
 20
913.6044029417869
 30
0.0
 10
444.951394788423
 20
914.470841827682
 30
0.0
  0
ARC
  5
155
330
1F
100
AcDbEntity
  8
0
  6
Continuous
 62
     7
370
    15
100
AcDbCircle
 10
439.4388317982
 20
912.7547764209
 30
0.0
 40
5.000000000000073
100
AcDbArc
 50
47.2916783525
 51
107.2916783525
  0
LINE
  5
156
330
1F
100
AcDbEntity
  8
0
  6
Continuous
 62
     7
370
    15
100
AcDbLine
 10
440.7089336137
 20
918.3868669894
 30
0.0
 11
437.9526509265
 21
917.5287985232
 31
0.0
  0
SPLINE
  5
157
330
1F
100
AcDbEntity
  8
0
  6
Continuous
 62
     7
370
    15
100
AcDbSpline
210
0.0
220
0.0
230
1.0
 70
     8
 71
     3
 72
     9
 73
     5
 74
     0
 42
0.00000001
 43
0.00000001
 12
1.0
 22
0.0
 32
0.0
 13
1.0
 23
0.0
 33
0.0
 40
0.0
 40
0.0
 40
0.0
 40
0.0
 40
0.7889953988640159
 40
1.0
 40
1.0
 40
1.0
 40
1.0
 10
442.8301623384147
 20
916.4288544085535
 30
0.0
 10
442.2635244817281
 20
916.9518762831848
 30
0.0
 10
441.5453481051582
 20
917.6147722587309
 30
0.0
 10
440.8546698941282
 20
918.2523377394648
 30
0.0
 10
440.7089336136966
 20
918.3868669894251
 30
0.0
  0
ARC
  5
158
330
1F
100
AcDbEntity
  8
0
  6
Continuous
 62
     7
370
    15
100
AcDbCircle
 10
439.4388317982
 20
912.7547764209
 30
0.0
 40
5.000000000000024
100
AcDbArc
 50
287.2916783525
 51
347.2916783525
  0
SPLINE
  5
159
330
1F
100
AcDbEntity
  8
0
  6
Continuous
 62
     7
370
    15
100
AcDbSpline
210
0.0
220
0.0
230
1.0
 70
     8
 71
     3
 72
     9
 73
     5
 74
     0
 42
0.00000001
 43
0.00000001
 12
1.0
 22
0.0
 32
0.0
 13
1.0
 23
0.0
 33
0.0
 40
0.0
 40
0.0
 40
0.0
 40
0.0
 40
0.0702043917105336
 40
1.0
 40
1.0
 40
1.0
 40
1.0
 10
440.9250116268782
 20
907.9807304766688
 30
0.0
 10
440.9903514466309
 20
908.0010855329572
 30
0.0
 10
441.9210598846748
 20
908.2910254611065
 30
0.0
 10
442.8331950464658
 20
908.5748759784339
 30
0.0
 10
443.6812943140654
 20
908.8387989428553
 30
0.0
  0
LINE
  5
15A
330
1F
100
AcDbEntity
  8
0
  6
Continuous
 62
     7
370
    15
100
AcDbLine
 10
443.6812943141
 20
908.8387989429
 30
0.0
 11
444.3163445512
 21
911.6548203853
 31
0.0
  0
ARC
  5
15B
330
1F
100
AcDbEntity
  8
0
  6
Continuous
 62
     7
370
    15
100
AcDbCircle
 10
439.4388317982
 20
912.7547764209
 30
0.0
 40
5.000000000000024
100
AcDbArc
 50
227.2916783525
 51
287.2916783525
  0
ARC
  5
15C
330
1F
100
AcDbEntity
  8
0
  6
Continuous
 62
     7
370
    15
100
AcDbCircle
 10
439.4388317982
 20
912.7547764209
 30
0.0
 40
4.999999999999996
100
AcDbArc
 50
167.2916783525
 51
227.2916783525
  0
ARC
  5
15D
330
1F
100
AcDbEntity
  8
0
  6
Continuous
 62
     7
370
    15
100
AcDbCircle
 10
439.4388317982
 20
912.7547764209
 30
0.0
 40
4.99999999999999
100
AcDbArc
 50
107.2916783525
 51
167.2916783525
  0
SPLINE
  5
15E
330
1F
100
AcDbEntity
  8
0
  6
Continuous
 62
     7
370
    15
100
AcDbSpline
210
0.0
220
0.0
230
1.0
 70
     8
 71
     3
 72
     9
 73
     5
 74
     0
 42
0.00000001
 43
0.00000001
 12
1.0
 22
0.0
 32
0.0
 13
1.0
 23
0.0
 33
0.0
 40
0.0
 40
0.0
 40
0.0
 40
0.0
 40
0.0701984206049991
 40
1.0
 40
1.0
 40
1.0
 40
1.0
 10
437.9526509265094
 20
917.5287985232386
 30
0.0
 10
437.8873108991648
 20
917.5084640216177
 30
0.0
 10
436.9565203374765
 20
917.2187922391811
 30
0.0
 10
436.0444325914317
 20
916.934792999062
 30
0.0
 10
435.1963719646125
 20
916.6707300570522
 30
0.0
  0
LINE
  5
15F
330
1F
100
AcDbEntity
  8
0
  6
Continuous
 62
     7
370
    15
100
AcDbLine
 10
435.1963719646
 20
916.6707300571
 30
0.0
 11
434.5613217274
 21
913.8547086146
 31
0.0
  0
SPLINE
  5
160
330
1F
100
AcDbEntity
  8
0
  6
Continuous
 62
     7
370
    15
100
AcDbSpline
210
0.0
220
0.0
230
1.0
 70
     8
 71
     3
 72
     9
 73
     5
 74
     0
 42
0.00000001
 43
0.00000001
 12
1.0
 22
0.0
 32
0.0
 13
1.0
 23
0.0
 33
0.0
 40
0.0
 40
0.0
 40
0.0
 40
0.0
 40
0.0701930523476221
 40
1.0
 40
1.0
 40
1.0
 40
1.0
 10
434.5613217274337
 20
913.8547086146388
 30
0.0
 10
434.5462669047416
 20
913.7879598542277
 30
0.0
 10
434.3317895143376
 20
912.8370286982417
 30
0.0
 10
434.1216555293936
 20
911.905152311226
 30
0.0
 10
433.9262714902549
 20
911.0386871722254
 30
0.0
  0
SPLINE
  5
161
330
1F
100
AcDbEntity
  8
0
  6
Continuous
 62
     7
370
    15
100
AcDbSpline
210
0.0
220
0.0
230
1.0
 70
     8
 71
     3
 72
     9
 73
     5
 74
     0
 42
0.00000001
 43
0.00000001
 12
1.0
 22
0.0
 32
0.0
 13
1.0
 23
0.0
 33
0.0
 40
0.0
 40
0.0
 40
0.0
 40
0.0
 40
0.2110038875362613
 40
1.0
 40
1.0
 40
1.0
 40
1.0
 10
433.9262714902549
 20
911.0386871722254
 30
0.0
 10
434.0720064671333
 20
910.9041578583757
 30
0.0
 10
434.7626808361226
 20
910.2665899186544
 30
0.0
 10
435.4808577201354
 20
909.6036956177454
 30
0.0
 10
436.0474964896827
 20
909.080674591354
 30
0.0
  0
SPLINE
  5
162
330
1F
100
AcDbEntity
  8
0
  6
Continuous
 62
     7
370
    15
100
AcDbSpline
210
0.0
220
0.0
230
1.0
 70
     8
 71
     3
 72
     9
 73
     5
 74
     0
 42
0.00000001
 43
0.00000001
 12
1.0
 22
0.0
 32
0.0
 13
1.0
 23
0.0
 33
0.0
 40
0.0
 40
0.0
 40
0.0
 40
0.0
 40
0.231849178794416
 40
1.0
 40
1.0
 40
1.0
 40
1.0
 10
436.0474964896827
 20
909.0806745913538
 30
0.0
 10
436.2139097077261
 20
908.9270716471334
 30
0.0
 10
436.931674674196
 20
908.2645592974268
 30
0.0
 10
437.6313084248632
 20
907.6187785933117
 30
0.0
 10
438.1687326649813
 20
907.122721615127
 30
0.0
  0
LINE
  5
163
330
1F
100
AcDbEntity
  8
0
  6
Continuous
 62
     7
370
    15
100
AcDbLine
 10
438.168732665
 20
907.1227216151
 30
0.0
 11
440.9250116269
 21
907.9807304767
 31
0.0
  0
LINE
  5
164
330
1F
100
AcDbEntity
  8
0
  6
CENTERX2
 62
     7
370
     0
100
AcDbLine
 10
624.4388317983
 20
807.1031878082
 30
0.0
 11
624.4388317983
 21
803.0944612727
 31
0.0
  0
LINE
  5
165
330
1F
100
AcDbEntity
  8
0
  6
CENTERX2
 62
     7
370
     0
100
AcDbLine
 10
374.4388317983
 20
807.1031878082
 30
0.0
 11
374.4388317983
 21
803.0944612727
 31
0.0
  0
ENDSEC
  0
SECTION
  2
OBJECTS
  0
DICTIONARY
  5
C
330
0
100
AcDbDictionary
281
     1
  3
ACAD_GROUP
350
D
  3
ACAD_LAYOUT
350
1A
  3
ACAD_MLINESTYLE
350
17
  3
ACAD_PLOTSETTINGS
350
19
  3
ACAD_PLOTSTYLENAME
350
E
  0
DICTIONARY
  5
D
102
{ACAD_REACTORS
330
C
102
}
330
C
100
AcDbDictionary
281
     1
  0
DICTIONARY
  5
1A
102
{ACAD_REACTORS
330
C
102
}
330
C
100
AcDbDictionary
281
     1
  3
Layout1
350
1E
  3
Layout2
350
26
  3
Model
350
22
  0
DICTIONARY
  5
17
102
{ACAD_REACTORS
330
C
102
}
330
C
100
AcDbDictionary
281
     1
  3
Standard
350
18
  0
DICTIONARY
  5
19
102
{ACAD_REACTORS
330
C
102
}
330
C
100
AcDbDictionary
281
     1
  0
ACDBDICTIONARYWDFLT
  5
E
102
{ACAD_REACTORS
330
C
102
}
330
C
100
AcDbDictionary
281
     1
  3
Normal
350
F
100
AcDbDictionaryWithDefault
340
F
  0
LAYOUT
  5
1E
102
{ACAD_REACTORS
330
1A
102
}
330
1A
100
AcDbPlotSettings
  1

  2
none_device
  4

  6

 40
0.0
 41
0.0
 42
0.0
 43
0.0
 44
0.0
 45
0.0
 46
0.0
 47
0.0
 48
0.0
 49
0.0
140
0.0
141
0.0
142
1.0
143
1.0
 70
   688
 72
     0
 73
     0
 74
     5
  7

 75
    16
147
1.0
148
0.0
149
0.0
100
AcDbLayout
  1
Layout1
 70
     1
 71
     1
 10
0.0
 20
0.0
 11
420.0
 21
297.0
 12
0.0
 22
0.0
 32
0.0
 14
1.0000000000E+20
 24
1.0000000000E+20
 34
1.0000000000E+20
 15
-1.0000000000E+20
 25
-1.0000000000E+20
 35
-1.0000000000E+20
146
0.0
 13
0.0
 23
0.0
 33
0.0
 16
1.0
 26
0.0
 36
0.0
 17
0.0
 27
1.0
 37
0.0
 76
     0
330
1B
  0
LAYOUT
  5
26
102
{ACAD_REACTORS
330
1A
102
}
330
1A
100
AcDbPlotSettings
  1

  2
none_device
  4

  6

 40
0.0
 41
0.0
 42
0.0
 43
0.0
 44
0.0
 45
0.0
 46
0.0
 47
0.0
 48
0.0
 49
0.0
140
0.0
141
0.0
142
1.0
143
1.0
 70
   688
 72
     0
 73
     0
 74
     5
  7

 75
    16
147
1.0
148
0.0
149
0.0
100
AcDbLayout
  1
Layout2
 70
     1
 71
     2
 10
0.0
 20
0.0
 11
0.0
 21
0.0
 12
0.0
 22
0.0
 32
0.0
 14
0.0
 24
0.0
 34
0.0
 15
0.0
 25
0.0
 35
0.0
146
0.0
 13
0.0
 23
0.0
 33
0.0
 16
1.0
 26
0.0
 36
0.0
 17
0.0
 27
1.0
 37
0.0
 76
     0
330
23
  0
LAYOUT
  5
22
102
{ACAD_REACTORS
330
1A
102
}
330
1A
100
AcDbPlotSettings
  1

  2
none_device
  4

  6

 40
0.0
 41
0.0
 42
0.0
 43
0.0
 44
0.0
 45
0.0
 46
0.0
 47
0.0
 48
0.0
 49
0.0
140
0.0
141
0.0
142
1.0
143
1.0
 70
  1712
 72
     0
 73
     0
 74
     0
  7

 75
     0
147
1.0
148
0.0
149
0.0
100
AcDbLayout
  1
Model
 70
     1
 71
     0
 10
0.0
 20
0.0
 11
1000.0
 21
1000.0
 12
0.0
 22
0.0
 32
0.0
 14
0.0
 24
0.0
 34
0.0
 15
1000.0
 25
1000.0
 35
0.0
146
0.0
 13
0.0
 23
0.0
 33
0.0
 16
1.0
 26
0.0
 36
0.0
 17
0.0
 27
1.0
 37
0.0
 76
     0
330
1F
331
29
  0
MLINESTYLE
  5
18
102
{ACAD_REACTORS
330
17
102
}
330
17
100
AcDbMlineStyle
  2
Standard
 70
     0
  3

 62
   256
 51
90.0
 52
90.0
 71
     2
 49
0.5
 62
   256
  6
BYLAYER
 49
-0.5
 62
   256
  6
BYLAYER
  0
ACDBPLACEHOLDER
  5
F
102
{ACAD_REACTORS
330
E
102
}
330
E
  0
ENDSEC
  0
EOF
