  0
SECTION
  2
HEADER
  9
$ACADVER
  1
AC1015
  9
$ACADMAINTVER
 70
     6
  9
$DWGCODEPAGE
  3
ANSI_1252
  9
$INSBASE
 10
0.0
 20
0.0
 30
0.0
  9
$EXTMIN
 10
0.0
 20
0.0
 30
0.0
  9
$EXTMAX
 10
1000.0
 20
1000.0
 30
0.0
  9
$LIMMIN
 10
0.0
 20
0.0
  9
$LIMMAX
 10
1000.0
 20
1000.0
  9
$ORTHOMODE
 70
     0
  9
$REGENMODE
 70
     1
  9
$FILLMODE
 70
     1
  9
$QTEXTMODE
 70
     0
  9
$MIRRTEXT
 70
     1
  9
$LTSCALE
 40
1.0
  9
$ATTMODE
 70
     1
  9
$TEXTSIZE
 40
3.5
  9
$TRACEWID
 40
1.0
  9
$TEXTSTYLE
  7
Standard
  9
$CLAYER
  8
0
  9
$CELTYPE
  6
ByLayer
  9
$CECOLOR
 62
   256
  9
$CELTSCALE
 40
1.0
  9
$DISPSILH
 70
     0
  9
$DIMSCALE
 40
1.0
  9
$DIMASZ
 40
3.302
  9
$DIMEXO
 40
1.0
  9
$DIMDLI
 40
3.75
  9
$DIMRND
 40
0.0
  9
$DIMDLE
 40
0.0
  9
$DIMEXE
 40
1.0
  9
$DIMTP
 40
0.0
  9
$DIMTM
 40
0.0
  9
$DIMTXT
 40
3.5
  9
$DIMCEN
 40
2.5
  9
$DIMTSZ
 40
0.0
  9
$DIMTOL
 70
     0
  9
$DIMLIM
 70
     0
  9
$DIMTIH
 70
     1
  9
$DIMTOH
 70
     1
  9
$DIMSE1
 70
     0
  9
$DIMSE2
 70
     0
  9
$DIMTAD
 70
     1
  9
$DIMZIN
 70
     0
  9
$DIMBLK
  1

  9
$DIMASO
 70
     1
  9
$DIMSHO
 70
     1
  9
$DIMPOST
  1

  9
$DIMAPOST
  1

  9
$DIMALT
 70
     0
  9
$DIMALTD
 70
     3
  9
$DIMALTF
 40
0.0393700787
  9
$DIMLFAC
 40
1.0
  9
$DIMTOFL
 70
     1
  9
$DIMTVP
 40
0.0
  9
$DIMTIX
 70
     0
  9
$DIMSOXD
 70
     0
  9
$DIMSAH
 70
     0
  9
$DIMBLK1
  1

  9
$DIMBLK2
  1

  9
$DIMSTYLE
  2
ISO-25
  9
$DIMCLRD
 70
     0
  9
$DIMCLRE
 70
     0
  9
$DIMCLRT
 70
     0
  9
$DIMTFAC
 40
1.0
  9
$DIMGAP
 40
1.524
  9
$DIMJUST
 70
     0
  9
$DIMSD1
 70
     0
  9
$DIMSD2
 70
     0
  9
$DIMTOLJ
 70
     0
  9
$DIMTZIN
 70
     0
  9
$DIMALTZ
 70
     0
  9
$DIMALTTZ
 70
     0
  9
$DIMUPT
 70
     0
  9
$DIMDEC
 70
     1
  9
$DIMTDEC
 70
     1
  9
$DIMALTU
 70
     2
  9
$DIMALTTD
 70
     3
  9
$DIMTXSTY
  7
Standard
  9
$DIMAUNIT
 70
     0
  9
$DIMADEC
 70
     1
  9
$DIMALTRND
 40
0.0
  9
$DIMAZIN
 70
     0
  9
$DIMDSEP
 70
    44
  9
$DIMATFIT
 70
     3
  9
$DIMFRAC
 70
     0
  9
$DIMLDRBLK
  1

  9
$DIMLUNIT
 70
     2
  9
$DIMLWD
 70
    -2
  9
$DIMLWE
 70
    -2
  9
$DIMTMOVE
 70
     0
  9
$LUNITS
 70
     2
  9
$LUPREC
 70
     1
  9
$SKETCHINC
 40
1.0
  9
$FILLETRAD
 40
10.0
  9
$AUNITS
 70
     0
  9
$AUPREC
 70
     1
  9
$MENU
  1
.
  9
$ELEVATION
 40
0.0
  9
$PELEVATION
 40
0.0
  9
$THICKNESS
 40
0.0
  9
$LIMCHECK
 70
     0
  9
$CHAMFERA
 40
10.0
  9
$CHAMFERB
 40
10.0
  9
$CHAMFERC
 40
20.0
  9
$CHAMFERD
 40
0.0
  9
$SKPOLY
 70
     0
  9
$TDCREATE
 40
2457413.583772002
  9
$TDUCREATE
 40
2457413.583772002
  9
$TDUPDATE
 40
2457413.583774896
  9
$TDUUPDATE
 40
2457413.583774896
  9
$TDINDWG
 40
0.0000000116
  9
$TDUSRTIMER
 40
0.0000000116
  9
$USRTIMER
 70
     1
  9
$ANGBASE
 50
0.0
  9
$ANGDIR
 70
     0
  9
$PDMODE
 70
     0
  9
$PDSIZE
 40
-1.0
  9
$PLINEWID
 40
0.0
  9
$SPLFRAME
 70
     0
  9
$SPLINETYPE
 70
     6
  9
$SPLINESEGS
 70
     8
  9
$HANDSEED
  5
283
  9
$SURFTAB1
 70
     6
  9
$SURFTAB2
 70
     6
  9
$SURFTYPE
 70
     6
  9
$SURFU
 70
     6
  9
$SURFV
 70
     6
  9
$UCSBASE
  2

  9
$UCSNAME
  2

  9
$UCSORG
 10
0.0
 20
0.0
 30
0.0
  9
$UCSXDIR
 10
1.0
 20
0.0
 30
0.0
  9
$UCSYDIR
 10
0.0
 20
1.0
 30
0.0
  9
$UCSORTHOREF
  2

  9
$UCSORTHOVIEW
 70
     0
  9
$UCSORGTOP
 10
0.0
 20
0.0
 30
0.0
  9
$UCSORGBOTTOM
 10
0.0
 20
0.0
 30
0.0
  9
$UCSORGLEFT
 10
0.0
 20
0.0
 30
0.0
  9
$UCSORGRIGHT
 10
0.0
 20
0.0
 30
0.0
  9
$UCSORGFRONT
 10
0.0
 20
0.0
 30
0.0
  9
$UCSORGBACK
 10
0.0
 20
0.0
 30
0.0
  9
$PUCSBASE
  2

  9
$PUCSNAME
  2

  9
$PUCSORG
 10
0.0
 20
0.0
 30
0.0
  9
$PUCSXDIR
 10
1.0
 20
0.0
 30
0.0
  9
$PUCSYDIR
 10
0.0
 20
1.0
 30
0.0
  9
$PUCSORTHOREF
  2

  9
$PUCSORTHOVIEW
 70
     0
  9
$PUCSORGTOP
 10
0.0
 20
0.0
 30
0.0
  9
$PUCSORGBOTTOM
 10
0.0
 20
0.0
 30
0.0
  9
$PUCSORGLEFT
 10
0.0
 20
0.0
 30
0.0
  9
$PUCSORGRIGHT
 10
0.0
 20
0.0
 30
0.0
  9
$PUCSORGFRONT
 10
0.0
 20
0.0
 30
0.0
  9
$PUCSORGBACK
 10
0.0
 20
0.0
 30
0.0
  9
$USERI1
 70
     0
  9
$USERI2
 70
     0
  9
$USERI3
 70
     0
  9
$USERI4
 70
     0
  9
$USERI5
 70
     0
  9
$USERR1
 40
0.0
  9
$USERR2
 40
0.0
  9
$USERR3
 40
0.0
  9
$USERR4
 40
0.0
  9
$USERR5
 40
0.0
  9
$WORLDVIEW
 70
     1
  9
$SHADEDGE
 70
     3
  9
$SHADEDIF
 70
    70
  9
$TILEMODE
 70
     1
  9
$MAXACTVP
 70
    64
  9
$PINSBASE
 10
0.0
 20
0.0
 30
0.0
  9
$PLIMCHECK
 70
     0
  9
$PEXTMIN
 10
1.0000000000E+20
 20
1.0000000000E+20
 30
1.0000000000E+20
  9
$PEXTMAX
 10
-1.0000000000E+20
 20
-1.0000000000E+20
 30
-1.0000000000E+20
  9
$PLIMMIN
 10
0.0
 20
0.0
  9
$PLIMMAX
 10
420.0
 20
297.0
  9
$UNITMODE
 70
     0
  9
$VISRETAIN
 70
     1
  9
$PLINEGEN
 70
     0
  9
$PSLTSCALE
 70
     1
  9
$TREEDEPTH
 70
  3020
  9
$CMLSTYLE
  2
Standard
  9
$CMLJUST
 70
     0
  9
$CMLSCALE
 40
20.0
  9
$PROXYGRAPHICS
 70
     1
  9
$MEASUREMENT
 70
     1
  9
$CELWEIGHT
370
    -1
  9
$ENDCAPS
280
     0
  9
$JOINSTYLE
280
     0
  9
$LWDISPLAY
290
     1
  9
$INSUNITS
 70
     4
  9
$HYPERLINKBASE
  1

  9
$STYLESHEET
  1

  9
$XEDIT
290
     1
  9
$CEPSNTYPE
380
     0
  9
$PSTYLEMODE
290
     1
  9
$FINGERPRINTGUID
  2
{8B350968-86FD-4AAD-83CF-6A6BA80FA90C}
  9
$VERSIONGUID
  2
{FAEB1C32-E019-11D5-929B-00C0DF256EC4}
  9
$EXTNAMES
290
     1
  9
$PSVPSCALE
 40
0.0
  9
$OLESTARTUP
290
     0
  0
ENDSEC
  0
SECTION
  2
CLASSES
  0
CLASS
  1
ACDBDICTIONARYWDFLT
  2
AcDbDictionaryWithDefault
  3
ObjectDBX Classes
 90
        0
280
     0
281
     0
  0
CLASS
  1
VISUALSTYLE
  2
AcDbVisualStyle
  3
ObjectDBX Classes
 90
     4095
280
     0
281
     0
  0
CLASS
  1
MATERIAL
  2
AcDbMaterial
  3
ObjectDBX Classes
 90
     1153
280
     0
281
     0
  0
CLASS
  1
ACDBPLACEHOLDER
  2
AcDbPlaceHolder
  3
ObjectDBX Classes
 90
        0
280
     0
281
     0
  0
CLASS
  1
LAYOUT
  2
AcDbLayout
  3
ObjectDBX Classes
 90
        0
280
     0
281
     0
  0
ENDSEC
  0
SECTION
  2
TABLES
  0
TABLE
  2
VPORT
  5
8
330
0
100
AcDbSymbolTable
 70
     1
  0
VPORT
  5
29
330
8
100
AcDbSymbolTableRecord
100
AcDbViewportTableRecord
  2
*Active
 70
     0
 10
0.0
 20
0.0
 11
1.0
 21
1.0
 12
500.0
 22
500.0
 13
0.0
 23
0.0
 14
10.0
 24
10.0
 15
10.0
 25
10.0
 16
0.0
 26
0.0
 36
1.0
 17
0.0
 27
0.0
 37
0.0
 40
1000.0
 41
1.0
 42
50.0
 43
0.0
 44
0.0
 50
0.0
 51
0.0
 71
     0
 72
  2000
 73
     1
 74
     3
 75
     0
 76
     0
 77
     0
 78
     0
281
     0
 65
     1
110
0.0
120
0.0
130
0.0
111
1.0
121
0.0
131
0.0
112
0.0
122
1.0
132
0.0
 79
     0
146
0.0
  0
ENDTAB
  0
TABLE
  2
LTYPE
  5
5
330
0
100
AcDbSymbolTable
 70
     6
  0
LTYPE
  5
14
330
5
100
AcDbSymbolTableRecord
100
AcDbLinetypeTableRecord
  2
ByBlock
 70
     0
  3

 72
    65
 73
     0
 40
0.0
  0
LTYPE
  5
15
330
5
100
AcDbSymbolTableRecord
100
AcDbLinetypeTableRecord
  2
ByLayer
 70
     0
  3

 72
    65
 73
     0
 40
0.0
  0
LTYPE
  5
16
330
5
100
AcDbSymbolTableRecord
100
AcDbLinetypeTableRecord
  2
Continuous
 70
     0
  3
Solid line
 72
    65
 73
     0
 40
0.0
  0
LTYPE
  5
3F
330
5
100
AcDbSymbolTableRecord
100
AcDbLinetypeTableRecord
  2
HIDDEN
 70
     0
  3
Hidden __ __ __ __ __ __ __ __ __ __ __ __ __ __
 72
    65
 73
     2
 40
1.905
 49
1.27
 74
     0
 49
-0.635
 74
     0
  0
LTYPE
  5
40
330
5
100
AcDbSymbolTableRecord
100
AcDbLinetypeTableRecord
  2
PHANTOM
 70
     0
  3
Phantom ______  __  __  ______  __  __  ______
 72
    65
 73
     6
 40
12.7
 49
6.35
 74
     0
 49
-1.27
 74
     0
 49
1.27
 74
     0
 49
-1.27
 74
     0
 49
1.27
 74
     0
 49
-1.27
 74
     0
  0
LTYPE
  5
41
330
5
100
AcDbSymbolTableRecord
100
AcDbLinetypeTableRecord
  2
CENTER
 70
     0
  3
Center ____ _ ____ _ ____ _ ____ _ ____ _ ____
 72
    65
 73
     4
 40
10.16
 49
6.35
 74
     0
 49
-1.27
 74
     0
 49
1.27
 74
     0
 49
-1.27
 74
     0
  0
LTYPE
  5
42
330
5
100
AcDbSymbolTableRecord
100
AcDbLinetypeTableRecord
  2
CENTERX2
 70
     0
  3
Center (2x) ________  __  ________  __  _____
 72
    65
 73
     4
 40
20.32
 49
12.7
 74
     0
 49
-2.54
 74
     0
 49
2.54
 74
     0
 49
-2.54
 74
     0
  0
LTYPE
  5
43
330
5
100
AcDbSymbolTableRecord
100
AcDbLinetypeTableRecord
  2
DOT2
 70
     0
  3
Dot (.5x) ........................................
 72
    65
 73
     2
 40
0.635
 49
0.0
 74
     0
 49
-0.635
 74
     0
  0
ENDTAB
  0
TABLE
  2
LAYER
  5
2
330
0
100
AcDbSymbolTable
 70
     4
  0
LAYER
  5
10
330
2
100
AcDbSymbolTableRecord
100
AcDbLayerTableRecord
  2
0
 70
     0
 62
     7
  6
Continuous
370
    -3
390
F
  0
LAYER
  5
44
330
2
100
AcDbSymbolTableRecord
100
AcDbLayerTableRecord
  2
FORMAT
 70
     0
 62
     7
  6
Continuous
370
    -3
390
F
  0
LAYER
  5
45
330
2
100
AcDbSymbolTableRecord
100
AcDbLayerTableRecord
  2
SLD-0
 70
     0
 62
     1
  6
Continuous
370
    -3
390
F
  0
LAYER
  5
46
330
2
100
AcDbSymbolTableRecord
100
AcDbLayerTableRecord
  2
WATERMARK
 70
     0
 62
     1
  6
Continuous
370
    -3
390
F
  0
ENDTAB
  0
TABLE
  2
STYLE
  5
3
330
0
100
AcDbSymbolTable
 70
     1
  0
STYLE
  5
11
330
3
100
AcDbSymbolTableRecord
100
AcDbTextStyleTableRecord
  2
Standard
 70
     0
 40
0.0
 41
1.0
 50
0.0
 71
     0
 42
3.5
  3
txt
  4

  0
ENDTAB
  0
TABLE
  2
VIEW
  5
6
330
0
100
AcDbSymbolTable
 70
     0
  0
ENDTAB
  0
TABLE
  2
UCS
  5
7
330
0
100
AcDbSymbolTable
 70
     0
  0
ENDTAB
  0
TABLE
  2
APPID
  5
9
330
0
100
AcDbSymbolTable
 70
     1
  0
APPID
  5
12
330
9
100
AcDbSymbolTableRecord
100
AcDbRegAppTableRecord
  2
ACAD
 70
     0
  0
ENDTAB
  0
TABLE
  2
DIMSTYLE
  5
A
330
0
100
AcDbSymbolTable
 70
     1
100
AcDbDimStyleTable
  0
DIMSTYLE
105
27
330
A
100
AcDbSymbolTableRecord
100
AcDbDimStyleTableRecord
  2
ISO-25
 70
     0
 41
2.5
 42
0.625
 43
3.75
 44
1.25
 73
     0
 74
     0
 77
     1
 78
     8
140
2.5
141
2.5
143
0.0393700787
147
0.625
171
     3
172
     1
178
     0
271
     2
272
     2
274
     3
278
    44
283
     0
284
     8
340
11
  0
ENDTAB
  0
TABLE
  2
BLOCK_RECORD
  5
1
330
0
100
AcDbSymbolTable
 70
     1
  0
BLOCK_RECORD
  5
1F
330
1
100
AcDbSymbolTableRecord
100
AcDbBlockTableRecord
  2
*Model_Space
340
22
  0
BLOCK_RECORD
  5
1B
330
1
100
AcDbSymbolTableRecord
100
AcDbBlockTableRecord
  2
*Paper_Space
340
1E
  0
BLOCK_RECORD
  5
23
330
1
100
AcDbSymbolTableRecord
100
AcDbBlockTableRecord
  2
*Paper_Space0
340
26
  0
ENDTAB
  0
ENDSEC
  0
SECTION
  2
BLOCKS
  0
BLOCK
  5
20
330
1F
100
AcDbEntity
  8
0
100
AcDbBlockBegin
  2
*Model_Space
 70
     0
 10
0.0
 20
0.0
 30
0.0
  3
*Model_Space
  1

  0
ENDBLK
  5
21
330
1F
100
AcDbEntity
  8
0
100
AcDbBlockEnd
  0
BLOCK
  5
1C
330
1B
100
AcDbEntity
 67
     1
  8
0
100
AcDbBlockBegin
  2
*Paper_Space
 70
     0
 10
0.0
 20
0.0
 30
0.0
  3
*Paper_Space
  1

  0
ENDBLK
  5
1D
330
1B
100
AcDbEntity
 67
     1
  8
0
100
AcDbBlockEnd
  0
BLOCK
  5
24
330
23
100
AcDbEntity
  8
0
100
AcDbBlockBegin
  2
*Paper_Space0
 70
     0
 10
0.0
 20
0.0
 30
0.0
  3
*Paper_Space0
  1

  0
ENDBLK
  5
25
330
23
100
AcDbEntity
  8
0
100
AcDbBlockEnd
  0
ENDSEC
  0
SECTION
  2
ENTITIES
  0
LINE
  5
47
330
1F
100
AcDbEntity
  8
0
  6
Continuous
 62
     7
370
    15
100
AcDbLine
 10
63.2230447768
 20
646.3533122394
 30
0.0
 11
63.2230447768
 21
637.1533129665
 31
0.0
  0
LINE
  5
48
330
1F
100
AcDbEntity
  8
0
  6
Continuous
 62
     7
370
    15
100
AcDbLine
 10
92.923085594
 20
637.1533129665
 30
0.0
 11
92.923085594
 21
646.3533122394
 31
0.0
  0
ARC
  5
49
330
1F
100
AcDbEntity
  8
0
  6
Continuous
 62
     7
370
    15
100
AcDbCircle
 10
68.2230742453
 20
637.1533129814
 30
0.0
 40
5.0
100
AcDbArc
 50
180.0
 51
270.0
  0
ARC
  5
4A
330
1F
100
AcDbEntity
  8
0
  6
Continuous
 62
     7
370
    15
100
AcDbCircle
 10
87.9230742453
 20
637.1533129814
 30
0.0
 40
5.0
100
AcDbArc
 50
270.0
 51
0.0
  0
LINE
  5
4B
330
1F
100
AcDbEntity
  8
0
  6
Continuous
 62
     7
370
    15
100
AcDbLine
 10
63.2230447768
 20
652.6533127132
 30
0.0
 11
63.2230447768
 21
650.2533130649
 31
0.0
  0
LINE
  5
4C
330
1F
100
AcDbEntity
  8
0
  6
Continuous
 62
     7
370
    15
100
AcDbLine
 10
92.923085594
 20
650.2533130649
 30
0.0
 11
92.923085594
 21
652.6533127132
 31
0.0
  0
LINE
  5
4D
330
1F
100
AcDbEntity
  8
0
  6
Continuous
 62
     7
370
    15
100
AcDbLine
 10
92.0730637549
 20
652.6533127132
 30
0.0
 11
92.0730637549
 21
658.1533131491
 31
0.0
  0
LINE
  5
4E
330
1F
100
AcDbEntity
  8
0
  6
Continuous
 62
     7
370
    15
100
AcDbLine
 10
64.0730666159
 20
658.1533131491
 30
0.0
 11
64.0730666159
 21
652.6533127132
 31
0.0
  0
LINE
  5
4F
330
1F
100
AcDbEntity
  8
0
  6
Continuous
 62
     7
370
    15
100
AcDbLine
 10
91.0730766295
 20
658.1533131491
 30
0.0
 11
91.0730766295
 21
660.1533130112
 31
0.0
  0
LINE
  5
50
330
1F
100
AcDbEntity
  8
0
  6
Continuous
 62
     7
370
    15
100
AcDbLine
 10
65.0730537413
 20
660.1533130112
 30
0.0
 11
65.0730537413
 21
658.1533131491
 31
0.0
  0
LINE
  5
51
330
1F
100
AcDbEntity
  8
0
  6
Continuous
 62
     7
370
    15
100
AcDbLine
 10
94.8231028555
 20
660.1533130112
 30
0.0
 11
94.8231028555
 21
663.3533129304
 31
0.0
  0
LINE
  5
52
330
1F
100
AcDbEntity
  8
0
  6
Continuous
 62
     7
370
    15
100
AcDbLine
 10
61.3230871199
 20
663.3533129304
 30
0.0
 11
61.3230871199
 21
660.1533130112
 31
0.0
  0
LINE
  5
53
330
1F
100
AcDbEntity
  8
0
  6
Continuous
 62
     7
370
    15
100
AcDbLine
 10
925.7487164973
 20
748.8860957626
 30
0.0
 11
927.2836180566
 21
750.3269113901
 31
0.0
  0
LINE
  5
54
330
1F
100
AcDbEntity
  8
0
  6
Continuous
 62
     7
370
    15
100
AcDbLine
 10
921.6627882956
 20
762.3808034065
 30
0.0
 11
919.5724534033
 21
762.1311419013
 31
0.0
  0
LINE
  5
55
330
1F
100
AcDbEntity
  8
0
  6
Continuous
 62
     7
370
    15
100
AcDbLine
 10
900.3916228353
 20
803.2645680311
 30
0.0
 11
901.9265206693
 21
804.7053762081
 31
0.0
  0
LINE
  5
56
330
1F
100
AcDbEntity
  8
0
  6
Continuous
 62
     7
370
    15
100
AcDbLine
 10
896.3056946336
 20
816.7592682245
 30
0.0
 11
894.2153597413
 21
816.5095992687
 31
0.0
  0
LINE
  5
57
330
1F
100
AcDbEntity
  8
0
  6
Continuous
 62
     7
370
    15
100
AcDbLine
 10
929.6081321476
 20
755.9898667339
 30
0.0
 11
936.980734968
 21
763.8412811163
 31
0.0
  0
LINE
  5
58
330
1F
100
AcDbEntity
  8
0
  6
Continuous
 62
     7
370
    15
100
AcDbLine
 10
912.8914954303
 20
815.5008204582
 30
0.0
 11
902.1379457949
 21
814.8998715285
 31
0.0
  0
LINE
  5
59
330
1F
100
AcDbEntity
  8
0
  6
Continuous
 62
     7
370
    15
100
AcDbLine
 10
936.980734968
 20
763.8412811163
 30
0.0
 11
950.8810745715
 21
779.9607463482
 31
0.0
  0
LINE
  5
5A
330
1F
100
AcDbEntity
  8
0
  6
Continuous
 62
     7
370
    15
100
AcDbLine
 10
913.3914517401
 20
815.5075706843
 30
0.0
 11
912.8914954303
 21
815.5008204582
 31
0.0
  0
ARC
  5
5B
330
1F
100
AcDbEntity
  8
0
  6
Continuous
 62
     7
370
    15
100
AcDbCircle
 10
950.1237633782
 20
780.6138040274
 30
0.0
 40
1.000000000000064
100
AcDbArc
 50
319.227745318
 51
25.0
  0
ARC
  5
5C
330
1F
100
AcDbEntity
  8
0
  6
Continuous
 62
     7
370
    15
100
AcDbCircle
 10
904.8670312801
 20
806.6811317167
 30
0.0
 40
2.000000000000051
100
AcDbArc
 50
205.0
 51
292.0
  0
ARC
  5
5D
330
1F
100
AcDbEntity
  8
0
  6
Continuous
 62
     7
370
    15
100
AcDbCircle
 10
925.0664338193
 20
763.3633731814
 30
0.0
 40
1.999999999999972
100
AcDbArc
 50
118.0
 51
205.0
  0
LINE
  5
5E
330
1F
100
AcDbEntity
  8
0
  6
Continuous
 62
     7
370
    15
100
AcDbLine
 10
924.1274925111
 20
765.1292704347
 30
0.0
 11
925.1041965722
 21
765.6485908035
 31
0.0
  0
LINE
  5
5F
330
1F
100
AcDbEntity
  8
0
  6
Continuous
 62
     7
370
    15
100
AcDbLine
 10
906.6418813704
 20
805.2411474589
 30
0.0
 11
905.6162456213
 21
804.8267610672
 31
0.0
  0
LINE
  5
60
330
1F
100
AcDbEntity
  8
0
  6
Continuous
 62
     7
370
    15
100
AcDbLine
 10
936.0927673219
 20
723.1539175215
 30
0.0
 11
936.5348475216
 21
723.3889758888
 31
0.0
  0
ARC
  5
61
330
1F
100
AcDbEntity
  8
0
  6
Continuous
 62
     7
370
    15
100
AcDbCircle
 10
72.3230742453
 20
651.5033129814
 30
0.0
 40
1.45000000000006
100
AcDbArc
 50
90.0
 51
180.0
  0
ARC
  5
62
330
1F
100
AcDbEntity
  8
0
  6
Continuous
 62
     7
370
    15
100
AcDbCircle
 10
71.1230742453
 20
646.4033129814
 30
0.0
 40
0.25
100
AcDbArc
 50
180.0
 51
270.0
  0
LINE
  5
63
330
1F
100
AcDbEntity
  8
0
  6
Continuous
 62
     7
370
    15
100
AcDbLine
 10
70.8730625151
 20
651.5033128041
 30
0.0
 11
70.8730625151
 21
646.4033130857
 31
0.0
  0
SPLINE
  5
64
330
1F
100
AcDbEntity
  8
0
  6
Continuous
 62
     7
370
    15
100
AcDbSpline
210
0.0
220
0.0
230
1.0
 70
     8
 71
     3
 72
    12
 73
     8
 74
     0
 42
0.00000001
 43
0.00000001
 12
1.0
 22
0.0
 32
0.0
 13
1.0
 23
0.0
 33
0.0
 40
0.0
 40
0.0
 40
0.0
 40
0.0
 40
0.1149451176410058
 40
0.3197488406328865
 40
0.5407388528548737
 40
0.7887735695333236
 40
0.9999999999999999
 40
0.9999999999999999
 40
0.9999999999999999
 40
0.9999999999999999
 10
73.01257123932514
 20
651.5031591358903
 30
0.0
 10
73.01187851723179
 20
651.5192926929816
 30
0.0
 10
73.009951535984
 20
651.5641722518621
 30
0.0
 10
73.04402819262911
 20
651.6348433830562
 30
0.0
 10
73.10783703212597
 20
651.7023990470118
 30
0.0
 10
73.19315417114636
 20
651.7470161414732
 30
0.0
 10
73.25604109510797
 20
651.7488403075274
 30
0.0
 10
73.28496446594856
 20
651.7496792900685
 30
0.0
  0
ARC
  5
65
330
1F
100
AcDbEntity
  8
0
  6
Continuous
 62
     7
370
    15
100
AcDbCircle
 10
72.7582275422
 20
646.4033129814
 30
0.0
 40
0.25
100
AcDbArc
 50
270.0
 51
0.0
  0
LINE
  5
66
330
1F
100
AcDbEntity
  8
0
  6
Continuous
 62
     7
370
    15
100
AcDbLine
 10
73.0082201003
 20
646.4033130857
 30
0.0
 11
73.0082201003
 21
651.5033128041
 31
0.0
  0
SPLINE
  5
67
330
1F
100
AcDbEntity
  8
0
  6
Continuous
 62
     7
370
    15
100
AcDbSpline
210
0.0
220
0.0
230
1.0
 70
     8
 71
     3
 72
    12
 73
     8
 74
     0
 42
0.00000001
 43
0.00000001
 12
1.0
 22
0.0
 32
0.0
 13
1.0
 23
0.0
 33
0.0
 40
0.0
 40
0.0
 40
0.0
 40
0.0
 40
0.1281030188270538
 40
0.418800847630991
 40
0.6528042882960838
 40
0.8603150400696328
 40
1.0
 40
1.0
 40
1.0
 40
1.0
 10
89.61192836746845
 20
651.7479013952735
 30
0.0
 10
89.62887129443897
 20
651.7483251383069
 30
0.0
 10
89.6842619654903
 20
651.749710460395
 30
0.0
 10
89.76586986376046
 20
651.7098692070247
 30
0.0
 10
89.83555855682046
 20
651.6414747326072
 30
0.0
 10
89.87182614205469
 20
651.5689335614712
 30
0.0
 10
89.87240585259826
 20
651.5217301475066
 30
0.0
 10
89.87263908371601
 20
651.5027391094092
 30
0.0
  0
LINE
  5
68
330
1F
100
AcDbEntity
  8
0
  6
Continuous
 62
     7
370
    15
100
AcDbLine
 10
89.8755001067
 20
651.5033128041
 30
0.0
 11
89.8755001067
 21
646.4033130857
 31
0.0
  0
ARC
  5
69
330
1F
100
AcDbEntity
  8
0
  6
Continuous
 62
     7
370
    15
100
AcDbCircle
 10
90.1254973596
 20
646.4033129814
 30
0.0
 40
0.2500000000000853
100
AcDbArc
 50
180.0
 51
270.0
  0
ARC
  5
6A
330
1F
100
AcDbEntity
  8
0
  6
Continuous
 62
     7
370
    15
100
AcDbCircle
 10
89.8230742453
 20
651.5033129814
 30
0.0
 40
1.449999999999946
100
AcDbArc
 50
0.0
 51
90.0
  0
ARC
  5
6B
330
1F
100
AcDbEntity
  8
0
  6
Continuous
 62
     7
370
    15
100
AcDbCircle
 10
91.0230742453
 20
646.4033129814
 30
0.0
 40
0.25
100
AcDbArc
 50
270.0
 51
0.0
  0
LINE
  5
6C
330
1F
100
AcDbEntity
  8
0
  6
Continuous
 62
     7
370
    15
100
AcDbLine
 10
91.2730502127
 20
646.4033130857
 30
0.0
 11
91.2730502127
 21
651.5033128041
 31
0.0
  0
ARC
  5
6D
330
1F
100
AcDbEntity
  8
0
  6
Continuous
 62
     7
370
    15
100
AcDbCircle
 10
89.3879209484
 20
646.4033129814
 30
0.0
 40
0.25
100
AcDbArc
 50
180.0
 51
270.0
  0
LINE
  5
6E
330
1F
100
AcDbEntity
  8
0
  6
Continuous
 62
     7
370
    15
100
AcDbLine
 10
89.1378926276
 20
650.5533125553
 30
0.0
 11
89.1378926276
 21
646.4033130857
 31
0.0
  0
SPLINE
  5
6F
330
1F
100
AcDbEntity
  8
0
  6
Continuous
 62
     7
370
    15
100
AcDbSpline
210
0.0
220
0.0
230
1.0
 70
     8
 71
     3
 72
    18
 73
    14
 74
     0
 42
0.00000001
 43
0.00000001
 12
1.0
 22
0.0
 32
0.0
 13
1.0
 23
0.0
 33
0.0
 40
0.0
 40
0.0
 40
0.0
 40
0.0
 40
0.0016729034318311
 40
0.0493927116557791
 40
0.0874696555219098
 40
0.1215597186887157
 40
0.1545375286540615
 40
0.1935295484746768
 40
0.2632594039297656
 40
0.5402145319775115
 40
0.750426796221945
 40
0.9477848068054299
 40
1.0
 40
1.0
 40
1.0
 40
1.0
 10
84.53730812058124
 20
650.5539393353585
 30
0.0
 10
84.53844009146772
 20
650.5537378173741
 30
0.0
 10
84.57186169282205
 20
650.547787970239
 30
0.0
 10
84.63344412759233
 20
650.5690754296385
 30
0.0
 10
84.70202021794293
 20
650.6100938023304
 30
0.0
 10
84.74604502288774
 20
650.6594914870534
 30
0.0
 10
84.77263565097859
 20
650.7060593458259
 30
0.0
 10
84.79092240616804
 20
650.7548681324606
 30
0.0
 10
84.81539640820745
 20
650.857401964215
 30
0.0
 10
84.83433922962857
 20
651.0556654645333
 30
0.0
 10
84.85206648443533
 20
651.4596224248204
 30
0.0
 10
84.85882878030193
 20
651.785635707025
 30
0.0
 10
84.85763485386299
 20
651.9647902526209
 30
0.0
 10
84.85738506302498
 20
652.0022725987557
 30
0.0
  0
ARC
  5
70
330
1F
100
AcDbEntity
  8
0
  6
Continuous
 62
     7
370
    15
100
AcDbCircle
 10
84.6082299491
 20
657.1033129814
 30
0.0
 40
0.25
100
AcDbArc
 50
0.0
 51
90.0
  0
LINE
  5
71
330
1F
100
AcDbEntity
  8
0
  6
Continuous
 62
     7
370
    15
100
AcDbLine
 10
84.8582195281
 20
652.0033128861
 30
0.0
 11
84.8582195281
 21
657.1033126044
 31
0.0
  0
SPLINE
  5
72
330
1F
100
AcDbEntity
  8
0
  6
Continuous
 62
     7
370
    15
100
AcDbSpline
210
0.0
220
0.0
230
1.0
 70
     8
 71
     3
 72
    14
 73
    10
 74
     0
 42
0.00000001
 43
0.00000001
 12
1.0
 22
0.0
 32
0.0
 13
1.0
 23
0.0
 33
0.0
 40
0.0
 40
0.0
 40
0.0
 40
0.0
 40
0.1062963285191625
 40
0.3558434402654472
 40
0.6066788826339957
 40
0.798783159175685
 40
0.9053210664644541
 40
0.9758881410039459
 40
1.0
 40
1.0
 40
1.0
 40
1.0
 10
78.3256100653138
 20
651.9962916451815
 30
0.0
 10
78.32567269291579
 20
651.9724195144354
 30
0.0
 10
78.32588234852334
 20
651.8925038555458
 30
0.0
 10
78.32265000691486
 20
651.7628662027315
 30
0.0
 10
78.31715175682974
 20
651.6458615209214
 30
0.0
 10
78.31134341235624
 20
651.5865338953282
 30
0.0
 10
78.3093157991448
 20
651.5712124776363
 30
0.0
 10
78.30908782322554
 20
651.5745354688698
 30
0.0
 10
78.31242262958938
 20
651.5848059073071
 30
0.0
 10
78.3132719038454
 20
651.5874214771512
 30
0.0
  0
LINE
  5
73
330
1F
100
AcDbEntity
  8
0
  6
Continuous
 62
     7
370
    15
100
AcDbLine
 10
78.3260272978
 20
657.1033126044
 30
0.0
 11
78.3260272978
 21
652.0033128861
 31
0.0
  0
ARC
  5
74
330
1F
100
AcDbEntity
  8
0
  6
Continuous
 62
     7
370
    15
100
AcDbCircle
 10
78.5760085517
 20
657.1033129814
 30
0.0
 40
0.2500000000001137
100
AcDbArc
 50
90.0
 51
180.0
  0
ARC
  5
75
330
1F
100
AcDbEntity
  8
0
  6
Continuous
 62
     7
370
    15
100
AcDbCircle
 10
89.5230742453
 20
651.5033129814
 30
0.0
 40
0.2500000000000853
100
AcDbArc
 50
0.0
 51
89.9999999999
  0
ARC
  5
76
330
1F
100
AcDbEntity
  8
0
  6
Continuous
 62
     7
370
    15
100
AcDbCircle
 10
89.5230742453
 20
650.8033129814
 30
0.0
 40
0.2500000000000853
100
AcDbArc
 50
270.0
 51
0.0
  0
LINE
  5
77
330
1F
100
AcDbEntity
  8
0
  6
Continuous
 62
     7
370
    15
100
AcDbLine
 10
89.7730993269
 20
650.8033130619
 30
0.0
 11
89.7730993269
 21
651.5033128041
 31
0.0
  0
LINE
  5
78
330
1F
100
AcDbEntity
  8
0
  6
Continuous
 62
     7
370
    15
100
AcDbLine
 10
76.0486530302
 20
645.3674216125
 30
0.0
 11
76.0730909346
 21
645.3533120754
 31
0.0
  0
LINE
  5
79
330
1F
100
AcDbEntity
  8
0
  6
Continuous
 62
     7
370
    15
100
AcDbLine
 10
76.0730909346
 20
650.5533125553
 30
0.0
 11
76.0486530302
 21
650.5392039496
 31
0.0
  0
LINE
  5
7A
330
1F
100
AcDbEntity
  8
0
  6
Continuous
 62
     7
370
    15
100
AcDbLine
 10
86.0730813979
 20
645.3533120754
 30
0.0
 11
86.0975193022
 21
645.3674216125
 31
0.0
  0
LINE
  5
7B
330
1F
100
AcDbEntity
  8
0
  6
Continuous
 62
     7
370
    15
100
AcDbLine
 10
75.5541728972
 20
653.2529093626
 30
0.0
 11
76.0730909346
 21
652.9533131349
 31
0.0
  0
LINE
  5
7C
330
1F
100
AcDbEntity
  8
0
  6
Continuous
 62
     7
370
    15
100
AcDbLine
 10
76.0730909346
 20
658.1533131491
 30
0.0
 11
75.5541728972
 21
657.8537169214
 31
0.0
  0
LINE
  5
7D
330
1F
100
AcDbEntity
  8
0
  6
Continuous
 62
     7
370
    15
100
AcDbLine
 10
86.5919994353
 20
657.8537169214
 30
0.0
 11
86.0730813979
 21
658.1533131491
 31
0.0
  0
LINE
  5
7E
330
1F
100
AcDbEntity
  8
0
  6
Continuous
 62
     7
370
    15
100
AcDbLine
 10
86.0730813979
 20
652.9533131349
 30
0.0
 11
86.5919994353
 21
653.2529093626
 31
0.0
  0
LINE
  5
7F
330
1F
100
AcDbEntity
  8
0
  6
Continuous
 62
     7
370
    15
100
AcDbLine
 10
78.0730651854
 20
658.4033131901
 30
0.0
 11
78.0730651854
 21
658.1533131491
 31
0.0
  0
LINE
  5
80
330
1F
100
AcDbEntity
  8
0
  6
Continuous
 62
     7
370
    15
100
AcDbLine
 10
84.0730475424
 20
658.1533131491
 30
0.0
 11
84.0730475424
 21
658.4033131901
 31
0.0
  0
LINE
  5
81
330
1F
100
AcDbEntity
  8
0
  6
Continuous
 62
     7
370
    15
100
AcDbLine
 10
785.073074901
 20
566.1533125046
 30
0.0
 11
785.073074901
 21
570.1533131603
 31
0.0
  0
LINE
  5
82
330
1F
100
AcDbEntity
  8
0
  6
Continuous
 62
     7
370
    15
100
AcDbLine
 10
728.0730711459
 20
570.1533131603
 30
0.0
 11
728.0730711459
 21
566.1533125046
 31
0.0
  0
ARC
  5
83
330
1F
100
AcDbEntity
  8
0
  6
Continuous
 62
     7
370
    15
100
AcDbCircle
 10
783.0730742453
 20
566.1533129814
 30
0.0
 40
2.0
100
AcDbArc
 50
270.0
 51
0.0
  0
ARC
  5
84
330
1F
100
AcDbEntity
  8
0
  6
Continuous
 62
     7
370
    15
100
AcDbCircle
 10
730.0730742453
 20
566.1533129814
 30
0.0
 40
2.0
100
AcDbArc
 50
180.0
 51
270.0
  0
LINE
  5
85
330
1F
100
AcDbEntity
  8
0
  6
Continuous
 62
     7
370
    15
100
AcDbLine
 10
206.0730861662
 20
566.1533125046
 30
0.0
 11
206.0730861662
 21
570.1533131603
 31
0.0
  0
LINE
  5
86
330
1F
100
AcDbEntity
  8
0
  6
Continuous
 62
     7
370
    15
100
AcDbLine
 10
149.0730451582
 20
570.1533131603
 30
0.0
 11
149.0730451582
 21
566.1533125046
 31
0.0
  0
ARC
  5
87
330
1F
100
AcDbEntity
  8
0
  6
Continuous
 62
     7
370
    15
100
AcDbCircle
 10
204.0730742453
 20
566.1533129814
 30
0.0
 40
2.0
100
AcDbArc
 50
270.0
 51
0.0
  0
ARC
  5
88
330
1F
100
AcDbEntity
  8
0
  6
Continuous
 62
     7
370
    15
100
AcDbCircle
 10
151.0730742453
 20
566.1533129814
 30
0.0
 40
2.0
100
AcDbArc
 50
180.0
 51
270.0
  0
LINE
  5
89
330
1F
100
AcDbEntity
  8
0
  6
Continuous
 62
     7
370
    15
100
AcDbLine
 10
205.8730529784
 20
570.1533131603
 30
0.0
 11
205.8730529784
 21
599.1533123258
 31
0.0
  0
LINE
  5
8A
330
1F
100
AcDbEntity
  8
0
  6
Continuous
 62
     7
370
    15
100
AcDbLine
 10
149.2730783461
 20
599.1533123258
 30
0.0
 11
149.2730783461
 21
570.1533131603
 31
0.0
  0
LINE
  5
8B
330
1F
100
AcDbEntity
  8
0
  6
Continuous
 62
     7
370
    15
100
AcDbLine
 10
784.8730752407
 20
570.1533131603
 30
0.0
 11
784.8730752407
 21
599.1533123258
 31
0.0
  0
LINE
  5
8C
330
1F
100
AcDbEntity
  8
0
  6
Continuous
 62
     7
370
    15
100
AcDbLine
 10
728.2730745314
 20
599.1533123258
 30
0.0
 11
728.2730745314
 21
570.1533131603
 31
0.0
  0
ARC
  5
8D
330
1F
100
AcDbEntity
  8
0
  6
Continuous
 62
     7
370
    15
100
AcDbCircle
 10
210.9730742453
 20
660.6533129814
 30
0.0
 40
1.5
100
AcDbArc
 50
90.0
 51
180.0
  0
ARC
  5
8E
330
1F
100
AcDbEntity
  8
0
  6
Continuous
 62
     7
370
    15
100
AcDbCircle
 10
144.1730742453
 20
660.6533129814
 30
0.0
 40
1.5
100
AcDbArc
 50
0.0
 51
90.0
  0
ARC
  5
8F
330
1F
100
AcDbEntity
  8
0
  6
Continuous
 62
     7
370
    15
100
AcDbCircle
 10
204.7730742453
 20
605.1858789271
 30
0.0
 40
4.700000000000037
100
AcDbArc
 50
350.5402980318
 51
0.0
  0
ARC
  5
90
330
1F
100
AcDbEntity
  8
0
  6
Continuous
 62
     7
370
    15
100
AcDbCircle
 10
150.3730742453
 20
605.1858789271
 30
0.0
 40
4.700000000000066
100
AcDbArc
 50
180.0
 51
189.4597019682
  0
LINE
  5
91
330
1F
100
AcDbEntity
  8
0
  6
Continuous
 62
     7
370
    15
100
AcDbLine
 10
209.4730543135
 20
605.1858797971
 30
0.0
 11
209.4730543135
 21
660.6533130932
 31
0.0
  0
LINE
  5
92
330
1F
100
AcDbEntity
  8
0
  6
Continuous
 62
     7
370
    15
100
AcDbLine
 10
145.673077011
 20
660.6533130932
 30
0.0
 11
145.673077011
 21
605.1858797971
 31
0.0
  0
LINE
  5
93
330
1F
100
AcDbEntity
  8
0
  6
Continuous
 62
     7
370
    15
100
AcDbLine
 10
145.7369731902
 20
604.4134147766
 30
0.0
 11
146.6133998869
 21
599.1533123258
 31
0.0
  0
LINE
  5
94
330
1F
100
AcDbEntity
  8
0
  6
Continuous
 62
     7
370
    15
100
AcDbLine
 10
208.5327314375
 20
599.1533123258
 30
0.0
 11
209.4091581343
 21
604.4134147766
 31
0.0
  0
ARC
  5
95
330
1F
100
AcDbEntity
  8
0
  6
Continuous
 62
     7
370
    15
100
AcDbCircle
 10
789.9730742453
 20
660.6533129814
 30
0.0
 40
1.500000000000114
100
AcDbArc
 50
90.0
 51
180.0
  0
ARC
  5
96
330
1F
100
AcDbEntity
  8
0
  6
Continuous
 62
     7
370
    15
100
AcDbCircle
 10
723.1730742453
 20
660.6533129814
 30
0.0
 40
1.5
100
AcDbArc
 50
0.0
 51
90.0
  0
ARC
  5
97
330
1F
100
AcDbEntity
  8
0
  6
Continuous
 62
     7
370
    15
100
AcDbCircle
 10
783.7730742453
 20
605.1858789271
 30
0.0
 40
4.70000000000001
100
AcDbArc
 50
350.5402980318
 51
0.0
  0
ARC
  5
98
330
1F
100
AcDbEntity
  8
0
  6
Continuous
 62
     7
370
    15
100
AcDbCircle
 10
729.3730742453
 20
605.1858789271
 30
0.0
 40
4.700000000000045
100
AcDbArc
 50
180.0
 51
189.4597019682
  0
LINE
  5
99
330
1F
100
AcDbEntity
  8
0
  6
Continuous
 62
     7
370
    15
100
AcDbLine
 10
788.4730728506
 20
605.1858797971
 30
0.0
 11
788.4730728506
 21
660.6533130932
 31
0.0
  0
LINE
  5
9A
330
1F
100
AcDbEntity
  8
0
  6
Continuous
 62
     7
370
    15
100
AcDbLine
 10
724.6730731963
 20
660.6533130932
 30
0.0
 11
724.6730731963
 21
605.1858797971
 31
0.0
  0
LINE
  5
9B
330
1F
100
AcDbEntity
  8
0
  6
Continuous
 62
     7
370
    15
100
AcDbLine
 10
724.7369842766
 20
604.4134147766
 30
0.0
 11
725.6134258746
 21
599.1533123258
 31
0.0
  0
LINE
  5
9C
330
1F
100
AcDbEntity
  8
0
  6
Continuous
 62
     7
370
    15
100
AcDbLine
 10
787.5327238975
 20
599.1533123258
 30
0.0
 11
788.4091617702
 21
604.4134147766
 31
0.0
  0
ARC
  5
9D
330
1F
100
AcDbEntity
  8
0
  6
Continuous
 62
     7
370
    15
100
AcDbCircle
 10
916.7723222203
 20
833.6798280509
 30
0.0
 40
2.800000000000058
100
AcDbArc
 50
25.0
 51
115.0
  0
ARC
  5
9E
330
1F
100
AcDbEntity
  8
0
  6
Continuous
 62
     7
370
    15
100
AcDbCircle
 10
916.7723222203
 20
833.6798280509
 30
0.0
 40
1.300000000000117
100
AcDbArc
 50
25.0
 51
115.0
  0
LINE
  5
9F
330
1F
100
AcDbEntity
  8
0
  6
Continuous
 62
     7
370
    15
100
AcDbLine
 10
891.6171485721
 20
825.0392325524
 30
0.0
 11
915.5889930366
 21
836.2174876335
 31
0.0
  0
LINE
  5
A0
330
1F
100
AcDbEntity
  8
0
  6
Continuous
 62
     7
370
    15
100
AcDbLine
 10
892.2510774969
 20
823.6797698143
 30
0.0
 11
916.2229182361
 21
834.8580248955
 31
0.0
  0
ARC
  5
A1
330
1F
100
AcDbEntity
  8
0
  6
Continuous
 62
     7
370
    15
100
AcDbCircle
 10
892.7793503401
 20
822.5468904172
 30
0.0
 40
1.25000000000008
100
AcDbArc
 50
115.0
 51
205.0
  0
ARC
  5
A2
330
1F
100
AcDbEntity
  8
0
  6
Continuous
 62
     7
370
    15
100
AcDbCircle
 10
892.7793503401
 20
822.5468904172
 30
0.0
 40
2.749999999999973
100
AcDbArc
 50
115.0
 51
205.0
  0
LWPOLYLINE
  5
A3
330
1F
100
AcDbEntity
  8
0
  6
Continuous
 62
     7
370
    15
100
AcDbPolyline
 90
        9
 70
   128
 43
0.0
 10
931.4391272305
 20
808.8521309498
 10
932.2636159299
 20
807.084003866
 10
933.0564173101
 20
805.3838409785
 10
933.7870659469
 20
803.8169540766
 10
934.4274880527
 20
802.4435587528
 10
934.9530669092
 20
801.3164498213
 10
935.3436114429
 20
800.4789300564
 10
935.584108734
 20
799.9631859663
 10
935.6653126119
 20
799.7890509966
  0
LINE
  5
A4
330
1F
100
AcDbEntity
  8
0
  6
Continuous
 62
     7
370
    15
100
AcDbLine
 10
935.6653126119
 20
799.7890509966
 30
0.0
 11
934.3058498739
 21
799.1551257971
 31
0.0
  0
LWPOLYLINE
  5
A5
330
1F
100
AcDbEntity
  8
0
  6
Continuous
 62
     7
370
    15
100
AcDbPolyline
 90
        9
 70
   128
 43
0.0
 10
934.3058498739
 20
799.1551257971
 10
934.2246459959
 20
799.3292607668
 10
933.9841487049
 20
799.8450048569
 10
933.5936116217
 20
800.6825246218
 10
933.0680253147
 20
801.8096335533
 10
932.4276106595
 20
803.1830288771
 10
931.6969545721
 20
804.7499157789
 10
930.9041531919
 20
806.4500786665
 10
930.0796644925
 20
808.2182057503
  0
LINE
  5
A6
330
1F
100
AcDbEntity
  8
0
  6
Continuous
 62
     7
370
    15
100
AcDbLine
 10
919.3099843501
 20
834.8631657961
 30
0.0
 11
931.4391272305
 21
808.8521309498
 31
0.0
  0
LINE
  5
A7
330
1F
100
AcDbEntity
  8
0
  6
Continuous
 62
     7
370
    15
100
AcDbLine
 10
917.950521612
 20
834.2292256954
 30
0.0
 11
930.0796644925
 21
808.2182057503
 31
0.0
  0
LINE
  5
A8
330
1F
100
AcDbEntity
  8
0
  6
Continuous
 62
     7
370
    15
100
AcDbLine
 10
927.0407440303
 20
746.1153440479
 30
0.0
 11
891.6464666067
 21
822.0186181668
 31
0.0
  0
LINE
  5
A9
330
1F
100
AcDbEntity
  8
0
  6
Continuous
 62
     7
370
    15
100
AcDbLine
 10
929.1538329957
 20
741.5838040713
 30
0.0
 11
927.7943777083
 21
740.9498714212
 31
0.0
  0
LWPOLYLINE
  5
AA
330
1F
100
AcDbEntity
  8
0
  6
Continuous
 62
     7
370
    15
100
AcDbPolyline
 90
        9
 70
   128
 43
0.0
 10
927.0407440303
 20
746.1153440479
 10
927.4529921053
 20
745.231280506
 10
927.8493927954
 20
744.3811990622
 10
928.2147171138
 20
743.5977556113
 10
928.5349281667
 20
742.9110579494
 10
928.797717595
 20
742.3475034836
 10
928.9929898618
 20
741.9287436012
 10
929.1132347821
 20
741.6708715561
 10
929.1538329957
 20
741.5838040713
  0
LINE
  5
AB
330
1F
100
AcDbEntity
  8
0
  6
Continuous
 62
     7
370
    15
100
AcDbLine
 10
92.0284794806
 20
646.3533122394
 30
0.0
 11
92.0284794806
 21
650.2533130649
 31
0.0
  0
LINE
  5
AC
330
1F
100
AcDbEntity
  8
0
  6
Continuous
 62
     7
370
    15
100
AcDbLine
 10
86.333136463
 20
646.3533122394
 30
0.0
 11
89.1429590224
 21
646.3533122394
 31
0.0
  0
LINE
  5
AD
330
1F
100
AcDbEntity
  8
0
  6
Continuous
 62
     7
370
    15
100
AcDbLine
 10
91.2680434226
 20
646.3533122394
 30
0.0
 11
92.0284794806
 21
646.3533122394
 31
0.0
  0
LINE
  5
AE
330
1F
100
AcDbEntity
  8
0
  6
Continuous
 62
     7
370
    15
100
AcDbLine
 10
86.2593459128
 20
650.2533130649
 30
0.0
 11
89.1378926276
 21
650.2533130649
 31
0.0
  0
LINE
  5
AF
330
1F
100
AcDbEntity
  8
0
  6
Continuous
 62
     7
370
    15
100
AcDbLine
 10
91.2730502127
 20
650.2533130649
 30
0.0
 11
92.0284794806
 21
650.2533130649
 31
0.0
  0
LINE
  5
B0
330
1F
100
AcDbEntity
  8
0
  6
Continuous
 62
     7
370
    15
100
AcDbLine
 10
64.1177104948
 20
650.2533130649
 30
0.0
 11
64.1177104948
 21
646.3533122394
 31
0.0
  0
LINE
  5
B1
330
1F
100
AcDbEntity
  8
0
  6
Continuous
 62
     7
370
    15
100
AcDbLine
 10
64.1177104948
 20
646.3533122394
 30
0.0
 11
70.8781289099
 21
646.3533122394
 31
0.0
  0
LINE
  5
B2
330
1F
100
AcDbEntity
  8
0
  6
Continuous
 62
     7
370
    15
100
AcDbLine
 10
73.0031537055
 20
646.3533122394
 30
0.0
 11
75.8130358695
 21
646.3533122394
 31
0.0
  0
LINE
  5
B3
330
1F
100
AcDbEntity
  8
0
  6
Continuous
 62
     7
370
    15
100
AcDbLine
 10
64.1177104948
 20
650.2533130649
 30
0.0
 11
70.8730625151
 21
650.2533130649
 31
0.0
  0
LINE
  5
B4
330
1F
100
AcDbEntity
  8
0
  6
Continuous
 62
     7
370
    15
100
AcDbLine
 10
73.0082201003
 20
650.2533130649
 30
0.0
 11
75.868647003
 21
650.2533130649
 31
0.0
  0
LINE
  5
B5
330
1F
100
AcDbEntity
  8
0
  6
Continuous
 62
     7
370
    15
100
AcDbLine
 10
87.3364614485
 20
660.1533130112
 30
0.0
 11
87.3364614485
 21
663.3533129304
 31
0.0
  0
LINE
  5
B6
330
1F
100
AcDbEntity
  8
0
  6
Continuous
 62
     7
370
    15
100
AcDbLine
 10
86.369554901
 20
660.1533130112
 30
0.0
 11
87.3364614485
 21
660.1533130112
 31
0.0
  0
LINE
  5
B7
330
1F
100
AcDbEntity
  8
0
  6
Continuous
 62
     7
370
    15
100
AcDbLine
 10
70.6190275191
 20
660.1533130112
 30
0.0
 11
70.6190275191
 21
663.3533129304
 31
0.0
  0
LINE
  5
B8
330
1F
100
AcDbEntity
  8
0
  6
Continuous
 62
     7
370
    15
100
AcDbLine
 10
70.6190275191
 20
660.1533130112
 30
0.0
 11
75.7766174315
 21
660.1533130112
 31
0.0
  0
LINE
  5
B9
330
1F
100
AcDbEntity
  8
0
  6
Continuous
 62
     7
370
    15
100
AcDbLine
 10
68.8097285269
 20
663.3533129304
 30
0.0
 11
68.8097285269
 21
660.1533130112
 31
0.0
  0
LINE
  5
BA
330
1F
100
AcDbEntity
  8
0
  6
Continuous
 62
     7
370
    15
100
AcDbLine
 10
68.8097285269
 20
660.1533130112
 30
0.0
 11
70.6190275191
 21
660.1533130112
 31
0.0
  0
LINE
  5
BB
330
1F
100
AcDbEntity
  8
0
  6
Continuous
 62
     7
370
    15
100
AcDbLine
 10
87.9230903624
 20
632.153312147
 30
0.0
 11
68.223099613
 21
632.153312147
 31
0.0
  0
LINE
  5
BC
330
1F
100
AcDbEntity
  8
0
  6
Continuous
 62
     7
370
    15
100
AcDbLine
 10
63.2230447768
 20
652.6533127132
 30
0.0
 11
71.4399026869
 21
652.6533127132
 31
0.0
  0
LINE
  5
BD
330
1F
100
AcDbEntity
  8
0
  6
Continuous
 62
     7
370
    15
100
AcDbLine
 10
90.7062696455
 20
652.6533127132
 30
0.0
 11
92.923085594
 21
652.6533127132
 31
0.0
  0
LINE
  5
BE
330
1F
100
AcDbEntity
  8
0
  6
Continuous
 62
     7
370
    15
100
AcDbLine
 10
64.0730666159
 20
658.1533131491
 30
0.0
 11
76.0730909346
 21
658.1533131491
 31
0.0
  0
LINE
  5
BF
330
1F
100
AcDbEntity
  8
0
  6
Continuous
 62
     7
370
    15
100
AcDbLine
 10
86.2721609114
 20
658.1533131491
 30
0.0
 11
92.0730637549
 21
658.1533131491
 31
0.0
  0
LINE
  5
C0
330
1F
100
AcDbEntity
  8
0
  6
Continuous
 62
     7
370
    15
100
AcDbLine
 10
61.3556908606
 20
660.1533130112
 30
0.0
 11
61.3556908606
 21
663.3533129304
 31
0.0
  0
LINE
  5
C1
330
1F
100
AcDbEntity
  8
0
  6
Continuous
 62
     7
370
    15
100
AcDbLine
 10
61.3556908606
 20
660.1533130112
 30
0.0
 11
68.8097285269
 21
660.1533130112
 31
0.0
  0
LINE
  5
C2
330
1F
100
AcDbEntity
  8
0
  6
Continuous
 62
     7
370
    15
100
AcDbLine
 10
94.7904395102
 20
663.3533129304
 30
0.0
 11
94.7904395102
 21
660.1533130112
 31
0.0
  0
LINE
  5
C3
330
1F
100
AcDbEntity
  8
0
  6
Continuous
 62
     7
370
    15
100
AcDbLine
 10
87.3364614485
 20
660.1533130112
 30
0.0
 11
94.7904395102
 21
660.1533130112
 31
0.0
  0
LINE
  5
C4
330
1F
100
AcDbEntity
  8
0
  6
Continuous
 62
     7
370
    15
100
AcDbLine
 10
93.0730508803
 20
650.2533130649
 30
0.0
 11
93.0730508803
 21
646.3533122394
 31
0.0
  0
LINE
  5
C5
330
1F
100
AcDbEntity
  8
0
  6
Continuous
 62
     7
370
    15
100
AcDbLine
 10
92.0284794806
 20
646.3533122394
 30
0.0
 11
93.0730508803
 21
646.3533122394
 31
0.0
  0
LINE
  5
C6
330
1F
100
AcDbEntity
  8
0
  6
Continuous
 62
     7
370
    15
100
AcDbLine
 10
92.0284794806
 20
650.2533130649
 30
0.0
 11
93.0730508803
 21
650.2533130649
 31
0.0
  0
LINE
  5
C7
330
1F
100
AcDbEntity
  8
0
  6
Continuous
 62
     7
370
    15
100
AcDbLine
 10
63.0730794905
 20
646.3533122394
 30
0.0
 11
63.0730794905
 21
650.2533130649
 31
0.0
  0
LINE
  5
C8
330
1F
100
AcDbEntity
  8
0
  6
Continuous
 62
     7
370
    15
100
AcDbLine
 10
63.0730794905
 20
646.3533122394
 30
0.0
 11
64.1177104948
 21
646.3533122394
 31
0.0
  0
LINE
  5
C9
330
1F
100
AcDbEntity
  8
0
  6
Continuous
 62
     7
370
    15
100
AcDbLine
 10
63.0730794905
 20
650.2533130649
 30
0.0
 11
64.1177104948
 21
650.2533130649
 31
0.0
  0
LINE
  5
CA
330
1F
100
AcDbEntity
  8
0
  6
Continuous
 62
     7
370
    15
100
AcDbLine
 10
94.7904395102
 20
660.1533130112
 30
0.0
 11
94.8231028555
 21
660.1533130112
 31
0.0
  0
LINE
  5
CB
330
1F
100
AcDbEntity
  8
0
  6
Continuous
 62
     7
370
    15
100
AcDbLine
 10
61.3230871199
 20
660.1533130112
 30
0.0
 11
61.3556908606
 21
660.1533130112
 31
0.0
  0
LINE
  5
CC
330
1F
100
AcDbEntity
  8
0
  6
Continuous
 62
     7
370
    15
100
AcDbLine
 10
916.1652879952
 20
858.7150223854
 30
0.0
 11
898.6189024685
 21
850.5330033901
 31
0.0
  0
LINE
  5
CD
330
1F
100
AcDbEntity
  8
0
  6
Continuous
 62
     7
370
    15
100
AcDbLine
 10
915.3200568794
 20
860.5276443365
 30
0.0
 11
897.7736676274
 21
852.3456253412
 31
0.0
  0
LINE
  5
CE
330
1F
100
AcDbEntity
  8
0
  6
Continuous
 62
     7
370
    15
100
AcDbLine
 10
869.9819663702
 20
912.5533201102
 30
0.0
 11
869.9819663702
 21
910.553316057
 31
0.0
  0
LINE
  5
CF
330
1F
100
AcDbEntity
  8
0
  6
Continuous
 62
     7
370
    15
100
AcDbLine
 10
869.9819663702
 20
912.5533201102
 30
0.0
 11
925.5319642065
 21
912.5533201102
 31
0.0
  0
LINE
  5
D0
330
1F
100
AcDbEntity
  8
0
  6
Continuous
 62
     7
370
    15
100
AcDbLine
 10
869.9819663702
 20
910.553316057
 30
0.0
 11
925.5319642065
 21
910.553316057
 31
0.0
  0
LINE
  5
D1
330
1F
100
AcDbEntity
  8
0
  6
Continuous
 62
     7
370
    15
100
AcDbLine
 10
936.4076586603
 20
895.4818941954
 30
0.0
 11
921.9695659517
 21
864.5193077925
 31
0.0
  0
LINE
  5
D2
330
1F
100
AcDbEntity
  8
0
  6
Continuous
 62
     7
370
    15
100
AcDbLine
 10
934.5950441597
 20
896.3271327618
 30
0.0
 11
920.1569514512
 21
865.3645314577
 31
0.0
  0
ARC
  5
D3
330
1F
100
AcDbEntity
  8
0
  6
Continuous
 62
     7
370
    15
100
AcDbCircle
 10
911.0938725108
 20
869.590719568
 30
0.0
 40
10.00000000000003
100
AcDbArc
 50
295.0
 51
335.0
  0
ARC
  5
D4
330
1F
100
AcDbEntity
  8
0
  6
Continuous
 62
     7
370
    15
100
AcDbCircle
 10
911.0938725108
 20
869.590719568
 30
0.0
 40
12.00000000000005
100
AcDbArc
 50
295.0
 51
335.0
  0
ARC
  5
D5
330
1F
100
AcDbEntity
  8
0
  6
Continuous
 62
     7
370
    15
100
AcDbCircle
 10
925.5319669358
 20
900.5533129814
 30
0.0
 40
10.00000000000018
100
AcDbArc
 50
335.0
 51
90.0
  0
ARC
  5
D6
330
1F
100
AcDbEntity
  8
0
  6
Continuous
 62
     7
370
    15
100
AcDbCircle
 10
925.5319669358
 20
900.5533129814
 30
0.0
 40
12.00000000000011
100
AcDbArc
 50
335.0
 51
90.0
  0
LINE
  5
D7
330
1F
100
AcDbEntity
  8
0
  6
Continuous
 62
     7
370
    15
100
AcDbLine
 10
896.806287968
 20
849.6877797249
 30
0.0
 11
895.9610494016
 21
851.5003867749
 31
0.0
  0
LWPOLYLINE
  5
D8
330
1F
100
AcDbEntity
  8
0
  6
Continuous
 62
     7
370
    15
100
AcDbPolyline
 90
        9
 70
   128
 43
0.0
 10
898.6189024685
 20
850.5330033901
 10
898.265279287
 20
850.3681071404
 10
897.9252459644
 20
850.2095587853
 10
897.6118670939
 20
850.0634230974
 10
897.3371902643
 20
849.9353327158
 10
897.1117692231
 20
849.8302199248
 10
896.9442652701
 20
849.7521080378
 10
896.841115707
 20
849.7040219906
 10
896.806287968
 20
849.6877797249
  0
LWPOLYLINE
  5
D9
330
1F
100
AcDbEntity
  8
0
  6
Continuous
 62
     7
370
    15
100
AcDbPolyline
 90
        9
 70
   128
 43
0.0
 10
895.9610494016
 20
851.5003867749
 10
895.9958808659
 20
851.5166290406
 10
896.0990267037
 20
851.5647299889
 10
896.2665306567
 20
851.6428418759
 10
896.4919554232
 20
851.7479546669
 10
896.7666322528
 20
851.8760450485
 10
897.080007398
 20
852.0221658352
 10
897.4200444458
 20
852.1807290915
 10
897.7736676274
 20
852.3456253412
  0
LINE
  5
DA
330
1F
100
AcDbEntity
  8
0
  6
Continuous
 62
     7
370
    15
100
AcDbLine
 10
149.2819594382
 20
910.553316057
 30
0.0
 11
149.2819594382
 21
912.5533201102
 31
0.0
  0
LINE
  5
DB
330
1F
100
AcDbEntity
  8
0
  6
Continuous
 62
     7
370
    15
100
AcDbLine
 10
149.2819594382
 20
912.5533201102
 30
0.0
 11
869.9819663702
 21
912.5533201102
 31
0.0
  0
LINE
  5
DC
330
1F
100
AcDbEntity
  8
0
  6
Continuous
 62
     7
370
    15
100
AcDbLine
 10
149.2819594382
 20
910.553316057
 30
0.0
 11
869.9819663702
 21
910.553316057
 31
0.0
  0
LINE
  5
DD
330
1F
100
AcDbEntity
  8
0
  6
Continuous
 62
     7
370
    15
100
AcDbLine
 10
37.5287937163
 20
914.8033060435
 30
0.0
 11
37.5287937163
 21
926.3033218983
 31
0.0
  0
LINE
  5
DE
330
1F
100
AcDbEntity
  8
0
  6
Continuous
 62
     7
370
    15
100
AcDbLine
 10
39.5288275717
 20
914.8033060435
 30
0.0
 11
39.5288275717
 21
926.3033218983
 31
0.0
  0
ARC
  5
DF
330
1F
100
AcDbEntity
  8
0
  6
Continuous
 62
     7
370
    15
100
AcDbCircle
 10
108.278822707
 20
926.3033129814
 30
0.0
 40
2.250000000000114
100
AcDbArc
 50
0.0
 51
90.0
  0
ARC
  5
E0
330
1F
100
AcDbEntity
  8
0
  6
Continuous
 62
     7
370
    15
100
AcDbCircle
 10
108.278822707
 20
926.3033129814
 30
0.0
 40
4.250000000000114
100
AcDbArc
 50
0.0
 51
90.0
  0
LINE
  5
E1
330
1F
100
AcDbEntity
  8
0
  6
Continuous
 62
     7
370
    15
100
AcDbLine
 10
41.7788433073
 20
930.5533118847
 30
0.0
 11
108.2788514136
 21
930.5533118847
 31
0.0
  0
LINE
  5
E2
330
1F
100
AcDbEntity
  8
0
  6
Continuous
 62
     7
370
    15
100
AcDbLine
 10
41.7788433073
 20
928.5533078316
 30
0.0
 11
108.2788514136
 21
928.5533078316
 31
0.0
  0
LINE
  5
E3
330
1F
100
AcDbEntity
  8
0
  6
Continuous
 62
     7
370
    15
100
AcDbLine
 10
112.5288414
 20
926.3033218983
 30
0.0
 11
112.5288414
 21
914.8033060435
 31
0.0
  0
LINE
  5
E4
330
1F
100
AcDbEntity
  8
0
  6
Continuous
 62
     7
370
    15
100
AcDbLine
 10
110.5288075446
 20
926.3033218983
 30
0.0
 11
110.5288075446
 21
914.8033060435
 31
0.0
  0
LINE
  5
E5
330
1F
100
AcDbEntity
  8
0
  6
Continuous
 62
     7
370
    15
100
AcDbLine
 10
50.5288051604
 20
912.5533201102
 30
0.0
 11
41.7788433073
 21
912.5533201102
 31
0.0
  0
LINE
  5
E6
330
1F
100
AcDbEntity
  8
0
  6
Continuous
 62
     7
370
    15
100
AcDbLine
 10
50.5288051604
 20
910.553316057
 30
0.0
 11
41.7788433073
 21
910.553316057
 31
0.0
  0
ARC
  5
E7
330
1F
100
AcDbEntity
  8
0
  6
Continuous
 62
     7
370
    15
100
AcDbCircle
 10
41.778822707
 20
926.3033129814
 30
0.0
 40
4.250000000000114
100
AcDbArc
 50
90.0
 51
180.0
  0
ARC
  5
E8
330
1F
100
AcDbEntity
  8
0
  6
Continuous
 62
     7
370
    15
100
AcDbCircle
 10
41.778822707
 20
926.3033129814
 30
0.0
 40
2.250000000000114
100
AcDbArc
 50
90.0
 51
180.0
  0
LINE
  5
E9
330
1F
100
AcDbEntity
  8
0
  6
Continuous
 62
     7
370
    15
100
AcDbLine
 10
52.5288390158
 20
912.5533201102
 30
0.0
 11
52.5288390158
 21
910.553316057
 31
0.0
  0
LINE
  5
EA
330
1F
100
AcDbEntity
  8
0
  6
Continuous
 62
     7
370
    15
100
AcDbLine
 10
50.5288051604
 20
912.5533201102
 30
0.0
 11
52.5288390158
 21
912.5533201102
 31
0.0
  0
LINE
  5
EB
330
1F
100
AcDbEntity
  8
0
  6
Continuous
 62
     7
370
    15
100
AcDbLine
 10
52.5288390158
 20
910.553316057
 30
0.0
 11
50.5288051604
 21
910.553316057
 31
0.0
  0
ARC
  5
EC
330
1F
100
AcDbEntity
  8
0
  6
Continuous
 62
     7
370
    15
100
AcDbCircle
 10
114.778822707
 20
914.8033129814
 30
0.0
 40
2.25
100
AcDbArc
 50
180.0
 51
270.0
  0
ARC
  5
ED
330
1F
100
AcDbEntity
  8
0
  6
Continuous
 62
     7
370
    15
100
AcDbCircle
 10
114.778822707
 20
914.8033129814
 30
0.0
 40
4.25
100
AcDbArc
 50
180.0
 51
270.0
  0
ARC
  5
EE
330
1F
100
AcDbEntity
  8
0
  6
Continuous
 62
     7
370
    15
100
AcDbCircle
 10
41.778822707
 20
914.8033129814
 30
0.0
 40
4.250000000000114
100
AcDbArc
 50
180.0
 51
270.0
  0
ARC
  5
EF
330
1F
100
AcDbEntity
  8
0
  6
Continuous
 62
     7
370
    15
100
AcDbCircle
 10
41.778822707
 20
914.8033129814
 30
0.0
 40
2.250000000000114
100
AcDbArc
 50
180.0
 51
270.0
  0
LINE
  5
F0
330
1F
100
AcDbEntity
  8
0
  6
Continuous
 62
     7
370
    15
100
AcDbLine
 10
114.778797531
 20
912.5533201102
 30
0.0
 11
149.2819594382
 21
912.5533201102
 31
0.0
  0
LINE
  5
F1
330
1F
100
AcDbEntity
  8
0
  6
Continuous
 62
     7
370
    15
100
AcDbLine
 10
114.778797531
 20
910.553316057
 30
0.0
 11
149.2819594382
 21
910.553316057
 31
0.0
  0
LINE
  5
F2
330
1F
100
AcDbEntity
  8
0
  6
Continuous
 62
     7
370
    15
100
AcDbLine
 10
107.6788114546
 20
928.5533078316
 30
0.0
 11
107.6788114546
 21
926.2533136013
 31
0.0
  0
LINE
  5
F3
330
1F
100
AcDbEntity
  8
0
  6
Continuous
 62
     7
370
    15
100
AcDbLine
 10
42.3788236617
 20
926.2533136013
 30
0.0
 11
42.3788236617
 21
928.5533078316
 31
0.0
  0
LINE
  5
F4
330
1F
100
AcDbEntity
  8
0
  6
Continuous
 62
     7
370
    15
100
AcDbLine
 10
41.7788433073
 20
928.5533078316
 30
0.0
 11
41.7788433073
 21
925.6533034447
 31
0.0
  0
LINE
  5
F5
330
1F
100
AcDbEntity
  8
0
  6
Continuous
 62
     7
370
    15
100
AcDbLine
 10
107.6788114546
 20
926.2533136013
 30
0.0
 11
107.6788114546
 21
925.6533034447
 31
0.0
  0
ARC
  5
F6
330
1F
100
AcDbEntity
  8
0
  6
Continuous
 62
     7
370
    15
100
AcDbCircle
 10
107.978822707
 20
925.6533129814
 30
0.0
 40
0.3000000000000824
100
AcDbArc
 50
180.0
 51
0.0
  0
LINE
  5
F7
330
1F
100
AcDbEntity
  8
0
  6
Continuous
 62
     7
370
    15
100
AcDbLine
 10
108.2788514136
 20
925.6533034447
 30
0.0
 11
108.2788514136
 21
928.5533078316
 31
0.0
  0
ARC
  5
F8
330
1F
100
AcDbEntity
  8
0
  6
Continuous
 62
     7
370
    15
100
AcDbCircle
 10
108.278822707
 20
926.5533129814
 30
0.0
 40
2.0
100
AcDbArc
 50
0.0
 51
90.0
  0
LINE
  5
F9
330
1F
100
AcDbEntity
  8
0
  6
Continuous
 62
     7
370
    15
100
AcDbLine
 10
110.2788256644
 20
926.5533037785
 30
0.0
 11
110.2788256644
 21
913.1533153656
 31
0.0
  0
LINE
  5
FA
330
1F
100
AcDbEntity
  8
0
  6
Continuous
 62
     7
370
    15
100
AcDbLine
 10
52.778820896
 20
913.1533153656
 30
0.0
 11
52.778820896
 21
913.7533106211
 31
0.0
  0
ARC
  5
FB
330
1F
100
AcDbEntity
  8
0
  6
Continuous
 62
     7
370
    15
100
AcDbCircle
 10
52.4788227059
 20
913.7533129814
 30
0.0
 40
0.3000000000000753
100
AcDbArc
 50
0.0
 51
180.0
  0
LINE
  5
FC
330
1F
100
AcDbEntity
  8
0
  6
Continuous
 62
     7
370
    15
100
AcDbLine
 10
52.1788405417
 20
913.7533106211
 30
0.0
 11
52.1788405417
 21
912.9033185843
 31
0.0
  0
LINE
  5
FD
330
1F
100
AcDbEntity
  8
0
  6
Continuous
 62
     7
370
    15
100
AcDbLine
 10
42.3788236617
 20
925.6533034447
 30
0.0
 11
42.3788236617
 21
926.2533136013
 31
0.0
  0
ARC
  5
FE
330
1F
100
AcDbEntity
  8
0
  6
Continuous
 62
     7
370
    15
100
AcDbCircle
 10
41.778822707
 20
926.5533129814
 30
0.0
 40
2.000000000000007
100
AcDbArc
 50
90.0
 51
180.0
  0
LINE
  5
FF
330
1F
100
AcDbEntity
  8
0
  6
Continuous
 62
     7
370
    15
100
AcDbLine
 10
39.7788094519
 20
914.9033077362
 30
0.0
 11
39.7788094519
 21
926.5533037785
 31
0.0
  0
LINE
  5
100
330
1F
100
AcDbEntity
  8
0
  6
Continuous
 62
     7
370
    15
100
AcDbLine
 10
52.1788405417
 20
912.9033185843
 30
0.0
 11
41.7788433073
 21
912.9033185843
 31
0.0
  0
ARC
  5
101
330
1F
100
AcDbEntity
  8
0
  6
Continuous
 62
     7
370
    15
100
AcDbCircle
 10
42.078822707
 20
925.6533129814
 30
0.0
 40
0.3000000000000824
100
AcDbArc
 50
180.0
 51
0.0
  0
ARC
  5
102
330
1F
100
AcDbEntity
  8
0
  6
Continuous
 62
     7
370
    15
100
AcDbCircle
 10
41.778822707
 20
914.9033129814
 30
0.0
 40
2.000000000000007
100
AcDbArc
 50
180.0
 51
270.0
  0
LINE
  5
103
330
1F
100
AcDbEntity
  8
0
  6
Continuous
 62
     7
370
    15
100
AcDbLine
 10
110.2788256644
 20
913.1533153656
 30
0.0
 11
110.2788256644
 21
910.8533062342
 31
0.0
  0
LINE
  5
104
330
1F
100
AcDbEntity
  8
0
  6
Continuous
 62
     7
370
    15
100
AcDbLine
 10
110.2788256644
 20
910.8533062342
 30
0.0
 11
52.778820896
 21
910.8533062342
 31
0.0
  0
LINE
  5
105
330
1F
100
AcDbEntity
  8
0
  6
Continuous
 62
     7
370
    15
100
AcDbLine
 10
52.778820896
 20
910.8533062342
 30
0.0
 11
52.778820896
 21
913.1533153656
 31
0.0
  0
LINE
  5
106
330
1F
100
AcDbEntity
  8
0
  6
Continuous
 62
     7
370
    15
100
AcDbLine
 10
42.0288251875
 20
930.5533118847
 30
0.0
 11
46.1972760199
 21
978.199029744
 31
0.0
  0
LINE
  5
107
330
1F
100
AcDbEntity
  8
0
  6
Continuous
 62
     7
370
    15
100
AcDbLine
 10
105.09387722
 20
964.1000874642
 30
0.0
 11
108.0288099287
 21
930.5533118847
 31
0.0
  0
LINE
  5
108
330
1F
100
AcDbEntity
  8
0
  6
Continuous
 62
     7
370
    15
100
AcDbLine
 10
48.6870812415
 20
979.9618967179
 30
0.0
 11
103.5988735198
 21
965.8629246357
 31
0.0
  0
ARC
  5
109
330
1F
100
AcDbEntity
  8
0
  6
Continuous
 62
     7
370
    15
100
AcDbCircle
 10
103.1014712613
 20
963.9257712284
 30
0.0
 40
2.00000000000002
100
AcDbArc
 50
5.0
 51
75.6
  0
ARC
  5
10A
330
1F
100
AcDbEntity
  8
0
  6
Continuous
 62
     7
370
    15
100
AcDbCircle
 10
48.1896727538
 20
978.0247247544
 30
0.0
 40
2.00000000000002
100
AcDbArc
 50
75.6
 51
175.0
  0
ARC
  5
10B
330
1F
100
AcDbEntity
  8
0
  6
Continuous
 62
     7
370
    15
100
AcDbCircle
 10
906.1770902631
 20
673.3533129814
 30
0.0
 40
10.00000000000014
100
AcDbArc
 50
270.0
 51
335.0
  0
ARC
  5
10C
330
1F
100
AcDbEntity
  8
0
  6
Continuous
 62
     7
370
    15
100
AcDbCircle
 10
906.1770902631
 20
673.3533129814
 30
0.0
 40
10.80000000000006
100
AcDbArc
 50
270.0
 51
335.0
  0
LINE
  5
10D
330
1F
100
AcDbEntity
  8
0
  6
Continuous
 62
     7
370
    15
100
AcDbLine
 10
915.9652175544
 20
668.7890358105
 30
0.0
 11
936.5760119794
 21
712.9890345338
 31
0.0
  0
LINE
  5
10E
330
1F
100
AcDbEntity
  8
0
  6
Continuous
 62
     7
370
    15
100
AcDbLine
 10
915.2401717542
 20
669.1271303523
 30
0.0
 11
935.8509661792
 21
713.3271307054
 31
0.0
  0
LINE
  5
10F
330
1F
100
AcDbEntity
  8
0
  6
Continuous
 62
     7
370
    15
100
AcDbLine
 10
847.5477927527
 20
662.5533128924
 30
0.0
 11
845.5477928905
 21
662.5533128924
 31
0.0
  0
LINE
  5
110
330
1F
100
AcDbEntity
  8
0
  6
Continuous
 62
     7
370
    15
100
AcDbLine
 10
845.5477928905
 20
662.5533128924
 30
0.0
 11
845.5477928905
 21
663.3533129304
 31
0.0
  0
LINE
  5
111
330
1F
100
AcDbEntity
  8
0
  6
Continuous
 62
     7
370
    15
100
AcDbLine
 10
845.5477928905
 20
663.3533129304
 30
0.0
 11
847.5477927527
 21
663.3533129304
 31
0.0
  0
LWPOLYLINE
  5
112
330
1F
100
AcDbEntity
  8
0
  6
Continuous
 62
     7
370
    15
100
AcDbPolyline
 90
        9
 70
   128
 43
0.0
 10
893.5786554752
 20
850.291992009
 10
893.9322786568
 20
850.4568882588
 10
894.2723119794
 20
850.615451515
 10
894.5856908499
 20
850.7615723017
 10
894.8603676794
 20
850.8896626833
 10
895.0857887207
 20
850.9947754744
 10
895.2532926737
 20
851.0728873614
 10
895.3564422368
 20
851.1209883097
 10
895.3912699758
 20
851.1372305754
  0
LINE
  5
113
330
1F
100
AcDbEntity
  8
0
  6
Continuous
 62
     7
370
    15
100
AcDbLine
 10
895.3912699758
 20
851.1372305754
 30
0.0
 11
895.7293661474
 21
850.4121847752
 31
0.0
  0
LWPOLYLINE
  5
114
330
1F
100
AcDbEntity
  8
0
  6
Continuous
 62
     7
370
    15
100
AcDbPolyline
 90
        9
 70
   128
 43
0.0
 10
895.7293661474
 20
850.4121847752
 10
895.6945346831
 20
850.3959425095
 10
895.5913888453
 20
850.3478415612
 10
895.4238848923
 20
850.2697296742
 10
895.1984601258
 20
850.1646168831
 10
894.9237832962
 20
850.0365265015
 10
894.610408151
 20
849.8904057148
 10
894.2703711031
 20
849.7318424586
 10
893.9167479216
 20
849.5669462088
  0
ARC
  5
115
330
1F
100
AcDbEntity
  8
0
  6
Continuous
 62
     7
370
    15
100
AcDbCircle
 10
926.7878887535
 20
717.5533129814
 30
0.0
 40
10.80000000000001
100
AcDbArc
 50
335.0
 51
25.0
  0
ARC
  5
116
330
1F
100
AcDbEntity
  8
0
  6
Continuous
 62
     7
370
    15
100
AcDbCircle
 10
926.7878887535
 20
717.5533129814
 30
0.0
 40
10.00000000000003
100
AcDbArc
 50
335.0
 51
25.0
  0
LINE
  5
117
330
1F
100
AcDbEntity
  8
0
  6
Continuous
 62
     7
370
    15
100
AcDbLine
 10
936.5760119794
 20
722.1175901893
 30
0.0
 11
880.6691425084
 21
842.010254443
 31
0.0
  0
LINE
  5
118
330
1F
100
AcDbEntity
  8
0
  6
Continuous
 62
     7
370
    15
100
AcDbLine
 10
935.8509661792
 20
721.7794940177
 30
0.0
 11
879.9440967082
 21
841.6721619967
 31
0.0
  0
ARC
  5
119
330
1F
100
AcDbEntity
  8
0
  6
Continuous
 62
     7
370
    15
100
AcDbCircle
 10
881.8020279612
 20
842.5385318527
 30
0.0
 40
1.249999999999977
100
AcDbArc
 50
115.0
 51
205.0
  0
ARC
  5
11A
330
1F
100
AcDbEntity
  8
0
  6
Continuous
 62
     7
370
    15
100
AcDbCircle
 10
881.8020279612
 20
842.5385318527
 30
0.0
 40
2.050000000000009
100
AcDbArc
 50
115.0
 51
205.0
  0
LINE
  5
11B
330
1F
100
AcDbEntity
  8
0
  6
Continuous
 62
     7
370
    15
100
AcDbLine
 10
880.9356609522
 20
844.3964667919
 30
0.0
 11
893.5786554752
 21
850.291992009
 31
0.0
  0
LINE
  5
11C
330
1F
100
AcDbEntity
  8
0
  6
Continuous
 62
     7
370
    15
100
AcDbLine
 10
881.2737533985
 20
843.6714209917
 30
0.0
 11
893.9167479216
 21
849.5669462088
 31
0.0
  0
LINE
  5
11D
330
1F
100
AcDbEntity
  8
0
  6
Continuous
 62
     7
370
    15
100
AcDbLine
 10
847.5477927527
 20
663.3533129304
 30
0.0
 11
906.177091801
 21
663.3533129304
 31
0.0
  0
LINE
  5
11E
330
1F
100
AcDbEntity
  8
0
  6
Continuous
 62
     7
370
    15
100
AcDbLine
 10
847.5477927527
 20
662.5533128924
 30
0.0
 11
906.177091801
 21
662.5533128924
 31
0.0
  0
LINE
  5
11F
330
1F
100
AcDbEntity
  8
0
  6
Continuous
 62
     7
370
    15
100
AcDbLine
 10
895.4339021979
 20
851.2286491993
 30
0.0
 11
895.3912699758
 21
851.1372305754
 31
0.0
  0
ARC
  5
120
330
1F
100
AcDbEntity
  8
0
  6
Continuous
 62
     7
370
    15
100
AcDbCircle
 10
893.1345670539
 20
851.7399732303
 30
0.0
 40
1.500000000000016
100
AcDbArc
 50
295.0
 51
311.9080434752
  0
LWPOLYLINE
  5
121
330
1F
100
AcDbEntity
  8
0
  6
Continuous
 62
     7
370
    15
100
AcDbPolyline
 90
       16
 70
   128
 43
0.0
 10
921.6627882956
 20
762.3808034065
 10
921.6675492166
 20
762.3706035617
 10
921.7808576463
 20
762.1276103261
 10
922.0393182872
 20
761.5733467344
 10
922.4289836524
 20
760.7376970652
 10
922.9288580059
 20
759.6657149795
 10
923.5119851469
 20
758.4151946309
 10
924.1469310759
 20
757.0535414222
 10
924.7994752763
 20
755.6541659239
 10
925.4344212054
 20
754.2925201658
 10
926.0175483464
 20
753.0419923666
 10
926.5174226998
 20
751.9700102809
 10
926.907088065
 20
751.1343680623
 10
927.1655487059
 20
750.5801044706
 10
927.2788571356
 20
750.3371037844
 10
927.2836180566
 20
750.3269113901
  0
LWPOLYLINE
  5
122
330
1F
100
AcDbEntity
  8
0
  6
Continuous
 62
     7
370
    15
100
AcDbPolyline
 90
       15
 70
   128
 43
0.0
 10
896.3056946336
 20
816.7592682245
 10
896.3745379983
 20
816.6116424206
 10
896.591007167
 20
816.1474116448
 10
896.9436058937
 20
815.3912671211
 10
897.4133277474
 20
814.3839486244
 10
897.9748444794
 20
813.1797708872
 10
898.597888106
 20
811.8436433676
 10
899.2488676845
 20
810.44761318
 10
899.8926909803
 20
809.0669311884
 10
900.4946494637
 20
807.776028693
 10
901.0222884057
 20
806.6444941166
 10
901.4471652149
 20
805.7333477143
 10
901.7463768064
 20
805.0916888121
 10
901.9037852226
 20
804.7541328076
 10
901.9265206693
 20
804.7053762081
  0
LWPOLYLINE
  5
123
330
1F
100
AcDbEntity
  8
0
  6
Continuous
 62
     7
370
    15
100
AcDbPolyline
 90
       31
 70
   128
 43
0.0
 10
929.6081321476
 20
755.9898667339
 10
929.5328887342
 20
756.1512239578
 10
929.3079855083
 20
756.6335298422
 10
928.9358886121
 20
757.4314944747
 10
928.4206735133
 20
758.5363857749
 10
927.7679803012
 20
759.9360890988
 10
926.9849615334
 20
761.6152711514
 10
926.0802002786
 20
763.5555364493
 10
925.0636132596
 20
765.735628486
 10
923.9463241933
 20
768.1316532496
 10
922.7405892848
 20
770.7173697952
 10
921.4596035121
 20
773.4644435647
 10
920.1174186705
 20
776.3427742127
 10
918.7287273048
 20
779.3208308819
 10
917.3087509511
 20
782.36598748
 10
915.8730389713
 20
785.4448728565
 10
914.437334442
 20
788.5237582329
 10
913.0173506378
 20
791.568914831
 10
911.6286667226
 20
794.5469715002
 10
910.2864744304
 20
797.4252946976
 10
909.0054961084
 20
800.1723684672
 10
907.7997537492
 20
802.7580924633
 10
906.6824721335
 20
805.1541097763
 10
905.6658776639
 20
807.3342092636
 10
904.7611164092
 20
809.2744745615
 10
903.9781013666
 20
810.9536566141
 10
903.3254081546
 20
812.3533524874
 10
902.8101893304
 20
813.4582437876
 10
902.4380924343
 20
814.2562158707
 10
902.2131892084
 20
814.7385217551
 10
902.1379457949
 20
814.8998715285
  0
LWPOLYLINE
  5
124
330
1F
100
AcDbEntity
  8
0
  6
Continuous
 62
     7
370
    15
100
AcDbPolyline
 90
        6
 70
   128
 43
0.0
 10
914.920161867
 20
811.1503519419
 10
914.2034830688
 20
812.6872577074
 10
913.6355029582
 20
813.9053084257
 10
913.2240893482
 20
814.7875912789
 10
912.9749344824
 20
815.3219022158
 10
912.8914954303
 20
815.5008204582
  0
LWPOLYLINE
  5
125
330
1F
100
AcDbEntity
  8
0
  6
Continuous
 62
     7
370
    15
100
AcDbPolyline
 90
        6
 70
   128
 43
0.0
 10
936.980734968
 20
763.8412811163
 10
936.8973033665
 20
764.0202142599
 10
936.6481485008
 20
764.5545177463
 10
936.2367348908
 20
765.43680805
 10
935.6687547801
 20
766.6548438671
 10
934.9520759819
 20
768.1917570832
  0
SPLINE
  5
126
330
1F
100
AcDbEntity
  8
0
  6
Continuous
 62
     7
370
    15
100
AcDbSpline
210
0.0
220
0.0
230
1.0
 70
     8
 71
     3
 72
    13
 73
     9
 74
     0
 42
0.00000001
 43
0.00000001
 12
1.0
 22
0.0
 32
0.0
 13
1.0
 23
0.0
 33
0.0
 40
0.0
 40
0.0
 40
0.0
 40
0.0
 40
0.1250800361625873
 40
0.2500021889781769
 40
0.3706905657961668
 40
0.4999277849524935
 40
0.7494697102924113
 40
1.0
 40
1.0
 40
1.0
 40
1.0
 10
921.7308418987718
 20
784.5263652804616
 30
0.0
 10
921.7013298796512
 20
784.5997071742952
 30
0.0
 10
921.6423430932091
 20
784.7462983855287
 30
0.0
 10
921.6217035524705
 20
784.983810141268
 30
0.0
 10
921.6675982972142
 20
785.2162360766099
 30
0.0
 10
921.8127740650389
 20
785.4881683721276
 30
0.0
 10
922.0913423497685
 20
785.7493557837123
 30
0.0
 10
922.3486125121569
 20
785.8911710455366
 30
0.0
 10
922.4775018332925
 20
785.962218821359
 30
0.0
  0
SPLINE
  5
127
330
1F
100
AcDbEntity
  8
0
  6
Continuous
 62
     7
370
    15
100
AcDbSpline
210
0.0
220
0.0
230
1.0
 70
     8
 71
     3
 72
    12
 73
     8
 74
     0
 42
0.00000001
 43
0.00000001
 12
1.0
 22
0.0
 32
0.0
 13
1.0
 23
0.0
 33
0.0
 40
0.0
 40
0.0
 40
0.0
 40
0.0
 40
0.1252398466304213
 40
0.2504085805438328
 40
0.5001699837129426
 40
0.7499298198515036
 40
1.0
 40
1.0
 40
1.0
 40
1.0
 10
922.315183484408
 20
784.0537675026181
 30
0.0
 10
922.2843206279563
 20
784.0603878315399
 30
0.0
 10
922.2226124393603
 20
784.0736247302796
 30
0.0
 10
922.1028673129711
 20
784.117097606464
 30
0.0
 10
921.9638998962129
 20
784.2019605606207
 30
0.0
 10
921.8250325147379
 20
784.3469402141459
 30
0.0
 10
921.7622517642645
 20
784.4665321735094
 30
0.0
 10
921.7308418987718
 20
784.5263652804616
 30
0.0
  0
LINE
  5
128
330
1F
100
AcDbEntity
  8
0
  6
Continuous
 62
     7
370
    15
100
AcDbLine
 10
922.5482301949
 20
784.0779967907
 30
0.0
 11
922.3151834844
 21
784.0537675026
 31
0.0
  0
SPLINE
  5
129
330
1F
100
AcDbEntity
  8
0
  6
Continuous
 62
     7
370
    15
100
AcDbSpline
210
0.0
220
0.0
230
1.0
 70
     8
 71
     3
 72
     9
 73
     5
 74
     0
 42
0.00000001
 43
0.00000001
 12
1.0
 22
0.0
 32
0.0
 13
1.0
 23
0.0
 33
0.0
 40
0.0
 40
0.0
 40
0.0
 40
0.0
 40
0.7561488857815826
 40
1.0
 40
1.0
 40
1.0
 40
1.0
 10
922.4775018332925
 20
785.962218821359
 30
0.0
 10
922.6075660372197
 20
786.0333193322313
 30
0.0
 10
922.7795747598043
 20
786.1273491089187
 30
0.0
 10
922.9710156536264
 20
786.1547146292515
 30
0.0
 10
923.0176987288919
 20
786.161387741876
 30
0.0
  0
SPLINE
  5
12A
330
1F
100
AcDbEntity
  8
0
  6
Continuous
 62
     7
370
    15
100
AcDbSpline
210
0.0
220
0.0
230
1.0
 70
     8
 71
     3
 72
    10
 73
     6
 74
     0
 42
0.00000001
 43
0.00000001
 12
1.0
 22
0.0
 32
0.0
 13
1.0
 23
0.0
 33
0.0
 40
0.0
 40
0.0
 40
0.0
 40
0.0
 40
0.2032461677640803
 40
0.6009998927987678
 40
0.9999999999999999
 40
0.9999999999999999
 40
0.9999999999999999
 40
0.9999999999999999
 10
923.1159122823206
 20
782.7851720455411
 30
0.0
 10
923.1398218994962
 20
782.7757132991704
 30
0.0
 10
923.2105227521492
 20
782.7477437407905
 30
0.0
 10
923.3399460755717
 20
782.7490731452517
 30
0.0
 10
923.4325814707123
 20
782.7892759411491
 30
0.0
 10
923.478971624228
 20
782.8094087842229
 30
0.0
  0
SPLINE
  5
12B
330
1F
100
AcDbEntity
  8
0
  6
Continuous
 62
     7
370
    15
100
AcDbSpline
210
0.0
220
0.0
230
1.0
 70
     8
 71
     3
 72
     9
 73
     5
 74
     0
 42
0.00000001
 43
0.00000001
 12
1.0
 22
0.0
 32
0.0
 13
1.0
 23
0.0
 33
0.0
 40
0.0
 40
0.0
 40
0.0
 40
0.0
 40
0.695708232812254
 40
1.0
 40
1.0
 40
1.0
 40
1.0
 10
923.9544378756013
 20
783.3569370511296
 30
0.0
 10
923.8132630521732
 20
783.4085029687068
 30
0.0
 10
923.6103405959337
 20
783.4826230022857
 30
0.0
 10
923.3975893041189
 20
783.4861459112523
 30
0.0
 10
923.3328508375612
 20
783.4872179034475
 30
0.0
  0
LINE
  5
12C
330
1F
100
AcDbEntity
  8
0
  6
Continuous
 62
     7
370
    15
100
AcDbLine
 10
924.9617861746
 20
783.0043159726
 30
0.0
 11
923.9544378756
 21
783.3569370511
 31
0.0
  0
LINE
  5
12D
330
1F
100
AcDbEntity
  8
0
  6
Continuous
 62
     7
370
    15
100
AcDbLine
 10
924.0241380571
 20
784.5286973122
 30
0.0
 11
924.4008021592
 21
784.7367324236
 31
0.0
  0
LINE
  5
12E
330
1F
100
AcDbEntity
  8
0
  6
Continuous
 62
     7
370
    15
100
AcDbLine
 10
924.4176181196
 20
783.6936213377
 30
0.0
 11
924.0241380571
 21
784.5286973122
 31
0.0
  0
SPLINE
  5
12F
330
1F
100
AcDbEntity
  8
0
  6
Continuous
 62
     7
370
    15
100
AcDbSpline
210
0.0
220
0.0
230
1.0
 70
     8
 71
     3
 72
     9
 73
     5
 74
     0
 42
0.00000001
 43
0.00000001
 12
1.0
 22
0.0
 32
0.0
 13
1.0
 23
0.0
 33
0.0
 40
0.0
 40
0.0
 40
0.0
 40
0.0
 40
0.7887232112873145
 40
1.0
 40
1.0
 40
1.0
 40
1.0
 10
922.8504853485551
 20
783.8557534220937
 30
0.0
 10
922.9454355410489
 20
783.8988361181009
 30
0.0
 10
923.0658202224364
 20
783.9534594579378
 30
0.0
 10
923.194876140532
 20
783.9526974571312
 30
0.0
 10
923.2221426604715
 20
783.9525364640477
 30
0.0
  0
SPLINE
  5
130
330
1F
100
AcDbEntity
  8
0
  6
Continuous
 62
     7
370
    15
100
AcDbSpline
210
0.0
220
0.0
230
1.0
 70
     8
 71
     3
 72
    12
 73
     8
 74
     0
 42
0.00000001
 43
0.00000001
 12
1.0
 22
0.0
 32
0.0
 13
1.0
 23
0.0
 33
0.0
 40
0.0
 40
0.0
 40
0.0
 40
0.0
 40
0.250041505359449
 40
0.3753010761534856
 40
0.500892615214773
 40
0.7506591721812946
 40
1.0
 40
1.0
 40
1.0
 40
1.0
 10
922.5637274025407
 20
782.7686466577771
 30
0.0
 10
922.5265190483618
 20
782.8668250728557
 30
0.0
 10
922.4706709788777
 20
783.0141864670412
 30
0.0
 10
922.4654251424198
 20
783.2268820764659
 30
0.0
 10
922.5001628483982
 20
783.4332353834019
 30
0.0
 10
922.6130652290318
 20
783.6752608039889
 30
0.0
 10
922.7713903248169
 20
783.795623438408
 30
0.0
 10
922.8504853485551
 20
783.8557534220937
 30
0.0
  0
SPLINE
  5
131
330
1F
100
AcDbEntity
  8
0
  6
Continuous
 62
     7
370
    15
100
AcDbSpline
210
0.0
220
0.0
230
1.0
 70
     8
 71
     3
 72
    12
 73
     8
 74
     0
 42
0.00000001
 43
0.00000001
 12
1.0
 22
0.0
 32
0.0
 13
1.0
 23
0.0
 33
0.0
 40
0.0
 40
0.0
 40
0.0
 40
0.0
 40
0.1677686729810058
 40
0.3337989312007703
 40
0.5008760111416612
 40
0.6675156161518022
 40
1.0
 40
1.0
 40
1.0
 40
1.0
 10
923.3644338487115
 20
782.2746061089757
 30
0.0
 10
923.3096630736493
 20
782.2706974615311
 30
0.0
 10
923.2006890569153
 20
782.2629206679482
 30
0.0
 10
923.0390123382366
 20
782.2998824065945
 30
0.0
 10
922.8885877550968
 20
782.3706787869245
 30
0.0
 10
922.7089864206031
 20
782.5113416595997
 30
0.0
 10
922.621803242929
 20
782.6657738433757
 30
0.0
 10
922.5637274025407
 20
782.7686466577771
 30
0.0
  0
LINE
  5
132
330
1F
100
AcDbEntity
  8
0
  6
Continuous
 62
     7
370
    15
100
AcDbLine
 10
923.5807838081
 20
780.6872301105
 30
0.0
 11
923.2713611959
 21
781.3510023359
 31
0.0
  0
LINE
  5
133
330
1F
100
AcDbEntity
  8
0
  6
Continuous
 62
     7
370
    15
100
AcDbLine
 10
923.2713611959
 20
781.3510023359
 30
0.0
 11
925.3997983573
 21
782.5997792485
 31
0.0
  0
SPLINE
  5
134
330
1F
100
AcDbEntity
  8
0
  6
Continuous
 62
     7
370
    15
100
AcDbSpline
210
0.0
220
0.0
230
1.0
 70
     8
 71
     3
 72
    13
 73
     9
 74
     0
 42
0.00000001
 43
0.00000001
 12
1.0
 22
0.0
 32
0.0
 13
1.0
 23
0.0
 33
0.0
 40
0.0
 40
0.0
 40
0.0
 40
0.0
 40
0.1250635156379862
 40
0.249995549141433
 40
0.3704564754973586
 40
0.4998862084345138
 40
0.7494531049894624
 40
0.9999999999999999
 40
0.9999999999999999
 40
0.9999999999999999
 40
0.9999999999999999
 10
932.1351977227655
 20
762.2115932706121
 30
0.0
 10
932.1249183531227
 20
762.2441068862089
 30
0.0
 10
932.1043704207735
 20
762.3090999350948
 30
0.0
 10
932.1265529964874
 20
762.4539506342912
 30
0.0
 10
932.1993290740638
 20
762.6308349678797
 30
0.0
 10
932.3521956241702
 20
762.8845059820402
 30
0.0
 10
932.6069756719872
 20
763.1994423109536
 30
0.0
 10
932.826227400158
 20
763.4236881827561
 30
0.0
 10
932.9360680817094
 20
763.536030829263
 30
0.0
  0
SPLINE
  5
135
330
1F
100
AcDbEntity
  8
0
  6
Continuous
 62
     7
370
    15
100
AcDbSpline
210
0.0
220
0.0
230
1.0
 70
     8
 71
     3
 72
    13
 73
     9
 74
     0
 42
0.00000001
 43
0.00000001
 12
1.0
 22
0.0
 32
0.0
 13
1.0
 23
0.0
 33
0.0
 40
0.0
 40
0.0
 40
0.0
 40
0.0
 40
0.2765849651739711
 40
0.5521362963043593
 40
0.6902122671719222
 40
0.8279960271605866
 40
0.9658009527051592
 40
0.9999999999999999
 40
0.9999999999999999
 40
0.9999999999999999
 40
0.9999999999999999
 10
932.9360680817094
 20
763.536030829263
 30
0.0
 10
933.0467364876101
 20
763.6451042602246
 30
0.0
 10
933.2676597171627
 20
763.8628435005281
 30
0.0
 10
933.5571557055941
 20
764.0943636131949
 30
0.0
 10
933.7769498335009
 20
764.2200292410666
 30
0.0
 10
933.9186093258224
 20
764.2609375046701
 30
0.0
 10
933.9995842297564
 20
764.2494548360621
 30
0.0
 10
934.02225167366
 20
764.2192060297436
 30
0.0
 10
934.0267585752931
 20
764.2131917479757
 30
0.0
  0
SPLINE
  5
136
330
1F
100
AcDbEntity
  8
0
  6
Continuous
 62
     7
370
    15
100
AcDbSpline
210
0.0
220
0.0
230
1.0
 70
     8
 71
     3
 72
    12
 73
     8
 74
     0
 42
0.00000001
 43
0.00000001
 12
1.0
 22
0.0
 32
0.0
 13
1.0
 23
0.0
 33
0.0
 40
0.0
 40
0.0
 40
0.0
 40
0.0
 40
0.1252402049548302
 40
0.2504028823386358
 40
0.5002568558812428
 40
0.7500803718609587
 40
1.0
 40
1.0
 40
1.0
 40
1.0
 10
933.2540588615861
 20
762.6277454498533
 30
0.0
 10
933.2630182059761
 20
762.6504189312778
 30
0.0
 10
933.2809313486441
 20
762.6957518585389
 30
0.0
 10
933.3291836242939
 20
762.793663948289
 30
0.0
 10
933.4091978153962
 20
762.9244725681799
 30
0.0
 10
933.5291520604263
 20
763.0852478415628
 30
0.0
 10
933.6217251322494
 20
763.1844090522064
 30
0.0
 10
933.6680205701318
 20
763.2339991930249
 30
0.0
  0
SPLINE
  5
137
330
1F
100
AcDbEntity
  8
0
  6
Continuous
 62
     7
370
    15
100
AcDbSpline
210
0.0
220
0.0
230
1.0
 70
     8
 71
     3
 72
    11
 73
     7
 74
     0
 42
0.00000001
 43
0.00000001
 12
1.0
 22
0.0
 32
0.0
 13
1.0
 23
0.0
 33
0.0
 40
0.0
 40
0.0
 40
0.0
 40
0.0
 40
0.1252671105328195
 40
0.2505041719441788
 40
0.5003992907723014
 40
1.0
 40
1.0
 40
1.0
 40
1.0
 10
932.8446196554628
 20
762.3292975428823
 30
0.0
 10
932.8621984550645
 20
762.3468539135503
 30
0.0
 10
932.8973518374586
 20
762.3819624434577
 30
0.0
 10
932.9688730265706
 20
762.4469679526643
 30
0.0
 10
933.0950463605227
 20
762.5465833049518
 30
0.0
 10
933.1904586866309
 20
762.5952830548782
 30
0.0
 10
933.2540588615861
 20
762.6277454498533
 30
0.0
  0
SPLINE
  5
138
330
1F
100
AcDbEntity
  8
0
  6
Continuous
 62
     7
370
    15
100
AcDbSpline
210
0.0
220
0.0
230
1.0
 70
     8
 71
     3
 72
    13
 73
     9
 74
     0
 42
0.00000001
 43
0.00000001
 12
1.0
 22
0.0
 32
0.0
 13
1.0
 23
0.0
 33
0.0
 40
0.0
 40
0.0
 40
0.0
 40
0.0
 40
0.2497723964209892
 40
0.3767653573204176
 40
0.5003089817695922
 40
0.6250293403699853
 40
0.7510941897881974
 40
1.0
 40
1.0
 40
1.0
 40
1.0
 10
932.45278617129
 20
761.5552418235067
 30
0.0
 10
932.4430696576981
 20
761.5922057952205
 30
0.0
 10
932.4284129311428
 20
761.647963533907
 30
0.0
 10
932.4603308063688
 20
761.7679137932964
 30
0.0
 10
932.5040264224945
 20
761.870984647807
 30
0.0
 10
932.5683927635937
 20
761.9840573229575
 30
0.0
 10
932.6743375398247
 20
762.141532440791
 30
0.0
 10
932.7766827961544
 20
762.2543855576981
 30
0.0
 10
932.8446196554628
 20
762.3292975428823
 30
0.0
  0
SPLINE
  5
139
330
1F
100
AcDbEntity
  8
0
  6
Continuous
 62
     7
370
    15
100
AcDbSpline
210
0.0
220
0.0
230
1.0
 70
     8
 71
     3
 72
    13
 73
     9
 74
     0
 42
0.00000001
 43
0.00000001
 12
1.0
 22
0.0
 32
0.0
 13
1.0
 23
0.0
 33
0.0
 40
0.0
 40
0.0
 40
0.0
 40
0.0
 40
0.2909305795324043
 40
0.4404758288568291
 40
0.5851282435853662
 40
0.7300362601672884
 40
0.8783596196223503
 40
1.0
 40
1.0
 40
1.0
 40
1.0
 10
933.6680205701318
 20
763.2339991930249
 30
0.0
 10
933.7493420631585
 20
763.3105544209899
 30
0.0
 10
933.8724647410918
 20
763.4264608600635
 30
0.0
 10
934.0297964802958
 20
763.5294931455192
 30
0.0
 10
934.1374361370408
 20
763.5832211627935
 30
0.0
 10
934.2268760017542
 20
763.6058471499525
 30
0.0
 10
934.2949247607686
 20
763.6025980546468
 30
0.0
 10
934.3156565343626
 20
763.5746798208216
 30
0.0
 10
934.3249978660074
 20
763.5621004107717
 30
0.0
  0
LINE
  5
13A
330
1F
100
AcDbEntity
  8
0
  6
Continuous
 62
     7
370
    15
100
AcDbLine
 10
932.8128205775
 20
760.9429978135
 30
0.0
 11
932.7239724039
 21
761.1345671418
 31
0.0
  0
LINE
  5
13B
330
1F
100
AcDbEntity
  8
0
  6
Continuous
 62
     7
370
    15
100
AcDbLine
 10
932.7239724039
 20
761.1345671418
 30
0.0
 11
934.5387624739
 21
763.0123742226
 31
0.0
  0
SPLINE
  5
13C
330
1F
100
AcDbEntity
  8
0
  6
Continuous
 62
     7
370
    15
100
AcDbSpline
210
0.0
220
0.0
230
1.0
 70
     8
 71
     3
 72
     9
 73
     5
 74
     0
 42
0.00000001
 43
0.00000001
 12
1.0
 22
0.0
 32
0.0
 13
1.0
 23
0.0
 33
0.0
 40
0.0
 40
0.0
 40
0.0
 40
0.0
 40
0.5003048845352949
 40
1.0
 40
1.0
 40
1.0
 40
1.0
 10
911.675046586844
 20
806.0932554605725
 30
0.0
 10
911.6537116101058
 20
806.1472633785828
 30
0.0
 10
911.6110676595911
 20
806.2552133900251
 30
0.0
 10
911.6307417190228
 20
806.3619590642745
 30
0.0
 10
911.640572750422
 20
806.415299356294
 30
0.0
  0
SPLINE
  5
13D
330
1F
100
AcDbEntity
  8
0
  6
Continuous
 62
     7
370
    15
100
AcDbSpline
210
0.0
220
0.0
230
1.0
 70
     8
 71
     3
 72
    12
 73
     8
 74
     0
 42
0.00000001
 43
0.00000001
 12
1.0
 22
0.0
 32
0.0
 13
1.0
 23
0.0
 33
0.0
 40
0.0
 40
0.0
 40
0.0
 40
0.0
 40
0.125231134105999
 40
0.2503914795561699
 40
0.5001470616961887
 40
0.7499725830051012
 40
1.0
 40
1.0
 40
1.0
 40
1.0
 10
912.2314857481447
 20
805.682266533685
 30
0.0
 10
912.1993219192964
 20
805.6915690131257
 30
0.0
 10
912.1350124426552
 20
805.7101687136498
 30
0.0
 10
912.0130339520223
 20
805.7586444452413
 30
0.0
 10
911.875890361329
 20
805.8376400936938
 30
0.0
 10
911.7490945693776
 20
805.9578895020253
 30
0.0
 10
911.6997358931791
 20
806.048121325873
 30
0.0
 10
911.675046586844
 20
806.0932554605725
 30
0.0
  0
SPLINE
  5
13E
330
1F
100
AcDbEntity
  8
0
  6
Continuous
 62
     7
370
    15
100
AcDbSpline
210
0.0
220
0.0
230
1.0
 70
     8
 71
     3
 72
     9
 73
     5
 74
     0
 42
0.00000001
 43
0.00000001
 12
1.0
 22
0.0
 32
0.0
 13
1.0
 23
0.0
 33
0.0
 40
0.0
 40
0.0
 40
0.0
 40
0.0
 40
0.5016217794179515
 40
1.0
 40
1.0
 40
1.0
 40
1.0
 10
913.2966803549257
 20
805.7027705314878
 30
0.0
 10
913.1225289447465
 20
805.6731654389573
 30
0.0
 10
912.7753522125454
 20
805.6141466846982
 30
0.0
 10
912.4123821313402
 20
805.659609070664
 30
0.0
 10
912.2314857481447
 20
805.682266533685
 30
0.0
  0
SPLINE
  5
13F
330
1F
100
AcDbEntity
  8
0
  6
Continuous
 62
     7
370
    15
100
AcDbSpline
210
0.0
220
0.0
230
1.0
 70
     8
 71
     3
 72
    12
 73
     8
 74
     0
 42
0.00000001
 43
0.00000001
 12
1.0
 22
0.0
 32
0.0
 13
1.0
 23
0.0
 33
0.0
 40
0.0
 40
0.0
 40
0.0
 40
0.0
 40
0.1427835729458403
 40
0.2855539438624176
 40
0.4284663557211155
 40
0.7135948297981527
 40
1.0
 40
1.0
 40
1.0
 40
1.0
 10
914.3412741063562
 20
806.4038552644971
 30
0.0
 10
914.342929909498
 20
806.3491460265582
 30
0.0
 10
914.3462413626831
 20
806.2397326091963
 30
0.0
 10
914.2578164139957
 20
806.0886548802274
 30
0.0
 10
914.0672697706015
 20
805.9243870834538
 30
0.0
 10
913.7357756395756
 20
805.7879527837927
 30
0.0
 10
913.4432632552589
 20
805.731206868739
 30
0.0
 10
913.2966803549257
 20
805.7027705314878
 30
0.0
  0
LINE
  5
140
330
1F
100
AcDbEntity
  8
0
  6
Continuous
 62
     7
370
    15
100
AcDbLine
 10
913.8107480644
 20
804.4277228716
 30
0.0
 11
912.3446079133
 21
804.6697028282
 31
0.0
  0
SPLINE
  5
141
330
1F
100
AcDbEntity
  8
0
  6
Continuous
 62
     7
370
    15
100
AcDbSpline
210
0.0
220
0.0
230
1.0
 70
     8
 71
     3
 72
     9
 73
     5
 74
     0
 42
0.00000001
 43
0.00000001
 12
1.0
 22
0.0
 32
0.0
 13
1.0
 23
0.0
 33
0.0
 40
0.0
 40
0.0
 40
0.0
 40
0.0
 40
0.498555260584854
 40
1.0
 40
1.0
 40
1.0
 40
1.0
 10
914.4645439623323
 20
804.3923922184232
 30
0.0
 10
914.3562710528528
 20
804.3834128612274
 30
0.0
 10
914.1390977161348
 20
804.3654021051374
 30
0.0
 10
913.920408580835
 20
804.4069093047301
 30
0.0
 10
913.8107480643716
 20
804.4277228716138
 30
0.0
  0
SPLINE
  5
142
330
1F
100
AcDbEntity
  8
0
  6
Continuous
 62
     7
370
    15
100
AcDbSpline
210
0.0
220
0.0
230
1.0
 70
     8
 71
     3
 72
    10
 73
     6
 74
     0
 42
0.00000001
 43
0.00000001
 12
1.0
 22
0.0
 32
0.0
 13
1.0
 23
0.0
 33
0.0
 40
0.0
 40
0.0
 40
0.0
 40
0.0
 40
0.2031667926606781
 40
0.6018826554433998
 40
1.0
 40
1.0
 40
1.0
 40
1.0
 10
914.9834918020692
 20
804.7890164259198
 30
0.0
 10
914.9661355566093
 20
804.7517749192414
 30
0.0
 10
914.914717591256
 20
804.6414467665013
 30
0.0
 10
914.7555808128074
 20
804.4793714858044
 30
0.0
 10
914.5615076550102
 20
804.4213707857006
 30
0.0
 10
914.4645439623323
 20
804.3923922184232
 30
0.0
  0
LINE
  5
143
330
1F
100
AcDbEntity
  8
0
  6
Continuous
 62
     7
370
    15
100
AcDbLine
 10
913.3953409432
 20
804.8491873148
 30
0.0
 11
913.3493261574
 21
805.0838657025
 31
0.0
  0
SPLINE
  5
144
330
1F
100
AcDbEntity
  8
0
  6
Continuous
 62
     7
370
    15
100
AcDbSpline
210
0.0
220
0.0
230
1.0
 70
     8
 71
     3
 72
    15
 73
    11
 74
     0
 42
0.00000001
 43
0.00000001
 12
1.0
 22
0.0
 32
0.0
 13
1.0
 23
0.0
 33
0.0
 40
0.0
 40
0.0
 40
0.0
 40
0.0
 40
0.10013700252531
 40
0.2286871048602405
 40
0.3572424332805089
 40
0.4857934228941237
 40
0.614345605980617
 40
0.7428967699659605
 40
0.8714487180586703
 40
1.0
 40
1.0
 40
1.0
 40
1.0
 10
927.3073630569902
 20
769.0061055424932
 30
0.0
 10
927.2593635666233
 20
769.0334993064047
 30
0.0
 10
927.1497451018207
 20
769.09605960282
 30
0.0
 10
926.9238212821298
 20
769.0701258242957
 30
0.0
 10
926.6846070885488
 20
768.9485746426669
 30
0.0
 10
926.4781693516302
 20
768.7377017895462
 30
0.0
 10
926.3376009188692
 20
768.4729833845087
 30
0.0
 10
926.2845305607299
 20
768.1964420645769
 30
0.0
 10
926.3202973243117
 20
767.9425714088231
 30
0.0
 10
926.4144663866913
 20
767.8353183958812
 30
0.0
 10
926.4615507958856
 20
767.7816920283559
 30
0.0
  0
LWPOLYLINE
  5
145
330
1F
100
AcDbEntity
  8
0
  6
Continuous
 62
     7
370
    15
100
AcDbPolyline
 90
       11
 70
   128
 43
0.0
 10
914.3079849122
 20
794.3933852318
 10
914.2916308878
 20
794.3741627339
 10
914.2222957848
 20
794.1202916506
 10
914.2634825943
 20
793.8500441912
 10
914.4087465642
 20
793.6042644385
 10
914.6360265254
 20
793.4205182198
 10
914.9109976529
 20
793.3271922472
 10
915.1921080588
 20
793.3389790657
 10
915.4367478727
 20
793.454373658
 10
915.6076120375
 20
793.6557032469
 10
915.6076120375
 20
793.6557032469
  0
SPLINE
  5
146
330
1F
100
AcDbEntity
  8
0
  6
Continuous
 62
     7
370
    15
100
AcDbSpline
210
0.0
220
0.0
230
1.0
 70
     8
 71
     3
 72
    16
 73
    12
 74
     0
 42
0.00000001
 43
0.00000001
 12
1.0
 22
0.0
 32
0.0
 13
1.0
 23
0.0
 33
0.0
 40
0.0
 40
0.0
 40
0.0
 40
0.0
 40
0.0314678524087486
 40
0.1634222439729119
 40
0.2953958038366318
 40
0.4273797889779089
 40
0.5593302923191915
 40
0.6913498706808533
 40
0.8232795796400616
 40
0.9552766597268317
 40
1.0
 40
1.0
 40
1.0
 40
1.0
 10
920.5021368502107
 20
783.1945665481809
 30
0.0
 10
920.4590794309403
 20
783.1954109908852
 30
0.0
 10
920.2354689987615
 20
783.199796441785
 30
0.0
 10
919.8636812019486
 20
782.9788875761968
 30
0.0
 10
919.4848016200142
 20
782.5645456222894
 30
0.0
 10
919.2930597240211
 20
782.0016798610853
 30
0.0
 10
919.3080133591912
 20
781.4039704551394
 30
0.0
 10
919.5297036277536
 20
780.8492633576432
 30
0.0
 10
919.9234220426531
 20
780.4451891895661
 30
0.0
 10
920.3167709979922
 20
780.235300529423
 30
0.0
 10
920.5547972474941
 20
780.2509913795118
 30
0.0
 10
920.6150354979959
 20
780.2549623254064
 30
0.0
  0
LWPOLYLINE
  5
147
330
1F
100
AcDbEntity
  8
0
  6
Continuous
 62
     7
370
    15
100
AcDbPolyline
 90
       13
 70
   128
 43
0.0
 10
931.5577181219
 20
760.0770019296
 10
931.8110527633
 20
760.49894321
 10
931.9184677838
 20
760.8374528888
 10
931.8561585782
 20
761.0410474542
 10
931.6349880932
 20
761.0802300575
 10
931.2916206358
 20
760.9478406909
 10
930.8816822408
 20
760.6587656143
 10
930.4706486104
 20
760.2558829191
 10
930.1218422292
 20
759.7991772297
 10
929.8849957226
 20
759.3608148697
 10
929.7931002615
 20
759.0108238462
 10
929.8572795628
 20
758.8055230978
 10
929.8572795628
 20
758.8055230978
  0
LINE
  5
148
330
1F
100
AcDbEntity
  8
0
  6
Continuous
 62
     7
370
    15
100
AcDbLine
 10
911.3304944871
 20
804.6310343149
 30
0.0
 11
911.3571601151
 21
804.8397250775
 31
0.0
  0
SPLINE
  5
149
330
1F
100
AcDbEntity
  8
0
  6
Continuous
 62
     7
370
    15
100
AcDbSpline
210
0.0
220
0.0
230
1.0
 70
    11
 71
     3
 72
    23
 73
    19
 74
     0
 42
0.00000001
 43
0.00000001
 12
1.0
 22
0.0
 32
0.0
 13
1.0
 23
0.0
 33
0.0
 40
0.0
 40
0.0
 40
0.0
 40
0.0
 40
0.0623497987033003
 40
0.1250421909527502
 40
0.1876212856951943
 40
0.250120725749138
 40
0.3126754854245583
 40
0.3751747363400831
 40
0.4377050403241068
 40
0.5002608764630706
 40
0.5627652141403614
 40
0.6253549070476251
 40
0.6878443041532788
 40
0.7504084780998099
 40
0.8129259546158113
 40
0.8754883859885264
 40
0.9382189780806737
 40
1.0
 40
1.0
 40
1.0
 40
1.0
 10
922.0328511832681
 20
781.4578436616185
 30
0.0
 10
922.0443277703829
 20
781.6543581134312
 30
0.0
 10
922.0673440050354
 20
782.0484668053526
 30
0.0
 10
921.839199333365
 20
782.6039242587377
 30
0.0
 10
921.4401808870344
 20
783.0207316363505
 30
0.0
 10
920.921639415893
 20
783.2400576228662
 30
0.0
 10
920.3680573307834
 20
783.2314463756315
 30
0.0
 10
919.865562582815
 20
782.9903729728113
 30
0.0
 10
919.4879837547597
 20
782.5602925981206
 30
0.0
 10
919.2965519270793
 20
782.0009345429415
 30
0.0
 10
919.3125093824021
 20
781.4007481122609
 30
0.0
 10
919.5352130460531
 20
780.8497133509665
 30
0.0
 10
919.9298133223906
 20
780.4334611009747
 30
0.0
 10
920.435659464963
 20
780.2121434302003
 30
0.0
 10
920.9813536968061
 20
780.2236965380323
 30
0.0
 10
921.4809215224147
 20
780.4641716183919
 30
0.0
 10
921.8719298918378
 20
780.8956608919847
 30
0.0
 10
921.9794841686061
 20
781.2714045904235
 30
0.0
 10
922.0328511832681
 20
781.4578436616185
 30
0.0
  0
SPLINE
  5
14A
330
1F
100
AcDbEntity
  8
0
  6
Continuous
 62
     7
370
    15
100
AcDbSpline
210
0.0
220
0.0
230
1.0
 70
    11
 71
     3
 72
    23
 73
    19
 74
     0
 42
0.00000001
 43
0.00000001
 12
1.0
 22
0.0
 32
0.0
 13
1.0
 23
0.0
 33
0.0
 40
0.0
 40
0.0
 40
0.0
 40
0.0
 40
0.0625064634766636
 40
0.1250164864029317
 40
0.1875211553674636
 40
0.2500189506193768
 40
0.3125112898169656
 40
0.375003610178728
 40
0.4374972868269978
 40
0.4999983448228944
 40
0.5625071786224649
 40
0.6250140772890591
 40
0.6875196404685789
 40
0.7500176464199221
 40
0.8125114067338584
 40
0.8750018634346856
 40
0.9374972865881
 40
1.0
 40
1.0
 40
1.0
 40
1.0
 10
915.6808065412965
 20
793.9155794981244
 30
0.0
 10
915.6750349606684
 20
794.0073921377013
 30
0.0
 10
915.6634914707475
 20
794.1910226451537
 30
0.0
 10
915.5076327772159
 20
794.4436343835116
 30
0.0
 10
915.2747939173919
 20
794.6298456521948
 30
0.0
 10
914.9906314130526
 20
794.7232452186903
 30
0.0
 10
914.7014298282473
 20
794.7097446031415
 30
0.0
 10
914.4507120966325
 20
794.5918593280338
 30
0.0
 10
914.276754198775
 20
794.3873787263062
 30
0.0
 10
914.2056977349677
 20
794.1269504574988
 30
0.0
 10
914.24803554319
 20
793.8496403140279
 30
0.0
 10
914.3970863335949
 20
793.5973828208436
 30
0.0
 10
914.6302937499624
 20
793.4086985672058
 30
0.0
 10
914.912256325185
 20
793.3127911897691
 30
0.0
 10
915.2011338009565
 20
793.3247581362682
 30
0.0
 10
915.450441733503
 20
793.4434137408458
 30
0.0
 10
915.6322471873581
 20
793.6492331091143
 30
0.0
 10
915.6646194606351
 20
793.8267939164984
 30
0.0
 10
915.6808065412965
 20
793.9155794981244
 30
0.0
  0
SPLINE
  5
14B
330
1F
100
AcDbEntity
  8
0
  6
Continuous
 62
     7
370
    15
100
AcDbSpline
210
0.0
220
0.0
230
1.0
 70
     8
 71
     3
 72
    13
 73
     9
 74
     0
 42
0.00000001
 43
0.00000001
 12
1.0
 22
0.0
 32
0.0
 13
1.0
 23
0.0
 33
0.0
 40
0.0
 40
0.0
 40
0.0
 40
0.0
 40
0.1251044626223986
 40
0.2500444621311501
 40
0.3707306002486109
 40
0.4999765791268211
 40
0.7494977690142941
 40
1.0
 40
1.0
 40
1.0
 40
1.0
 10
921.734626793715
 20
784.5270209315541
 30
0.0
 10
921.7051042402278
 20
784.6003848380042
 30
0.0
 10
921.6460979437875
 20
784.7470162062514
 30
0.0
 10
921.6254379028039
 20
784.9845779638106
 30
0.0
 10
921.6713006634557
 20
785.2170532553641
 30
0.0
 10
921.816440623709
 20
785.4890427895314
 30
0.0
 10
922.0950105926713
 20
785.7502646824763
 30
0.0
 10
922.3522802899718
 20
785.8920906027012
 30
0.0
 10
922.4811675189462
 20
785.963142693353
 30
0.0
  0
SPLINE
  5
14C
330
1F
100
AcDbEntity
  8
0
  6
Continuous
 62
     7
370
    15
100
AcDbSpline
210
0.0
220
0.0
230
1.0
 70
     8
 71
     3
 72
    13
 73
     9
 74
     0
 42
0.00000001
 43
0.00000001
 12
1.0
 22
0.0
 32
0.0
 13
1.0
 23
0.0
 33
0.0
 40
0.0
 40
0.0
 40
0.0
 40
0.0
 40
0.2505087043587768
 40
0.5001148526782073
 40
0.6323261022185784
 40
0.7499837187879872
 40
0.874858831041306
 40
0.9999999999999999
 40
0.9999999999999999
 40
0.9999999999999999
 40
0.9999999999999999
 10
922.4811675189462
 20
785.963142693353
 30
0.0
 10
922.6125830640732
 20
786.0272948724468
 30
0.0
 10
922.8749406781889
 20
786.1553680972017
 30
0.0
 10
923.242252758554
 20
786.230190966595
 30
0.0
 10
923.5359754003645
 20
786.1922069171443
 30
0.0
 10
923.7422350792513
 20
786.0966196115157
 30
0.0
 10
923.9059474205118
 20
785.9346818058807
 30
0.0
 10
923.9789882562907
 20
785.7963485381175
 30
0.0
 10
924.0155475376573
 20
785.7271083000425
 30
0.0
  0
SPLINE
  5
14D
330
1F
100
AcDbEntity
  8
0
  6
Continuous
 62
     7
370
    15
100
AcDbSpline
210
0.0
220
0.0
230
1.0
 70
     8
 71
     3
 72
    13
 73
     9
 74
     0
 42
0.00000001
 43
0.00000001
 12
1.0
 22
0.0
 32
0.0
 13
1.0
 23
0.0
 33
0.0
 40
0.0
 40
0.0
 40
0.0
 40
0.0
 40
0.1251685891803212
 40
0.2500919247513442
 40
0.3706759674378164
 40
0.5000120766810897
 40
0.74946467689357
 40
1.0
 40
1.0
 40
1.0
 40
1.0
 10
924.0155475376573
 20
785.7271083000425
 30
0.0
 10
924.0449983791303
 20
785.6547927524962
 30
0.0
 10
924.1038423565034
 20
785.5103033514913
 30
0.0
 10
924.126320359858
 20
785.2756071349368
 30
0.0
 10
924.0801162348587
 20
785.0450478870474
 30
0.0
 10
923.9375986587746
 20
784.7735814908011
 30
0.0
 10
923.6617017735668
 20
784.5122892314874
 30
0.0
 10
923.4072364045494
 20
784.3724000338729
 30
0.0
 10
923.2797281979051
 20
784.3023039701703
 30
0.0
  0
SPLINE
  5
14E
330
1F
100
AcDbEntity
  8
0
  6
Continuous
 62
     7
370
    15
100
AcDbSpline
210
0.0
220
0.0
230
1.0
 70
     8
 71
     3
 72
     9
 73
     5
 74
     0
 42
0.00000001
 43
0.00000001
 12
1.0
 22
0.0
 32
0.0
 13
1.0
 23
0.0
 33
0.0
 40
0.0
 40
0.0
 40
0.0
 40
0.0
 40
0.5015734853275965
 40
1.0
 40
1.0
 40
1.0
 40
1.0
 10
923.2797281979051
 20
784.3023039701703
 30
0.0
 10
923.1276361381243
 20
784.2246772967297
 30
0.0
 10
922.8244062740467
 20
784.0699109948591
 30
0.0
 10
922.487158479644
 20
784.0594506182508
 30
0.0
 10
922.319065236899
 20
784.0542368891957
 30
0.0
  0
SPLINE
  5
14F
330
1F
100
AcDbEntity
  8
0
  6
Continuous
 62
     7
370
    15
100
AcDbSpline
210
0.0
220
0.0
230
1.0
 70
     8
 71
     3
 72
    12
 73
     8
 74
     0
 42
0.00000001
 43
0.00000001
 12
1.0
 22
0.0
 32
0.0
 13
1.0
 23
0.0
 33
0.0
 40
0.0
 40
0.0
 40
0.0
 40
0.0
 40
0.2500261117034873
 40
0.49979227401408
 40
0.7495531170085314
 40
0.8747481842016775
 40
1.0
 40
1.0
 40
1.0
 40
1.0
 10
922.319065236899
 20
784.0542368891957
 30
0.0
 10
922.257482953085
 20
784.0691351719867
 30
0.0
 10
922.1343824118786
 20
784.0989162479881
 30
0.0
 10
921.9674147754445
 20
784.2027914187402
 30
0.0
 10
921.8531093731392
 20
784.323926490599
 30
0.0
 10
921.7797448300721
 20
784.4363083451399
 30
0.0
 10
921.7496684108331
 20
784.4967788354255
 30
0.0
 10
921.734626793715
 20
784.5270209315541
 30
0.0
  0
SPLINE
  5
150
330
1F
100
AcDbEntity
  8
0
  6
Continuous
 62
     7
370
    15
100
AcDbSpline
210
0.0
220
0.0
230
1.0
 70
     8
 71
     3
 72
    11
 73
     7
 74
     0
 42
0.00000001
 43
0.00000001
 12
1.0
 22
0.0
 32
0.0
 13
1.0
 23
0.0
 33
0.0
 40
0.0
 40
0.0
 40
0.0
 40
0.0
 40
0.2500228336783316
 40
0.4998372560970918
 40
0.7497626379974704
 40
1.0
 40
1.0
 40
1.0
 40
1.0
 10
923.6314850090471
 20
785.5258979204419
 30
0.0
 10
923.6171235020823
 20
785.552147741804
 30
0.0
 10
923.5884124594586
 20
785.6046255034934
 30
0.0
 10
923.520855084818
 20
785.6622792268703
 30
0.0
 10
923.4425464595679
 20
785.698308672117
 30
0.0
 10
923.387085452312
 20
785.7063259191797
 30
0.0
 10
923.3593376515832
 20
785.7103370431188
 30
0.0
  0
SPLINE
  5
151
330
1F
100
AcDbEntity
  8
0
  6
Continuous
 62
     7
370
    15
100
AcDbSpline
210
0.0
220
0.0
230
1.0
 70
     8
 71
     3
 72
     9
 73
     5
 74
     0
 42
0.00000001
 43
0.00000001
 12
1.0
 22
0.0
 32
0.0
 13
1.0
 23
0.0
 33
0.0
 40
0.0
 40
0.0
 40
0.0
 40
0.0
 40
0.4986875100107325
 40
0.9999999999999999
 40
0.9999999999999999
 40
0.9999999999999999
 40
0.9999999999999999
 10
923.3593376515832
 20
785.7103370431188
 30
0.0
 10
923.2437936603382
 20
785.6987562781859
 30
0.0
 10
923.0120974800136
 20
785.6755337897528
 30
0.0
 10
922.8041637778413
 20
785.5682162159065
 30
0.0
 10
922.6999240158525
 20
785.5144165757421
 30
0.0
  0
SPLINE
  5
152
330
1F
100
AcDbEntity
  8
0
  6
Continuous
 62
     7
370
    15
100
AcDbSpline
210
0.0
220
0.0
230
1.0
 70
     8
 71
     3
 72
    14
 73
    10
 74
     0
 42
0.00000001
 43
0.00000001
 12
1.0
 22
0.0
 32
0.0
 13
1.0
 23
0.0
 33
0.0
 40
0.0
 40
0.0
 40
0.0
 40
0.0
 40
0.4998281322854675
 40
0.6248921487614414
 40
0.7498195983199083
 40
0.8141271285339604
 40
0.8749537158596518
 40
0.937484396986839
 40
1.0
 40
1.0
 40
1.0
 40
1.0
 10
922.6999240158525
 20
785.5144165757421
 30
0.0
 10
922.5467146053032
 20
785.4316133370121
 30
0.0
 10
922.3551700491158
 20
785.3280915653627
 30
0.0
 10
922.1722873409913
 20
785.1353747676347
 30
0.0
 10
922.1187469531066
 20
785.0341529277704
 30
0.0
 10
922.0935950840443
 20
784.9459209878667
 30
0.0
 10
922.088388381093
 20
784.8764066126504
 30
0.0
 10
922.096463422562
 20
784.806980037271
 30
0.0
 10
922.1139636014778
 20
784.7639463612679
 30
0.0
 10
922.1227126358476
 20
784.7424321177724
 30
0.0
  0
SPLINE
  5
153
330
1F
100
AcDbEntity
  8
0
  6
Continuous
 62
     7
370
    15
100
AcDbSpline
210
0.0
220
0.0
230
1.0
 70
     8
 71
     3
 72
    13
 73
     9
 74
     0
 42
0.00000001
 43
0.00000001
 12
1.0
 22
0.0
 32
0.0
 13
1.0
 23
0.0
 33
0.0
 40
0.0
 40
0.0
 40
0.0
 40
0.0
 40
0.1245051468523732
 40
0.1879151759427378
 40
0.249675542083574
 40
0.3613962511551203
 40
0.4997366689349281
 40
1.0
 40
1.0
 40
1.0
 40
1.0
 10
922.1227126358476
 20
784.7424321177724
 30
0.0
 10
922.1473445921853
 20
784.7011360151901
 30
0.0
 10
922.1845215164009
 20
784.6388079542329
 30
0.0
 10
922.2602978963279
 20
784.5842959546583
 30
0.0
 10
922.338975457802
 20
784.5484551696862
 30
0.0
 10
922.4513922550364
 20
784.5365291336226
 30
0.0
 10
922.7160093255586
 20
784.5746044246487
 30
0.0
 10
922.9213071178997
 20
784.6791643278872
 30
0.0
 10
923.0821313498941
 20
784.7610734704259
 30
0.0
  0
SPLINE
  5
154
330
1F
100
AcDbEntity
  8
0
  6
Continuous
 62
     7
370
    15
100
AcDbSpline
210
0.0
220
0.0
230
1.0
 70
     8
 71
     3
 72
    12
 73
     8
 74
     0
 42
0.00000001
 43
0.00000001
 12
1.0
 22
0.0
 32
0.0
 13
1.0
 23
0.0
 33
0.0
 40
0.0
 40
0.0
 40
0.0
 40
0.0
 40
0.5003318633647724
 40
0.6312889815423023
 40
0.750597059605335
 40
0.8753496354701736
 40
1.0
 40
1.0
 40
1.0
 40
1.0
 10
923.0821313498941
 20
784.7610734704259
 30
0.0
 10
923.232455246309
 20
784.8416779405858
 30
0.0
 10
923.4221249963643
 20
784.9433798660493
 30
0.0
 10
923.5942837626392
 20
785.1406748277011
 30
0.0
 10
923.652142486444
 20
785.2604020725184
 30
0.0
 10
923.6766290789739
 20
785.3959459213162
 30
0.0
 10
923.6465289204325
 20
785.4825924240083
 30
0.0
 10
923.6314850090471
 20
785.5258979204419
 30
0.0
  0
SPLINE
  5
155
330
1F
100
AcDbEntity
  8
0
  6
Continuous
 62
     7
370
    15
100
AcDbSpline
210
0.0
220
0.0
230
1.0
 70
    24
 71
     3
 72
     9
 73
     5
 74
     0
 42
0.00000001
 43
0.00000001
 12
1.0
 22
0.0
 32
0.0
 13
1.0
 23
0.0
 33
0.0
 40
0.0
 40
0.0
 40
0.0
 40
0.0
 40
0.500343989101863
 40
1.0
 40
1.0
 40
1.0
 40
1.0
 10
921.734626793715
 20
784.5270209315541
 30
0.0
 10
921.7339961951839
 20
784.5269116940133
 30
0.0
 10
921.7327358652007
 20
784.5266933691344
 30
0.0
 10
921.7314729312911
 20
784.5264745931814
 30
0.0
 10
921.7308418987718
 20
784.5263652804616
 30
0.0
  0
LINE
  5
156
330
1F
100
AcDbEntity
  8
0
  6
Continuous
 62
     7
370
    15
100
AcDbLine
 10
922.4811675189
 20
785.9631426934
 30
0.0
 11
922.4775018333
 21
785.9622188214
 31
0.0
  0
SPLINE
  5
157
330
1F
100
AcDbEntity
  8
0
  6
Continuous
 62
     7
370
    15
100
AcDbSpline
210
0.0
220
0.0
230
1.0
 70
     8
 71
     3
 72
     9
 73
     5
 74
     0
 42
0.00000001
 43
0.00000001
 12
1.0
 22
0.0
 32
0.0
 13
1.0
 23
0.0
 33
0.0
 40
0.0
 40
0.0
 40
0.0
 40
0.0
 40
0.4994949007362137
 40
1.0
 40
1.0
 40
1.0
 40
1.0
 10
922.319065236899
 20
784.0542368891957
 30
0.0
 10
922.3184198134237
 20
784.0541604800568
 30
0.0
 10
922.3171276611426
 20
784.0540075072458
 30
0.0
 10
922.3158319796181
 20
784.0538475580208
 30
0.0
 10
922.315183484408
 20
784.0537675026181
 30
0.0
  0
LINE
  5
158
330
1F
100
AcDbEntity
  8
0
  6
Continuous
 62
     7
370
    15
100
AcDbLine
 10
923.3555900095
 20
785.7095919851
 30
0.0
 11
923.1688486575
 21
785.6790744069
 31
0.0
  0
SPLINE
  5
159
330
1F
100
AcDbEntity
  8
0
  6
Continuous
 62
     7
370
    15
100
AcDbSpline
210
0.0
220
0.0
230
1.0
 70
     8
 71
     3
 72
    11
 73
     7
 74
     0
 42
0.00000001
 43
0.00000001
 12
1.0
 22
0.0
 32
0.0
 13
1.0
 23
0.0
 33
0.0
 40
0.0
 40
0.0
 40
0.0
 40
0.0
 40
0.2500041653025852
 40
0.4998136436970769
 40
0.7497338214409575
 40
1.0
 40
1.0
 40
1.0
 40
1.0
 10
923.6276926635232
 20
785.5252348187688
 30
0.0
 10
923.6133365998709
 20
785.5514774288746
 30
0.0
 10
923.5846356521303
 20
785.6039422130558
 30
0.0
 10
923.5170829155139
 20
785.6615715174689
 30
0.0
 10
923.4387873848619
 20
785.6975785166549
 30
0.0
 10
923.3833352542053
 20
785.7055856492963
 30
0.0
 10
923.355590009543
 20
785.7095919850591
 30
0.0
  0
SPLINE
  5
15A
330
1F
100
AcDbEntity
  8
0
  6
Continuous
 62
     7
370
    15
100
AcDbSpline
210
0.0
220
0.0
230
1.0
 70
     8
 71
     3
 72
    12
 73
     8
 74
     0
 42
0.00000001
 43
0.00000001
 12
1.0
 22
0.0
 32
0.0
 13
1.0
 23
0.0
 33
0.0
 40
0.0
 40
0.0
 40
0.0
 40
0.0
 40
0.5003722653585457
 40
0.6313348500617242
 40
0.7506440863428548
 40
0.8753756686217291
 40
1.0
 40
1.0
 40
1.0
 40
1.0
 10
923.0782868503061
 20
784.7605370286229
 30
0.0
 10
923.2286084770733
 20
784.8411369424473
 30
0.0
 10
923.4182738287853
 20
784.9428322961513
 30
0.0
 10
923.5904534970354
 20
785.1400997994577
 30
0.0
 10
923.6483140469493
 20
785.2598058412954
 30
0.0
 10
923.6728233641174
 20
785.3953167396455
 30
0.0
 10
923.64273191616
 20
785.4819412117946
 30
0.0
 10
923.6276926635232
 20
785.5252348187688
 30
0.0
  0
SPLINE
  5
15B
330
1F
100
AcDbEntity
  8
0
  6
Continuous
 62
     7
370
    15
100
AcDbSpline
210
0.0
220
0.0
230
1.0
 70
     8
 71
     3
 72
     9
 73
     5
 74
     0
 42
0.00000001
 43
0.00000001
 12
1.0
 22
0.0
 32
0.0
 13
1.0
 23
0.0
 33
0.0
 40
0.0
 40
0.0
 40
0.0
 40
0.0
 40
0.2166202870678318
 40
0.9999999999999999
 40
0.9999999999999999
 40
0.9999999999999999
 40
0.9999999999999999
 10
922.437566721293
 20
784.5414154532674
 30
0.0
 10
922.4865746149522
 20
784.5459276458187
 30
0.0
 10
922.7128133219654
 20
784.566757608757
 30
0.0
 10
922.9177464193257
 20
784.6754161397814
 30
0.0
 10
923.0782868503061
 20
784.7605370286229
 30
0.0
  0
SPLINE
  5
15C
330
1F
100
AcDbEntity
  8
0
  6
Continuous
 62
     7
370
    15
100
AcDbSpline
210
0.0
220
0.0
230
1.0
 70
     8
 71
     3
 72
     9
 73
     5
 74
     0
 42
0.00000001
 43
0.00000001
 12
1.0
 22
0.0
 32
0.0
 13
1.0
 23
0.0
 33
0.0
 40
0.0
 40
0.0
 40
0.0
 40
0.0
 40
0.5003292097509748
 40
0.9999999999999999
 40
0.9999999999999999
 40
0.9999999999999999
 40
0.9999999999999999
 10
922.8544192551103
 20
783.8561035993818
 30
0.0
 10
922.853763820149
 20
783.8560471192027
 30
0.0
 10
922.8524538127606
 20
783.8559342331708
 30
0.0
 10
922.8511412152104
 20
783.8558136659915
 30
0.0
 10
922.8504853485551
 20
783.8557534220937
 30
0.0
  0
SPLINE
  5
15D
330
1F
100
AcDbEntity
  8
0
  6
Continuous
 62
     7
370
    15
100
AcDbSpline
210
0.0
220
0.0
230
1.0
 70
     8
 71
     3
 72
    12
 73
     8
 74
     0
 42
0.00000001
 43
0.00000001
 12
1.0
 22
0.0
 32
0.0
 13
1.0
 23
0.0
 33
0.0
 40
0.0
 40
0.0
 40
0.0
 40
0.0
 40
0.2500762838125059
 40
0.3753286327159623
 40
0.5009385701515232
 40
0.7506966796816475
 40
1.0
 40
1.0
 40
1.0
 40
1.0
 10
922.5677730678049
 20
782.7687733176473
 30
0.0
 10
922.5305470523833
 20
782.8669781285731
 30
0.0
 10
922.4746761426887
 20
783.0143694639248
 30
0.0
 10
922.4694155213383
 20
783.2271151519275
 30
0.0
 10
922.5041087157706
 20
783.4335098844871
 30
0.0
 10
922.6170045309868
 20
783.6755805057604
 30
0.0
 10
922.7753291068861
 20
783.7959658034422
 30
0.0
 10
922.8544192551103
 20
783.8561035993818
 30
0.0
  0
SPLINE
  5
15E
330
1F
100
AcDbEntity
  8
0
  6
Continuous
 62
     7
370
    15
100
AcDbSpline
210
0.0
220
0.0
230
1.0
 70
     8
 71
     3
 72
     9
 73
     5
 74
     0
 42
0.00000001
 43
0.00000001
 12
1.0
 22
0.0
 32
0.0
 13
1.0
 23
0.0
 33
0.0
 40
0.0
 40
0.0
 40
0.0
 40
0.0
 40
0.5001552860629704
 40
1.0
 40
1.0
 40
1.0
 40
1.0
 10
922.5677730678049
 20
782.7687733176473
 30
0.0
 10
922.5670970320009
 20
782.7687503479182
 30
0.0
 10
922.5657453801783
 20
782.7687044227229
 30
0.0
 10
922.5643999224661
 20
782.7686659087719
 30
0.0
 10
922.5637274025407
 20
782.7686466577771
 30
0.0
  0
LINE
  5
15F
330
1F
100
AcDbEntity
  8
0
  6
Continuous
 62
     7
370
    15
100
AcDbLine
 10
923.4830694436
 20
782.8094162348
 30
0.0
 11
923.6816795705
 21
782.3743917349
 31
0.0
  0
SPLINE
  5
160
330
1F
100
AcDbEntity
  8
0
  6
Continuous
 62
     7
370
    15
100
AcDbSpline
210
0.0
220
0.0
230
1.0
 70
     8
 71
     3
 72
    13
 73
     9
 74
     0
 42
0.00000001
 43
0.00000001
 12
1.0
 22
0.0
 32
0.0
 13
1.0
 23
0.0
 33
0.0
 40
0.0
 40
0.0
 40
0.0
 40
0.0
 40
0.249861480992864
 40
0.3756737912682822
 40
0.5002287269752943
 40
0.6255447140740091
 40
0.7505691755127052
 40
0.9999999999999999
 40
0.9999999999999999
 40
0.9999999999999999
 40
0.9999999999999999
 10
923.6816795705286
 20
782.3743917349103
 30
0.0
 10
923.5788466999127
 20
782.3322000586971
 30
0.0
 10
923.4242345755555
 20
782.2687636822701
 30
0.0
 10
923.2045228416614
 20
782.2646197262707
 30
0.0
 10
923.0432339775211
 20
782.2993501301132
 30
0.0
 10
922.8926693654347
 20
782.3707787221878
 30
0.0
 10
922.713076223719
 20
782.5113182338985
 30
0.0
 10
922.6258655391315
 20
782.6658422974881
 30
0.0
 10
922.5677730678049
 20
782.7687733176473
 30
0.0
  0
SPLINE
  5
161
330
1F
100
AcDbEntity
  8
0
  6
Continuous
 62
     7
370
    15
100
AcDbSpline
210
0.0
220
0.0
230
1.0
 70
     8
 71
     3
 72
    10
 73
     6
 74
     0
 42
0.00000001
 43
0.00000001
 12
1.0
 22
0.0
 32
0.0
 13
1.0
 23
0.0
 33
0.0
 40
0.0
 40
0.0
 40
0.0
 40
0.0
 40
0.2494907440337824
 40
0.4995683979162553
 40
0.9999999999999999
 40
0.9999999999999999
 40
0.9999999999999999
 40
0.9999999999999999
 10
922.8544192551103
 20
783.8561035993818
 30
0.0
 10
922.9498854008573
 20
783.8941577595552
 30
0.0
 10
923.1410422699057
 20
783.9703555997019
 30
0.0
 10
923.5546162249904
 20
783.9673144928372
 30
0.0
 10
923.8491732990295
 20
783.8768794173221
 30
0.0
 10
924.0455808280435
 20
783.8165782693151
 30
0.0
  0
LINE
  5
162
330
1F
100
AcDbEntity
  8
0
  6
Continuous
 62
     7
370
    15
100
AcDbLine
 10
924.045580828
 20
783.8165782693
 30
0.0
 11
924.4216712354
 21
783.6937181953
 31
0.0
  0
LINE
  5
163
330
1F
100
AcDbEntity
  8
0
  6
Continuous
 62
     7
370
    15
100
AcDbLine
 10
924.4216712354
 20
783.6937181953
 30
0.0
 11
924.0280719636
 21
784.5290549401
 31
0.0
  0
LINE
  5
164
330
1F
100
AcDbEntity
  8
0
  6
Continuous
 62
     7
370
    15
100
AcDbLine
 10
924.0280719636
 20
784.5290549401
 30
0.0
 11
924.4047360657
 21
784.7370900515
 31
0.0
  0
LINE
  5
165
330
1F
100
AcDbEntity
  8
0
  6
Continuous
 62
     7
370
    15
100
AcDbLine
 10
924.4047360657
 20
784.7370900515
 30
0.0
 11
925.1607688306
 21
783.1117384437
 31
0.0
  0
LINE
  5
166
330
1F
100
AcDbEntity
  8
0
  6
Continuous
 62
     7
370
    15
100
AcDbLine
 10
925.1607688306
 20
783.1117384437
 30
0.0
 11
924.9659584998
 21
783.004166961
 31
0.0
  0
LINE
  5
167
330
1F
100
AcDbEntity
  8
0
  6
Continuous
 62
     7
370
    15
100
AcDbLine
 10
924.9659584998
 20
783.004166961
 30
0.0
 11
923.958498442
 21
783.3570190075
 31
0.0
  0
SPLINE
  5
168
330
1F
100
AcDbEntity
  8
0
  6
Continuous
 62
     7
370
    15
100
AcDbSpline
210
0.0
220
0.0
230
1.0
 70
     8
 71
     3
 72
    10
 73
     6
 74
     0
 42
0.00000001
 43
0.00000001
 12
1.0
 22
0.0
 32
0.0
 13
1.0
 23
0.0
 33
0.0
 40
0.0
 40
0.0
 40
0.0
 40
0.0
 40
0.50086563398182
 40
0.7509090025292127
 40
0.9999999999999999
 40
0.9999999999999999
 40
0.9999999999999999
 40
0.9999999999999999
 10
923.9584984420267
 20
783.3570190075162
 30
0.0
 10
923.8177110770222
 20
783.4045491823153
 30
0.0
 10
923.6066394988351
 20
783.4758074873915
 30
0.0
 10
923.3076985920148
 20
783.5049100575071
 30
0.0
 10
923.1668321522719
 20
783.4551204295074
 30
0.0
 10
923.096533322188
 20
783.4302731159452
 30
0.0
  0
SPLINE
  5
169
330
1F
100
AcDbEntity
  8
0
  6
Continuous
 62
     7
370
    15
100
AcDbSpline
210
0.0
220
0.0
230
1.0
 70
     8
 71
     3
 72
    14
 73
    10
 74
     0
 42
0.00000001
 43
0.00000001
 12
1.0
 22
0.0
 32
0.0
 13
1.0
 23
0.0
 33
0.0
 40
0.0
 40
0.0
 40
0.0
 40
0.0
 40
0.2492018046397609
 40
0.3728305432296986
 40
0.499468631582479
 40
0.6225451444845982
 40
0.7495909815625036
 40
0.874721172775793
 40
1.0
 40
1.0
 40
1.0
 40
1.0
 10
923.096533322188
 20
783.4302731159452
 30
0.0
 10
923.0597615618094
 20
783.4054328964426
 30
0.0
 10
923.0047473719352
 20
783.3682694716254
 30
0.0
 10
922.956342944198
 20
783.2899976335896
 30
0.0
 10
922.9314523041436
 20
783.2254859578459
 30
0.0
 10
922.9191698197203
 20
783.1557361389312
 30
0.0
 10
922.9210611632818
 20
783.0850698139607
 30
0.0
 10
922.9348346530852
 20
783.0153429926467
 30
0.0
 10
922.9529400942948
 20
782.9726148092902
 30
0.0
 10
922.9619981883493
 20
782.951238036466
 30
0.0
  0
SPLINE
  5
16A
330
1F
100
AcDbEntity
  8
0
  6
Continuous
 62
     7
370
    15
100
AcDbSpline
210
0.0
220
0.0
230
1.0
 70
     8
 71
     3
 72
    13
 73
     9
 74
     0
 42
0.00000001
 43
0.00000001
 12
1.0
 22
0.0
 32
0.0
 13
1.0
 23
0.0
 33
0.0
 40
0.0
 40
0.0
 40
0.0
 40
0.0
 40
0.1251883236793137
 40
0.2502742771960965
 40
0.3730615991076424
 40
0.5004969713492052
 40
0.7498577442966822
 40
0.9999999999999999
 40
0.9999999999999999
 40
0.9999999999999999
 40
0.9999999999999999
 10
922.9620056389299
 20
782.9512305858854
 30
0.0
 10
922.9746696163963
 20
782.9275680587474
 30
0.0
 10
922.9999872156233
 20
782.8802623540137
 30
0.0
 10
923.054229531856
 20
782.8228329799607
 30
0.0
 10
923.1198316476239
 20
782.7821449685142
 30
0.0
 10
923.2151870987994
 20
782.7493371087044
 30
0.0
 10
923.3438526487453
 20
782.7485926403027
 30
0.0
 10
923.4366154688398
 20
782.7891205677113
 30
0.0
 10
923.4830694435564
 20
782.8094162348035
 30
0.0
  0
SPLINE
  5
16B
330
1F
100
AcDbEntity
  8
0
  6
Continuous
 62
     7
370
    15
100
AcDbSpline
210
0.0
220
0.0
230
1.0
 70
    24
 71
     3
 72
     9
 73
     5
 74
     0
 42
0.00000001
 43
0.00000001
 12
1.0
 22
0.0
 32
0.0
 13
1.0
 23
0.0
 33
0.0
 40
0.0
 40
0.0
 40
0.0
 40
0.0
 40
0.5003433042065597
 40
1.0
 40
1.0
 40
1.0
 40
1.0
 10
923.0782868503061
 20
784.7605370286229
 30
0.0
 10
923.078927379963
 20
784.7606264048541
 30
0.0
 10
923.0802075602943
 20
784.7608050346677
 30
0.0
 10
923.0814903802925
 20
784.7609840328071
 30
0.0
 10
923.0821313498941
 20
784.7610734704259
 30
0.0
  0
SPLINE
  5
16C
330
1F
100
AcDbEntity
  8
0
  6
Continuous
 62
     7
370
    15
100
AcDbSpline
210
0.0
220
0.0
230
1.0
 70
     8
 71
     3
 72
     9
 73
     5
 74
     0
 42
0.00000001
 43
0.00000001
 12
1.0
 22
0.0
 32
0.0
 13
1.0
 23
0.0
 33
0.0
 40
0.0
 40
0.0
 40
0.0
 40
0.0
 40
0.5000002776731874
 40
0.9999999999999999
 40
0.9999999999999999
 40
0.9999999999999999
 40
0.9999999999999999
 10
923.4830694435564
 20
782.8094162348035
 30
0.0
 10
923.4823864738579
 20
782.8094131303945
 30
0.0
 10
923.4810205352197
 20
782.80940692158
 30
0.0
 10
923.4796545943058
 20
782.8094081633423
 30
0.0
 10
923.478971624228
 20
782.8094087842229
 30
0.0
  0
SPLINE
  5
16D
330
1F
100
AcDbEntity
  8
0
  6
Continuous
 62
     7
370
    15
100
AcDbSpline
210
0.0
220
0.0
230
1.0
 70
     8
 71
     3
 72
     9
 73
     5
 74
     0
 42
0.00000001
 43
0.00000001
 12
1.0
 22
0.0
 32
0.0
 13
1.0
 23
0.0
 33
0.0
 40
0.0
 40
0.0
 40
0.0
 40
0.0
 40
0.4998603251011456
 40
0.9999999999999999
 40
0.9999999999999999
 40
0.9999999999999999
 40
0.9999999999999999
 10
923.355590009543
 20
785.7095919850591
 30
0.0
 10
923.3562128414445
 20
785.7097161787369
 30
0.0
 10
923.3574588533208
 20
785.7099646354991
 30
0.0
 10
923.3587112688751
 20
785.7102128841295
 30
0.0
 10
923.3593376515832
 20
785.7103370431188
 30
0.0
  0
LINE
  5
16E
330
1F
100
AcDbEntity
  8
0
  6
Continuous
 62
     7
370
    15
100
AcDbLine
 10
923.958498442
 20
783.3570190075
 30
0.0
 11
923.9544378756
 21
783.3569370511
 31
0.0
  0
SPLINE
  5
16F
330
1F
100
AcDbEntity
  8
0
  6
Continuous
 62
     7
370
    15
100
AcDbSpline
210
0.0
220
0.0
230
1.0
 70
     8
 71
     3
 72
     9
 73
     5
 74
     0
 42
0.00000001
 43
0.00000001
 12
1.0
 22
0.0
 32
0.0
 13
1.0
 23
0.0
 33
0.0
 40
0.0
 40
0.0
 40
0.0
 40
0.0
 40
0.5001778455227595
 40
1.0
 40
1.0
 40
1.0
 40
1.0
 10
923.6276926635232
 20
785.5252348187688
 30
0.0
 10
923.6283227455351
 20
785.5253434529583
 30
0.0
 10
923.6295824614888
 20
785.5255606440847
 30
0.0
 10
923.6308509769275
 20
785.5257855216518
 30
0.0
 10
923.6314850090471
 20
785.5258979204419
 30
0.0
  0
LINE
  5
170
330
1F
100
AcDbEntity
  8
0
  6
Continuous
 62
     7
370
    15
100
AcDbLine
 10
923.585120046
 20
780.6867085698
 30
0.0
 11
923.2756005763
 21
781.3506819609
 31
0.0
  0
LINE
  5
171
330
1F
100
AcDbEntity
  8
0
  6
Continuous
 62
     7
370
    15
100
AcDbLine
 10
923.2756005763
 20
781.3506819609
 30
0.0
 11
925.4040377377
 21
782.5994663242
 31
0.0
  0
LINE
  5
172
330
1F
100
AcDbEntity
  8
0
  6
Continuous
 62
     7
370
    15
100
AcDbLine
 10
925.4040377377
 20
782.5994663242
 30
0.0
 11
925.6102176546
 21
782.159099758
 31
0.0
  0
LINE
  5
173
330
1F
100
AcDbEntity
  8
0
  6
Continuous
 62
     7
370
    15
100
AcDbLine
 10
925.6102176546
 20
782.159099758
 30
0.0
 11
923.861983621
 21
781.1332889202
 31
0.0
  0
LINE
  5
174
330
1F
100
AcDbEntity
  8
0
  6
Continuous
 62
     7
370
    15
100
AcDbLine
 10
923.861983621
 20
781.1332889202
 30
0.0
 11
924.0829603909
 21
780.6533672217
 31
0.0
  0
LINE
  5
175
330
1F
100
AcDbEntity
  8
0
  6
Continuous
 62
     7
370
    15
100
AcDbLine
 10
924.0829603909
 20
780.6533672217
 30
0.0
 11
923.585120046
 21
780.6867085698
 31
0.0
  0
LINE
  5
176
330
1F
100
AcDbEntity
  8
0
  6
Continuous
 62
     7
370
    15
100
AcDbLine
 10
925.4040377377
 20
782.5994663242
 30
0.0
 11
925.3997983573
 21
782.5997792485
 31
0.0
  0
LINE
  5
177
330
1F
100
AcDbEntity
  8
0
  6
Continuous
 62
     7
370
    15
100
AcDbLine
 10
923.2756005763
 20
781.3506819609
 30
0.0
 11
923.2713611959
 21
781.3510023359
 31
0.0
  0
LINE
  5
178
330
1F
100
AcDbEntity
  8
0
  6
Continuous
 62
     7
370
    15
100
AcDbLine
 10
923.585120046
 20
780.6867085698
 30
0.0
 11
923.5807838081
 21
780.6872301105
 31
0.0
  0
LINE
  5
179
330
1F
100
AcDbEntity
  8
0
  6
Continuous
 62
     7
370
    15
100
AcDbLine
 10
924.9659584998
 20
783.004166961
 30
0.0
 11
924.9617861746
 21
783.0043159726
 31
0.0
  0
LINE
  5
17A
330
1F
100
AcDbEntity
  8
0
  6
Continuous
 62
     7
370
    15
100
AcDbLine
 10
924.4047360657
 20
784.7370900515
 30
0.0
 11
924.4008021592
 21
784.7367324236
 31
0.0
  0
LINE
  5
17B
330
1F
100
AcDbEntity
  8
0
  6
Continuous
 62
     7
370
    15
100
AcDbLine
 10
924.0280719636
 20
784.5290549401
 30
0.0
 11
924.0241380571
 21
784.5286973122
 31
0.0
  0
LWPOLYLINE
  5
17C
330
1F
100
AcDbEntity
  8
0
  6
Continuous
 62
     7
370
    15
100
AcDbPolyline
 90
       17
 70
   128
 43
0.0
 10
915.6954022287
 20
809.4878293875
 10
916.5743546723
 20
807.6029070023
 10
917.55999943
 20
805.4891921881
 10
918.6397450207
 20
803.1736709479
 10
919.7998227714
 20
800.6858773831
 10
921.025435829
 20
798.0575360659
 10
922.3009454249
 20
795.3222044113
 10
923.6100720404
 20
792.5147660378
 10
924.9361189245
 20
789.6710507873
 10
926.2621658085
 20
786.8273355368
 10
927.5712924241
 20
784.0199046138
 10
928.8468020199
 20
781.2845729593
 10
930.0724150775
 20
778.6562390927
 10
931.2324928282
 20
776.1684380773
 10
932.3122384189
 20
773.8529093865
 10
933.2978831767
 20
771.7391945723
 10
934.1768356203
 20
769.8542721871
  0
SPLINE
  5
17D
330
1F
100
AcDbEntity
  8
0
  6
Continuous
 62
     7
370
    15
100
AcDbSpline
210
0.0
220
0.0
230
1.0
 70
    11
 71
     3
 72
    23
 73
    19
 74
     0
 42
0.00000001
 43
0.00000001
 12
1.0
 22
0.0
 32
0.0
 13
1.0
 23
0.0
 33
0.0
 40
0.0
 40
0.0
 40
0.0
 40
0.0
 40
0.0623529420178515
 40
0.1250449251374334
 40
0.1876175814310555
 40
0.2501107428597779
 40
0.3126628727626427
 40
0.3751636518856837
 40
0.4376986306131307
 40
0.5002604696587979
 40
0.5627679017832735
 40
0.6253553052742474
 40
0.6878412832056762
 40
0.7503989621911201
 40
0.8129134424947004
 40
0.8754770092880624
 40
0.9382125320051985
 40
1.0
 40
1.0
 40
1.0
 40
1.0
 10
911.3580467341867
 20
804.8466094139341
 30
0.0
 10
911.3333384530977
 20
804.9886604274328
 30
0.0
 10
911.2837875408381
 20
805.2735348499348
 30
0.0
 10
910.9381982160785
 20
805.644973817328
 30
0.0
 10
910.4386921878356
 20
805.8998604393076
 30
0.0
 10
909.8491868656494
 20
806.0057146573822
 30
0.0
 10
909.2625862334955
 20
805.9524309424127
 30
0.0
 10
908.7693691953684
 20
805.7448985931384
 30
0.0
 10
908.4401533329705
 20
805.416767043877
 30
0.0
 10
908.3312127712702
 20
805.010395584213
 30
0.0
 10
908.4521513309845
 20
804.5860758879289
 30
0.0
 10
908.7885646048745
 20
804.2068504085927
 30
0.0
 10
909.2884645184575
 20
803.9336911712512
 30
0.0
 10
909.87477903388
 20
803.8095673622717
 30
0.0
 10
910.46132250712
 20
803.8603229783494
 30
0.0
 10
910.95409852701
 20
804.0773213204558
 30
0.0
 10
911.2921213292459
 20
804.4262161972858
 30
0.0
 10
911.3361834213266
 20
804.7071914091737
 30
0.0
 10
911.3580467341867
 20
804.8466094139341
 30
0.0
  0
SPLINE
  5
17E
330
1F
100
AcDbEntity
  8
0
  6
Continuous
 62
     7
370
    15
100
AcDbSpline
210
0.0
220
0.0
230
1.0
 70
    11
 71
     3
 72
    23
 73
    19
 74
     0
 42
0.00000001
 43
0.00000001
 12
1.0
 22
0.0
 32
0.0
 13
1.0
 23
0.0
 33
0.0
 40
0.0
 40
0.0
 40
0.0
 40
0.0
 40
0.0625021043647134
 40
0.1250094051824509
 40
0.1875185868387945
 40
0.2500242722300099
 40
0.3125212705403572
 40
0.3750129774013289
 40
0.4375050878182358
 40
0.499999697206098
 40
0.5625023570785336
 40
0.625011333195552
 40
0.687519566704756
 40
0.750022754215854
 40
0.8125206946669918
 40
0.8750135362780816
 40
0.9375050841666672
 40
1.0
 40
1.0
 40
1.0
 40
1.0
 10
927.461046182963
 20
768.2966761592153
 30
0.0
 10
927.4864518008915
 20
768.3875430292447
 30
0.0
 10
927.537265148983
 20
768.569284324016
 30
0.0
 10
927.4947573473281
 20
768.8172759196813
 30
0.0
 10
927.3680397036105
 20
768.9988246507337
 30
0.0
 10
927.1690263196191
 20
769.0872908782005
 30
0.0
 10
926.9308554465613
 20
769.068344094502
 30
0.0
 10
926.690104716075
 20
768.9444251416486
 30
0.0
 10
926.4840004077271
 20
768.7340747948286
 30
0.0
 10
926.3436262137803
 20
768.4695254560788
 30
0.0
 10
926.28956699271
 20
768.1915403929576
 30
0.0
 10
926.3292144030316
 20
767.9429903428075
 30
0.0
 10
926.4561137073322
 20
767.7619855382917
 30
0.0
 10
926.6510491358915
 20
767.6759574332785
 30
0.0
 10
926.8856706235771
 20
767.697424991735
 30
0.0
 10
927.1230821330928
 20
767.8228632234445
 30
0.0
 10
927.3352122516089
 20
768.0317147018976
 30
0.0
 10
927.4191007856781
 20
768.2083540868398
 30
0.0
 10
927.461046182963
 20
768.2966761592153
 30
0.0
  0
LINE
  5
17F
330
1F
100
AcDbEntity
  8
0
  6
Continuous
 62
     7
370
    15
100
AcDbLine
 10
912.3455392359
 20
804.6764828566
 30
0.0
 11
912.4043541192
 21
805.0171830061
 31
0.0
  0
LINE
  5
180
330
1F
100
AcDbEntity
  8
0
  6
Continuous
 62
     7
370
    15
100
AcDbLine
 10
912.4043541192
 20
805.0171830061
 30
0.0
 11
913.3962722658
 21
804.855952442
 31
0.0
  0
SPLINE
  5
181
330
1F
100
AcDbEntity
  8
0
  6
Continuous
 62
     7
370
    15
100
AcDbSpline
210
0.0
220
0.0
230
1.0
 70
     8
 71
     3
 72
    12
 73
     8
 74
     0
 42
0.00000001
 43
0.00000001
 12
1.0
 22
0.0
 32
0.0
 13
1.0
 23
0.0
 33
0.0
 40
0.0
 40
0.0
 40
0.0
 40
0.0
 40
0.249600940659192
 40
0.3721085910706855
 40
0.5004875048390836
 40
0.75008027068972
 40
1.0
 40
1.0
 40
1.0
 40
1.0
 10
913.3962722657648
 20
804.8559524420026
 30
0.0
 10
913.3708113173518
 20
804.9347986469676
 30
0.0
 10
913.3328537775434
 20
805.0523436777006
 30
0.0
 10
913.3724910992615
 20
805.2051041326307
 30
0.0
 10
913.451477181042
 20
805.3442842906544
 30
0.0
 10
913.6187112472651
 20
805.495672429953
 30
0.0
 10
913.8153276410501
 20
805.5485115282852
 30
0.0
 10
913.9137001870599
 20
805.574948370767
 30
0.0
  0
SPLINE
  5
182
330
1F
100
AcDbEntity
  8
0
  6
Continuous
 62
     7
370
    15
100
AcDbSpline
210
0.0
220
0.0
230
1.0
 70
     8
 71
     3
 72
    12
 73
     8
 74
     0
 42
0.00000001
 43
0.00000001
 12
1.0
 22
0.0
 32
0.0
 13
1.0
 23
0.0
 33
0.0
 40
0.0
 40
0.0
 40
0.0
 40
0.0
 40
0.2496881583702803
 40
0.3717110306133679
 40
0.5005962600163296
 40
0.7502912333263081
 40
1.0
 40
1.0
 40
1.0
 40
1.0
 10
913.9137001870599
 20
805.574948370767
 30
0.0
 10
914.0186725775758
 20
805.5876754729508
 30
0.0
 10
914.1749450885319
 20
805.6066223236958
 30
0.0
 10
914.3889948456366
 20
805.5680809920345
 30
0.0
 10
914.5890858166971
 20
805.5018097682274
 30
0.0
 10
914.8194447737011
 20
805.3721138394301
 30
0.0
 10
914.9114586934653
 20
805.2224578384335
 30
0.0
 10
914.9574669240442
 20
805.147627771211
 30
0.0
  0
SPLINE
  5
183
330
1F
100
AcDbEntity
  8
0
  6
Continuous
 62
     7
370
    15
100
AcDbSpline
210
0.0
220
0.0
230
1.0
 70
     8
 71
     3
 72
    12
 73
     8
 74
     0
 42
0.00000001
 43
0.00000001
 12
1.0
 22
0.0
 32
0.0
 13
1.0
 23
0.0
 33
0.0
 40
0.0
 40
0.0
 40
0.0
 40
0.0
 40
0.2497987080500781
 40
0.3733100133413124
 40
0.5006573982737168
 40
0.750525544465498
 40
1.0
 40
1.0
 40
1.0
 40
1.0
 10
914.9574669240442
 20
805.147627771211
 30
0.0
 10
914.9839736006786
 20
805.0684823287291
 30
0.0
 10
915.0235863268023
 20
804.9502039500322
 30
0.0
 10
914.9893889622903
 20
804.7928305992784
 30
0.0
 10
914.9126308721501
 20
804.6490689553282
 30
0.0
 10
914.7575870305204
 20
804.4856647283443
 30
0.0
 10
914.5628592628559
 20
804.4278587388026
 30
0.0
 10
914.4655721424547
 20
804.3989785316709
 30
0.0
  0
SPLINE
  5
184
330
1F
100
AcDbEntity
  8
0
  6
Continuous
 62
     7
370
    15
100
AcDbSpline
210
0.0
220
0.0
230
1.0
 70
     8
 71
     3
 72
     9
 73
     5
 74
     0
 42
0.00000001
 43
0.00000001
 12
1.0
 22
0.0
 32
0.0
 13
1.0
 23
0.0
 33
0.0
 40
0.0
 40
0.0
 40
0.0
 40
0.0
 40
0.4985443218881915
 40
0.9999999999999999
 40
0.9999999999999999
 40
0.9999999999999999
 40
0.9999999999999999
 10
914.4655721424547
 20
804.3989785316709
 30
0.0
 10
914.3572961708134
 20
804.3900031975564
 30
0.0
 10
914.1401119268303
 20
804.372000115944
 30
0.0
 10
913.9214188019749
 20
804.4135289957571
 30
0.0
 10
913.8117538927522
 20
804.4343538883451
 30
0.0
  0
LINE
  5
185
330
1F
100
AcDbEntity
  8
0
  6
Continuous
 62
     7
370
    15
100
AcDbLine
 10
913.8117538928
 20
804.4343538883
 30
0.0
 11
912.3455392359
 21
804.6764828566
 31
0.0
  0
SPLINE
  5
186
330
1F
100
AcDbEntity
  8
0
  6
Continuous
 62
     7
370
    15
100
AcDbSpline
210
0.0
220
0.0
230
1.0
 70
     8
 71
     3
 72
    13
 73
     9
 74
     0
 42
0.00000001
 43
0.00000001
 12
1.0
 22
0.0
 32
0.0
 13
1.0
 23
0.0
 33
0.0
 40
0.0
 40
0.0
 40
0.0
 40
0.0
 40
0.2492858741153862
 40
0.4986841423898598
 40
0.6247827237922412
 40
0.749279299936294
 40
0.8745617248466026
 40
1.0
 40
1.0
 40
1.0
 40
1.0
 10
914.5207362411943
 20
805.05500215323
 30
0.0
 10
914.5006622538627
 20
805.0869487543325
 30
0.0
 10
914.4605052285507
 20
805.150856360127
 30
0.0
 10
914.3602075128297
 20
805.2045735326926
 30
0.0
 10
914.2734756890774
 20
805.2311002260155
 30
0.0
 10
914.2047008605747
 20
805.2411163819526
 30
0.0
 10
914.135923040961
 20
805.2407972106083
 30
0.0
 10
914.0920519538416
 20
805.2337504687811
 30
0.0
 10
914.0701027749506
 20
805.2302249077085
 30
0.0
  0
SPLINE
  5
187
330
1F
100
AcDbEntity
  8
0
  6
Continuous
 62
     7
370
    15
100
AcDbSpline
210
0.0
220
0.0
230
1.0
 70
     8
 71
     3
 72
    14
 73
    10
 74
     0
 42
0.00000001
 43
0.00000001
 12
1.0
 22
0.0
 32
0.0
 13
1.0
 23
0.0
 33
0.0
 40
0.0
 40
0.0
 40
0.0
 40
0.0
 40
0.2493283936916856
 40
0.3753149168006493
 40
0.4994612050814771
 40
0.6256636971798548
 40
0.7496648611318277
 40
0.8747269708059215
 40
1.0
 40
1.0
 40
1.0
 40
1.0
 10
914.0701027749506
 20
805.2302249077085
 30
0.0
 10
914.0282144122807
 20
805.2190147114919
 30
0.0
 10
913.9651597111389
 20
805.2021399633013
 30
0.0
 10
913.9011194710372
 20
805.157796571224
 30
0.0
 10
913.8638343709557
 20
805.1178050539079
 30
0.0
 10
913.8390025117533
 20
805.0724705874686
 30
0.0
 10
913.8280048198686
 20
805.0233887334457
 30
0.0
 10
913.8315207804388
 20
804.9726420349178
 30
0.0
 10
913.8445652354865
 20
804.939551815821
 30
0.0
 10
913.851092958304
 20
804.9229927662137
 30
0.0
  0
SPLINE
  5
188
330
1F
100
AcDbEntity
  8
0
  6
Continuous
 62
     7
370
    15
100
AcDbSpline
210
0.0
220
0.0
230
1.0
 70
     8
 71
     3
 72
    13
 73
     9
 74
     0
 42
0.00000001
 43
0.00000001
 12
1.0
 22
0.0
 32
0.0
 13
1.0
 23
0.0
 33
0.0
 40
0.0
 40
0.0
 40
0.0
 40
0.0
 40
0.2493017071634942
 40
0.3718792343608923
 40
0.4998749797997721
 40
0.7492565753174728
 40
0.8745428513683617
 40
1.0
 40
1.0
 40
1.0
 40
1.0
 10
913.851092958304
 20
804.9229927662137
 30
0.0
 10
913.8703476115502
 20
804.8915179555405
 30
0.0
 10
913.8990694594208
 20
804.8445675008968
 30
0.0
 10
913.9692107166051
 20
804.7974895424434
 30
0.0
 10
914.048093873214
 20
804.761105426892
 30
0.0
 10
914.1385819338243
 20
804.7407852933937
 30
0.0
 10
914.2279520105545
 20
804.7417317762948
 30
0.0
 10
914.270906444647
 20
804.7484280204131
 30
0.0
 10
914.2923982976404
 20
804.7517784240964
 30
0.0
  0
SPLINE
  5
189
330
1F
100
AcDbEntity
  8
0
  6
Continuous
 62
     7
370
    15
100
AcDbSpline
210
0.0
220
0.0
230
1.0
 70
     8
 71
     3
 72
    11
 73
     7
 74
     0
 42
0.00000001
 43
0.00000001
 12
1.0
 22
0.0
 32
0.0
 13
1.0
 23
0.0
 33
0.0
 40
0.0
 40
0.0
 40
0.0
 40
0.0
 40
0.2503965102061719
 40
0.5004240780649076
 40
0.7504591650779294
 40
1.0
 40
1.0
 40
1.0
 40
1.0
 10
914.2923982976404
 20
804.7517784240964
 30
0.0
 10
914.3339132068032
 20
804.7629082624657
 30
0.0
 10
914.4168818557139
 20
804.7851515401389
 30
0.0
 10
914.5006452619558
 20
804.8611067434024
 30
0.0
 10
914.5498539018683
 20
804.9545017355863
 30
0.0
 10
914.5304357243377
 20
805.02152411673
 30
0.0
 10
914.5207362411943
 20
805.05500215323
 30
0.0
  0
LINE
  5
18A
330
1F
100
AcDbEntity
  8
0
  6
Continuous
 62
     7
370
    15
100
AcDbLine
 10
912.3455392359
 20
804.6764828566
 30
0.0
 11
912.3446079133
 21
804.6697028282
 31
0.0
  0
SPLINE
  5
18B
330
1F
100
AcDbEntity
  8
0
  6
Continuous
 62
     7
370
    15
100
AcDbSpline
210
0.0
220
0.0
230
1.0
 70
     8
 71
     3
 72
     9
 73
     5
 74
     0
 42
0.00000001
 43
0.00000001
 12
1.0
 22
0.0
 32
0.0
 13
1.0
 23
0.0
 33
0.0
 40
0.0
 40
0.0
 40
0.0
 40
0.0
 40
0.4991918243939975
 40
1.0
 40
1.0
 40
1.0
 40
1.0
 10
913.8117538927522
 20
804.4343538883451
 30
0.0
 10
913.8115879802864
 20
804.4332515498841
 30
0.0
 10
913.8112556181405
 20
804.4310433036607
 30
0.0
 10
913.8109174311709
 20
804.4288308743171
 30
0.0
 10
913.8107480643716
 20
804.4277228716138
 30
0.0
  0
LINE
  5
18C
330
1F
100
AcDbEntity
  8
0
  6
Continuous
 62
     7
370
    15
100
AcDbLine
 10
914.4655721425
 20
804.3989785317
 30
0.0
 11
914.4645439623
 21
804.3923922184
 31
0.0
  0
SPLINE
  5
18D
330
1F
100
AcDbEntity
  8
0
  6
Continuous
 62
     7
370
    15
100
AcDbSpline
210
0.0
220
0.0
230
1.0
 70
     8
 71
     3
 72
    14
 73
    10
 74
     0
 42
0.00000001
 43
0.00000001
 12
1.0
 22
0.0
 32
0.0
 13
1.0
 23
0.0
 33
0.0
 40
0.0
 40
0.0
 40
0.0
 40
0.0
 40
0.2493678507996737
 40
0.3753541535870947
 40
0.499503371488935
 40
0.6257217063825978
 40
0.7497045815260478
 40
0.8747673460414763
 40
1.0
 40
1.0
 40
1.0
 40
1.0
 10
914.0691938041177
 20
805.2233852747205
 30
0.0
 10
914.0273067723687
 20
805.2121731900919
 30
0.0
 10
913.964257460687
 20
805.1952965056188
 30
0.0
 10
913.9002115083013
 20
805.1509708606519
 30
0.0
 10
913.8629161292585
 20
805.1109971474084
 30
0.0
 10
913.8380791896575
 20
805.065662754395
 30
0.0
 10
913.8270831461869
 20
805.016594798305
 30
0.0
 10
913.8305867323686
 20
804.9658483754234
 30
0.0
 10
913.8436287501074
 20
804.9327753673266
 30
0.0
 10
913.8501541851488
 20
804.9162276390317
 30
0.0
  0
SPLINE
  5
18E
330
1F
100
AcDbEntity
  8
0
  6
Continuous
 62
     7
370
    15
100
AcDbSpline
210
0.0
220
0.0
230
1.0
 70
     8
 71
     3
 72
    13
 73
     9
 74
     0
 42
0.00000001
 43
0.00000001
 12
1.0
 22
0.0
 32
0.0
 13
1.0
 23
0.0
 33
0.0
 40
0.0
 40
0.0
 40
0.0
 40
0.0
 40
0.2492590568679506
 40
0.4986299511640672
 40
0.6247330194537639
 40
0.7492446199799703
 40
0.8745329419211454
 40
1.0
 40
1.0
 40
1.0
 40
1.0
 10
914.5197974680391
 20
805.048237026048
 30
0.0
 10
914.4997259450093
 20
805.0801746798825
 30
0.0
 10
914.4595738932688
 20
805.1440643173217
 30
0.0
 10
914.3592798869383
 20
805.1977457554194
 30
0.0
 10
914.2725659120323
 20
805.2242804458235
 30
0.0
 10
914.2037924409187
 20
805.2342773571872
 30
0.0
 10
914.1350183665764
 20
805.2339344844486
 30
0.0
 10
914.0911457489373
 20
805.2269033485395
 30
0.0
 10
914.0691938041177
 20
805.2233852747205
 30
0.0
  0
LINE
  5
18F
330
1F
100
AcDbEntity
  8
0
  6
Continuous
 62
     7
370
    15
100
AcDbLine
 10
914.519797468
 20
805.048237026
 30
0.0
 11
914.5207362412
 21
805.0550021532
 31
0.0
  0
SPLINE
  5
190
330
1F
100
AcDbEntity
  8
0
  6
Continuous
 62
     7
370
    15
100
AcDbSpline
210
0.0
220
0.0
230
1.0
 70
     8
 71
     3
 72
     9
 73
     5
 74
     0
 42
0.00000001
 43
0.00000001
 12
1.0
 22
0.0
 32
0.0
 13
1.0
 23
0.0
 33
0.0
 40
0.0
 40
0.0
 40
0.0
 40
0.0
 40
0.5007795275032968
 40
1.0
 40
1.0
 40
1.0
 40
1.0
 10
914.0691938041177
 20
805.2233852747205
 30
0.0
 10
914.0693451807931
 20
805.2245280513314
 30
0.0
 10
914.0696474628695
 20
805.2268100467966
 30
0.0
 10
914.0699511620847
 20
805.2290878044544
 30
0.0
 10
914.0701027749506
 20
805.2302249077085
 30
0.0
  0
SPLINE
  5
191
330
1F
100
AcDbEntity
  8
0
  6
Continuous
 62
     7
370
    15
100
AcDbSpline
210
0.0
220
0.0
230
1.0
 70
     8
 71
     3
 72
     9
 73
     5
 74
     0
 42
0.00000001
 43
0.00000001
 12
1.0
 22
0.0
 32
0.0
 13
1.0
 23
0.0
 33
0.0
 40
0.0
 40
0.0
 40
0.0
 40
0.0
 40
0.5000297632625595
 40
1.0
 40
1.0
 40
1.0
 40
1.0
 10
912.2322829602685
 20
805.6893296840909
 30
0.0
 10
912.2321482328173
 20
805.6881525273977
 30
0.0
 10
912.2318787939535
 20
805.6857983541474
 30
0.0
 10
912.231616758215
 20
805.6834437604523
 30
0.0
 10
912.2314857481447
 20
805.682266533685
 30
0.0
  0
SPLINE
  5
192
330
1F
100
AcDbEntity
  8
0
  6
Continuous
 62
     7
370
    15
100
AcDbSpline
210
0.0
220
0.0
230
1.0
 70
     8
 71
     3
 72
     9
 73
     5
 74
     0
 42
0.00000001
 43
0.00000001
 12
1.0
 22
0.0
 32
0.0
 13
1.0
 23
0.0
 33
0.0
 40
0.0
 40
0.0
 40
0.0
 40
0.0
 40
0.50161544848938
 40
1.0
 40
1.0
 40
1.0
 40
1.0
 10
913.2974999187913
 20
805.7097889784101
 30
0.0
 10
913.1233454912723
 20
805.6801877911504
 30
0.0
 10
912.7761583620808
 20
805.6211760773987
 30
0.0
 10
912.4131838497876
 20
805.6666608006785
 30
0.0
 10
912.2322829602685
 20
805.6893296840909
 30
0.0
  0
SPLINE
  5
193
330
1F
100
AcDbEntity
  8
0
  6
Continuous
 62
     7
370
    15
100
AcDbSpline
210
0.0
220
0.0
230
1.0
 70
     8
 71
     3
 72
     9
 73
     5
 74
     0
 42
0.00000001
 43
0.00000001
 12
1.0
 22
0.0
 32
0.0
 13
1.0
 23
0.0
 33
0.0
 40
0.0
 40
0.0
 40
0.0
 40
0.0
 40
0.4992130842086175
 40
1.0
 40
1.0
 40
1.0
 40
1.0
 10
913.2974999187913
 20
805.7097889784101
 30
0.0
 10
913.2973632176636
 20
805.7086220410492
 30
0.0
 10
913.2970893844407
 20
805.7062844874116
 30
0.0
 10
913.2968168410765
 20
805.7039430784569
 30
0.0
 10
913.2966803549257
 20
805.7027705314878
 30
0.0
  0
SPLINE
  5
194
330
1F
100
AcDbEntity
  8
0
  6
Continuous
 62
     7
370
    15
100
AcDbSpline
210
0.0
220
0.0
230
1.0
 70
     8
 71
     3
 72
    13
 73
     9
 74
     0
 42
0.00000001
 43
0.00000001
 12
1.0
 22
0.0
 32
0.0
 13
1.0
 23
0.0
 33
0.0
 40
0.0
 40
0.0
 40
0.0
 40
0.0
 40
0.1251139330033615
 40
0.2500658896884115
 40
0.3703779852207549
 40
0.4999584062503756
 40
0.7494899464248834
 40
1.0
 40
1.0
 40
1.0
 40
1.0
 10
911.6757767437425
 20
806.1004676225904
 30
0.0
 10
911.6554410955644
 20
806.1542728024505
 30
0.0
 10
911.6147961263592
 20
806.2618135043417
 30
0.0
 10
911.6290628254358
 20
806.4232620885716
 30
0.0
 10
911.7143045675098
 20
806.5708549325823
 30
0.0
 10
911.9103436246387
 20
806.7305947929466
 30
0.0
 10
912.2489507219792
 20
806.8628345398743
 30
0.0
 10
912.5448730287088
 20
806.9203594301936
 30
0.0
 10
912.6931237219301
 20
806.9491781595472
 30
0.0
  0
SPLINE
  5
195
330
1F
100
AcDbEntity
  8
0
  6
Continuous
 62
     7
370
    15
100
AcDbSpline
210
0.0
220
0.0
230
1.0
 70
     8
 71
     3
 72
    13
 73
     9
 74
     0
 42
0.00000001
 43
0.00000001
 12
1.0
 22
0.0
 32
0.0
 13
1.0
 23
0.0
 33
0.0
 40
0.0
 40
0.0
 40
0.0
 40
0.0
 40
0.2504966703993105
 40
0.500102741161531
 40
0.6251913845132975
 40
0.7500051437008224
 40
0.8748638168238827
 40
1.0
 40
1.0
 40
1.0
 40
1.0
 10
912.6931237219301
 20
806.9491781595472
 30
0.0
 10
912.8430860725862
 20
806.9730599583631
 30
0.0
 10
913.1424776074697
 20
807.0207386481944
 30
0.0
 10
913.5404467856911
 20
807.0181938568473
 30
0.0
 10
913.8476195863112
 20
806.9542271444648
 30
0.0
 10
914.0538419582206
 20
806.8620452932696
 30
0.0
 10
914.2063306325255
 20
806.7278395302395
 30
0.0
 10
914.2634445569502
 20
806.6238756819789
 30
0.0
 10
914.2920332191911
 20
806.5718360546354
 30
0.0
  0
SPLINE
  5
196
330
1F
100
AcDbEntity
  8
0
  6
Continuous
 62
     7
370
    15
100
AcDbSpline
210
0.0
220
0.0
230
1.0
 70
     8
 71
     3
 72
    13
 73
     9
 74
     0
 42
0.00000001
 43
0.00000001
 12
1.0
 22
0.0
 32
0.0
 13
1.0
 23
0.0
 33
0.0
 40
0.0
 40
0.0
 40
0.0
 40
0.0
 40
0.1251599801201243
 40
0.2500980261387252
 40
0.3750067079342162
 40
0.5000363713884589
 40
0.749460144296808
 40
1.0
 40
1.0
 40
1.0
 40
1.0
 10
914.2920332191911
 20
806.5718360546354
 30
0.0
 10
914.312718810433
 20
806.5185579026473
 30
0.0
 10
914.3540533131562
 20
806.4120960716714
 30
0.0
 10
914.3438069220624
 20
806.2466024106122
 30
0.0
 10
914.2594492214288
 20
806.0958234576525
 30
0.0
 10
914.0676125355858
 20
805.9313792960968
 30
0.0
 10
913.7367493988897
 20
805.7950042124872
 30
0.0
 10
913.444134149893
 20
805.7382362979704
 30
0.0
 10
913.2974999187913
 20
805.7097889784101
 30
0.0
  0
SPLINE
  5
197
330
1F
100
AcDbEntity
  8
0
  6
Continuous
 62
     7
370
    15
100
AcDbSpline
210
0.0
220
0.0
230
1.0
 70
     8
 71
     3
 72
    12
 73
     8
 74
     0
 42
0.00000001
 43
0.00000001
 12
1.0
 22
0.0
 32
0.0
 13
1.0
 23
0.0
 33
0.0
 40
0.0
 40
0.0
 40
0.0
 40
0.0
 40
0.2499954500330933
 40
0.4997355192010517
 40
0.7495916736767227
 40
0.8747678036686422
 40
1.0
 40
1.0
 40
1.0
 40
1.0
 10
912.232275509688
 20
805.6893296840909
 30
0.0
 10
912.1684260037152
 20
805.7091386847624
 30
0.0
 10
912.0407922167251
 20
805.748736450378
 30
0.0
 10
911.8762819925823
 20
805.8450119549602
 30
0.0
 10
911.7724707585726
 20
805.945267081228
 30
0.0
 10
911.7101376186316
 20
806.0323805041796
 30
0.0
 10
911.6872320782198
 20
806.077768528999
 30
0.0
 10
911.6757767437425
 20
806.1004676225904
 30
0.0
  0
SPLINE
  5
198
330
1F
100
AcDbEntity
  8
0
  6
Continuous
 62
     7
370
    15
100
AcDbSpline
210
0.0
220
0.0
230
1.0
 70
     8
 71
     3
 72
    11
 73
     7
 74
     0
 42
0.00000001
 43
0.00000001
 12
1.0
 22
0.0
 32
0.0
 13
1.0
 23
0.0
 33
0.0
 40
0.0
 40
0.0
 40
0.0
 40
0.0
 40
0.2500046060304831
 40
0.4997031707186331
 40
0.7496718110876136
 40
1.0
 40
1.0
 40
1.0
 40
1.0
 10
913.8515027402368
 20
806.493247330499
 30
0.0
 10
913.8401034585137
 20
806.5130216005869
 30
0.0
 10
913.8173188494159
 20
806.5525459342321
 30
0.0
 10
913.7541531004956
 20
806.6012059077993
 30
0.0
 10
913.6759580209429
 20
806.6364702891207
 30
0.0
 10
913.6181613880416
 20
806.6499423800244
 30
0.0
 10
913.5892423032251
 20
806.6566832664731
 30
0.0
  0
SPLINE
  5
199
330
1F
100
AcDbEntity
  8
0
  6
Continuous
 62
     7
370
    15
100
AcDbSpline
210
0.0
220
0.0
230
1.0
 70
     8
 71
     3
 72
     9
 73
     5
 74
     0
 42
0.00000001
 43
0.00000001
 12
1.0
 22
0.0
 32
0.0
 13
1.0
 23
0.0
 33
0.0
 40
0.0
 40
0.0
 40
0.0
 40
0.0
 40
0.4985957609069235
 40
1.0
 40
1.0
 40
1.0
 40
1.0
 10
913.5892423032251
 20
806.6566832664731
 30
0.0
 10
913.4642649455355
 20
806.6657605796036
 30
0.0
 10
913.2136062607079
 20
806.683966336335
 30
0.0
 10
912.9753412772317
 20
806.6425606398557
 30
0.0
 10
912.8558742044893
 20
806.6217996481183
 30
0.0
  0
SPLINE
  5
19A
330
1F
100
AcDbEntity
  8
0
  6
Continuous
 62
     7
370
    15
100
AcDbSpline
210
0.0
220
0.0
230
1.0
 70
     8
 71
     3
 72
    13
 73
     9
 74
     0
 42
0.00000001
 43
0.00000001
 12
1.0
 22
0.0
 32
0.0
 13
1.0
 23
0.0
 33
0.0
 40
0.0
 40
0.0
 40
0.0
 40
0.0
 40
0.5001318045599071
 40
0.6252895266070142
 40
0.7502675313002095
 40
0.8748689549848059
 40
0.9374304527749245
 40
1.0
 40
1.0
 40
1.0
 40
1.0
 10
912.8558742044893
 20
806.6217996481183
 30
0.0
 10
912.6799674052227
 20
806.5886624414954
 30
0.0
 10
912.4600400216058
 20
806.5472326662773
 30
0.0
 10
912.2351765168944
 20
806.445242997967
 30
0.0
 10
912.1491619729339
 20
806.3739857410774
 30
0.0
 10
912.1060513643608
 20
806.3004594150076
 30
0.0
 10
912.105128793357
 20
806.2360482487296
 30
0.0
 10
912.11707600703
 20
806.2044419562164
 30
0.0
 10
912.123049998137
 20
806.1886377933744
 30
0.0
  0
SPLINE
  5
19B
330
1F
100
AcDbEntity
  8
0
  6
Continuous
 62
     7
370
    15
100
AcDbSpline
210
0.0
220
0.0
230
1.0
 70
     8
 71
     3
 72
    13
 73
     9
 74
     0
 42
0.00000001
 43
0.00000001
 12
1.0
 22
0.0
 32
0.0
 13
1.0
 23
0.0
 33
0.0
 40
0.0
 40
0.0
 40
0.0
 40
0.0
 40
0.1245430701818198
 40
0.1868273980957376
 40
0.2496648100900117
 40
0.3711716718358911
 40
0.4997140796879561
 40
1.0
 40
1.0
 40
1.0
 40
1.0
 10
912.123049998137
 20
806.1886377933744
 30
0.0
 10
912.1431862521064
 20
806.1570486245824
 30
0.0
 10
912.1733927014172
 20
806.1096616266163
 30
0.0
 10
912.2458894708523
 20
806.061067474159
 30
0.0
 10
912.3275989012853
 20
806.0227691444633
 30
0.0
 10
912.44756030077
 20
805.9993994932732
 30
0.0
 10
912.7356199549153
 20
805.985831610242
 30
0.0
 10
912.9672565866125
 20
806.0250939130207
 30
0.0
 10
913.1515430448976
 20
806.0563303831342
 30
0.0
  0
SPLINE
  5
19C
330
1F
100
AcDbEntity
  8
0
  6
Continuous
 62
     7
370
    15
100
AcDbSpline
210
0.0
220
0.0
230
1.0
 70
     8
 71
     3
 72
    12
 73
     8
 74
     0
 42
0.00000001
 43
0.00000001
 12
1.0
 22
0.0
 32
0.0
 13
1.0
 23
0.0
 33
0.0
 40
0.0
 40
0.0
 40
0.0
 40
0.0
 40
0.5004189264501475
 40
0.6256405819038532
 40
0.7507023326959907
 40
0.87539620720426
 40
1.0
 40
1.0
 40
1.0
 40
1.0
 10
913.1515430448976
 20
806.0563303831342
 30
0.0
 10
913.3238544777696
 20
806.0888131848698
 30
0.0
 10
913.5392840297561
 20
806.1294242767083
 30
0.0
 10
913.7536648047942
 20
806.2363500238401
 30
0.0
 10
913.8334331664462
 20
806.309073649792
 30
0.0
 10
913.8800553594142
 20
806.3987715667769
 30
0.0
 10
913.861017986962
 20
806.4617629964075
 30
0.0
 10
913.8515027402368
 20
806.493247330499
 30
0.0
  0
LINE
  5
19D
330
1F
100
AcDbEntity
  8
0
  6
Continuous
 62
     7
370
    15
100
AcDbLine
 10
911.6757767437
 20
806.1004676226
 30
0.0
 11
911.6750465868
 21
806.0932554606
 31
0.0
  0
SPLINE
  5
19E
330
1F
100
AcDbEntity
  8
0
  6
Continuous
 62
     7
370
    15
100
AcDbSpline
210
0.0
220
0.0
230
1.0
 70
     8
 71
     3
 72
    13
 73
     9
 74
     0
 42
0.00000001
 43
0.00000001
 12
1.0
 22
0.0
 32
0.0
 13
1.0
 23
0.0
 33
0.0
 40
0.0
 40
0.0
 40
0.0
 40
0.0
 40
0.5001623875861236
 40
0.6253316874163164
 40
0.750308360055255
 40
0.8748905319388521
 40
0.9374378833622201
 40
1.0
 40
1.0
 40
1.0
 40
1.0
 10
912.8551813004938
 20
806.6144980791333
 30
0.0
 10
912.6792756368029
 20
806.5813679611281
 30
0.0
 10
912.4593482927402
 20
806.5399467885036
 30
0.0
 10
912.2344818604093
 20
806.4379561751151
 30
0.0
 10
912.148459288936
 20
806.3667172769252
 30
0.0
 10
912.105338350685
 20
806.2932142988535
 30
0.0
 10
912.1044083906813
 20
806.2288218604303
 30
0.0
 10
912.1163439211285
 20
806.1972156836434
 30
0.0
 10
912.122312390658
 20
806.1814107301954
 30
0.0
  0
SPLINE
  5
19F
330
1F
100
AcDbEntity
  8
0
  6
Continuous
 62
     7
370
    15
100
AcDbSpline
210
0.0
220
0.0
230
1.0
 70
     8
 71
     3
 72
     9
 73
     5
 74
     0
 42
0.00000001
 43
0.00000001
 12
1.0
 22
0.0
 32
0.0
 13
1.0
 23
0.0
 33
0.0
 40
0.0
 40
0.0
 40
0.0
 40
0.0
 40
0.4985911139782017
 40
1.0
 40
1.0
 40
1.0
 40
1.0
 10
913.588541948649
 20
806.6494114998105
 30
0.0
 10
913.4635671479155
 20
806.6584762836209
 30
0.0
 10
913.2129112552813
 20
806.6766570805829
 30
0.0
 10
912.9746484088855
 20
806.6352566319588
 30
0.0
 10
912.8551813004938
 20
806.6144980791333
 30
0.0
  0
SPLINE
  5
1A0
330
1F
100
AcDbEntity
  8
0
  6
Continuous
 62
     7
370
    15
100
AcDbSpline
210
0.0
220
0.0
230
1.0
 70
     8
 71
     3
 72
    11
 73
     7
 74
     0
 42
0.00000001
 43
0.00000001
 12
1.0
 22
0.0
 32
0.0
 13
1.0
 23
0.0
 33
0.0
 40
0.0
 40
0.0
 40
0.0
 40
0.0
 40
0.2499821379237425
 40
0.4996656754518745
 40
0.7496460331717707
 40
0.9999999999999999
 40
0.9999999999999999
 40
0.9999999999999999
 40
0.9999999999999999
 10
913.8507725833383
 20
806.48602026732
 30
0.0
 10
913.8393757837091
 20
806.50578952955
 30
0.0
 10
913.8165957977789
 20
806.5453044398851
 30
0.0
 10
913.753433582793
 20
806.5939526719748
 30
0.0
 10
913.6752478939579
 20
806.629195102499
 30
0.0
 10
913.6174583146095
 20
806.6426693468823
 30
0.0
 10
913.588541948649
 20
806.6494114998105
 30
0.0
  0
SPLINE
  5
1A1
330
1F
100
AcDbEntity
  8
0
  6
Continuous
 62
     7
370
    15
100
AcDbSpline
210
0.0
220
0.0
230
1.0
 70
     8
 71
     3
 72
     9
 73
     5
 74
     0
 42
0.00000001
 43
0.00000001
 12
1.0
 22
0.0
 32
0.0
 13
1.0
 23
0.0
 33
0.0
 40
0.0
 40
0.0
 40
0.0
 40
0.0
 40
0.500537610000097
 40
1.0
 40
1.0
 40
1.0
 40
1.0
 10
913.8507725833383
 20
806.48602026732
 30
0.0
 10
913.8508942105906
 20
806.4872278568624
 30
0.0
 10
913.851137203824
 20
806.4896404418876
 30
0.0
 10
913.8513809821377
 20
806.4920458964261
 30
0.0
 10
913.8515027402368
 20
806.493247330499
 30
0.0
  0
SPLINE
  5
1A2
330
1F
100
AcDbEntity
  8
0
  6
Continuous
 62
     7
370
    15
100
AcDbSpline
210
0.0
220
0.0
230
1.0
 70
     8
 71
     3
 72
     9
 73
     5
 74
     0
 42
0.00000001
 43
0.00000001
 12
1.0
 22
0.0
 32
0.0
 13
1.0
 23
0.0
 33
0.0
 40
0.0
 40
0.0
 40
0.0
 40
0.0
 40
0.5000258219430562
 40
1.0
 40
1.0
 40
1.0
 40
1.0
 10
912.8551813004938
 20
806.6144980791333
 30
0.0
 10
912.8552986442199
 20
806.6157149758708
 30
0.0
 10
912.8555333195529
 20
806.6181486436617
 30
0.0
 10
912.8557605800893
 20
806.620582688534
 30
0.0
 10
912.8558742044893
 20
806.6217996481183
 30
0.0
  0
SPLINE
  5
1A3
330
1F
100
AcDbEntity
  8
0
  6
Continuous
 62
     7
370
    15
100
AcDbSpline
210
0.0
220
0.0
230
1.0
 70
    24
 71
     3
 72
     9
 73
     5
 74
     0
 42
0.00000001
 43
0.00000001
 12
1.0
 22
0.0
 32
0.0
 13
1.0
 23
0.0
 33
0.0
 40
0.0
 40
0.0
 40
0.0
 40
0.0
 40
0.5002543591975698
 40
1.0
 40
1.0
 40
1.0
 40
1.0
 10
913.588541948649
 20
806.6494114998105
 30
0.0
 10
913.5886586446912
 20
806.6506231523338
 30
0.0
 10
913.5888919181051
 20
806.653045225227
 30
0.0
 10
913.5891255478024
 20
806.6554709974027
 30
0.0
 10
913.5892423032251
 20
806.6566832664731
 30
0.0
  0
SPLINE
  5
1A4
330
1F
100
AcDbEntity
  8
0
  6
Continuous
 62
     7
370
    15
100
AcDbSpline
210
0.0
220
0.0
230
1.0
 70
     8
 71
     3
 72
    12
 73
     8
 74
     0
 42
0.00000001
 43
0.00000001
 12
1.0
 22
0.0
 32
0.0
 13
1.0
 23
0.0
 33
0.0
 40
0.0
 40
0.0
 40
0.0
 40
0.0
 40
0.0304726815865353
 40
0.0888086361389309
 40
0.3925534819587824
 40
0.6962820155742808
 40
1.0
 40
1.0
 40
1.0
 40
1.0
 10
934.9502952931848
 20
769.276256144357
 30
0.0
 10
934.9549980419458
 20
769.2667500562904
 30
0.0
 10
934.9687035867757
 20
769.2390458086741
 30
0.0
 10
935.0235293525724
 20
769.112295169182
 30
0.0
 10
935.0806231850745
 20
768.874157020637
 30
0.0
 10
935.0720627500109
 20
768.5289707423632
 30
0.0
 10
934.9921406473998
 20
768.3246147805736
 30
0.0
 10
934.9521802900758
 20
768.2224385741475
 30
0.0
  0
SPLINE
  5
1A5
330
1F
100
AcDbEntity
  8
0
  6
Continuous
 62
     7
370
    15
100
AcDbSpline
210
0.0
220
0.0
230
1.0
 70
     8
 71
     3
 72
    10
 73
     6
 74
     0
 42
0.00000001
 43
0.00000001
 12
1.0
 22
0.0
 32
0.0
 13
1.0
 23
0.0
 33
0.0
 40
0.0
 40
0.0
 40
0.0
 40
0.0
 40
0.2119016513570341
 40
0.4879796487207009
 40
1.0
 40
1.0
 40
1.0
 40
1.0
 10
934.9521802900758
 20
768.2224385741475
 30
0.0
 10
934.9510653170287
 20
768.2196971145362
 30
0.0
 10
934.9484976911871
 20
768.2133839192895
 30
0.0
 10
934.9480898771014
 20
768.2022162972189
 30
0.0
 10
934.9505061508207
 20
768.1958761920746
 30
0.0
 10
934.9520759819475
 20
768.1917570832494
 30
0.0
  0
SPLINE
  5
1A6
330
1F
100
AcDbEntity
  8
0
  6
Continuous
 62
     7
370
    15
100
AcDbSpline
210
0.0
220
0.0
230
1.0
 70
     8
 71
     3
 72
    12
 73
     8
 74
     0
 42
0.00000001
 43
0.00000001
 12
1.0
 22
0.0
 32
0.0
 13
1.0
 23
0.0
 33
0.0
 40
0.0
 40
0.0
 40
0.0
 40
0.0
 40
0.0304782481614553
 40
0.0888142600190323
 40
0.3925585004909056
 40
0.6962825597861945
 40
1.0
 40
1.0
 40
1.0
 40
1.0
 10
915.7497840164629
 20
810.4518749120954
 30
0.0
 10
915.7455248635794
 20
810.4615903275022
 30
0.0
 10
915.7331136019593
 20
810.4899012535619
 30
0.0
 10
915.6712541585754
 20
810.6133735003685
 30
0.0
 10
915.525538577127
 20
810.8101901453507
 30
0.0
 10
915.2555972523942
 20
811.025498855533
 30
0.0
 10
915.0476836978928
 20
811.0956413475787
 30
0.0
 10
914.9437280534235
 20
811.1307122114423
 30
0.0
  0
SPLINE
  5
1A7
330
1F
100
AcDbEntity
  8
0
  6
Continuous
 62
     7
370
    15
100
AcDbSpline
210
0.0
220
0.0
230
1.0
 70
     8
 71
     3
 72
    11
 73
     7
 74
     0
 42
0.00000001
 43
0.00000001
 12
1.0
 22
0.0
 32
0.0
 13
1.0
 23
0.0
 33
0.0
 40
0.0
 40
0.0
 40
0.0
 40
0.0
 40
0.3704109915758448
 40
0.7441678170461288
 40
0.9441501627547979
 40
1.0
 40
1.0
 40
1.0
 40
1.0
 10
914.9201618669954
 20
811.1503519418958
 30
0.0
 10
914.9216488830826
 20
811.1475625287305
 30
0.0
 10
914.9246363471178
 20
811.1419585062981
 30
0.0
 10
914.9319080802172
 20
811.1352745243589
 30
0.0
 10
914.9394314453995
 20
811.1318341422553
 30
0.0
 10
914.9429581506274
 20
811.1309132485545
 30
0.0
 10
914.9437280534235
 20
811.1307122114423
 30
0.0
  0
SPLINE
  5
1A8
330
1F
100
AcDbEntity
  8
0
  6
Continuous
 62
     7
370
    15
100
AcDbSpline
210
0.0
220
0.0
230
1.0
 70
     8
 71
     3
 72
    12
 73
     8
 74
     0
 42
0.00000001
 43
0.00000001
 12
1.0
 22
0.0
 32
0.0
 13
1.0
 23
0.0
 33
0.0
 40
0.0
 40
0.0
 40
0.0
 40
0.0
 40
0.2238827390166067
 40
0.4477701966597119
 40
0.6716727567670283
 40
0.8955849031121035
 40
1.0
 40
1.0
 40
1.0
 40
1.0
 10
913.6253105638948
 20
815.5095823410276
 30
0.0
 10
913.5974444338821
 20
815.5092470521481
 30
0.0
 10
913.5417115865406
 20
815.5085764673224
 30
0.0
 10
913.4697508502433
 20
815.507973143783
 30
0.0
 10
913.4173534481818
 20
815.5076371892083
 30
0.0
 10
913.3940278058014
 20
815.5075474439484
 30
0.0
 10
913.3920733112544
 20
815.5075537709752
 30
0.0
 10
913.3914517401186
 20
815.5075557831052
 30
0.0
  0
LINE
  5
1A9
330
1F
100
AcDbEntity
  8
0
  6
Continuous
 62
     7
370
    15
100
AcDbLine
 10
913.6253105639
 20
815.509582341
 30
0.0
 11
926.6136394976
 21
815.6511284712
 31
0.0
  0
LINE
  5
1AA
330
1F
100
AcDbEntity
  8
0
  6
Continuous
 62
     7
370
    15
100
AcDbLine
 10
928.2603370188
 20
815.6690694693
 30
0.0
 11
932.7201428054
 21
815.7176621559
 31
0.0
  0
LINE
  5
1AB
330
1F
100
AcDbEntity
  8
0
  6
Continuous
 62
     7
370
    15
100
AcDbLine
 10
932.7201428054
 20
815.7176621559
 30
0.0
 11
934.1987775801
 21
815.7360501889
 31
0.0
  0
SPLINE
  5
1AC
330
1F
100
AcDbEntity
  8
0
  6
Continuous
 62
     7
370
    15
100
AcDbSpline
210
0.0
220
0.0
230
1.0
 70
     8
 71
     3
 72
     9
 73
     5
 74
     0
 42
0.00000001
 43
0.00000001
 12
1.0
 22
0.0
 32
0.0
 13
1.0
 23
0.0
 33
0.0
 40
0.0
 40
0.0
 40
0.0
 40
0.0
 40
0.5000887559549927
 40
1.0
 40
1.0
 40
1.0
 40
1.0
 10
932.142156565043
 20
762.2054614427808
 30
0.0
 10
932.140996860973
 20
762.2064851862134
 30
0.0
 10
932.1386778644828
 20
762.2085323096896
 30
0.0
 10
932.1363576327151
 20
762.2105730710578
 30
0.0
 10
932.1351977227655
 20
762.2115932706121
 30
0.0
  0
SPLINE
  5
1AD
330
1F
100
AcDbEntity
  8
0
  6
Continuous
 62
     7
370
    15
100
AcDbSpline
210
0.0
220
0.0
230
1.0
 70
     8
 71
     3
 72
     9
 73
     5
 74
     0
 42
0.00000001
 43
0.00000001
 12
1.0
 22
0.0
 32
0.0
 13
1.0
 23
0.0
 33
0.0
 40
0.0
 40
0.0
 40
0.0
 40
0.0
 40
0.5001076154030845
 40
0.9999999999999999
 40
0.9999999999999999
 40
0.9999999999999999
 40
0.9999999999999999
 10
932.9429747699228
 20
763.5300107601407
 30
0.0
 10
932.9418219162391
 20
763.5310139969725
 30
0.0
 10
932.9395167050242
 20
763.5330200388743
 30
0.0
 10
932.9372174578581
 20
763.5350273764803
 30
0.0
 10
932.9360680817094
 20
763.536030829263
 30
0.0
  0
SPLINE
  5
1AE
330
1F
100
AcDbEntity
  8
0
  6
Continuous
 62
     7
370
    15
100
AcDbSpline
210
0.0
220
0.0
230
1.0
 70
     8
 71
     3
 72
    13
 73
     9
 74
     0
 42
0.00000001
 43
0.00000001
 12
1.0
 22
0.0
 32
0.0
 13
1.0
 23
0.0
 33
0.0
 40
0.0
 40
0.0
 40
0.0
 40
0.0
 40
0.1250883219055987
 40
0.2500372071483803
 40
0.3704967305974488
 40
0.4999346695745739
 40
0.7494823194232382
 40
0.9999999999999999
 40
0.9999999999999999
 40
0.9999999999999999
 40
0.9999999999999999
 10
932.142156565043
 20
762.2054614427808
 30
0.0
 10
932.1318723172656
 20
762.237985056498
 30
0.0
 10
932.1113152856201
 20
762.3029960296757
 30
0.0
 10
932.1334781757888
 20
762.4478606776847
 30
0.0
 10
932.2062439671985
 20
762.6247667506548
 30
0.0
 10
932.3590962010566
 20
762.8784531704239
 30
0.0
 10
932.6138745191304
 20
763.1934213077718
 30
0.0
 10
932.8331329132631
 20
763.4176692766832
 30
0.0
 10
932.9429747699228
 20
763.5300107601407
 30
0.0
  0
SPLINE
  5
1AF
330
1F
100
AcDbEntity
  8
0
  6
Continuous
 62
     7
370
    15
100
AcDbSpline
210
0.0
220
0.0
230
1.0
 70
     8
 71
     3
 72
    13
 73
     9
 74
     0
 42
0.00000001
 43
0.00000001
 12
1.0
 22
0.0
 32
0.0
 13
1.0
 23
0.0
 33
0.0
 40
0.0
 40
0.0
 40
0.0
 40
0.0
 40
0.2505190397460544
 40
0.5001090038274199
 40
0.6251873045195169
 40
0.7500055697788591
 40
0.8748608978447148
 40
1.0
 40
1.0
 40
1.0
 40
1.0
 10
932.9429747699228
 20
763.5300107601407
 30
0.0
 10
933.053614028615
 20
763.6390589809686
 30
0.0
 10
933.2744822289117
 20
763.8567510060644
 30
0.0
 10
933.5643143784079
 20
764.0885925657575
 30
0.0
 10
933.7834683400441
 20
764.2135471756828
 30
0.0
 10
933.9270904391286
 20
764.2565236999149
 30
0.0
 10
934.0279135007536
 20
764.2333022562622
 30
0.0
 10
934.0609368229791
 20
764.1812067126031
 30
0.0
 10
934.0774672268358
 20
764.1551293733838
 30
0.0
  0
SPLINE
  5
1B0
330
1F
100
AcDbEntity
  8
0
  6
Continuous
 62
     7
370
    15
100
AcDbSpline
210
0.0
220
0.0
230
1.0
 70
     8
 71
     3
 72
    13
 73
     9
 74
     0
 42
0.00000001
 43
0.00000001
 12
1.0
 22
0.0
 32
0.0
 13
1.0
 23
0.0
 33
0.0
 40
0.0
 40
0.0
 40
0.0
 40
0.0
 40
0.1251541917287275
 40
0.2501221524292322
 40
0.3696990590550467
 40
0.5000659630750796
 40
0.749484136097285
 40
0.9999999999999999
 40
0.9999999999999999
 40
0.9999999999999999
 40
0.9999999999999999
 10
934.0774672268358
 20
764.1551293733838
 30
0.0
 10
934.0879560067714
 20
764.1236877581556
 30
0.0
 10
934.108917959205
 20
764.0608513132227
 30
0.0
 10
934.0868849519464
 20
763.9235089737425
 30
0.0
 10
934.0126259680219
 20
763.7534532444672
 30
0.0
 10
933.8579161610674
 20
763.5079686311494
 30
0.0
 10
933.6030521316014
 20
763.1990936059773
 30
0.0
 10
933.3861253987023
 20
762.9778339672006
 30
0.0
 10
933.2774238823381
 20
762.8669612410787
 30
0.0
  0
SPLINE
  5
1B1
330
1F
100
AcDbEntity
  8
0
  6
Continuous
 62
     7
370
    15
100
AcDbSpline
210
0.0
220
0.0
230
1.0
 70
     8
 71
     3
 72
     9
 73
     5
 74
     0
 42
0.00000001
 43
0.00000001
 12
1.0
 22
0.0
 32
0.0
 13
1.0
 23
0.0
 33
0.0
 40
0.0
 40
0.0
 40
0.0
 40
0.0
 40
0.5015799507220154
 40
1.0
 40
1.0
 40
1.0
 40
1.0
 10
933.2774238823381
 20
762.8669612410787
 30
0.0
 10
933.1488091539138
 20
762.7384574159225
 30
0.0
 10
932.8923899564575
 20
762.4822593263234
 30
0.0
 10
932.6351453899854
 20
762.2986317077773
 30
0.0
 10
932.5069295404878
 20
762.2071080210927
 30
0.0
  0
SPLINE
  5
1B2
330
1F
100
AcDbEntity
  8
0
  6
Continuous
 62
     7
370
    15
100
AcDbSpline
210
0.0
220
0.0
230
1.0
 70
     8
 71
     3
 72
    12
 73
     8
 74
     0
 42
0.00000001
 43
0.00000001
 12
1.0
 22
0.0
 32
0.0
 13
1.0
 23
0.0
 33
0.0
 40
0.0
 40
0.0
 40
0.0
 40
0.0
 40
0.2499585615189164
 40
0.4997591034218145
 40
0.749599936308268
 40
0.874771178297553
 40
1.0
 40
1.0
 40
1.0
 40
1.0
 10
932.5069295404878
 20
762.2071080210927
 30
0.0
 10
932.4628772220557
 20
762.1844522416536
 30
0.0
 10
932.3748004343292
 20
762.13915500538
 30
0.0
 10
932.2648858635472
 20
762.1169765700075
 30
0.0
 10
932.1990539505066
 20
762.1361776454996
 30
0.0
 10
932.1616493438386
 20
762.17020052706
 30
0.0
 10
932.1486551539833
 20
762.1937060025057
 30
0.0
 10
932.142156565043
 20
762.2054614427808
 30
0.0
  0
SPLINE
  5
1B3
330
1F
100
AcDbEntity
  8
0
  6
Continuous
 62
     7
370
    15
100
AcDbSpline
210
0.0
220
0.0
230
1.0
 70
     8
 71
     3
 72
    11
 73
     7
 74
     0
 42
0.00000001
 43
0.00000001
 12
1.0
 22
0.0
 32
0.0
 13
1.0
 23
0.0
 33
0.0
 40
0.0
 40
0.0
 40
0.0
 40
0.0
 40
0.2499893189908689
 40
0.4997052091167203
 40
0.7496029450661155
 40
1.0
 40
1.0
 40
1.0
 40
1.0
 10
933.7518694041696
 20
763.8274453881505
 30
0.0
 10
933.7453039972463
 20
763.8371199304074
 30
0.0
 10
933.7321803643932
 20
763.8564584332726
 30
0.0
 10
933.6894765584921
 20
763.8583392890606
 30
0.0
 10
933.635997055872
 20
763.8423821443915
 30
0.0
 10
933.5949288297381
 20
763.8191898573336
 30
0.0
 10
933.5743742226091
 20
763.8075821402791
 30
0.0
  0
SPLINE
  5
1B4
330
1F
100
AcDbEntity
  8
0
  6
Continuous
 62
     7
370
    15
100
AcDbSpline
210
0.0
220
0.0
230
1.0
 70
     8
 71
     3
 72
     9
 73
     5
 74
     0
 42
0.00000001
 43
0.00000001
 12
1.0
 22
0.0
 32
0.0
 13
1.0
 23
0.0
 33
0.0
 40
0.0
 40
0.0
 40
0.0
 40
0.0
 40
0.498551495365719
 40
1.0
 40
1.0
 40
1.0
 40
1.0
 10
933.5743742226091
 20
763.8075821402791
 30
0.0
 10
933.4843007131391
 20
763.7411006739906
 30
0.0
 10
933.3036302903093
 20
763.6077514274103
 30
0.0
 10
933.1275277337319
 20
763.4314761285578
 30
0.0
 10
933.0392213700738
 20
763.3430831435445
 30
0.0
  0
SPLINE
  5
1B5
330
1F
100
AcDbEntity
  8
0
  6
Continuous
 62
     7
370
    15
100
AcDbSpline
210
0.0
220
0.0
230
1.0
 70
     8
 71
     3
 72
    13
 73
     9
 74
     0
 42
0.00000001
 43
0.00000001
 12
1.0
 22
0.0
 32
0.0
 13
1.0
 23
0.0
 33
0.0
 40
0.0
 40
0.0
 40
0.0
 40
0.0
 40
0.5001291592007555
 40
0.6252720312003142
 40
0.7502810533364698
 40
0.8748505049752066
 40
0.9374107326673036
 40
1.0
 40
1.0
 40
1.0
 40
1.0
 10
933.0392213700738
 20
763.3430831435445
 30
0.0
 10
932.909016557734
 20
763.2108058701858
 30
0.0
 10
932.7462317530773
 20
763.045430031019
 30
0.0
 10
932.5755152457242
 20
762.8259443975569
 30
0.0
 10
932.5076298702103
 20
762.7148723144145
 30
0.0
 10
932.4710900474171
 20
762.6280524316018
 30
0.0
 10
932.4648006473445
 20
762.5736432815797
 30
0.0
 10
932.470812524327
 20
762.5545934719429
 30
0.0
 10
932.4738191603151
 20
762.5450663569692
 30
0.0
  0
SPLINE
  5
1B6
330
1F
100
AcDbEntity
  8
0
  6
Continuous
 62
     7
370
    15
100
AcDbSpline
210
0.0
220
0.0
230
1.0
 70
     8
 71
     3
 72
    13
 73
     9
 74
     0
 42
0.00000001
 43
0.00000001
 12
1.0
 22
0.0
 32
0.0
 13
1.0
 23
0.0
 33
0.0
 40
0.0
 40
0.0
 40
0.0
 40
0.0
 40
0.1244495735344291
 40
0.1880883333069553
 40
0.2496139344632325
 40
0.361803472977126
 40
0.4997472117610863
 40
1.0
 40
1.0
 40
1.0
 40
1.0
 10
932.4738191603151
 20
762.5450663569692
 30
0.0
 10
932.4856978510409
 20
762.5310340543385
 30
0.0
 10
932.5036508506134
 20
762.5098261679689
 30
0.0
 10
932.5523209186196
 20
762.5141852386274
 30
0.0
 10
932.6061630729594
 20
762.5318210891339
 30
0.0
 10
932.689502624325
 20
762.5822576752803
 30
0.0
 10
932.8969148966921
 20
762.7442118264944
 30
0.0
 10
933.0703307260521
 20
762.9171143255963
 30
0.0
 10
933.2062633870569
 20
763.0526446107152
 30
0.0
  0
SPLINE
  5
1B7
330
1F
100
AcDbEntity
  8
0
  6
Continuous
 62
     7
370
    15
100
AcDbSpline
210
0.0
220
0.0
230
1.0
 70
     8
 71
     3
 72
    12
 73
     8
 74
     0
 42
0.00000001
 43
0.00000001
 12
1.0
 22
0.0
 32
0.0
 13
1.0
 23
0.0
 33
0.0
 40
0.0
 40
0.0
 40
0.0
 40
0.0
 40
0.5003904504049134
 40
0.6256116576153037
 40
0.7507068529613423
 40
0.8753565051279918
 40
0.9999999999999999
 40
0.9999999999999999
 40
0.9999999999999999
 40
0.9999999999999999
 10
933.2062633870569
 20
763.0526446107152
 30
0.0
 10
933.3340039817799
 20
763.1821233253163
 30
0.0
 10
933.4937112766428
 20
763.3440036993362
 30
0.0
 10
933.6585611097152
 20
763.5589496531962
 30
0.0
 10
933.7227902985173
 20
763.6656447483439
 30
0.0
 10
933.7648706405014
 20
763.7668555858646
 30
0.0
 10
933.7562030782535
 20
763.8072491199488
 30
0.0
 10
933.7518694041696
 20
763.8274453881505
 30
0.0
  0
SPLINE
  5
1B8
330
1F
100
AcDbEntity
  8
0
  6
Continuous
 62
     7
370
    15
100
AcDbSpline
210
0.0
220
0.0
230
1.0
 70
     8
 71
     3
 72
    12
 73
     8
 74
     0
 42
0.00000001
 43
0.00000001
 12
1.0
 22
0.0
 32
0.0
 13
1.0
 23
0.0
 33
0.0
 40
0.0
 40
0.0
 40
0.0
 40
0.0
 40
0.5004289979082355
 40
0.6256528679555379
 40
0.7507480359571359
 40
0.875382530078769
 40
0.9999999999999999
 40
0.9999999999999999
 40
0.9999999999999999
 40
0.9999999999999999
 10
933.1992896436182
 20
763.0588211420301
 30
0.0
 10
933.3270288131272
 20
763.188297332982
 30
0.0
 10
933.4867325435018
 20
763.3501727449576
 30
0.0
 10
933.651584901528
 20
763.5651101413199
 30
0.0
 10
933.7158204926677
 20
763.6717937774206
 30
0.0
 10
933.7579115076923
 20
763.7729910190093
 30
0.0
 10
933.7492489803257
 20
763.8133777694246
 30
0.0
 10
933.7449180124727
 20
763.8335697654012
 30
0.0
  0
SPLINE
  5
1B9
330
1F
100
AcDbEntity
  8
0
  6
Continuous
 62
     7
370
    15
100
AcDbSpline
210
0.0
220
0.0
230
1.0
 70
     8
 71
     3
 72
    13
 73
     9
 74
     0
 42
0.00000001
 43
0.00000001
 12
1.0
 22
0.0
 32
0.0
 13
1.0
 23
0.0
 33
0.0
 40
0.0
 40
0.0
 40
0.0
 40
0.0
 40
0.1244222175414997
 40
0.1880547160563662
 40
0.249570996799159
 40
0.3617565179883291
 40
0.4997084180298362
 40
1.0
 40
1.0
 40
1.0
 40
1.0
 10
932.4668677686182
 20
762.5511981848005
 30
0.0
 10
932.4787410764321
 20
762.5371712113027
 30
0.0
 10
932.4966866778989
 20
762.5159705080009
 30
0.0
 10
932.545353078807
 20
762.5203385191202
 30
0.0
 10
932.5992024877123
 20
762.5379887042948
 30
0.0
 10
932.6825301733026
 20
762.588419606358
 30
0.0
 10
932.8899460421194
 20
762.750393859628
 30
0.0
 10
933.0633588280797
 20
762.9232929726155
 30
0.0
 10
933.1992896436182
 20
763.0588211420301
 30
0.0
  0
SPLINE
  5
1BA
330
1F
100
AcDbEntity
  8
0
  6
Continuous
 62
     7
370
    15
100
AcDbSpline
210
0.0
220
0.0
230
1.0
 70
    11
 71
     3
 72
    23
 73
    19
 74
     0
 42
0.00000001
 43
0.00000001
 12
1.0
 22
0.0
 32
0.0
 13
1.0
 23
0.0
 33
0.0
 40
0.0
 40
0.0
 40
0.0
 40
0.0
 40
0.062341374522968
 40
0.1250301651312738
 40
0.1876129143199055
 40
0.2501172016377902
 40
0.3126804616230118
 40
0.3751828528351602
 40
0.4377104359863246
 40
0.5002594925164133
 40
0.5627584060442521
 40
0.6253439895197
 40
0.6878346095456974
 40
0.7504064147179675
 40
0.812930185066685
 40
0.8754961386506568
 40
0.9382242727488422
 40
1.0
 40
1.0
 40
1.0
 40
1.0
 10
931.564818525168
 20
760.070557177377
 30
0.0
 10
931.6588068030483
 20
760.215805011676
 30
0.0
 10
931.8473071367943
 20
760.5071101175763
 30
0.0
 10
931.9538499448992
 20
760.853994652406
 30
0.0
 10
931.8906167396043
 20
761.0629524354863
 30
0.0
 10
931.6622865248574
 20
761.1029962973039
 30
0.0
 10
931.3094777219386
 20
760.9684123806068
 30
0.0
 10
930.887744742477
 20
760.6710652654639
 30
0.0
 10
930.4656278620926
 20
760.257792941492
 30
0.0
 10
930.1086778024647
 20
759.7882074037357
 30
0.0
 10
929.8664378281092
 20
759.3376540285758
 30
0.0
 10
929.7733363088089
 20
758.9782538450065
 30
0.0
 10
929.8406033753898
 20
758.7686673968857
 30
0.0
 10
930.0548907775212
 20
758.7382571489701
 30
0.0
 10
930.3899142582709
 20
758.8933336999831
 30
0.0
 10
930.7949839090335
 20
759.2036454248475
 30
0.0
 10
931.219247090707
 20
759.6213903041149
 30
0.0
 10
931.4502169907679
 20
759.9216003836598
 30
0.0
 10
931.564818525168
 20
760.070557177377
 30
0.0
  0
SPLINE
  5
1BB
330
1F
100
AcDbEntity
  8
0
  6
Continuous
 62
     7
370
    15
100
AcDbSpline
210
0.0
220
0.0
230
1.0
 70
     8
 71
     3
 72
     9
 73
     5
 74
     0
 42
0.00000001
 43
0.00000001
 12
1.0
 22
0.0
 32
0.0
 13
1.0
 23
0.0
 33
0.0
 40
0.0
 40
0.0
 40
0.0
 40
0.0
 40
0.4997408606173194
 40
1.0
 40
1.0
 40
1.0
 40
1.0
 10
933.7449180124727
 20
763.8335697654012
 30
0.0
 10
933.7460750156725
 20
763.8325487716222
 30
0.0
 10
933.7483902219943
 20
763.8305057251966
 30
0.0
 10
933.750709276139
 20
763.8284658529068
 30
0.0
 10
933.7518694041696
 20
763.8274453881505
 30
0.0
  0
SPLINE
  5
1BC
330
1F
100
AcDbEntity
  8
0
  6
Continuous
 62
     7
370
    15
100
AcDbSpline
210
0.0
220
0.0
230
1.0
 70
     8
 71
     3
 72
     9
 73
     5
 74
     0
 42
0.00000001
 43
0.00000001
 12
1.0
 22
0.0
 32
0.0
 13
1.0
 23
0.0
 33
0.0
 40
0.0
 40
0.0
 40
0.0
 40
0.0
 40
0.4997699116128967
 40
1.0
 40
1.0
 40
1.0
 40
1.0
 10
933.1992896436182
 20
763.0588211420301
 30
0.0
 10
933.2004522013748
 20
763.0577933455781
 30
0.0
 10
933.2027783873449
 20
763.0557368063025
 30
0.0
 10
933.2051013641595
 20
763.0536756587417
 30
0.0
 10
933.2062633870569
 20
763.0526446107152
 30
0.0
  0
SPLINE
  5
1BD
330
1F
100
AcDbEntity
  8
0
  6
Continuous
 62
     7
370
    15
100
AcDbSpline
210
0.0
220
0.0
230
1.0
 70
     8
 71
     3
 72
     9
 73
     5
 74
     0
 42
0.00000001
 43
0.00000001
 12
1.0
 22
0.0
 32
0.0
 13
1.0
 23
0.0
 33
0.0
 40
0.0
 40
0.0
 40
0.0
 40
0.0
 40
0.5000305244207602
 40
1.0
 40
1.0
 40
1.0
 40
1.0
 10
932.4668677686182
 20
762.5511981848005
 30
0.0
 10
932.4680281612532
 20
762.5501781074151
 30
0.0
 10
932.4703488048505
 20
762.548138077186
 30
0.0
 10
932.4726624222415
 20
762.546090222035
 30
0.0
 10
932.4738191603151
 20
762.5450663569692
 30
0.0
  0
LWPOLYLINE
  5
1BE
330
1F
100
AcDbEntity
  8
0
  6
Continuous
 62
     7
370
    15
100
AcDbPolyline
 90
        9
 70
   128
 43
0.0
 10
936.4830957888
 20
812.2325189713
 10
938.1049828766
 20
808.7543644312
 10
939.7464798926
 20
805.2341588143
 10
941.4010899304
 20
801.6858347061
 10
943.0622713803
 20
798.1234140995
 10
944.7234528302
 20
794.5610083941
 10
946.3780703186
 20
791.012684286
 10
948.0195673345
 20
787.492478669
 10
949.6414544223
 20
784.0143241289
  0
SPLINE
  5
1BF
330
1F
100
AcDbEntity
  8
0
  6
Continuous
 62
     7
370
    15
100
AcDbSpline
210
0.0
220
0.0
230
1.0
 70
     8
 71
     3
 72
    12
 73
     8
 74
     0
 42
0.00000001
 43
0.00000001
 12
1.0
 22
0.0
 32
0.0
 13
1.0
 23
0.0
 33
0.0
 40
0.0
 40
0.0
 40
0.0
 40
0.0
 40
0.2499742642318598
 40
0.4998195270315553
 40
0.7496262125031505
 40
0.8747843130700109
 40
1.0
 40
1.0
 40
1.0
 40
1.0
 10
933.261084759089
 20
762.6214720609906
 30
0.0
 10
933.2803376006647
 20
762.6677455359635
 30
0.0
 10
933.3188333482166
 20
762.7602686060728
 30
0.0
 10
933.4164534199153
 20
762.9186835720066
 30
0.0
 10
933.5165655937199
 20
763.0516104978624
 30
0.0
 10
933.6049784754913
 20
763.1545858987575
 30
0.0
 10
933.651671989232
 20
763.2033669310581
 30
0.0
 10
933.6750241158929
 20
763.2277630570653
 30
0.0
  0
SPLINE
  5
1C0
330
1F
100
AcDbEntity
  8
0
  6
Continuous
 62
     7
370
    15
100
AcDbSpline
210
0.0
220
0.0
230
1.0
 70
     8
 71
     3
 72
    13
 73
     9
 74
     0
 42
0.00000001
 43
0.00000001
 12
1.0
 22
0.0
 32
0.0
 13
1.0
 23
0.0
 33
0.0
 40
0.0
 40
0.0
 40
0.0
 40
0.0
 40
0.2483236223036599
 40
0.3756384076707264
 40
0.4994515391622414
 40
0.6231525614652793
 40
0.7497966516043406
 40
1.0
 40
1.0
 40
1.0
 40
1.0
 10
933.6750241158929
 20
763.2277630570653
 30
0.0
 10
933.75633997527
 20
763.304316646165
 30
0.0
 10
933.8793462348088
 20
763.4201190335665
 30
0.0
 10
934.0367511253302
 20
763.5231881871211
 30
0.0
 10
934.144180697418
 20
763.5767305608655
 30
0.0
 10
934.2346542614655
 20
763.6003904322469
 30
0.0
 10
934.3259899186786
 20
763.5904786220253
 30
0.0
 10
934.3574091166597
 20
763.5420979303502
 30
0.0
 10
934.3782695172754
 20
763.5099761489156
 30
0.0
  0
SPLINE
  5
1C1
330
1F
100
AcDbEntity
  8
0
  6
Continuous
 62
     7
370
    15
100
AcDbSpline
210
0.0
220
0.0
230
1.0
 70
     8
 71
     3
 72
    13
 73
     9
 74
     0
 42
0.00000001
 43
0.00000001
 12
1.0
 22
0.0
 32
0.0
 13
1.0
 23
0.0
 33
0.0
 40
0.0
 40
0.0
 40
0.0
 40
0.0
 40
0.2503020682999572
 40
0.3754520854469126
 40
0.5005652952617367
 40
0.6239843792571842
 40
0.7509231002756236
 40
1.0
 40
1.0
 40
1.0
 40
1.0
 10
934.3782695172754
 20
763.5099761489156
 30
0.0
 10
934.3918043835711
 20
763.4706381565178
 30
0.0
 10
934.4121066280209
 20
763.4116313277555
 30
0.0
 10
934.3890912249099
 20
763.2905092403765
 30
0.0
 10
934.3407586466067
 20
763.1779591020753
 30
0.0
 10
934.2662570535041
 20
763.0514591092717
 30
0.0
 10
934.1406349098631
 20
762.8731618393449
 30
0.0
 10
934.021046253636
 20
762.7435966812435
 30
0.0
 10
933.9418294070688
 20
762.6577712896589
 30
0.0
  0
SPLINE
  5
1C2
330
1F
100
AcDbEntity
  8
0
  6
Continuous
 62
     7
370
    15
100
AcDbSpline
210
0.0
220
0.0
230
1.0
 70
     8
 71
     3
 72
    10
 73
     6
 74
     0
 42
0.00000001
 43
0.00000001
 12
1.0
 22
0.0
 32
0.0
 13
1.0
 23
0.0
 33
0.0
 40
0.0
 40
0.0
 40
0.0
 40
0.0
 40
0.2507503684057065
 40
0.5012642703274653
 40
1.0
 40
1.0
 40
1.0
 40
1.0
 10
933.9418294070688
 20
762.6577712896589
 30
0.0
 10
933.8948148165499
 20
762.6116316126719
 30
0.0
 10
933.800829971937
 20
762.5193957700486
 30
0.0
 10
933.6115271552369
 20
762.367362712861
 30
0.0
 10
933.4967272940919
 20
762.3154256290838
 30
0.0
 10
933.4203111170259
 20
762.2808538678411
 30
0.0
  0
SPLINE
  5
1C3
330
1F
100
AcDbEntity
  8
0
  6
Continuous
 62
     7
370
    15
100
AcDbSpline
210
0.0
220
0.0
230
1.0
 70
     8
 71
     3
 72
     9
 73
     5
 74
     0
 42
0.00000001
 43
0.00000001
 12
1.0
 22
0.0
 32
0.0
 13
1.0
 23
0.0
 33
0.0
 40
0.0
 40
0.0
 40
0.0
 40
0.0
 40
0.5006268993688725
 40
1.0
 40
1.0
 40
1.0
 40
1.0
 10
933.4203111170259
 20
762.2808538678411
 30
0.0
 10
933.3750197381329
 20
762.2053961301933
 30
0.0
 10
933.2845504106753
 20
762.0546696355864
 30
0.0
 10
933.1457948633023
 20
761.9027331724458
 30
0.0
 10
933.0765040753809
 20
761.8268601897481
 30
0.0
  0
SPLINE
  5
1C4
330
1F
100
AcDbEntity
  8
0
  6
Continuous
 62
     7
370
    15
100
AcDbSpline
210
0.0
220
0.0
230
1.0
 70
     8
 71
     3
 72
    13
 73
     9
 74
     0
 42
0.00000001
 43
0.00000001
 12
1.0
 22
0.0
 32
0.0
 13
1.0
 23
0.0
 33
0.0
 40
0.0
 40
0.0
 40
0.0
 40
0.0
 40
0.2492118312315913
 40
0.3744263831582827
 40
0.4996065797894838
 40
0.6248221659581673
 40
0.750124163486507
 40
1.0
 40
1.0
 40
1.0
 40
1.0
 10
933.0765040753809
 20
761.8268601897481
 30
0.0
 10
933.0050005973876
 20
761.7583169466252
 30
0.0
 10
932.8975707513966
 20
761.6553346825583
 30
0.0
 10
932.7622831231366
 20
761.5613726221986
 30
0.0
 10
932.6697464831253
 20
761.5103961252746
 30
0.0
 10
932.5927497835645
 20
761.4867119744592
 30
0.0
 10
932.5088442725746
 20
761.4831758573742
 30
0.0
 10
932.4794269425096
 20
761.5226309561223
 30
0.0
 10
932.4598344205347
 20
761.5489088299993
 30
0.0
  0
SPLINE
  5
1C5
330
1F
100
AcDbEntity
  8
0
  6
Continuous
 62
     7
370
    15
100
AcDbSpline
210
0.0
220
0.0
230
1.0
 70
     8
 71
     3
 72
    13
 73
     9
 74
     0
 42
0.00000001
 43
0.00000001
 12
1.0
 22
0.0
 32
0.0
 13
1.0
 23
0.0
 33
0.0
 40
0.0
 40
0.0
 40
0.0
 40
0.0
 40
0.2498191589600162
 40
0.3768085556770804
 40
0.5003770214645719
 40
0.6251619875838184
 40
0.7506171664412205
 40
1.0
 40
1.0
 40
1.0
 40
1.0
 10
932.4598344205347
 20
761.5489088299993
 30
0.0
 10
932.4501113015411
 20
761.5858846180912
 30
0.0
 10
932.4354456752541
 20
761.6416561344313
 30
0.0
 10
932.4673598068073
 20
761.7616260369726
 30
0.0
 10
932.5110549415878
 20
761.8647178489002
 30
0.0
 10
932.5753325292568
 20
761.9776566212868
 30
0.0
 10
932.68125938525
 20
762.1351058160449
 30
0.0
 10
932.7835655279235
 20
762.2479577374104
 30
0.0
 10
932.8516306518045
 20
762.3230390551809
 30
0.0
  0
SPLINE
  5
1C6
330
1F
100
AcDbEntity
  8
0
  6
Continuous
 62
     7
370
    15
100
AcDbSpline
210
0.0
220
0.0
230
1.0
 70
     8
 71
     3
 72
    10
 73
     6
 74
     0
 42
0.00000001
 43
0.00000001
 12
1.0
 22
0.0
 32
0.0
 13
1.0
 23
0.0
 33
0.0
 40
0.0
 40
0.0
 40
0.0
 40
0.0
 40
0.2502175270449348
 40
0.5001941211363542
 40
1.0
 40
1.0
 40
1.0
 40
1.0
 10
932.8516306518045
 20
762.3230390551809
 30
0.0
 10
932.88699773395
 20
762.35770530797
 30
0.0
 10
932.9576978434901
 20
762.4270044336216
 30
0.0
 10
933.1021581904879
 20
762.5400441606417
 30
0.0
 10
933.1975178787009
 20
762.5889028206975
 30
0.0
 10
933.261084759089
 20
762.6214720609906
 30
0.0
  0
SPLINE
  5
1C7
330
1F
100
AcDbEntity
  8
0
  6
Continuous
 62
     7
370
    15
100
AcDbSpline
210
0.0
220
0.0
230
1.0
 70
     8
 71
     3
 72
    14
 73
    10
 74
     0
 42
0.00000001
 43
0.00000001
 12
1.0
 22
0.0
 32
0.0
 13
1.0
 23
0.0
 33
0.0
 40
0.0
 40
0.0
 40
0.0
 40
0.0
 40
0.2492182245558689
 40
0.3736263378479441
 40
0.4994052597994989
 40
0.6229951931032911
 40
0.7495431626015675
 40
0.874702845475358
 40
1.0
 40
1.0
 40
1.0
 40
1.0
 10
933.204579555842
 20
762.30617839129
 30
0.0
 10
933.196428398774
 20
762.3160594104228
 30
0.0
 10
933.1842082372268
 20
762.330872969902
 30
0.0
 10
933.1473508917774
 20
762.3256351000817
 30
0.0
 10
933.1141617095165
 20
762.3126501369413
 30
0.0
 10
933.0760042223416
 20
762.2905663164976
 30
0.0
 10
933.0350151244177
 20
762.2602807977416
 30
0.0
 10
932.9928640264305
 20
762.2239109318348
 30
0.0
 10
932.9654259621126
 20
762.1966753578951
 30
0.0
 10
932.9516993998018
 20
762.1830500963453
 30
0.0
  0
SPLINE
  5
1C8
330
1F
100
AcDbEntity
  8
0
  6
Continuous
 62
     7
370
    15
100
AcDbSpline
210
0.0
220
0.0
230
1.0
 70
     8
 71
     3
 72
    14
 73
    10
 74
     0
 42
0.00000001
 43
0.00000001
 12
1.0
 22
0.0
 32
0.0
 13
1.0
 23
0.0
 33
0.0
 40
0.0
 40
0.0
 40
0.0
 40
0.0
 40
0.2491370245374558
 40
0.3745681463146953
 40
0.4993026914295971
 40
0.6234178446498638
 40
0.7495531303735972
 40
0.8746932319817364
 40
1.0
 40
1.0
 40
1.0
 40
1.0
 10
932.9516993998018
 20
762.1830500963453
 30
0.0
 10
932.9251394618692
 20
762.1543594452878
 30
0.0
 10
932.8852075941103
 20
762.111224130482
 30
0.0
 10
932.8430781101249
 20
762.0505451044254
 30
0.0
 10
932.8180507566262
 20
762.0071827633122
 30
0.0
 10
932.8005539312867
 20
761.9674542387786
 30
0.0
 10
932.7913415883208
 20
761.9333195167594
 30
0.0
 10
932.7903039836111
 20
761.9057417902275
 30
0.0
 10
932.7950470939825
 20
761.8926847665473
 30
0.0
 10
932.7974202273813
 20
761.8861519101384
 30
0.0
  0
SPLINE
  5
1C9
330
1F
100
AcDbEntity
  8
0
  6
Continuous
 62
     7
370
    15
100
AcDbSpline
210
0.0
220
0.0
230
1.0
 70
     8
 71
     3
 72
    14
 73
    10
 74
     0
 42
0.00000001
 43
0.00000001
 12
1.0
 22
0.0
 32
0.0
 13
1.0
 23
0.0
 33
0.0
 40
0.0
 40
0.0
 40
0.0
 40
0.0
 40
0.2493399365520645
 40
0.3718436489272897
 40
0.4995661447748099
 40
0.6250231225906625
 40
0.7496989193697573
 40
0.8747584685509459
 40
0.9999999999999999
 40
0.9999999999999999
 40
0.9999999999999999
 40
0.9999999999999999
 10
932.7974202273813
 20
761.8861519101384
 30
0.0
 10
932.805176199882
 20
761.8765684980226
 30
0.0
 10
932.8167427750386
 20
761.8622766401697
 30
0.0
 10
932.8519401701508
 20
761.867714893468
 30
0.0
 10
932.8837208093679
 20
761.8804946650845
 30
0.0
 10
932.9200199146239
 20
761.9013859902627
 30
0.0
 10
932.9591230066115
 20
761.930016338358
 30
0.0
 10
932.9995497033082
 20
761.9649388066373
 30
0.0
 10
933.0260357657078
 20
761.9913442274847
 30
0.0
 10
933.0392884252992
 20
762.0045565369848
 30
0.0
  0
SPLINE
  5
1CA
330
1F
100
AcDbEntity
  8
0
  6
Continuous
 62
     7
370
    15
100
AcDbSpline
210
0.0
220
0.0
230
1.0
 70
     8
 71
     3
 72
    13
 73
     9
 74
     0
 42
0.00000001
 43
0.00000001
 12
1.0
 22
0.0
 32
0.0
 13
1.0
 23
0.0
 33
0.0
 40
0.0
 40
0.0
 40
0.0
 40
0.0
 40
0.2494990543101022
 40
0.4987921347911293
 40
0.6260352172586484
 40
0.7493082299550209
 40
0.8745544369103285
 40
1.0
 40
1.0
 40
1.0
 40
1.0
 10
933.0392884252992
 20
762.0045565369848
 30
0.0
 10
933.0658154880806
 20
762.0332684121456
 30
0.0
 10
933.118847714239
 20
762.0906684593918
 30
0.0
 10
933.1687320340525
 20
762.1671616076908
 30
0.0
 10
933.1955639599722
 20
762.2211232728532
 30
0.0
 10
933.2076120446567
 20
762.2568568980452
 30
0.0
 10
933.210921080724
 20
762.2858581989929
 30
0.0
 10
933.2066945178242
 20
762.2994014038967
 30
0.0
 10
933.204579555842
 20
762.30617839129
 30
0.0
  0
SPLINE
  5
1CB
330
1F
100
AcDbEntity
  8
0
  6
Continuous
 62
     7
370
    15
100
AcDbSpline
210
0.0
220
0.0
230
1.0
 70
     8
 71
     3
 72
    13
 73
     9
 74
     0
 42
0.00000001
 43
0.00000001
 12
1.0
 22
0.0
 32
0.0
 13
1.0
 23
0.0
 33
0.0
 40
0.0
 40
0.0
 40
0.0
 40
0.0
 40
0.2501452346206665
 40
0.3790465199115482
 40
0.500640271909555
 40
0.6285422357862555
 40
0.7510094975351539
 40
0.9999999999999999
 40
0.9999999999999999
 40
0.9999999999999999
 40
0.9999999999999999
 10
934.0498628257242
 20
763.1713100078824
 30
0.0
 10
934.0398984323974
 20
763.1854364955936
 30
0.0
 10
934.024799329593
 20
763.2068424440765
 30
0.0
 10
933.9827625079054
 20
763.2098289932175
 30
0.0
 10
933.9424215828828
 20
763.1999821524339
 30
0.0
 10
933.8952492118705
 20
763.1776598900695
 30
0.0
 10
933.8240279630803
 20
763.1312081328842
 30
0.0
 10
933.7683776156431
 20
763.0781955226242
 30
0.0
 10
933.7310748337236
 20
763.0426608327153
 30
0.0
  0
SPLINE
  5
1CC
330
1F
100
AcDbEntity
  8
0
  6
Continuous
 62
     7
370
    15
100
AcDbSpline
210
0.0
220
0.0
230
1.0
 70
     8
 71
     3
 72
    12
 73
     8
 74
     0
 42
0.00000001
 43
0.00000001
 12
1.0
 22
0.0
 32
0.0
 13
1.0
 23
0.0
 33
0.0
 40
0.0
 40
0.0
 40
0.0
 40
0.0
 40
0.249463852581134
 40
0.3728772349894322
 40
0.5002022802683791
 40
0.7498896531585791
 40
1.0
 40
1.0
 40
1.0
 40
1.0
 10
933.7310748337236
 20
763.0426608327153
 30
0.0
 10
933.6953457534274
 20
763.0035697230446
 30
0.0
 10
933.6419409794221
 20
762.94513967502
 30
0.0
 10
933.5872805350256
 20
762.8631885159642
 30
0.0
 10
933.5448944930333
 20
762.786194009617
 30
0.0
 10
933.512820213218
 20
762.6987852473936
 30
0.0
 10
933.5225659987709
 20
762.6599995243262
 30
0.0
 10
933.5274430154291
 20
762.6405902508023
 30
0.0
  0
SPLINE
  5
1CD
330
1F
100
AcDbEntity
  8
0
  6
Continuous
 62
     7
370
    15
100
AcDbSpline
210
0.0
220
0.0
230
1.0
 70
     8
 71
     3
 72
    13
 73
     9
 74
     0
 42
0.00000001
 43
0.00000001
 12
1.0
 22
0.0
 32
0.0
 13
1.0
 23
0.0
 33
0.0
 40
0.0
 40
0.0
 40
0.0
 40
0.0
 40
0.2499689356630207
 40
0.499420202048288
 40
0.6246303119652313
 40
0.7497501683612835
 40
0.8748857770339069
 40
1.0
 40
1.0
 40
1.0
 40
1.0
 10
933.5274430154291
 20
762.6405902508023
 30
0.0
 10
933.5377744658778
 20
762.626895008697
 30
0.0
 10
933.5584159710182
 20
762.5995328864351
 30
0.0
 10
933.62217372387
 20
762.6118230541282
 30
0.0
 10
933.683666010696
 20
762.6410941419981
 30
0.0
 10
933.7352949266709
 20
762.6740127254056
 30
0.0
 10
933.7909289425995
 20
762.7179342150168
 30
0.0
 10
933.8278725439939
 20
762.7542695900785
 30
0.0
 10
933.8463427661386
 20
762.7724357250455
 30
0.0
  0
SPLINE
  5
1CE
330
1F
100
AcDbEntity
  8
0
  6
Continuous
 62
     7
370
    15
100
AcDbSpline
210
0.0
220
0.0
230
1.0
 70
     8
 71
     3
 72
    13
 73
     9
 74
     0
 42
0.00000001
 43
0.00000001
 12
1.0
 22
0.0
 32
0.0
 13
1.0
 23
0.0
 33
0.0
 40
0.0
 40
0.0
 40
0.0
 40
0.0
 40
0.2489229422728524
 40
0.3711105325324547
 40
0.4994596940348567
 40
0.6246948803006104
 40
0.7499504189973848
 40
1.0
 40
1.0
 40
1.0
 40
1.0
 10
933.8463427661386
 20
762.7724357250455
 30
0.0
 10
933.8825578474024
 20
762.8119095842547
 30
0.0
 10
933.9365496489245
 20
762.8707597841537
 30
0.0
 10
933.991292716127
 20
762.952252913482
 30
0.0
 10
934.0244821898107
 20
763.0102892281401
 30
0.0
 10
934.046889862941
 20
763.0629898881731
 30
0.0
 10
934.0631651088851
 20
763.1237373411143
 30
0.0
 10
934.0551817756369
 20
763.1522879626667
 30
0.0
 10
934.0498628257242
 20
763.1713100078824
 30
0.0
  0
SPLINE
  5
1CF
330
1F
100
AcDbEntity
  8
0
  6
Continuous
 62
     7
370
    15
100
AcDbSpline
210
0.0
220
0.0
230
1.0
 70
     8
 71
     3
 72
     9
 73
     5
 74
     0
 42
0.00000001
 43
0.00000001
 12
1.0
 22
0.0
 32
0.0
 13
1.0
 23
0.0
 33
0.0
 40
0.0
 40
0.0
 40
0.0
 40
0.0
 40
0.4997389999299911
 40
1.0
 40
1.0
 40
1.0
 40
1.0
 10
932.8516306518045
 20
762.3230390551809
 30
0.0
 10
932.8504637097514
 20
762.3240824084245
 30
0.0
 10
932.8481286067208
 20
762.3261702047421
 30
0.0
 10
932.8457897128499
 20
762.3282547341273
 30
0.0
 10
932.8446196554628
 20
762.3292975428823
 30
0.0
  0
SPLINE
  5
1D0
330
1F
100
AcDbEntity
  8
0
  6
Continuous
 62
     7
370
    15
100
AcDbSpline
210
0.0
220
0.0
230
1.0
 70
    24
 71
     3
 72
     9
 73
     5
 74
     0
 42
0.00000001
 43
0.00000001
 12
1.0
 22
0.0
 32
0.0
 13
1.0
 23
0.0
 33
0.0
 40
0.0
 40
0.0
 40
0.0
 40
0.0
 40
0.5001190702265412
 40
1.0
 40
1.0
 40
1.0
 40
1.0
 10
932.4598344205347
 20
761.5489088299993
 30
0.0
 10
932.4586598522666
 20
761.5499642031789
 30
0.0
 10
932.4563112750218
 20
761.5520744470034
 30
0.0
 10
932.4539610193036
 20
761.5541861989701
 30
0.0
 10
932.45278617129
 20
761.5552418235067
 30
0.0
  0
SPLINE
  5
1D1
330
1F
100
AcDbEntity
  8
0
  6
Continuous
 62
     7
370
    15
100
AcDbSpline
210
0.0
220
0.0
230
1.0
 70
     8
 71
     3
 72
     9
 73
     5
 74
     0
 42
0.00000001
 43
0.00000001
 12
1.0
 22
0.0
 32
0.0
 13
1.0
 23
0.0
 33
0.0
 40
0.0
 40
0.0
 40
0.0
 40
0.0
 40
0.4997381593471784
 40
1.0
 40
1.0
 40
1.0
 40
1.0
 10
933.261084759089
 20
762.6214720609906
 30
0.0
 10
933.2599153318772
 20
762.6225178992859
 30
0.0
 10
933.2575752519973
 20
762.6246106718222
 30
0.0
 10
933.2552314008668
 20
762.626700159101
 30
0.0
 10
933.2540588615861
 20
762.6277454498533
 30
0.0
  0
SPLINE
  5
1D2
330
1F
100
AcDbEntity
  8
0
  6
Continuous
 62
     7
370
    15
100
AcDbSpline
210
0.0
220
0.0
230
1.0
 70
     8
 71
     3
 72
     9
 73
     5
 74
     0
 42
0.00000001
 43
0.00000001
 12
1.0
 22
0.0
 32
0.0
 13
1.0
 23
0.0
 33
0.0
 40
0.0
 40
0.0
 40
0.0
 40
0.0
 40
0.4996384126933958
 40
1.0
 40
1.0
 40
1.0
 40
1.0
 10
933.6750241158929
 20
763.2277630570653
 30
0.0
 10
933.6738564368105
 20
763.2288009265856
 30
0.0
 10
933.6715193885518
 20
763.2308781678342
 30
0.0
 10
933.6691874050823
 20
763.2329583498497
 30
0.0
 10
933.6680205701318
 20
763.2339991930249
 30
0.0
  0
LWPOLYLINE
  5
1D3
330
1F
100
AcDbEntity
  8
0
  6
Continuous
 62
     7
370
    15
100
AcDbPolyline
 90
        5
 70
   128
 43
0.0
 10
949.6414544223
 20
784.0143241289
 10
950.2386259078
 20
782.7336736325
 10
950.6750064133
 20
781.7978658083
 10
950.9408058761
 20
781.2278516892
 10
951.0300712822
 20
781.0364239219
  0
LWPOLYLINE
  5
1D4
330
1F
100
AcDbEntity
  8
0
  6
Continuous
 62
     7
370
    15
100
AcDbPolyline
 90
        9
 70
   128
 43
0.0
 10
935.1197363971
 20
815.1562460068
 10
935.1776348589
 20
815.0320746306
 10
935.2688001631
 20
814.8365862969
 10
935.3928299783
 20
814.5705856684
 10
935.549217665
 20
814.2352201346
 10
935.7372926711
 20
813.8318904045
 10
935.9562726854
 20
813.3622952107
 10
936.2052189349
 20
812.8284164074
 10
936.4830957888
 20
812.2325189713
  0
SPLINE
  5
1D5
330
1F
100
AcDbEntity
  8
0
  6
Continuous
 62
     7
370
    15
100
AcDbSpline
210
0.0
220
0.0
230
1.0
 70
     8
 71
     3
 72
    11
 73
     7
 74
     0
 42
0.00000001
 43
0.00000001
 12
1.0
 22
0.0
 32
0.0
 13
1.0
 23
0.0
 33
0.0
 40
0.0
 40
0.0
 40
0.0
 40
0.0
 40
0.2933133217269172
 40
0.5865995013972621
 40
0.8804947108831191
 40
1.0
 40
1.0
 40
1.0
 40
1.0
 10
934.1987775801149
 20
815.7360501888517
 30
0.0
 10
934.3114800967094
 20
815.7263794601553
 30
0.0
 10
934.5368747008525
 20
815.7070388976533
 30
0.0
 10
934.8376213301219
 20
815.5378236156084
 30
0.0
 10
935.0260855438701
 20
815.3372362583685
 30
0.0
 10
935.0987349883316
 20
815.1968334667959
 30
0.0
 10
935.11973639712
 20
815.156246006799
 30
0.0
  0
SPLINE
  5
1D6
330
1F
100
AcDbEntity
  8
0
  6
Continuous
 62
     7
370
    15
100
AcDbSpline
210
0.0
220
0.0
230
1.0
 70
     8
 71
     3
 72
    13
 73
     9
 74
     0
 42
0.00000001
 43
0.00000001
 12
1.0
 22
0.0
 32
0.0
 13
1.0
 23
0.0
 33
0.0
 40
0.0
 40
0.0
 40
0.0
 40
0.0
 40
0.2495317120559003
 40
0.4988416698118054
 40
0.6260817399383075
 40
0.7493404598240303
 40
0.8745818462266747
 40
0.9999999999999999
 40
0.9999999999999999
 40
0.9999999999999999
 40
0.9999999999999999
 10
933.0322252748933
 20
762.0109118822339
 30
0.0
 10
933.0587510145001
 20
762.0396244295913
 30
0.0
 10
933.1117789207703
 20
762.0970240079868
 30
0.0
 10
933.1616775356505
 20
762.1735042600395
 30
0.0
 10
933.1885044844287
 20
762.2274712307686
 30
0.0
 10
933.2005669711864
 20
762.2631991843803
 30
0.0
 10
933.2038722104572
 20
762.2921864371735
 30
0.0
 10
933.1996459346865
 20
762.3057332178188
 30
0.0
 10
933.1975313065973
 20
762.3125113847974
 30
0.0
  0
SPLINE
  5
1D7
330
1F
100
AcDbEntity
  8
0
  6
Continuous
 62
     7
370
    15
100
AcDbSpline
210
0.0
220
0.0
230
1.0
 70
     8
 71
     3
 72
    14
 73
    10
 74
     0
 42
0.00000001
 43
0.00000001
 12
1.0
 22
0.0
 32
0.0
 13
1.0
 23
0.0
 33
0.0
 40
0.0
 40
0.0
 40
0.0
 40
0.0
 40
0.2493088012123394
 40
0.3717961939964746
 40
0.4995264226526319
 40
0.6249826371387355
 40
0.7496617341047025
 40
0.8747521164001553
 40
1.0
 40
1.0
 40
1.0
 40
1.0
 10
932.7903719781366
 20
761.8924849036458
 30
0.0
 10
932.7981270898922
 20
761.8829085679008
 30
0.0
 10
932.809692349605
 20
761.8686273023978
 30
0.0
 10
932.8448750158356
 20
761.8740610049235
 30
0.0
 10
932.8766695131412
 20
761.8868519208182
 30
0.0
 10
932.9129533769212
 20
761.9077412864248
 30
0.0
 10
932.95206662656
 20
761.9363735106513
 30
0.0
 10
932.9924810159282
 20
761.9713012541202
 30
0.0
 10
933.018971633013
 20
761.99770280265
 30
0.0
 10
933.0322252748933
 20
762.0109118822339
 30
0.0
  0
SPLINE
  5
1D8
330
1F
100
AcDbEntity
  8
0
  6
Continuous
 62
     7
370
    15
100
AcDbSpline
210
0.0
220
0.0
230
1.0
 70
     8
 71
     3
 72
    13
 73
     9
 74
     0
 42
0.00000001
 43
0.00000001
 12
1.0
 22
0.0
 32
0.0
 13
1.0
 23
0.0
 33
0.0
 40
0.0
 40
0.0
 40
0.0
 40
0.0
 40
0.2489691632461384
 40
0.3711626182084651
 40
0.4995191403702006
 40
0.624736818240835
 40
0.7499751423706795
 40
1.0
 40
1.0
 40
1.0
 40
1.0
 10
933.8392721651521
 20
762.7788059714559
 30
0.0
 10
933.875489020646
 20
762.8182800280097
 30
0.0
 10
933.9294810200289
 20
762.8771278547476
 30
0.0
 10
933.9842311752183
 20
762.9586140739121
 30
0.0
 10
934.0174119764552
 20
763.0166479327576
 30
0.0
 10
934.0398401563863
 20
763.06934542291
 30
0.0
 10
934.0560930571557
 20
763.1300840619298
 30
0.0
 10
934.0481240499246
 20
763.1586262981771
 30
0.0
 10
934.0428145764795
 20
763.1776430013898
 30
0.0
  0
SPLINE
  5
1D9
330
1F
100
AcDbEntity
  8
0
  6
Continuous
 62
     7
370
    15
100
AcDbSpline
210
0.0
220
0.0
230
1.0
 70
     8
 71
     3
 72
    13
 73
     9
 74
     0
 42
0.00000001
 43
0.00000001
 12
1.0
 22
0.0
 32
0.0
 13
1.0
 23
0.0
 33
0.0
 40
0.0
 40
0.0
 40
0.0
 40
0.0
 40
0.2499273176012985
 40
0.4993671774963276
 40
0.6245850640812599
 40
0.749712361085967
 40
0.8748633798199031
 40
0.9999999999999999
 40
0.9999999999999999
 40
0.9999999999999999
 40
0.9999999999999999
 10
933.5203947661844
 20
762.6469157937291
 30
0.0
 10
933.5307244652809
 20
762.633225710357
 30
0.0
 10
933.5513637164509
 20
762.6058722447218
 30
0.0
 10
933.6151144116136
 20
762.6181763956301
 30
0.0
 10
933.6766018743117
 20
762.6474594613687
 30
0.0
 10
933.7282363495688
 20
762.6803736080818
 30
0.0
 10
933.783857440232
 20
762.7243086388404
 30
0.0
 10
933.8208012986146
 20
762.7606408906249
 30
0.0
 10
933.8392721651521
 20
762.7788059714559
 30
0.0
  0
SPLINE
  5
1DA
330
1F
100
AcDbEntity
  8
0
  6
Continuous
 62
     7
370
    15
100
AcDbSpline
210
0.0
220
0.0
230
1.0
 70
    24
 71
     3
 72
     9
 73
     5
 74
     0
 42
0.00000001
 43
0.00000001
 12
1.0
 22
0.0
 32
0.0
 13
1.0
 23
0.0
 33
0.0
 40
0.0
 40
0.0
 40
0.0
 40
0.0
 40
0.4998809297734588
 40
1.0
 40
1.0
 40
1.0
 40
1.0
 10
933.1975313065973
 20
762.3125113847974
 30
0.0
 10
933.1987061546109
 20
762.3114557602609
 30
0.0
 10
933.2010564103291
 20
762.3093440082941
 30
0.0
 10
933.2034049875739
 20
762.3072337644695
 30
0.0
 10
933.204579555842
 20
762.30617839129
 30
0.0
  0
SPLINE
  5
1DB
330
1F
100
AcDbEntity
  8
0
  6
Continuous
 62
     7
370
    15
100
AcDbSpline
210
0.0
220
0.0
230
1.0
 70
    24
 71
     3
 72
     9
 73
     5
 74
     0
 42
0.00000001
 43
0.00000001
 12
1.0
 22
0.0
 32
0.0
 13
1.0
 23
0.0
 33
0.0
 40
0.0
 40
0.0
 40
0.0
 40
0.0
 40
0.5001190702265412
 40
1.0
 40
1.0
 40
1.0
 40
1.0
 10
934.0428145764795
 20
763.1776430013898
 30
0.0
 10
934.0439891447476
 20
763.1765876282103
 30
0.0
 10
934.0463377219924
 20
763.1744773843856
 30
0.0
 10
934.0486879777105
 20
763.172365632419
 30
0.0
 10
934.0498628257242
 20
763.1713100078824
 30
0.0
  0
SPLINE
  5
1DC
330
1F
100
AcDbEntity
  8
0
  6
Continuous
 62
     7
370
    15
100
AcDbSpline
210
0.0
220
0.0
230
1.0
 70
     8
 71
     3
 72
     9
 73
     5
 74
     0
 42
0.00000001
 43
0.00000001
 12
1.0
 22
0.0
 32
0.0
 13
1.0
 23
0.0
 33
0.0
 40
0.0
 40
0.0
 40
0.0
 40
0.0
 40
0.499878902606156
 40
1.0
 40
1.0
 40
1.0
 40
1.0
 10
933.0322252748933
 20
762.0109118822339
 30
0.0
 10
933.0334026091135
 20
762.009854392163
 30
0.0
 10
933.0357578479804
 20
762.00773889966
 30
0.0
 10
933.0381113761889
 20
762.0056174958074
 30
0.0
 10
933.0392884252992
 20
762.0045565369848
 30
0.0
  0
SPLINE
  5
1DD
330
1F
100
AcDbEntity
  8
0
  6
Continuous
 62
     7
370
    15
100
AcDbSpline
210
0.0
220
0.0
230
1.0
 70
     8
 71
     3
 72
     9
 73
     5
 74
     0
 42
0.00000001
 43
0.00000001
 12
1.0
 22
0.0
 32
0.0
 13
1.0
 23
0.0
 33
0.0
 40
0.0
 40
0.0
 40
0.0
 40
0.0
 40
0.5003859178704728
 40
0.9999999999999999
 40
0.9999999999999999
 40
0.9999999999999999
 40
0.9999999999999999
 10
933.8392721651521
 20
762.7788059714559
 30
0.0
 10
933.8404520067731
 20
762.7777428104814
 30
0.0
 10
933.8428098701318
 20
762.7756181284382
 30
0.0
 10
933.8451657402513
 20
762.773495980193
 30
0.0
 10
933.8463427661386
 20
762.7724357250455
 30
0.0
  0
LINE
  5
1DE
330
1F
100
AcDbEntity
  8
0
  6
Continuous
 62
     7
370
    15
100
AcDbLine
 10
934.5458777784
 20
763.0058996681
 30
0.0
 11
934.5387624739
 21
763.0123742226
 31
0.0
  0
LINE
  5
1DF
330
1F
100
AcDbEntity
  8
0
  6
Continuous
 62
     7
370
    15
100
AcDbLine
 10
932.7310877083
 20
761.1280925873
 30
0.0
 11
934.5458777784
 21
763.0058996681
 31
0.0
  0
LINE
  5
1E0
330
1F
100
AcDbEntity
  8
0
  6
Continuous
 62
     7
370
    15
100
AcDbLine
 10
932.7310877083
 20
761.1280925873
 30
0.0
 11
932.7239724039
 21
761.1345671418
 31
0.0
  0
LINE
  5
1E1
330
1F
100
AcDbEntity
  8
0
  6
Continuous
 62
     7
370
    15
100
AcDbLine
 10
932.8199582337
 20
760.9364636544
 30
0.0
 11
932.7310877083
 21
761.1280925873
 31
0.0
  0
LINE
  5
1E2
330
1F
100
AcDbEntity
  8
0
  6
Continuous
 62
     7
370
    15
100
AcDbLine
 10
934.5458777784
 20
763.0058996681
 30
0.0
 11
934.6062125801
 21
762.877444208
 31
0.0
  0
LINE
  5
1E3
330
1F
100
AcDbEntity
  8
0
  6
Continuous
 62
     7
370
    15
100
AcDbLine
 10
934.6062125801
 20
762.877444208
 30
0.0
 11
933.1155898212
 21
761.3351293209
 31
0.0
  0
LINE
  5
1E4
330
1F
100
AcDbEntity
  8
0
  6
Continuous
 62
     7
370
    15
100
AcDbLine
 10
933.1155898212
 20
761.3351293209
 30
0.0
 11
933.1748666404
 21
761.2003781203
 31
0.0
  0
LINE
  5
1E5
330
1F
100
AcDbEntity
  8
0
  6
Continuous
 62
     7
370
    15
100
AcDbLine
 10
933.1748666404
 20
761.2003781203
 30
0.0
 11
932.8199582337
 21
760.9364636544
 31
0.0
  0
LINE
  5
1E6
330
1F
100
AcDbEntity
  8
0
  6
Continuous
 62
     7
370
    15
100
AcDbLine
 10
932.8199582337
 20
760.9364636544
 30
0.0
 11
932.8128205775
 21
760.9429978135
 31
0.0
  0
LWPOLYLINE
  5
1E7
330
1F
100
AcDbEntity
  8
0
  6
Continuous
 62
     7
370
    15
100
AcDbPolyline
 90
       22
 70
   128
 43
0.0
 10
902.2316331206
 20
807.6003589037
 10
902.7963014482
 20
806.3894160393
 10
903.4938471554
 20
804.8935331705
 10
904.315322095
 20
803.1318731907
 10
905.2501836954
 20
801.1270560625
 10
906.2864439724
 20
798.904786289
 10
907.4108036397
 20
796.4935995939
 10
908.6088420986
 20
793.9243860844
 10
909.8651888011
 20
791.2301369313
 10
911.1637281416
 20
788.4454153779
 10
912.4878080724
 20
785.6059246066
 10
913.8204263686
 20
782.7481054071
 10
915.1445062993
 20
779.9086220864
 10
916.4430456398
 20
777.1238930825
 10
917.6993923424
 20
774.4296439293
 10
918.8974308012
 20
771.8604378703
 10
920.0217904685
 20
769.4492362741
 10
921.0580470203
 20
767.2269739512
 10
921.9929086207
 20
765.222156823
 10
922.8143872856
 20
763.4605042938
 10
923.5119329928
 20
761.9646139744
 10
924.0765975951
 20
760.75367111
  0
SPLINE
  5
1E8
330
1F
100
AcDbEntity
  8
0
  6
Continuous
 62
     7
370
    15
100
AcDbSpline
210
0.0
220
0.0
230
1.0
 70
     8
 71
     3
 72
    11
 73
     7
 74
     0
 42
0.00000001
 43
0.00000001
 12
1.0
 22
0.0
 32
0.0
 13
1.0
 23
0.0
 33
0.0
 40
0.0
 40
0.0
 40
0.0
 40
0.0
 40
0.149950898014936
 40
0.4331754926555062
 40
0.7165936944345028
 40
1.0
 40
1.0
 40
1.0
 40
1.0
 10
925.6437676189867
 20
757.3928706649068
 30
0.0
 10
925.5436467243277
 20
757.6075853227115
 30
0.0
 10
925.2544192609167
 20
758.2278492151339
 30
0.0
 10
924.798069651896
 20
759.2064674334822
 30
0.0
 10
924.3403079316839
 20
760.1881459670603
 30
0.0
 10
924.1644998106843
 20
760.5651653665726
 30
0.0
 10
924.0765975950685
 20
760.7536711099866
 30
0.0
  0
SPLINE
  5
1E9
330
1F
100
AcDbEntity
  8
0
  6
Continuous
 62
     7
370
    15
100
AcDbSpline
210
0.0
220
0.0
230
1.0
 70
     8
 71
     3
 72
    11
 73
     7
 74
     0
 42
0.00000001
 43
0.00000001
 12
1.0
 22
0.0
 32
0.0
 13
1.0
 23
0.0
 33
0.0
 40
0.0
 40
0.0
 40
0.0
 40
0.0
 40
0.1499501995178658
 40
0.4331738770015294
 40
0.7165910473188588
 40
1.0
 40
1.0
 40
1.0
 40
1.0
 10
902.2316331206289
 20
807.6003589037183
 30
0.0
 10
902.1894752838678
 20
807.6907682178523
 30
0.0
 10
902.0676903602428
 20
807.9519412822857
 30
0.0
 10
901.7377554819608
 20
808.6594844718511
 30
0.0
 10
901.2344225111895
 20
809.7388787460807
 30
0.0
 10
900.8544477319589
 20
810.5537413861387
 30
0.0
 10
900.6644630967107
 20
810.9611667993787
 30
0.0
  0
LINE
  5
1EA
330
1F
100
AcDbEntity
  8
0
  6
Continuous
 62
     7
370
    15
100
AcDbLine
 10
887.5402169465
 20
827.3989357355
 30
0.0
 11
887.9558922885
 21
827.5668718222
 31
0.0
  0
SPLINE
  5
1EB
330
1F
100
AcDbEntity
  8
0
  6
Continuous
 62
     7
370
    15
100
AcDbSpline
210
0.0
220
0.0
230
1.0
 70
     8
 71
     3
 72
    13
 73
     9
 74
     0
 42
0.00000001
 43
0.00000001
 12
1.0
 22
0.0
 32
0.0
 13
1.0
 23
0.0
 33
0.0
 40
0.0
 40
0.0
 40
0.0
 40
0.0
 40
0.0000108224333929
 40
0.1167859084135228
 40
0.3444844133638412
 40
0.6454743903344016
 40
0.9411600805027419
 40
0.9999999999999999
 40
0.9999999999999999
 40
0.9999999999999999
 40
0.9999999999999999
 10
887.9558922885385
 20
827.5668718221906
 30
0.0
 10
887.9559109149153
 20
827.5668817564656
 30
0.0
 10
888.1569099188669
 20
827.6740834636562
 30
0.0
 10
888.8267903528834
 20
827.8176045243342
 30
0.0
 10
890.0973626719436
 20
827.8578775411515
 30
0.0
 10
891.6413253418062
 20
827.3457314234439
 30
0.0
 10
892.7648359999245
 20
826.6254183974357
 30
0.0
 10
893.1432828388184
 20
826.044562238219
 30
0.0
 10
893.2060929177728
 20
825.9481586817029
 30
0.0
  0
SPLINE
  5
1EC
330
1F
100
AcDbEntity
  8
0
  6
Continuous
 62
     7
370
    15
100
AcDbSpline
210
0.0
220
0.0
230
1.0
 70
     8
 71
     3
 72
     9
 73
     5
 74
     0
 42
0.00000001
 43
0.00000001
 12
1.0
 22
0.0
 32
0.0
 13
1.0
 23
0.0
 33
0.0
 40
0.0
 40
0.0
 40
0.0
 40
0.0
 40
0.4279906950397365
 40
1.0
 40
1.0
 40
1.0
 40
1.0
 10
894.1534938453165
 20
824.566880643678
 30
0.0
 10
894.3078737149818
 20
824.3558885809887
 30
0.0
 10
894.6685821870456
 20
823.862905754178
 30
0.0
 10
894.9163765710153
 20
823.3038117618312
 30
0.0
 10
895.0581172643629
 20
822.9840047958616
 30
0.0
  0
SPLINE
  5
1ED
330
1F
100
AcDbEntity
  8
0
  6
Continuous
 62
     7
370
    15
100
AcDbSpline
210
0.0
220
0.0
230
1.0
 70
     8
 71
     3
 72
    15
 73
    11
 74
     0
 42
0.00000001
 43
0.00000001
 12
1.0
 22
0.0
 32
0.0
 13
1.0
 23
0.0
 33
0.0
 40
0.0
 40
0.0
 40
0.0
 40
0.0
 40
0.0125240954026813
 40
0.2274807492925441
 40
0.4424415143985296
 40
0.4999988663123978
 40
0.7148764552023168
 40
0.9297495556536691
 40
0.9874748652510853
 40
1.0
 40
1.0
 40
1.0
 40
1.0
 10
888.3843006728616
 20
825.5888022783521
 30
0.0
 10
888.3790978261004
 20
825.6007576264836
 30
0.0
 10
888.2845961921159
 20
825.817907964578
 30
0.0
 10
888.0981302861202
 20
826.2409313488441
 30
0.0
 10
887.9133971162614
 20
826.6486594903979
 30
0.0
 10
887.7557885252392
 20
826.9886052218283
 30
0.0
 10
887.6259716198037
 20
827.2594898916296
 30
0.0
 10
887.5575285676393
 20
827.3842207963122
 30
0.0
 10
887.5425230276514
 20
827.3992818129799
 30
0.0
 10
887.5405722128837
 20
827.3989881020269
 30
0.0
 10
887.5402243970361
 20
827.3989357355359
 30
0.0
  0
SPLINE
  5
1EE
330
1F
100
AcDbEntity
  8
0
  6
Continuous
 62
     7
370
    15
100
AcDbSpline
210
0.0
220
0.0
230
1.0
 70
     8
 71
     3
 72
     9
 73
     5
 74
     0
 42
0.00000001
 43
0.00000001
 12
1.0
 22
0.0
 32
0.0
 13
1.0
 23
0.0
 33
0.0
 40
0.0
 40
0.0
 40
0.0
 40
0.0
 40
0.0000220740465083
 40
1.0
 40
1.0
 40
1.0
 40
1.0
 10
937.589387798163
 20
731.7754052880529
 30
0.0
 10
937.5893977323018
 20
731.7753879033795
 30
0.0
 10
938.0394347797728
 20
730.9878262161656
 30
0.0
 10
938.2970254901684
 20
730.1094678494966
 30
0.0
 10
938.5546105144945
 20
729.2311288717511
 30
0.0
  0
LINE
  5
1EF
330
1F
100
AcDbEntity
  8
0
  6
Continuous
 62
     7
370
    15
100
AcDbLine
 10
887.5402169465
 20
827.3989357355
 30
0.0
 11
887.491665238
 21
827.3793109062
 31
0.0
  0
LINE
  5
1F0
330
1F
100
AcDbEntity
  8
0
  6
Continuous
 62
     7
370
    15
100
AcDbLine
 10
895.0581172644
 20
822.9840047959
 30
0.0
 11
900.6644630967
 21
810.9611667994
 31
0.0
  0
LINE
  5
1F1
330
1F
100
AcDbEntity
  8
0
  6
Continuous
 62
     7
370
    15
100
AcDbLine
 10
925.643767619
 20
757.3928706649
 30
0.0
 11
937.5893877982
 21
731.7754052881
 31
0.0
  0
SPLINE
  5
1F2
330
1F
100
AcDbEntity
  8
0
  6
Continuous
 62
     7
370
    15
100
AcDbSpline
210
0.0
220
0.0
230
1.0
 70
     8
 71
     3
 72
    20
 73
    16
 74
     0
 42
0.00000001
 43
0.00000001
 12
1.0
 22
0.0
 32
0.0
 13
1.0
 23
0.0
 33
0.0
 40
0.0
 40
0.0
 40
0.0
 40
0.0
 40
0.2070576698088082
 40
0.4203772112479925
 40
0.701116143662009
 40
0.8834528233472132
 40
0.9282284782861661
 40
0.9524791440694902
 40
0.9675017624700553
 40
0.9773824544975286
 40
0.9840941000909695
 40
0.9887394757242112
 40
0.9919938261814639
 40
0.997733846121783
 40
1.0
 40
1.0
 40
1.0
 40
1.0
 10
938.5546105144945
 20
729.2311288717511
 30
0.0
 10
938.6594770692038
 20
728.7420137183241
 30
0.0
 10
938.8723815699768
 20
727.7489915116768
 30
0.0
 10
938.6739461007946
 20
726.0402400754589
 30
0.0
 10
938.0398597177158
 20
724.7434218928071
 30
0.0
 10
937.3691111663958
 20
723.9757341108665
 30
0.0
 10
936.9587539646116
 20
723.654206927764
 30
0.0
 10
936.8132745941574
 20
723.5541153433829
 30
0.0
 10
936.7253813556719
 20
723.4982409383277
 30
0.0
 10
936.667707137961
 20
723.4634650761702
 30
0.0
 10
936.6284481024371
 20
723.4406579459638
 30
0.0
 10
936.6012132023027
 20
723.425218672437
 30
0.0
 10
936.5756237971348
 20
723.4109866894934
 30
0.0
 10
936.5543696163854
 20
723.3993906822251
 30
0.0
 10
936.5391542447109
 20
723.3912734717059
 30
0.0
 10
936.5348475216356
 20
723.3889758888009
 30
0.0
  0
SPLINE
  5
1F3
330
1F
100
AcDbEntity
  8
0
  6
Continuous
 62
     7
370
    15
100
AcDbSpline
210
0.0
220
0.0
230
1.0
 70
     8
 71
     3
 72
    10
 73
     6
 74
     0
 42
0.00000001
 43
0.00000001
 12
1.0
 22
0.0
 32
0.0
 13
1.0
 23
0.0
 33
0.0
 40
0.0
 40
0.0
 40
0.0
 40
0.0
 40
0.4527369108628248
 40
0.9055962349727159
 40
1.0
 40
1.0
 40
1.0
 40
1.0
 10
938.6766957281557
 20
726.434206992698
 30
0.0
 10
938.6843175046043
 20
726.4867066647937
 30
0.0
 10
938.6995631183152
 20
726.5917202041063
 30
0.0
 10
938.8229227492233
 20
727.0743816746848
 30
0.0
 10
938.7809056085407
 20
727.5508318829695
 30
0.0
 10
938.773657584044
 20
727.6330203119043
 30
0.0
  0
SPLINE
  5
1F4
330
1F
100
AcDbEntity
  8
0
  6
Continuous
 62
     7
370
    15
100
AcDbSpline
210
0.0
220
0.0
230
1.0
 70
     8
 71
     3
 72
    12
 73
     8
 74
     0
 42
0.00000001
 43
0.00000001
 12
1.0
 22
0.0
 32
0.0
 13
1.0
 23
0.0
 33
0.0
 40
0.0
 40
0.0
 40
0.0
 40
0.0
 40
0.4616903461987749
 40
0.7307716670188014
 40
0.9175872356010775
 40
0.9719397305716141
 40
1.0
 40
1.0
 40
1.0
 40
1.0
 10
938.5335626243082
 20
729.3065138462308
 30
0.0
 10
938.5035489001485
 20
729.4150736934737
 30
0.0
 10
938.4560426453216
 20
729.5869041447583
 30
0.0
 10
938.3844179335026
 20
729.8110062089482
 30
0.0
 10
938.34293110166
 20
729.9353732508116
 30
0.0
 10
938.320440458241
 20
730.0010433195604
 30
0.0
 10
938.3134970978164
 20
730.0211294502825
 30
0.0
 10
938.3111329911676
 20
730.0279684665921
 30
0.0
  0
LINE
  5
1F5
330
1F
100
AcDbEntity
  8
0
  6
Continuous
 62
     7
370
    15
100
AcDbLine
 10
937.6355739473
 20
731.6758580807
 30
0.0
 11
937.5935377716
 21
731.7665092948
 31
0.0
  0
SPLINE
  5
1F6
330
1F
100
AcDbEntity
  8
0
  6
Continuous
 62
     7
370
    15
100
AcDbSpline
210
0.0
220
0.0
230
1.0
 70
     8
 71
     3
 72
    13
 73
     9
 74
     0
 42
0.00000001
 43
0.00000001
 12
1.0
 22
0.0
 32
0.0
 13
1.0
 23
0.0
 33
0.0
 40
0.0
 40
0.0
 40
0.0
 40
0.0
 40
0.1254638783277685
 40
0.2502422408872308
 40
0.3760698793603173
 40
0.5019148430033479
 40
0.7508301790189853
 40
1.0
 40
1.0
 40
1.0
 40
1.0
 10
893.2426678179231
 20
825.9800471666578
 30
0.0
 10
893.1549897254167
 20
826.0773170330702
 30
0.0
 10
892.9801126003193
 20
826.2713252979692
 30
0.0
 10
892.7064285261434
 20
826.530724267558
 30
0.0
 10
892.4394343574131
 20
826.7542027230874
 30
0.0
 10
892.1145752184683
 20
826.9926799544382
 30
0.0
 10
891.781883183685
 20
827.1902439740752
 30
0.0
 10
891.7289716881112
 20
827.2172012166316
 30
0.0
 10
891.7025024233785
 20
827.2306867244962
 30
0.0
  0
SPLINE
  5
1F7
330
1F
100
AcDbEntity
  8
0
  6
Continuous
 62
     7
370
    15
100
AcDbSpline
210
0.0
220
0.0
230
1.0
 70
     8
 71
     3
 72
     9
 73
     5
 74
     0
 42
0.00000001
 43
0.00000001
 12
1.0
 22
0.0
 32
0.0
 13
1.0
 23
0.0
 33
0.0
 40
0.0
 40
0.0
 40
0.0
 40
0.0
 40
0.5000182494147738
 40
1.0
 40
1.0
 40
1.0
 40
1.0
 10
938.103381001803
 20
730.5882223251584
 30
0.0
 10
938.0354097794368
 20
730.7569408343084
 30
0.0
 10
937.8994722962635
 20
731.0943655370014
 30
0.0
 10
937.7235379231439
 20
731.4820319492554
 30
0.0
 10
937.6355739472833
 20
731.6758580806974
 30
0.0
  0
SPLINE
  5
1F8
330
1F
100
AcDbEntity
  8
0
  6
Continuous
 62
     7
370
    15
100
AcDbSpline
210
0.0
220
0.0
230
1.0
 70
     8
 71
     3
 72
     9
 73
     5
 74
     0
 42
0.00000001
 43
0.00000001
 12
1.0
 22
0.0
 32
0.0
 13
1.0
 23
0.0
 33
0.0
 40
0.0
 40
0.0
 40
0.0
 40
0.0
 40
0.783890572084208
 40
0.9999999999999999
 40
0.9999999999999999
 40
0.9999999999999999
 40
0.9999999999999999
 10
938.7928279279199
 20
727.4253428283456
 30
0.0
 10
938.7990398449911
 20
727.4429216232577
 30
0.0
 10
938.8069643146712
 20
727.4653466855535
 30
0.0
 10
938.7837853300256
 20
727.7558580967327
 30
0.0
 10
938.7787761329141
 20
727.8186403516057
 30
0.0
  0
SPLINE
  5
1F9
330
1F
100
AcDbEntity
  8
0
  6
Continuous
 62
     7
370
    15
100
AcDbSpline
210
0.0
220
0.0
230
1.0
 70
     8
 71
     3
 72
     9
 73
     5
 74
     0
 42
0.00000001
 43
0.00000001
 12
1.0
 22
0.0
 32
0.0
 13
1.0
 23
0.0
 33
0.0
 40
0.0
 40
0.0
 40
0.0
 40
0.0
 40
0.0370149896459923
 40
1.0
 40
1.0
 40
1.0
 40
1.0
 10
938.5465713380304
 20
729.25233322413
 30
0.0
 10
938.5440084858895
 20
729.265206828915
 30
0.0
 10
938.4747702619876
 20
729.6130011929827
 30
0.0
 10
938.2855740846222
 20
730.109806378469
 30
0.0
 10
938.103381001803
 20
730.5882223251584
 30
0.0
  0
LINE
  5
1FA
330
1F
100
AcDbEntity
  8
0
  6
Continuous
 62
     7
370
    15
100
AcDbLine
 10
938.3111329912
 20
730.0279684666
 30
0.0
 11
938.1420271634
 21
730.4730661515
 31
0.0
  0
LINE
  5
1FB
330
1F
100
AcDbEntity
  8
0
  6
Continuous
 62
     7
370
    15
100
AcDbLine
 10
895.9709810255
 20
851.4790930155
 30
0.0
 11
879.9113178788
 21
843.9903505448
 31
0.0
  0
SPLINE
  5
1FC
330
1F
100
AcDbEntity
  8
0
  6
Continuous
 62
     7
370
    15
100
AcDbSpline
210
0.0
220
0.0
230
1.0
 70
     8
 71
     3
 72
    11
 73
     7
 74
     0
 42
0.00000001
 43
0.00000001
 12
1.0
 22
0.0
 32
0.0
 13
1.0
 23
0.0
 33
0.0
 40
0.0
 40
0.0
 40
0.0
 40
0.0
 40
0.2889767153372323
 40
0.5779517913432145
 40
0.8674421933996722
 40
1.0
 40
1.0
 40
1.0
 40
1.0
 10
879.9113178788152
 20
843.9903505447629
 30
0.0
 10
879.6077915625654
 20
843.900073811845
 30
0.0
 10
879.0007406519347
 20
843.7195208581384
 30
0.0
 10
877.8522134094981
 20
843.9589068330916
 30
0.0
 10
876.8176628962585
 20
844.3506989387855
 30
0.0
 10
876.1907098940263
 20
844.6175358428236
 30
0.0
 10
875.9937951503721
 20
844.7013445499662
 30
0.0
  0
SPLINE
  5
1FD
330
1F
100
AcDbEntity
  8
0
  6
Continuous
 62
     7
370
    15
100
AcDbSpline
210
0.0
220
0.0
230
1.0
 70
     8
 71
     3
 72
    11
 73
     7
 74
     0
 42
0.00000001
 43
0.00000001
 12
1.0
 22
0.0
 32
0.0
 13
1.0
 23
0.0
 33
0.0
 40
0.0
 40
0.0
 40
0.0
 40
0.0
 40
0.2888072022401117
 40
0.5776163613976115
 40
0.8669355216470224
 40
1.0
 40
1.0
 40
1.0
 40
1.0
 10
875.9937951503721
 20
844.7013445499662
 30
0.0
 10
876.4414939491413
 20
844.5651374523412
 30
0.0
 10
877.3368945802243
 20
844.292722334171
 30
0.0
 10
878.4840489137493
 20
843.7927085312184
 30
0.0
 10
879.158939865474
 20
843.2564601478334
 30
0.0
 10
879.3802929814489
 20
842.8574083558484
 30
0.0
 10
879.4500263570276
 20
842.7316941622022
 30
0.0
  0
LINE
  5
1FE
330
1F
100
AcDbEntity
  8
0
  6
Continuous
 62
     7
370
    15
100
AcDbLine
 10
879.450026357
 20
842.7316941622
 30
0.0
 11
879.9440967082
 21
841.6721619967
 31
0.0
  0
SPLINE
  5
1FF
330
1F
100
AcDbEntity
  8
0
  6
Continuous
 62
     7
370
    15
100
AcDbSpline
210
0.0
220
0.0
230
1.0
 70
     8
 71
     3
 72
    12
 73
     8
 74
     0
 42
0.00000001
 43
0.00000001
 12
1.0
 22
0.0
 32
0.0
 13
1.0
 23
0.0
 33
0.0
 40
0.0
 40
0.0
 40
0.0
 40
0.0
 40
0.2096823427327176
 40
0.4420472830652934
 40
0.6744298975012898
 40
0.9068226892200539
 40
1.0
 40
1.0
 40
1.0
 40
1.0
 10
39.88472690567635
 20
665.6533129814397
 30
0.0
 10
39.63239679402775
 20
665.5490272873086
 30
0.0
 10
39.10044050798034
 20
665.3291746895532
 30
0.0
 10
38.37904317943186
 20
664.9932170123806
 30
0.0
 10
37.83574346621599
 20
664.646291239185
 30
0.0
 10
37.60703103270602
 20
664.3679335052792
 30
0.0
 10
37.58971755088714
 20
664.2065667716495
 30
0.0
 10
37.58476247772846
 20
664.1603840350482
 30
0.0
  0
LINE
  5
200
330
1F
100
AcDbEntity
  8
0
  6
Continuous
 62
     7
370
    15
100
AcDbLine
 10
37.5847624777
 20
909.7462393645
 30
0.0
 11
37.5847624777
 21
664.160384035
 31
0.0
  0
SPLINE
  5
201
330
1F
100
AcDbEntity
  8
0
  6
Continuous
 62
     7
370
    15
100
AcDbSpline
210
0.0
220
0.0
230
1.0
 70
     8
 71
     3
 72
    12
 73
     8
 74
     0
 42
0.00000001
 43
0.00000001
 12
1.0
 22
0.0
 32
0.0
 13
1.0
 23
0.0
 33
0.0
 40
0.0
 40
0.0
 40
0.0
 40
0.0
 40
0.2096853316881946
 40
0.4420492314459824
 40
0.6744376330924662
 40
0.906827533873756
 40
1.0
 40
1.0
 40
1.0
 40
1.0
 10
37.58476247772846
 20
909.7462393644574
 30
0.0
 10
37.6091059684931
 20
909.6419527865003
 30
0.0
 10
37.66042582618901
 20
909.422100490372
 30
0.0
 10
38.0813547929546
 20
909.0861308671758
 30
0.0
 10
38.73313934351474
 20
908.7392366078919
 30
0.0
 10
39.38257135943823
 20
908.4608706257566
 30
0.0
 10
39.77299254079703
 20
908.2994918146956
 30
0.0
 10
39.88472690567646
 20
908.253306925607
 30
0.0
  0
CIRCLE
  5
202
330
1F
100
AcDbEntity
  8
0
  6
Continuous
 62
     7
370
    15
100
AcDbCircle
 10
115.1319669358
 20
890.5533129814
 30
0.0
 40
6.347663105371566
  0
CIRCLE
  5
203
330
1F
100
AcDbEntity
  8
0
  6
Continuous
 62
     7
370
    15
100
AcDbCircle
 10
885.1319669358
 20
890.5533129814
 30
0.0
 40
6.347663105371566
  0
CIRCLE
  5
204
330
1F
100
AcDbEntity
  8
0
  6
Continuous
 62
     7
370
    15
100
AcDbCircle
 10
505.1319669358
 20
890.5533129814
 30
0.0
 40
6.347663105371566
  0
SPLINE
  5
205
330
1F
100
AcDbEntity
  8
0
  6
Continuous
 62
     7
370
    15
100
AcDbSpline
210
0.0
220
0.0
230
1.0
 70
     8
 71
     3
 72
    12
 73
     8
 74
     0
 42
0.00000001
 43
0.00000001
 12
1.0
 22
0.0
 32
0.0
 13
1.0
 23
0.0
 33
0.0
 40
0.0
 40
0.0
 40
0.0
 40
0.0
 40
0.2096808867074688
 40
0.4420437420667926
 40
0.6744309548833967
 40
0.906821543808772
 40
1.0
 40
1.0
 40
1.0
 40
1.0
 10
39.88472690567646
 20
908.253306925607
 30
0.0
 10
39.78044429743621
 20
908.505637799661
 30
0.0
 10
39.56059843974813
 20
909.037595125659
 30
0.0
 10
39.22465807333852
 20
909.7589856337734
 30
0.0
 10
38.87773264178384
 20
910.3023456519566
 30
0.0
 10
38.59936463802105
 20
910.5309668756192
 30
0.0
 10
38.43799395315051
 20
910.5483429832525
 30
0.0
 10
38.39180936798714
 20
910.5533160570386
 30
0.0
  0
SPLINE
  5
206
330
1F
100
AcDbEntity
  8
0
  6
Continuous
 62
     7
370
    15
100
AcDbSpline
210
0.0
220
0.0
230
1.0
 70
     8
 71
     3
 72
    11
 73
     7
 74
     0
 42
0.00000001
 43
0.00000001
 12
1.0
 22
0.0
 32
0.0
 13
1.0
 23
0.0
 33
0.0
 40
0.0
 40
0.0
 40
0.0
 40
0.0
 40
0.2543209381064887
 40
0.5088598864506086
 40
0.7634120933454059
 40
1.0
 40
1.0
 40
1.0
 40
1.0
 10
39.88472690567646
 20
908.253306925607
 30
0.0
 10
39.75814153713508
 20
908.4532800191953
 30
0.0
 10
39.50486228792371
 20
908.8533976282847
 30
0.0
 10
39.12497213237953
 20
909.3550522497145
 30
0.0
 10
38.75371746138823
 20
909.6911027746437
 30
0.0
 10
38.50946744331485
 20
909.7330911345582
 30
0.0
 10
38.39180936798725
 20
909.7533174160245
 30
0.0
  0
LINE
  5
207
330
1F
100
AcDbEntity
  8
0
  6
Continuous
 62
     7
370
    15
100
AcDbLine
 10
38.391809368
 20
910.553316057
 30
0.0
 11
38.391809368
 21
909.753317416
 31
0.0
  0
LINE
  5
208
330
1F
100
AcDbEntity
  8
0
  6
Continuous
 62
     7
370
    15
100
AcDbLine
 10
38.391809368
 20
910.553316057
 30
0.0
 11
41.7788433073
 21
910.553316057
 31
0.0
  0
LINE
  5
209
330
1F
100
AcDbEntity
  8
0
  6
Continuous
 62
     7
370
    15
100
AcDbLine
 10
52.5288390158
 20
910.553316057
 30
0.0
 11
114.778797531
 21
910.553316057
 31
0.0
  0
LINE
  5
20A
330
1F
100
AcDbEntity
  8
0
  6
Continuous
 62
     7
370
    15
100
AcDbLine
 10
37.5847624777
 20
909.7462393645
 30
0.0
 11
38.3847164153
 21
909.7462393645
 31
0.0
  0
SPLINE
  5
20B
330
1F
100
AcDbEntity
  8
0
  6
Continuous
 62
     7
370
    15
100
AcDbSpline
210
0.0
220
0.0
230
1.0
 70
     8
 71
     3
 72
    11
 73
     7
 74
     0
 42
0.00000001
 43
0.00000001
 12
1.0
 22
0.0
 32
0.0
 13
1.0
 23
0.0
 33
0.0
 40
0.0
 40
0.0
 40
0.0
 40
0.0
 40
0.2543259349244534
 40
0.5088669552236346
 40
0.763415234789338
 40
1.0
 40
1.0
 40
1.0
 40
1.0
 10
38.38471641525898
 20
909.7462393644574
 30
0.0
 10
38.40809500702169
 20
909.6196579831933
 30
0.0
 10
38.45487196199981
 20
909.3663881698297
 30
0.0
 10
38.81369668713186
 20
908.9864440405511
 30
0.0
 10
39.31294014597108
 20
908.6152211319237
 30
0.0
 10
39.69883611883718
 20
908.3709670767711
 30
0.0
 10
39.88472690567635
 20
908.253306925607
 30
0.0
  0
SPLINE
  5
20C
330
1F
100
AcDbEntity
  8
0
  6
Continuous
 62
     7
370
    15
100
AcDbSpline
210
0.0
220
0.0
230
1.0
 70
     8
 71
     3
 72
    11
 73
     7
 74
     0
 42
0.00000001
 43
0.00000001
 12
1.0
 22
0.0
 32
0.0
 13
1.0
 23
0.0
 33
0.0
 40
0.0
 40
0.0
 40
0.0
 40
0.0
 40
0.2543131090459599
 40
0.5088645794457386
 40
0.7634094785720187
 40
1.0
 40
1.0
 40
1.0
 40
1.0
 10
39.88472690567646
 20
665.6533129814397
 30
0.0
 10
39.68476513710528
 20
665.5267296623226
 30
0.0
 10
39.28465418076921
 20
665.2734443806906
 30
0.0
 10
38.78299871217394
 20
664.8935226720465
 30
0.0
 10
38.44699186498379
 20
664.5222825124428
 30
0.0
 10
38.40496274739125
 20
664.2780406204896
 30
0.0
 10
38.38471641525898
 20
664.1603840350482
 30
0.0
  0
LINE
  5
20D
330
1F
100
AcDbEntity
  8
0
  6
Continuous
 62
     7
370
    15
100
AcDbLine
 10
37.5847624777
 20
664.160384035
 30
0.0
 11
38.3847164153
 21
664.160384035
 31
0.0
  0
SPLINE
  5
20E
330
1F
100
AcDbEntity
  8
0
  6
Continuous
 62
     7
370
    15
100
AcDbSpline
210
0.0
220
0.0
230
1.0
 70
     8
 71
     3
 72
    12
 73
     8
 74
     0
 42
0.00000001
 43
0.00000001
 12
1.0
 22
0.0
 32
0.0
 13
1.0
 23
0.0
 33
0.0
 40
0.0
 40
0.0
 40
0.0
 40
0.0
 40
0.2096817384452467
 40
0.442048222478466
 40
0.6744313350790662
 40
0.906820127826905
 40
0.9999999999999999
 40
0.9999999999999999
 40
0.9999999999999999
 40
0.9999999999999999
 10
38.39180936798714
 20
663.3533129304025
 30
0.0
 10
38.4960851577032
 20
663.3776540364972
 30
0.0
 10
38.71591797592278
 20
663.4289696291769
 30
0.0
 10
39.05197394561466
 20
663.8498830776267
 30
0.0
 10
39.39877761113397
 20
664.5016985428658
 30
0.0
 10
39.67717729818765
 20
665.1511272992609
 30
0.0
 10
39.83854299294076
 20
665.5415666861635
 30
0.0
 10
39.88472690567646
 20
665.6533129814397
 30
0.0
  0
LINE
  5
20F
330
1F
100
AcDbEntity
  8
0
  6
Continuous
 62
     7
370
    15
100
AcDbLine
 10
38.391809368
 20
663.3533129304
 30
0.0
 11
38.391809368
 21
664.1533129684
 31
0.0
  0
SPLINE
  5
210
330
1F
100
AcDbEntity
  8
0
  6
Continuous
 62
     7
370
    15
100
AcDbSpline
210
0.0
220
0.0
230
1.0
 70
     8
 71
     3
 72
    11
 73
     7
 74
     0
 42
0.00000001
 43
0.00000001
 12
1.0
 22
0.0
 32
0.0
 13
1.0
 23
0.0
 33
0.0
 40
0.0
 40
0.0
 40
0.0
 40
0.0
 40
0.2543220689859808
 40
0.5088735912565335
 40
0.7634111201032798
 40
1.0
 40
1.0
 40
1.0
 40
1.0
 10
38.39180936798725
 20
664.1533129684004
 30
0.0
 10
38.51838884913727
 20
664.1766686624898
 30
0.0
 10
38.77166201339332
 20
664.2234011225353
 30
0.0
 10
39.15163840358449
 20
664.582265326651
 30
0.0
 10
39.52281186465567
 20
665.081521719225
 30
0.0
 10
39.76706402912378
 20
665.4674168536905
 30
0.0
 10
39.88472690567646
 20
665.6533129814397
 30
0.0
  0
LINE
  5
211
330
1F
100
AcDbEntity
  8
0
  6
Continuous
 62
     7
370
    15
100
AcDbLine
 10
845.5477928905
 20
663.3533129304
 30
0.0
 11
38.391809368
 21
663.3533129304
 31
0.0
  0
CIRCLE
  5
212
330
1F
100
AcDbEntity
  8
0
  6
Continuous
 62
     7
370
    15
100
AcDbCircle
 10
885.1319669358
 20
890.5533129814
 30
0.0
 40
2.700000000000045
  0
CIRCLE
  5
213
330
1F
100
AcDbEntity
  8
0
  6
Continuous
 62
     7
370
    15
100
AcDbCircle
 10
505.1319669358
 20
890.5533129814
 30
0.0
 40
2.700000000000045
  0
CIRCLE
  5
214
330
1F
100
AcDbEntity
  8
0
  6
Continuous
 62
     7
370
    15
100
AcDbCircle
 10
115.1319669358
 20
890.5533129814
 30
0.0
 40
2.700000000000045
  0
SPLINE
  5
215
330
1F
100
AcDbEntity
  8
0
  6
Continuous
 62
     7
370
    15
100
AcDbSpline
210
0.0
220
0.0
230
1.0
 70
     8
 71
     3
 72
    13
 73
     9
 74
     0
 42
0.00000001
 43
0.00000001
 12
1.0
 22
0.0
 32
0.0
 13
1.0
 23
0.0
 33
0.0
 40
0.0
 40
0.0
 40
0.0
 40
0.0
 40
0.1695443985446847
 40
0.3386419087603124
 40
0.5185113292144039
 40
0.7277698183198483
 40
0.9924805854367854
 40
0.9999999999999999
 40
0.9999999999999999
 40
0.9999999999999999
 40
0.9999999999999999
 10
73.4636591909853
 20
652.7033126282814
 30
0.0
 10
73.46483087971211
 20
652.7279233254526
 30
0.0
 10
73.46717116880652
 20
652.7770798504544
 30
0.0
 10
73.48496394407167
 20
652.8432286913427
 30
0.0
 10
73.51214630393699
 20
652.898885453131
 30
0.0
 10
73.55126429759939
 20
652.9416090192461
 30
0.0
 10
73.58376449325077
 20
652.9531891483032
 30
0.0
 10
73.6017433855467
 20
652.9533098022735
 30
0.0
 10
73.60223999008808
 20
652.9533131349209
 30
0.0
  0
LINE
  5
216
330
1F
100
AcDbEntity
  8
0
  6
Continuous
 62
     7
370
    15
100
AcDbLine
 10
73.6022399901
 20
652.9533131349
 30
0.0
 11
78.3260272978
 21
652.9533131349
 31
0.0
  0
LINE
  5
217
330
1F
100
AcDbEntity
  8
0
  6
Continuous
 62
     7
370
    15
100
AcDbLine
 10
84.8582195281
 20
652.9533131349
 30
0.0
 11
89.2814802168
 21
652.9533131349
 31
0.0
  0
SPLINE
  5
218
330
1F
100
AcDbEntity
  8
0
  6
Continuous
 62
     7
370
    15
100
AcDbSpline
210
0.0
220
0.0
230
1.0
 70
     8
 71
     3
 72
    13
 73
     9
 74
     0
 42
0.00000001
 43
0.00000001
 12
1.0
 22
0.0
 32
0.0
 13
1.0
 23
0.0
 33
0.0
 40
0.0
 40
0.0
 40
0.0
 40
0.0
 40
0.1695544663229149
 40
0.3386637881777094
 40
0.518465349815393
 40
0.7277515026522473
 40
0.9924962974733353
 40
1.0
 40
1.0
 40
1.0
 40
1.0
 10
89.48157300934467
 20
652.7033126282814
 30
0.0
 10
89.47985653848112
 20
652.7279239890381
 30
0.0
 10
89.47642810313793
 20
652.7770820964407
 30
0.0
 10
89.45057213005492
 20
652.8432109668371
 30
0.0
 10
89.41143473174895
 20
652.8989038936841
 30
0.0
 10
89.35482371014325
 20
652.9416041362848
 30
0.0
 10
89.30814209117732
 20
652.953188641884
 30
0.0
 10
89.2821953596421
 20
652.9533097956845
 30
0.0
 10
89.28148021683369
 20
652.9533131349209
 30
0.0
  0
LINE
  5
219
330
1F
100
AcDbEntity
  8
0
  6
Continuous
 62
     7
370
    15
100
AcDbLine
 10
89.2814802168
 20
651.7533133108
 30
0.0
 11
84.8878430365
 21
651.7533133108
 31
0.0
  0
LINE
  5
21A
330
1F
100
AcDbEntity
  8
0
  6
Continuous
 62
     7
370
    15
100
AcDbLine
 10
78.2710122107
 20
651.7533133108
 30
0.0
 11
73.6022399901
 21
651.7533133108
 31
0.0
  0
SPLINE
  5
21B
330
1F
100
AcDbEntity
  8
0
  6
Continuous
 62
     7
370
    15
100
AcDbSpline
210
0.0
220
0.0
230
1.0
 70
     8
 71
     3
 72
    13
 73
     9
 74
     0
 42
0.00000001
 43
0.00000001
 12
1.0
 22
0.0
 32
0.0
 13
1.0
 23
0.0
 33
0.0
 40
0.0
 40
0.0
 40
0.0
 40
0.0
 40
0.0075194137059175
 40
0.2722304857258712
 40
0.4814901890266908
 40
0.6613598166606016
 40
0.8304575216485898
 40
1.0
 40
1.0
 40
1.0
 40
1.0
 10
73.60223999008808
 20
651.7533133107546
 30
0.0
 10
73.60174338554859
 20
651.7533163280038
 30
0.0
 10
73.58376447119564
 20
651.753425563546
 30
0.0
 10
73.55126415522906
 20
651.7650200252235
 30
0.0
 10
73.51214640587567
 20
651.8077403447533
 30
0.0
 10
73.48496393033376
 20
651.8633978831064
 30
0.0
 10
73.46717124843316
 20
651.9295462917663
 30
0.0
 10
73.4648309014131
 20
651.978702500553
 30
0.0
 10
73.4636591909853
 20
652.0033128860715
 30
0.0
  0
SPLINE
  5
21C
330
1F
100
AcDbEntity
  8
0
  6
Continuous
 62
     7
370
    15
100
AcDbSpline
210
0.0
220
0.0
230
1.0
 70
     8
 71
     3
 72
    13
 73
     9
 74
     0
 42
0.00000001
 43
0.00000001
 12
1.0
 22
0.0
 32
0.0
 13
1.0
 23
0.0
 33
0.0
 40
0.0
 40
0.0
 40
0.0
 40
0.0
 40
0.0075037016315385
 40
0.2722488013917536
 40
0.4815361682955485
 40
0.6613379370327948
 40
0.8304474536715849
 40
1.0
 40
1.0
 40
1.0
 40
1.0
 10
89.28148021683369
 20
651.7533133107546
 30
0.0
 10
89.28219535963922
 20
651.7533163346034
 30
0.0
 10
89.30814212314108
 20
651.7534260456797
 30
0.0
 10
89.354823915347
 20
651.7650249170985
 30
0.0
 10
89.4114345847391
 20
651.8077219026907
 30
0.0
 10
89.45057214995134
 20
651.8634156079788
 30
0.0
 10
89.47642798729471
 20
651.9295440457887
 30
0.0
 10
89.47985650695855
 20
651.9787018369578
 30
0.0
 10
89.48157300934467
 20
652.0033128860715
 30
0.0
  0
LINE
  5
21D
330
1F
100
AcDbEntity
  8
0
  6
Continuous
 62
     7
370
    15
100
AcDbLine
 10
73.463659191
 20
652.0033128861
 30
0.0
 11
73.463659191
 21
652.7033126283
 31
0.0
  0
LINE
  5
21E
330
1F
100
AcDbEntity
  8
0
  6
Continuous
 62
     7
370
    15
100
AcDbLine
 10
89.4815730093
 20
652.0033128861
 30
0.0
 11
89.4815730093
 21
652.7033126283
 31
0.0
  0
SPLINE
  5
21F
330
1F
100
AcDbEntity
  8
0
  6
Continuous
 62
     7
370
    15
100
AcDbSpline
210
0.0
220
0.0
230
1.0
 70
     8
 71
     3
 72
    12
 73
     8
 74
     0
 42
0.00000001
 43
0.00000001
 12
1.0
 22
0.0
 32
0.0
 13
1.0
 23
0.0
 33
0.0
 40
0.0
 40
0.0
 40
0.0
 40
0.0
 40
0.20282348297548
 40
0.4049568539350181
 40
0.6098391127228828
 40
0.8227069192292237
 40
1.0
 40
1.0
 40
1.0
 40
1.0
 10
71.79955711350105
 20
651.5033128041151
 30
0.0
 10
71.81479504920651
 20
651.6604546750763
 30
0.0
 10
71.84521907315711
 20
651.9742037378196
 30
0.0
 10
72.08141502522203
 20
652.394585218024
 30
0.0
 10
72.4319470681284
 20
652.7216798975046
 30
0.0
 10
72.85279815636659
 20
652.9198754622632
 30
0.0
 10
73.14965325382904
 20
652.9428660002932
 30
0.0
 10
73.28454723343525
 20
652.9533131349209
 30
0.0
  0
ARC
  5
220
330
1F
100
AcDbEntity
  8
0
  6
Continuous
 62
     7
370
    15
100
AcDbCircle
 10
72.0387584977
 20
646.3924626094
 30
0.0
 40
0.2394473533287044
100
AcDbArc
 50
177.402771623
 51
267.1444364072
  0
LINE
  5
221
330
1F
100
AcDbEntity
  8
0
  6
Continuous
 62
     7
370
    15
100
AcDbLine
 10
72.7582382201
 20
646.1533125791
 30
0.0
 11
72.026829624
 21
646.1533125791
 31
0.0
  0
LINE
  5
222
330
1F
100
AcDbEntity
  8
0
  6
Continuous
 62
     7
370
    15
100
AcDbLine
 10
72.3230647086
 20
652.9533131349
 30
0.0
 11
73.2845472334
 21
652.9533131349
 31
0.0
  0
LINE
  5
223
330
1F
100
AcDbEntity
  8
0
  6
Continuous
 62
     7
370
    15
100
AcDbLine
 10
72.026829624
 20
646.1533125791
 30
0.0
 11
71.1231039999
 21
646.1533125791
 31
0.0
  0
LINE
  5
224
330
1F
100
AcDbEntity
  8
0
  6
Continuous
 62
     7
370
    15
100
AcDbLine
 10
73.2845472334
 20
652.9533131349
 30
0.0
 11
73.6022399901
 21
652.9533131349
 31
0.0
  0
LINE
  5
225
330
1F
100
AcDbEntity
  8
0
  6
Continuous
 62
     7
370
    15
100
AcDbLine
 10
73.6022399901
 20
651.7533133108
 30
0.0
 11
73.2845472334
 21
651.7533133108
 31
0.0
  0
LINE
  5
226
330
1F
100
AcDbEntity
  8
0
  6
Continuous
 62
     7
370
    15
100
AcDbLine
 10
89.5991729735
 20
651.7533133108
 30
0.0
 11
89.2814802168
 21
651.7533133108
 31
0.0
  0
LINE
  5
227
330
1F
100
AcDbEntity
  8
0
  6
Continuous
 62
     7
370
    15
100
AcDbLine
 10
89.2814802168
 20
652.9533131349
 30
0.0
 11
89.5991729735
 21
652.9533131349
 31
0.0
  0
LINE
  5
228
330
1F
100
AcDbEntity
  8
0
  6
Continuous
 62
     7
370
    15
100
AcDbLine
 10
90.8568905829
 20
646.1533125791
 30
0.0
 11
90.1254819869
 21
646.1533125791
 31
0.0
  0
LINE
  5
229
330
1F
100
AcDbEntity
  8
0
  6
Continuous
 62
     7
370
    15
100
AcDbLine
 10
89.5991729735
 20
652.9533131349
 30
0.0
 11
89.8230480193
 21
652.9533131349
 31
0.0
  0
LINE
  5
22A
330
1F
100
AcDbEntity
  8
0
  6
Continuous
 62
     7
370
    15
100
AcDbLine
 10
90.1254819869
 20
646.1533125791
 30
0.0
 11
89.3879341124
 21
646.1533125791
 31
0.0
  0
LINE
  5
22B
330
1F
100
AcDbEntity
  8
0
  6
Continuous
 62
     7
370
    15
100
AcDbLine
 10
91.0230683325
 20
646.1533125791
 30
0.0
 11
90.8568905829
 21
646.1533125791
 31
0.0
  0
LINE
  5
22C
330
1F
100
AcDbEntity
  8
0
  6
Continuous
 62
     7
370
    15
100
AcDbLine
 10
84.5361160277
 20
650.5533125553
 30
0.0
 11
78.5457896231
 21
650.5533125553
 31
0.0
  0
LINE
  5
22D
330
1F
100
AcDbEntity
  8
0
  6
Continuous
 62
     7
370
    15
100
AcDbLine
 10
78.6179708479
 20
657.3533131111
 30
0.0
 11
84.6082376479
 21
657.3533131111
 31
0.0
  0
LINE
  5
22E
330
1F
100
AcDbEntity
  8
0
  6
Continuous
 62
     7
370
    15
100
AcDbLine
 10
78.2877015112
 20
651.5033128041
 30
0.0
 11
78.2877015112
 21
650.8033130619
 31
0.0
  0
LINE
  5
22F
330
1F
100
AcDbEntity
  8
0
  6
Continuous
 62
     7
370
    15
100
AcDbLine
 10
78.576009178
 20
657.3533131111
 30
0.0
 11
78.6179708479
 21
657.3533131111
 31
0.0
  0
LINE
  5
230
330
1F
100
AcDbEntity
  8
0
  6
Continuous
 62
     7
370
    15
100
AcDbLine
 10
78.3263849257
 20
652.0033128861
 30
0.0
 11
78.3260272978
 21
652.0033128861
 31
0.0
  0
SPLINE
  5
231
330
1F
100
AcDbEntity
  8
0
  6
Continuous
 62
     7
370
    15
100
AcDbSpline
210
0.0
220
0.0
230
1.0
 70
     8
 71
     3
 72
     9
 73
     5
 74
     0
 42
0.00000001
 43
0.00000001
 12
1.0
 22
0.0
 32
0.0
 13
1.0
 23
0.0
 33
0.0
 40
0.0
 40
0.0
 40
0.0
 40
0.0
 40
0.7282829632502916
 40
1.0
 40
1.0
 40
1.0
 40
1.0
 10
78.28770151123676
 20
651.5033128041151
 30
0.0
 10
78.28889215135526
 20
651.5284287723752
 30
0.0
 10
78.29052701057692
 20
651.5629153243439
 30
0.0
 10
78.30475637957423
 20
651.5917299732503
 30
0.0
 10
78.30862274155292
 20
651.5995594042662
 30
0.0
  0
LINE
  5
232
330
1F
100
AcDbEntity
  8
0
  6
Continuous
 62
     7
370
    15
100
AcDbLine
 10
73.6022399901
 20
651.7533133108
 30
0.0
 11
78.3106492995
 21
651.7533133108
 31
0.0
  0
SPLINE
  5
233
330
1F
100
AcDbEntity
  8
0
  6
Continuous
 62
     7
370
    15
100
AcDbSpline
210
0.0
220
0.0
230
1.0
 70
     8
 71
     3
 72
    13
 73
     9
 74
     0
 42
0.00000001
 43
0.00000001
 12
1.0
 22
0.0
 32
0.0
 13
1.0
 23
0.0
 33
0.0
 40
0.0
 40
0.0
 40
0.0
 40
0.0
 40
0.0076154259526377
 40
0.2722614694241002
 40
0.4815664959057048
 40
0.6613385621931276
 40
0.8304696107368205
 40
1.0
 40
1.0
 40
1.0
 40
1.0
 10
78.5276102064576
 20
650.5533125552657
 30
0.0
 10
78.52673597436555
 20
650.5533158424803
 30
0.0
 10
78.49548103006332
 20
650.5534333647146
 30
0.0
 10
78.44040616292014
 20
650.5650343625499
 30
0.0
 10
78.37229408868973
 20
650.6077122517552
 30
0.0
 10
78.32518442128344
 20
650.6634289864168
 30
0.0
 10
78.29384424355068
 20
650.7295308463551
 30
0.0
 10
78.28975069767563
 20
650.7786996638602
 30
0.0
 10
78.28770151123676
 20
650.8033130619052
 30
0.0
  0
LINE
  5
234
330
1F
100
AcDbEntity
  8
0
  6
Continuous
 62
     7
370
    15
100
AcDbLine
 10
78.5276102065
 20
650.5533125553
 30
0.0
 11
73.0082201003
 21
650.5533125553
 31
0.0
  0
LINE
  5
235
330
1F
100
AcDbEntity
  8
0
  6
Continuous
 62
     7
370
    15
100
AcDbLine
 10
78.5457896231
 20
650.5533125553
 30
0.0
 11
78.5276102065
 21
650.5533125553
 31
0.0
  0
LINE
  5
236
330
1F
100
AcDbEntity
  8
0
  6
Continuous
 62
     7
370
    15
100
AcDbLine
 10
84.5178770064
 20
651.7533133108
 30
0.0
 11
89.2814802168
 21
651.7533133108
 31
0.0
  0
LINE
  5
237
330
1F
100
AcDbEntity
  8
0
  6
Continuous
 62
     7
370
    15
100
AcDbLine
 10
89.5230578421
 20
650.5533125553
 30
0.0
 11
84.5178770064
 21
650.5533125553
 31
0.0
  0
LINE
  5
238
330
1F
100
AcDbEntity
  8
0
  6
Continuous
 62
     7
370
    15
100
AcDbLine
 10
76.4347123145
 20
663.1567309912
 30
0.0
 11
77.600459957
 21
663.3533129304
 31
0.0
  0
LINE
  5
239
330
1F
100
AcDbEntity
  8
0
  6
Continuous
 62
     7
370
    15
100
AcDbLine
 10
80.6424426077
 20
663.3533129304
 30
0.0
 11
81.7311810492
 21
663.1567309912
 31
0.0
  0
LINE
  5
23A
330
1F
100
AcDbEntity
  8
0
  6
Continuous
 62
     7
370
    15
100
AcDbLine
 10
81.7311810492
 20
663.1567309912
 30
0.0
 11
81.7311810492
 21
658.8498949374
 31
0.0
  0
SPLINE
  5
23B
330
1F
100
AcDbEntity
  8
0
  6
Continuous
 62
     7
370
    15
100
AcDbSpline
210
0.0
220
0.0
230
1.0
 70
     8
 71
     3
 72
     9
 73
     5
 74
     0
 42
0.00000001
 43
0.00000001
 12
1.0
 22
0.0
 32
0.0
 13
1.0
 23
0.0
 33
0.0
 40
0.0
 40
0.0
 40
0.0
 40
0.0
 40
0.0702138299040265
 40
1.0
 40
1.0
 40
1.0
 40
1.0
 10
79.08294668183002
 20
658.4033131900552
 30
0.0
 10
79.1457399297244
 20
658.4037590621508
 30
0.0
 10
80.04005445408879
 20
658.4101092654676
 30
0.0
 10
80.91638294131576
 20
658.6380027382188
 30
0.0
 10
81.73118104920063
 20
658.8498949374381
 30
0.0
  0
LINE
  5
23C
330
1F
100
AcDbEntity
  8
0
  6
Continuous
 62
     7
370
    15
100
AcDbLine
 10
76.4347123145
 20
658.8498949374
 30
0.0
 11
79.0829466818
 21
658.4033131901
 31
0.0
  0
LINE
  5
23D
330
1F
100
AcDbEntity
  8
0
  6
Continuous
 62
     7
370
    15
100
AcDbLine
 10
76.4347123145
 20
663.1567309912
 30
0.0
 11
76.4347123145
 21
658.8498949374
 31
0.0
  0
SPLINE
  5
23E
330
1F
100
AcDbEntity
  8
0
  6
Continuous
 62
     7
370
    15
100
AcDbSpline
210
0.0
220
0.0
230
1.0
 70
     8
 71
     3
 72
     9
 73
     5
 74
     0
 42
0.00000001
 43
0.00000001
 12
1.0
 22
0.0
 32
0.0
 13
1.0
 23
0.0
 33
0.0
 40
0.0
 40
0.0
 40
0.0
 40
0.0
 40
0.9250711378788016
 40
1.0
 40
1.0
 40
1.0
 40
1.0
 10
81.73118104920052
 20
663.1567309911671
 30
0.0
 10
81.92421399036132
 20
663.2352815517895
 30
0.0
 10
82.13288220327664
 20
663.3201945464835
 30
0.0
 10
82.34972289013065
 20
663.3510043843119
 30
0.0
 10
82.36597051605854
 20
663.3533129304025
 30
0.0
  0
SPLINE
  5
23F
330
1F
100
AcDbEntity
  8
0
  6
Continuous
 62
     7
370
    15
100
AcDbSpline
210
0.0
220
0.0
230
1.0
 70
     8
 71
     3
 72
     9
 73
     5
 74
     0
 42
0.00000001
 43
0.00000001
 12
1.0
 22
0.0
 32
0.0
 13
1.0
 23
0.0
 33
0.0
 40
0.0
 40
0.0
 40
0.0
 40
0.0
 40
0.2575607528834951
 40
0.9999999999999999
 40
0.9999999999999999
 40
0.9999999999999999
 40
0.9999999999999999
 10
81.73118104920063
 20
658.8498949374381
 30
0.0
 10
81.92589493620007
 20
658.7824798209718
 30
0.0
 10
82.68188700727342
 20
658.5207352977421
 30
0.0
 10
83.46728642501633
 20
658.453345798865
 30
0.0
 10
84.05039777741108
 20
658.4033131900552
 30
0.0
  0
LINE
  5
240
330
1F
100
AcDbEntity
  8
0
  6
Continuous
 62
     7
370
    15
100
AcDbLine
 10
84.0503977774
 20
658.4033131901
 30
0.0
 11
79.0829466818
 21
658.4033131901
 31
0.0
  0
LINE
  5
241
330
1F
100
AcDbEntity
  8
0
  6
Continuous
 62
     7
370
    15
100
AcDbLine
 10
85.6409477232
 20
663.3341966032
 30
0.0
 11
86.369554901
 21
663.1567309912
 31
0.0
  0
LINE
  5
242
330
1F
100
AcDbEntity
  8
0
  6
Continuous
 62
     7
370
    15
100
AcDbLine
 10
86.369554901
 20
663.1567309912
 30
0.0
 11
86.369554901
 21
658.8498949374
 31
0.0
  0
SPLINE
  5
243
330
1F
100
AcDbEntity
  8
0
  6
Continuous
 62
     7
370
    15
100
AcDbSpline
210
0.0
220
0.0
230
1.0
 70
     8
 71
     3
 72
     9
 73
     5
 74
     0
 42
0.00000001
 43
0.00000001
 12
1.0
 22
0.0
 32
0.0
 13
1.0
 23
0.0
 33
0.0
 40
0.0
 40
0.0
 40
0.0
 40
0.0
 40
0.2686232326902266
 40
0.9999999999999999
 40
0.9999999999999999
 40
0.9999999999999999
 40
0.9999999999999999
 10
84.05039777741108
 20
658.4033131900552
 30
0.0
 10
84.26125915820826
 20
658.4099426864685
 30
0.0
 10
85.04622990956689
 20
658.4346222212467
 30
0.0
 10
85.81054939010713
 20
658.6744733755605
 30
0.0
 10
86.36955490097664
 20
658.8498949374381
 30
0.0
  0
LINE
  5
244
330
1F
100
AcDbEntity
  8
0
  6
Continuous
 62
     7
370
    15
100
AcDbLine
 10
76.2994693755
 20
663.3533129304
 30
0.0
 11
76.4347123145
 21
663.1567309912
 31
0.0
  0
SPLINE
  5
245
330
1F
100
AcDbEntity
  8
0
  6
Continuous
 62
     7
370
    15
100
AcDbSpline
210
0.0
220
0.0
230
1.0
 70
     8
 71
     3
 72
     9
 73
     5
 74
     0
 42
0.00000001
 43
0.00000001
 12
1.0
 22
0.0
 32
0.0
 13
1.0
 23
0.0
 33
0.0
 40
0.0
 40
0.0
 40
0.0
 40
0.0
 40
0.0702000929380254
 40
1.0
 40
1.0
 40
1.0
 40
1.0
 10
76.10569467529915
 20
658.4033131900552
 30
0.0
 10
76.11348638728754
 20
658.4037592159514
 30
0.0
 10
76.22447928861176
 20
658.4101128527848
 30
0.0
 10
76.33341961194695
 20
658.6380028444072
 30
0.0
 10
76.43471231445942
 20
658.8498949374381
 30
0.0
  0
LINE
  5
246
330
1F
100
AcDbEntity
  8
0
  6
Continuous
 62
     7
370
    15
100
AcDbLine
 10
79.0829466818
 20
658.4033131901
 30
0.0
 11
76.1056946753
 21
658.4033131901
 31
0.0
  0
LINE
  5
247
330
1F
100
AcDbEntity
  8
0
  6
Continuous
 62
     7
370
    15
100
AcDbLine
 10
86.369554901
 20
663.1567309912
 30
0.0
 11
86.2247156142
 21
663.3533129304
 31
0.0
  0
LINE
  5
248
330
1F
100
AcDbEntity
  8
0
  6
Continuous
 62
     7
370
    15
100
AcDbLine
 10
86.369554901
 20
658.8498949374
 30
0.0
 11
86.0404776572
 21
658.4033131901
 31
0.0
  0
LINE
  5
249
330
1F
100
AcDbEntity
  8
0
  6
Continuous
 62
     7
370
    15
100
AcDbLine
 10
84.0503977774
 20
658.4033131901
 30
0.0
 11
86.0723661421
 21
658.4033131901
 31
0.0
  0
LINE
  5
24A
330
1F
100
AcDbEntity
  8
0
  6
Continuous
 62
     7
370
    15
100
AcDbLine
 10
75.7766174315
 20
663.1567309912
 30
0.0
 11
75.9214567183
 21
663.3533129304
 31
0.0
  0
LINE
  5
24B
330
1F
100
AcDbEntity
  8
0
  6
Continuous
 62
     7
370
    15
100
AcDbLine
 10
75.7766174315
 20
658.8498949374
 30
0.0
 11
76.1056946753
 21
658.4033131901
 31
0.0
  0
LINE
  5
24C
330
1F
100
AcDbEntity
  8
0
  6
Continuous
 62
     7
370
    15
100
AcDbLine
 10
75.7766174315
 20
663.1567309912
 30
0.0
 11
75.7766174315
 21
658.8498949374
 31
0.0
  0
LINE
  5
24D
330
1F
100
AcDbEntity
  8
0
  6
Continuous
 62
     7
370
    15
100
AcDbLine
 10
80.5043386458
 20
650.1067312735
 30
0.0
 11
83.1343935965
 21
650.5533125553
 31
0.0
  0
SPLINE
  5
24E
330
1F
100
AcDbEntity
  8
0
  6
Continuous
 62
     7
370
    15
100
AcDbSpline
210
0.0
220
0.0
230
1.0
 70
     8
 71
     3
 72
     9
 73
     5
 74
     0
 42
0.00000001
 43
0.00000001
 12
1.0
 22
0.0
 32
0.0
 13
1.0
 23
0.0
 33
0.0
 40
0.0
 40
0.0
 40
0.0
 40
0.0
 40
0.0701903744174296
 40
1.0
 40
1.0
 40
1.0
 40
1.0
 10
83.13439359650287
 20
650.5533125552657
 30
0.0
 10
83.19672950516177
 20
650.5528664201696
 30
0.0
 10
84.08482718488352
 20
650.5465103478475
 30
0.0
 10
84.95515228608707
 20
650.3186230637996
 30
0.0
 10
85.76438894257221
 20
650.1067312735441
 30
0.0
  0
LINE
  5
24F
330
1F
100
AcDbEntity
  8
0
  6
Continuous
 62
     7
370
    15
100
AcDbLine
 10
85.7643889426
 20
650.1067312735
 30
0.0
 11
85.7643889426
 21
645.7998942885
 31
0.0
  0
SPLINE
  5
250
330
1F
100
AcDbEntity
  8
0
  6
Continuous
 62
     7
370
    15
100
AcDbSpline
210
0.0
220
0.0
230
1.0
 70
     8
 71
     3
 72
     9
 73
     5
 74
     0
 42
0.00000001
 43
0.00000001
 12
1.0
 22
0.0
 32
0.0
 13
1.0
 23
0.0
 33
0.0
 40
0.0
 40
0.0
 40
0.0
 40
0.0
 40
0.0701903779260379
 40
1.0
 40
1.0
 40
1.0
 40
1.0
 10
83.13439359650287
 20
645.3533120754483
 30
0.0
 10
83.1967295050473
 20
645.353758531841
 30
0.0
 10
84.0848271387431
 20
645.3601191813469
 30
0.0
 10
84.95515226543804
 20
645.5880044100842
 30
0.0
 10
85.76438894257221
 20
645.7998942884925
 30
0.0
  0
LINE
  5
251
330
1F
100
AcDbEntity
  8
0
  6
Continuous
 62
     7
370
    15
100
AcDbLine
 10
80.5043386458
 20
645.7998942885
 30
0.0
 11
83.1343935965
 21
645.3533120754
 31
0.0
  0
LINE
  5
252
330
1F
100
AcDbEntity
  8
0
  6
Continuous
 62
     7
370
    15
100
AcDbLine
 10
80.5043386458
 20
650.1067312735
 30
0.0
 11
80.5043386458
 21
645.7998942885
 31
0.0
  0
SPLINE
  5
253
330
1F
100
AcDbEntity
  8
0
  6
Continuous
 62
     7
370
    15
100
AcDbSpline
210
0.0
220
0.0
230
1.0
 70
     8
 71
     3
 72
     9
 73
     5
 74
     0
 42
0.00000001
 43
0.00000001
 12
1.0
 22
0.0
 32
0.0
 13
1.0
 23
0.0
 33
0.0
 40
0.0
 40
0.0
 40
0.0
 40
0.0
 40
0.0701934846199618
 40
1.0
 40
1.0
 40
1.0
 40
1.0
 10
78.15871705994282
 20
650.5533125552657
 30
0.0
 10
78.21431446225003
 20
650.5528664549831
 30
0.0
 10
79.00637376245822
 20
650.5465111602575
 30
0.0
 10
79.78259918785291
 20
650.3186230879517
 30
0.0
 10
80.50433864578876
 20
650.1067312735441
 30
0.0
  0
SPLINE
  5
254
330
1F
100
AcDbEntity
  8
0
  6
Continuous
 62
     7
370
    15
100
AcDbSpline
210
0.0
220
0.0
230
1.0
 70
     8
 71
     3
 72
     9
 73
     5
 74
     0
 42
0.00000001
 43
0.00000001
 12
1.0
 22
0.0
 32
0.0
 13
1.0
 23
0.0
 33
0.0
 40
0.0
 40
0.0
 40
0.0
 40
0.0
 40
0.0701934881284218
 40
1.0
 40
1.0
 40
1.0
 40
1.0
 10
78.15871705994282
 20
645.3533120754483
 30
0.0
 10
78.21431446214777
 20
645.3537584970279
 30
0.0
 10
79.00637372131136
 20
645.3601183687415
 30
0.0
 10
79.78259916943897
 20
645.5880043858348
 30
0.0
 10
80.50433864578876
 20
645.7998942884925
 30
0.0
  0
LINE
  5
255
330
1F
100
AcDbEntity
  8
0
  6
Continuous
 62
     7
370
    15
100
AcDbLine
 10
83.1343935965
 20
645.3533120754
 30
0.0
 11
78.1587170599
 21
645.3533120754
 31
0.0
  0
LINE
  5
256
330
1F
100
AcDbEntity
  8
0
  6
Continuous
 62
     7
370
    15
100
AcDbLine
 10
75.8130358695
 20
650.1067312735
 30
0.0
 11
78.1587170599
 21
650.5533125553
 31
0.0
  0
LINE
  5
257
330
1F
100
AcDbEntity
  8
0
  6
Continuous
 62
     7
370
    15
100
AcDbLine
 10
75.8130358695
 20
645.7998942885
 30
0.0
 11
78.1587170599
 21
645.3533120754
 31
0.0
  0
LINE
  5
258
330
1F
100
AcDbEntity
  8
0
  6
Continuous
 62
     7
370
    15
100
AcDbLine
 10
75.8130358695
 20
650.1067312735
 30
0.0
 11
75.8130358695
 21
645.7998942885
 31
0.0
  0
SPLINE
  5
259
330
1F
100
AcDbEntity
  8
0
  6
Continuous
 62
     7
370
    15
100
AcDbSpline
210
0.0
220
0.0
230
1.0
 70
     8
 71
     3
 72
     9
 73
     5
 74
     0
 42
0.00000001
 43
0.00000001
 12
1.0
 22
0.0
 32
0.0
 13
1.0
 23
0.0
 33
0.0
 40
0.0
 40
0.0
 40
0.0
 40
0.0
 40
0.257551895444768
 40
1.0
 40
1.0
 40
1.0
 40
1.0
 10
85.76438894257221
 20
650.1067312735441
 30
0.0
 10
85.78827150736058
 20
650.1741462444306
 30
0.0
 10
85.8810006435492
 20
650.4358992040428
 30
0.0
 10
85.97728015902395
 20
650.5032833349767
 30
0.0
 10
86.0487627027956
 20
650.5533125552657
 30
0.0
  0
SPLINE
  5
25A
330
1F
100
AcDbEntity
  8
0
  6
Continuous
 62
     7
370
    15
100
AcDbSpline
210
0.0
220
0.0
230
1.0
 70
     8
 71
     3
 72
     9
 73
     5
 74
     0
 42
0.00000001
 43
0.00000001
 12
1.0
 22
0.0
 32
0.0
 13
1.0
 23
0.0
 33
0.0
 40
0.0
 40
0.0
 40
0.0
 40
0.0
 40
0.257551816665027
 40
1.0
 40
1.0
 40
1.0
 40
1.0
 10
85.76438894257221
 20
645.7998942884925
 30
0.0
 10
85.78827150868817
 20
645.7324796954966
 30
0.0
 10
85.88100067839488
 20
645.4707281230607
 30
0.0
 10
85.97728016951845
 20
645.4033424477014
 30
0.0
 10
86.0487627027956
 20
645.3533120754483
 30
0.0
  0
LINE
  5
25B
330
1F
100
AcDbEntity
  8
0
  6
Continuous
 62
     7
370
    15
100
AcDbLine
 10
86.0487627028
 20
645.3533120754
 30
0.0
 11
83.1343935965
 21
645.3533120754
 31
0.0
  0
SPLINE
  5
25C
330
1F
100
AcDbEntity
  8
0
  6
Continuous
 62
     7
370
    15
100
AcDbSpline
210
0.0
220
0.0
230
1.0
 70
     8
 71
     3
 72
     9
 73
     5
 74
     0
 42
0.00000001
 43
0.00000001
 12
1.0
 22
0.0
 32
0.0
 13
1.0
 23
0.0
 33
0.0
 40
0.0
 40
0.0
 40
0.0
 40
0.0
 40
0.2575507720663204
 40
1.0
 40
1.0
 40
1.0
 40
1.0
 10
75.8130358694521
 20
645.7998942884925
 30
0.0
 10
75.8368951388797
 20
645.7324796920029
 30
0.0
 10
75.92953422994574
 20
645.470727044365
 30
0.0
 10
76.02587872999689
 20
645.4033420284721
 30
0.0
 10
76.09740962967548
 20
645.3533120754483
 30
0.0
  0
LINE
  5
25D
330
1F
100
AcDbEntity
  8
0
  6
Continuous
 62
     7
370
    15
100
AcDbLine
 10
78.1587170599
 20
645.3533120754
 30
0.0
 11
76.0756539343
 21
645.3533120754
 31
0.0
  0
SPLINE
  5
25E
330
1F
100
AcDbEntity
  8
0
  6
Continuous
 62
     7
370
    15
100
AcDbSpline
210
0.0
220
0.0
230
1.0
 70
     8
 71
     3
 72
     9
 73
     5
 74
     0
 42
0.00000001
 43
0.00000001
 12
1.0
 22
0.0
 32
0.0
 13
1.0
 23
0.0
 33
0.0
 40
0.0
 40
0.0
 40
0.0
 40
0.0
 40
0.3092347125117427
 40
1.0
 40
1.0
 40
1.0
 40
1.0
 10
75.8130358694521
 20
650.1067312735441
 30
0.0
 10
75.83687903731517
 20
650.1750086699561
 30
0.0
 10
75.91398282579176
 20
650.3958034049892
 30
0.0
 10
75.99416206482168
 20
650.454714106514
 30
0.0
 10
76.04954709992084
 20
650.495407574189
 30
0.0
  0
SPLINE
  5
25F
330
1F
100
AcDbEntity
  8
0
  6
Continuous
 62
     7
370
    15
100
AcDbSpline
210
0.0
220
0.0
230
1.0
 70
     8
 71
     3
 72
     9
 73
     5
 74
     0
 42
0.00000001
 43
0.00000001
 12
1.0
 22
0.0
 32
0.0
 13
1.0
 23
0.0
 33
0.0
 40
0.0
 40
0.0
 40
0.0
 40
0.0
 40
0.1197724970338601
 40
1.0
 40
1.0
 40
1.0
 40
1.0
 10
86.0974596975771
 20
650.531017624152
 30
0.0
 10
86.10702633820466
 20
650.5274993778494
 30
0.0
 10
86.18689977212779
 20
650.4981249689512
 30
0.0
 10
86.26467583415231
 20
650.2899620233558
 30
0.0
 10
86.33313646301887
 20
650.1067312735441
 30
0.0
  0
LINE
  5
260
330
1F
100
AcDbEntity
  8
0
  6
Continuous
 62
     7
370
    15
100
AcDbLine
 10
86.333136463
 20
650.1067312735
 30
0.0
 11
86.333136463
 21
645.7998942885
 31
0.0
  0
SPLINE
  5
261
330
1F
100
AcDbEntity
  8
0
  6
Continuous
 62
     7
370
    15
100
AcDbSpline
210
0.0
220
0.0
230
1.0
 70
     8
 71
     3
 72
     9
 73
     5
 74
     0
 42
0.00000001
 43
0.00000001
 12
1.0
 22
0.0
 32
0.0
 13
1.0
 23
0.0
 33
0.0
 40
0.0
 40
0.0
 40
0.0
 40
0.0
 40
0.2686335326421839
 40
1.0
 40
1.0
 40
1.0
 40
1.0
 10
86.0487627027956
 20
645.3533120754483
 30
0.0
 10
86.07461130206251
 20
645.3599415624633
 30
0.0
 10
86.17083383620627
 20
645.3846201159923
 30
0.0
 10
86.26457633952533
 20
645.6244735383206
 30
0.0
 10
86.33313646301899
 20
645.7998942884925
 30
0.0
  0
LINE
  5
262
330
1F
100
AcDbEntity
  8
0
  6
Continuous
 62
     7
370
    15
100
AcDbLine
 10
86.333136463
 20
645.7998942885
 30
0.0
 11
83.9874552725
 21
645.3533120754
 31
0.0
  0
LINE
  5
263
330
1F
100
AcDbEntity
  8
0
  6
Continuous
 62
     7
370
    15
100
AcDbLine
 10
78.6289977072
 20
657.7067314017
 30
0.0
 11
81.5049218176
 21
658.1533131491
 31
0.0
  0
SPLINE
  5
264
330
1F
100
AcDbEntity
  8
0
  6
Continuous
 62
     7
370
    15
100
AcDbSpline
210
0.0
220
0.0
230
1.0
 70
     8
 71
     3
 72
     9
 73
     5
 74
     0
 42
0.00000001
 43
0.00000001
 12
1.0
 22
0.0
 32
0.0
 13
1.0
 23
0.0
 33
0.0
 40
0.0
 40
0.0
 40
0.0
 40
0.0
 40
0.0702025833110982
 40
1.0
 40
1.0
 40
1.0
 40
1.0
 10
81.50492181763325
 20
658.153313149077
 30
0.0
 10
81.57310178857391
 20
658.1528669899806
 30
0.0
 10
82.54429070677239
 20
658.146511681166
 30
0.0
 10
83.4960045032751
 20
657.9186223308805
 30
0.0
 10
84.38090553269062
 20
657.7067314016941
 30
0.0
  0
LINE
  5
265
330
1F
100
AcDbEntity
  8
0
  6
Continuous
 62
     7
370
    15
100
AcDbLine
 10
84.3809055327
 20
657.7067314017
 30
0.0
 11
84.3809055327
 21
657.3533131111
 31
0.0
  0
LINE
  5
266
330
1F
100
AcDbEntity
  8
0
  6
Continuous
 62
     7
370
    15
100
AcDbLine
 10
78.6289977072
 20
657.7067314017
 30
0.0
 11
78.6289977072
 21
657.3533131111
 31
0.0
  0
SPLINE
  5
267
330
1F
100
AcDbEntity
  8
0
  6
Continuous
 62
     7
370
    15
100
AcDbSpline
210
0.0
220
0.0
230
1.0
 70
     8
 71
     3
 72
     9
 73
     5
 74
     0
 42
0.00000001
 43
0.00000001
 12
1.0
 22
0.0
 32
0.0
 13
1.0
 23
0.0
 33
0.0
 40
0.0
 40
0.0
 40
0.0
 40
0.0
 40
0.0701944655959387
 40
1.0
 40
1.0
 40
1.0
 40
1.0
 10
76.97508802399311
 20
658.153313149077
 30
0.0
 10
77.01428632589501
 20
658.1528668991069
 30
0.0
 10
77.57271071974203
 20
658.1465095607291
 30
0.0
 10
78.12006482804334
 20
657.9186222678413
 30
0.0
 10
78.62899770722065
 20
657.7067314016941
 30
0.0
  0
LINE
  5
268
330
1F
100
AcDbEntity
  8
0
  6
Continuous
 62
     7
370
    15
100
AcDbLine
 10
76.975088024
 20
658.1533131491
 30
0.0
 11
81.5049218176
 21
658.1533131491
 31
0.0
  0
SPLINE
  5
269
330
1F
100
AcDbEntity
  8
0
  6
Continuous
 62
     7
370
    15
100
AcDbSpline
210
0.0
220
0.0
230
1.0
 70
     8
 71
     3
 72
     9
 73
     5
 74
     0
 42
0.00000001
 43
0.00000001
 12
1.0
 22
0.0
 32
0.0
 13
1.0
 23
0.0
 33
0.0
 40
0.0
 40
0.0
 40
0.0
 40
0.0
 40
0.0859549140863518
 40
1.0
 40
1.0
 40
1.0
 40
1.0
 10
76.97508802399311
 20
652.9533131349209
 30
0.0
 10
77.01429040715469
 20
652.9536775288896
 30
0.0
 10
77.47037117435973
 20
652.957916890566
 30
0.0
 10
77.9174119101107
 20
653.1430704318684
 30
0.0
 10
78.32602729782734
 20
653.3123091164354
 30
0.0
  0
SPLINE
  5
26A
330
1F
100
AcDbEntity
  8
0
  6
Continuous
 62
     7
370
    15
100
AcDbSpline
210
0.0
220
0.0
230
1.0
 70
     8
 71
     3
 72
     9
 73
     5
 74
     0
 42
0.00000001
 43
0.00000001
 12
1.0
 22
0.0
 32
0.0
 13
1.0
 23
0.0
 33
0.0
 40
0.0
 40
0.0
 40
0.0
 40
0.0
 40
0.2575522258649653
 40
1.0
 40
1.0
 40
1.0
 40
1.0
 10
84.38090553269062
 20
657.7067314016941
 30
0.0
 10
84.4835004330462
 20
657.7741465466846
 30
0.0
 10
84.88184643844754
 20
658.0358998464826
 30
0.0
 10
85.29567434889151
 20
658.1032839622865
 30
0.0
 10
85.60291995987556
 20
658.153313149077
 30
0.0
  0
LINE
  5
26B
330
1F
100
AcDbEntity
  8
0
  6
Continuous
 62
     7
370
    15
100
AcDbLine
 10
81.5049218176
 20
658.1533131491
 30
0.0
 11
85.6029199599
 21
658.1533131491
 31
0.0
  0
LINE
  5
26C
330
1F
100
AcDbEntity
  8
0
  6
Continuous
 62
     7
370
    15
100
AcDbLine
 10
84.8582195281
 20
653.1630749184
 30
0.0
 11
85.6029199599
 21
652.9533131349
 31
0.0
  0
LINE
  5
26D
330
1F
100
AcDbEntity
  8
0
  6
Continuous
 62
     7
370
    15
100
AcDbLine
 10
75.3211187361
 20
657.7067314017
 30
0.0
 11
76.975088024
 21
658.1533131491
 31
0.0
  0
LINE
  5
26E
330
1F
100
AcDbEntity
  8
0
  6
Continuous
 62
     7
370
    15
100
AcDbLine
 10
75.3211187361
 20
653.399895348
 30
0.0
 11
76.975088024
 21
652.9533131349
 31
0.0
  0
LINE
  5
26F
330
1F
100
AcDbEntity
  8
0
  6
Continuous
 62
     7
370
    15
100
AcDbLine
 10
75.3211187361
 20
657.7067314017
 30
0.0
 11
75.3211187361
 21
653.399895348
 31
0.0
  0
SPLINE
  5
270
330
1F
100
AcDbEntity
  8
0
  6
Continuous
 62
     7
370
    15
100
AcDbSpline
210
0.0
220
0.0
230
1.0
 70
     8
 71
     3
 72
     9
 73
     5
 74
     0
 42
0.00000001
 43
0.00000001
 12
1.0
 22
0.0
 32
0.0
 13
1.0
 23
0.0
 33
0.0
 40
0.0
 40
0.0
 40
0.0
 40
0.0
 40
0.3390132468287607
 40
1.0
 40
1.0
 40
1.0
 40
1.0
 10
85.60291995987568
 20
658.153313149077
 30
0.0
 10
85.71411716408927
 20
658.1480404470882
 30
0.0
 10
86.0421196986626
 20
658.1324873616612
 30
0.0
 10
86.36144134091018
 20
657.946423225444
 30
0.0
 10
86.57250871643696
 20
657.8234372961643
 30
0.0
  0
LINE
  5
271
330
1F
100
AcDbEntity
  8
0
  6
Continuous
 62
     7
370
    15
100
AcDbLine
 10
86.8249939917
 20
657.7067314017
 30
0.0
 11
86.8249939917
 21
653.399895348
 31
0.0
  0
LINE
  5
272
330
1F
100
AcDbEntity
  8
0
  6
Continuous
 62
     7
370
    15
100
AcDbLine
 10
86.5725087164
 20
653.2831885222
 30
0.0
 11
86.8249939917
 21
653.399895348
 31
0.0
  0
LINE
  5
273
330
1F
100
AcDbEntity
  8
0
  6
Continuous
 62
     7
370
    15
100
AcDbLine
 10
75.3211187361
 20
653.399895348
 30
0.0
 11
75.5740212439
 21
653.2448394525
 31
0.0
  0
LINE
  5
274
330
1F
100
AcDbEntity
  8
0
  6
Continuous
 62
     7
370
    15
100
AcDbLine
 10
75.3211187361
 20
657.7067314017
 30
0.0
 11
75.5740212439
 21
657.8617863658
 31
0.0
  0
LINE
  5
275
330
1F
100
AcDbEntity
  8
0
  6
Continuous
 62
     7
370
    15
100
AcDbLine
 10
76.0730909346
 20
658.1533131491
 30
0.0
 11
76.975088024
 21
658.1533131491
 31
0.0
  0
LINE
  5
276
330
1F
100
AcDbEntity
  8
0
  6
Continuous
 62
     7
370
    15
100
AcDbLine
 10
85.6029199599
 20
658.1533131491
 30
0.0
 11
86.0730813979
 21
658.1533131491
 31
0.0
  0
LINE
  5
277
330
1F
100
AcDbEntity
  8
0
  6
Continuous
 62
     7
370
    15
100
AcDbLine
 10
785.073074901
 20
570.1533131603
 30
0.0
 11
728.0730711459
 21
570.1533131603
 31
0.0
  0
LINE
  5
278
330
1F
100
AcDbEntity
  8
0
  6
Continuous
 62
     7
370
    15
100
AcDbLine
 10
783.0730745731
 20
564.1533159021
 30
0.0
 11
730.073075199
 21
564.1533159021
 31
0.0
  0
LINE
  5
279
330
1F
100
AcDbEntity
  8
0
  6
Continuous
 62
     7
370
    15
100
AcDbLine
 10
206.0730861662
 20
570.1533131603
 30
0.0
 11
149.0730451582
 21
570.1533131603
 31
0.0
  0
LINE
  5
27A
330
1F
100
AcDbEntity
  8
0
  6
Continuous
 62
     7
370
    15
100
AcDbLine
 10
204.0730523108
 20
564.1533159021
 30
0.0
 11
151.0730790137
 21
564.1533159021
 31
0.0
  0
LINE
  5
27B
330
1F
100
AcDbEntity
  8
0
  6
Continuous
 62
     7
370
    15
100
AcDbLine
 10
222.5730823515
 20
662.1533128734
 30
0.0
 11
222.5730823515
 21
663.3533129304
 31
0.0
  0
LINE
  5
27C
330
1F
100
AcDbEntity
  8
0
  6
Continuous
 62
     7
370
    15
100
AcDbLine
 10
132.5730489729
 20
662.1533128734
 30
0.0
 11
222.5730823515
 21
662.1533128734
 31
0.0
  0
LINE
  5
27D
330
1F
100
AcDbEntity
  8
0
  6
Continuous
 62
     7
370
    15
100
AcDbLine
 10
132.5730489729
 20
662.1533128734
 30
0.0
 11
132.5730489729
 21
663.3533129304
 31
0.0
  0
LINE
  5
27E
330
1F
100
AcDbEntity
  8
0
  6
Continuous
 62
     7
370
    15
100
AcDbLine
 10
208.5327314375
 20
599.1533123258
 30
0.0
 11
146.6133998869
 21
599.1533123258
 31
0.0
  0
LINE
  5
27F
330
1F
100
AcDbEntity
  8
0
  6
Continuous
 62
     7
370
    15
100
AcDbLine
 10
801.5730748116
 20
662.1533128734
 30
0.0
 11
801.5730748116
 21
663.3533129304
 31
0.0
  0
LINE
  5
280
330
1F
100
AcDbEntity
  8
0
  6
Continuous
 62
     7
370
    15
100
AcDbLine
 10
711.5730749606
 20
662.1533128734
 30
0.0
 11
801.5730748116
 21
662.1533128734
 31
0.0
  0
LINE
  5
281
330
1F
100
AcDbEntity
  8
0
  6
Continuous
 62
     7
370
    15
100
AcDbLine
 10
711.5730749606
 20
662.1533128734
 30
0.0
 11
711.5730749606
 21
663.3533129304
 31
0.0
  0
LINE
  5
282
330
1F
100
AcDbEntity
  8
0
  6
Continuous
 62
     7
370
    15
100
AcDbLine
 10
787.5327238975
 20
599.1533123258
 30
0.0
 11
725.6134258746
 21
599.1533123258
 31
0.0
  0
ENDSEC
  0
SECTION
  2
OBJECTS
  0
DICTIONARY
  5
C
330
0
100
AcDbDictionary
281
     1
  3
ACAD_GROUP
350
D
  3
ACAD_LAYOUT
350
1A
  3
ACAD_MLINESTYLE
350
17
  3
ACAD_PLOTSETTINGS
350
19
  3
ACAD_PLOTSTYLENAME
350
E
  0
DICTIONARY
  5
D
102
{ACAD_REACTORS
330
C
102
}
330
C
100
AcDbDictionary
281
     1
  0
DICTIONARY
  5
1A
102
{ACAD_REACTORS
330
C
102
}
330
C
100
AcDbDictionary
281
     1
  3
Layout1
350
1E
  3
Layout2
350
26
  3
Model
350
22
  0
DICTIONARY
  5
17
102
{ACAD_REACTORS
330
C
102
}
330
C
100
AcDbDictionary
281
     1
  3
Standard
350
18
  0
DICTIONARY
  5
19
102
{ACAD_REACTORS
330
C
102
}
330
C
100
AcDbDictionary
281
     1
  0
ACDBDICTIONARYWDFLT
  5
E
102
{ACAD_REACTORS
330
C
102
}
330
C
100
AcDbDictionary
281
     1
  3
Normal
350
F
100
AcDbDictionaryWithDefault
340
F
  0
LAYOUT
  5
1E
102
{ACAD_REACTORS
330
1A
102
}
330
1A
100
AcDbPlotSettings
  1

  2
none_device
  4

  6

 40
0.0
 41
0.0
 42
0.0
 43
0.0
 44
0.0
 45
0.0
 46
0.0
 47
0.0
 48
0.0
 49
0.0
140
0.0
141
0.0
142
1.0
143
1.0
 70
   688
 72
     0
 73
     0
 74
     5
  7

 75
    16
147
1.0
148
0.0
149
0.0
100
AcDbLayout
  1
Layout1
 70
     1
 71
     1
 10
0.0
 20
0.0
 11
420.0
 21
297.0
 12
0.0
 22
0.0
 32
0.0
 14
1.0000000000E+20
 24
1.0000000000E+20
 34
1.0000000000E+20
 15
-1.0000000000E+20
 25
-1.0000000000E+20
 35
-1.0000000000E+20
146
0.0
 13
0.0
 23
0.0
 33
0.0
 16
1.0
 26
0.0
 36
0.0
 17
0.0
 27
1.0
 37
0.0
 76
     0
330
1B
  0
LAYOUT
  5
26
102
{ACAD_REACTORS
330
1A
102
}
330
1A
100
AcDbPlotSettings
  1

  2
none_device
  4

  6

 40
0.0
 41
0.0
 42
0.0
 43
0.0
 44
0.0
 45
0.0
 46
0.0
 47
0.0
 48
0.0
 49
0.0
140
0.0
141
0.0
142
1.0
143
1.0
 70
   688
 72
     0
 73
     0
 74
     5
  7

 75
    16
147
1.0
148
0.0
149
0.0
100
AcDbLayout
  1
Layout2
 70
     1
 71
     2
 10
0.0
 20
0.0
 11
0.0
 21
0.0
 12
0.0
 22
0.0
 32
0.0
 14
0.0
 24
0.0
 34
0.0
 15
0.0
 25
0.0
 35
0.0
146
0.0
 13
0.0
 23
0.0
 33
0.0
 16
1.0
 26
0.0
 36
0.0
 17
0.0
 27
1.0
 37
0.0
 76
     0
330
23
  0
LAYOUT
  5
22
102
{ACAD_REACTORS
330
1A
102
}
330
1A
100
AcDbPlotSettings
  1

  2
none_device
  4

  6

 40
0.0
 41
0.0
 42
0.0
 43
0.0
 44
0.0
 45
0.0
 46
0.0
 47
0.0
 48
0.0
 49
0.0
140
0.0
141
0.0
142
1.0
143
1.0
 70
  1712
 72
     0
 73
     0
 74
     0
  7

 75
     0
147
1.0
148
0.0
149
0.0
100
AcDbLayout
  1
Model
 70
     1
 71
     0
 10
0.0
 20
0.0
 11
1000.0
 21
1000.0
 12
0.0
 22
0.0
 32
0.0
 14
0.0
 24
0.0
 34
0.0
 15
1000.0
 25
1000.0
 35
0.0
146
0.0
 13
0.0
 23
0.0
 33
0.0
 16
1.0
 26
0.0
 36
0.0
 17
0.0
 27
1.0
 37
0.0
 76
     0
330
1F
331
29
  0
MLINESTYLE
  5
18
102
{ACAD_REACTORS
330
17
102
}
330
17
100
AcDbMlineStyle
  2
Standard
 70
     0
  3

 62
   256
 51
90.0
 52
90.0
 71
     2
 49
0.5
 62
   256
  6
BYLAYER
 49
-0.5
 62
   256
  6
BYLAYER
  0
ACDBPLACEHOLDER
  5
F
102
{ACAD_REACTORS
330
E
102
}
330
E
  0
ENDSEC
  0
EOF
