  0
SECTION
  2
HEADER
  9
$ACADVER
  1
AC1015
  9
$ACADMAINTVER
 70
     6
  9
$DWGCODEPAGE
  3
ANSI_1252
  9
$INSBASE
 10
0.0
 20
0.0
 30
0.0
  9
$EXTMIN
 10
0.0
 20
0.0
 30
0.0
  9
$EXTMAX
 10
1100.0
 20
1100.0
 30
0.0
  9
$LIMMIN
 10
0.0
 20
0.0
  9
$LIMMAX
 10
1100.0
 20
1100.0
  9
$ORTHOMODE
 70
     0
  9
$REGENMODE
 70
     1
  9
$FILLMODE
 70
     1
  9
$QTEXTMODE
 70
     0
  9
$MIRRTEXT
 70
     1
  9
$LTSCALE
 40
1.0
  9
$ATTMODE
 70
     1
  9
$TEXTSIZE
 40
3.5
  9
$TRACEWID
 40
1.0
  9
$TEXTSTYLE
  7
Standard
  9
$CLAYER
  8
0
  9
$CELTYPE
  6
ByLayer
  9
$CECOLOR
 62
   256
  9
$CELTSCALE
 40
1.0
  9
$DISPSILH
 70
     0
  9
$DIMSCALE
 40
1.0
  9
$DIMASZ
 40
3.302
  9
$DIMEXO
 40
1.0
  9
$DIMDLI
 40
3.75
  9
$DIMRND
 40
0.0
  9
$DIMDLE
 40
0.0
  9
$DIMEXE
 40
1.0
  9
$DIMTP
 40
0.0
  9
$DIMTM
 40
0.0
  9
$DIMTXT
 40
3.5
  9
$DIMCEN
 40
2.5
  9
$DIMTSZ
 40
0.0
  9
$DIMTOL
 70
     0
  9
$DIMLIM
 70
     0
  9
$DIMTIH
 70
     1
  9
$DIMTOH
 70
     1
  9
$DIMSE1
 70
     0
  9
$DIMSE2
 70
     0
  9
$DIMTAD
 70
     1
  9
$DIMZIN
 70
     0
  9
$DIMBLK
  1

  9
$DIMASO
 70
     1
  9
$DIMSHO
 70
     1
  9
$DIMPOST
  1

  9
$DIMAPOST
  1

  9
$DIMALT
 70
     0
  9
$DIMALTD
 70
     3
  9
$DIMALTF
 40
0.0393700787
  9
$DIMLFAC
 40
1.0
  9
$DIMTOFL
 70
     1
  9
$DIMTVP
 40
0.0
  9
$DIMTIX
 70
     0
  9
$DIMSOXD
 70
     0
  9
$DIMSAH
 70
     0
  9
$DIMBLK1
  1

  9
$DIMBLK2
  1

  9
$DIMSTYLE
  2
ISO-25
  9
$DIMCLRD
 70
     0
  9
$DIMCLRE
 70
     0
  9
$DIMCLRT
 70
     0
  9
$DIMTFAC
 40
1.0
  9
$DIMGAP
 40
1.524
  9
$DIMJUST
 70
     0
  9
$DIMSD1
 70
     0
  9
$DIMSD2
 70
     0
  9
$DIMTOLJ
 70
     0
  9
$DIMTZIN
 70
     0
  9
$DIMALTZ
 70
     0
  9
$DIMALTTZ
 70
     0
  9
$DIMUPT
 70
     0
  9
$DIMDEC
 70
     1
  9
$DIMTDEC
 70
     1
  9
$DIMALTU
 70
     2
  9
$DIMALTTD
 70
     3
  9
$DIMTXSTY
  7
Standard
  9
$DIMAUNIT
 70
     0
  9
$DIMADEC
 70
     1
  9
$DIMALTRND
 40
0.0
  9
$DIMAZIN
 70
     0
  9
$DIMDSEP
 70
    44
  9
$DIMATFIT
 70
     3
  9
$DIMFRAC
 70
     0
  9
$DIMLDRBLK
  1

  9
$DIMLUNIT
 70
     2
  9
$DIMLWD
 70
    -2
  9
$DIMLWE
 70
    -2
  9
$DIMTMOVE
 70
     0
  9
$LUNITS
 70
     2
  9
$LUPREC
 70
     1
  9
$SKETCHINC
 40
1.0
  9
$FILLETRAD
 40
10.0
  9
$AUNITS
 70
     0
  9
$AUPREC
 70
     1
  9
$MENU
  1
.
  9
$ELEVATION
 40
0.0
  9
$PELEVATION
 40
0.0
  9
$THICKNESS
 40
0.0
  9
$LIMCHECK
 70
     0
  9
$CHAMFERA
 40
10.0
  9
$CHAMFERB
 40
10.0
  9
$CHAMFERC
 40
20.0
  9
$CHAMFERD
 40
0.0
  9
$SKPOLY
 70
     0
  9
$TDCREATE
 40
2457420.478818391
  9
$TDUCREATE
 40
2457420.478818391
  9
$TDUPDATE
 40
2457420.478819109
  9
$TDUUPDATE
 40
2457420.478819109
  9
$TDINDWG
 40
0.0000000116
  9
$TDUSRTIMER
 40
0.0000000116
  9
$USRTIMER
 70
     1
  9
$ANGBASE
 50
0.0
  9
$ANGDIR
 70
     0
  9
$PDMODE
 70
     0
  9
$PDSIZE
 40
-1.0
  9
$PLINEWID
 40
0.0
  9
$SPLFRAME
 70
     0
  9
$SPLINETYPE
 70
     6
  9
$SPLINESEGS
 70
     8
  9
$HANDSEED
  5
17C
  9
$SURFTAB1
 70
     6
  9
$SURFTAB2
 70
     6
  9
$SURFTYPE
 70
     6
  9
$SURFU
 70
     6
  9
$SURFV
 70
     6
  9
$UCSBASE
  2

  9
$UCSNAME
  2

  9
$UCSORG
 10
0.0
 20
0.0
 30
0.0
  9
$UCSXDIR
 10
1.0
 20
0.0
 30
0.0
  9
$UCSYDIR
 10
0.0
 20
1.0
 30
0.0
  9
$UCSORTHOREF
  2

  9
$UCSORTHOVIEW
 70
     0
  9
$UCSORGTOP
 10
0.0
 20
0.0
 30
0.0
  9
$UCSORGBOTTOM
 10
0.0
 20
0.0
 30
0.0
  9
$UCSORGLEFT
 10
0.0
 20
0.0
 30
0.0
  9
$UCSORGRIGHT
 10
0.0
 20
0.0
 30
0.0
  9
$UCSORGFRONT
 10
0.0
 20
0.0
 30
0.0
  9
$UCSORGBACK
 10
0.0
 20
0.0
 30
0.0
  9
$PUCSBASE
  2

  9
$PUCSNAME
  2

  9
$PUCSORG
 10
0.0
 20
0.0
 30
0.0
  9
$PUCSXDIR
 10
1.0
 20
0.0
 30
0.0
  9
$PUCSYDIR
 10
0.0
 20
1.0
 30
0.0
  9
$PUCSORTHOREF
  2

  9
$PUCSORTHOVIEW
 70
     0
  9
$PUCSORGTOP
 10
0.0
 20
0.0
 30
0.0
  9
$PUCSORGBOTTOM
 10
0.0
 20
0.0
 30
0.0
  9
$PUCSORGLEFT
 10
0.0
 20
0.0
 30
0.0
  9
$PUCSORGRIGHT
 10
0.0
 20
0.0
 30
0.0
  9
$PUCSORGFRONT
 10
0.0
 20
0.0
 30
0.0
  9
$PUCSORGBACK
 10
0.0
 20
0.0
 30
0.0
  9
$USERI1
 70
     0
  9
$USERI2
 70
     0
  9
$USERI3
 70
     0
  9
$USERI4
 70
     0
  9
$USERI5
 70
     0
  9
$USERR1
 40
0.0
  9
$USERR2
 40
0.0
  9
$USERR3
 40
0.0
  9
$USERR4
 40
0.0
  9
$USERR5
 40
0.0
  9
$WORLDVIEW
 70
     1
  9
$SHADEDGE
 70
     3
  9
$SHADEDIF
 70
    70
  9
$TILEMODE
 70
     1
  9
$MAXACTVP
 70
    64
  9
$PINSBASE
 10
0.0
 20
0.0
 30
0.0
  9
$PLIMCHECK
 70
     0
  9
$PEXTMIN
 10
1.0000000000E+20
 20
1.0000000000E+20
 30
1.0000000000E+20
  9
$PEXTMAX
 10
-1.0000000000E+20
 20
-1.0000000000E+20
 30
-1.0000000000E+20
  9
$PLIMMIN
 10
0.0
 20
0.0
  9
$PLIMMAX
 10
420.0
 20
297.0
  9
$UNITMODE
 70
     0
  9
$VISRETAIN
 70
     1
  9
$PLINEGEN
 70
     0
  9
$PSLTSCALE
 70
     1
  9
$TREEDEPTH
 70
  3020
  9
$CMLSTYLE
  2
Standard
  9
$CMLJUST
 70
     0
  9
$CMLSCALE
 40
20.0
  9
$PROXYGRAPHICS
 70
     1
  9
$MEASUREMENT
 70
     1
  9
$CELWEIGHT
370
    -1
  9
$ENDCAPS
280
     0
  9
$JOINSTYLE
280
     0
  9
$LWDISPLAY
290
     1
  9
$INSUNITS
 70
     4
  9
$HYPERLINKBASE
  1

  9
$STYLESHEET
  1

  9
$XEDIT
290
     1
  9
$CEPSNTYPE
380
     0
  9
$PSTYLEMODE
290
     1
  9
$FINGERPRINTGUID
  2
{416EFB84-74C5-46DA-B602-FCD4A1E1E654}
  9
$VERSIONGUID
  2
{FAEB1C32-E019-11D5-929B-00C0DF256EC4}
  9
$EXTNAMES
290
     1
  9
$PSVPSCALE
 40
0.0
  9
$OLESTARTUP
290
     0
  0
ENDSEC
  0
SECTION
  2
CLASSES
  0
CLASS
  1
ACDBDICTIONARYWDFLT
  2
AcDbDictionaryWithDefault
  3
ObjectDBX Classes
 90
        0
280
     0
281
     0
  0
CLASS
  1
VISUALSTYLE
  2
AcDbVisualStyle
  3
ObjectDBX Classes
 90
     4095
280
     0
281
     0
  0
CLASS
  1
MATERIAL
  2
AcDbMaterial
  3
ObjectDBX Classes
 90
     1153
280
     0
281
     0
  0
CLASS
  1
ACDBPLACEHOLDER
  2
AcDbPlaceHolder
  3
ObjectDBX Classes
 90
        0
280
     0
281
     0
  0
CLASS
  1
LAYOUT
  2
AcDbLayout
  3
ObjectDBX Classes
 90
        0
280
     0
281
     0
  0
ENDSEC
  0
SECTION
  2
TABLES
  0
TABLE
  2
VPORT
  5
8
330
0
100
AcDbSymbolTable
 70
     1
  0
VPORT
  5
29
330
8
100
AcDbSymbolTableRecord
100
AcDbViewportTableRecord
  2
*Active
 70
     0
 10
0.0
 20
0.0
 11
1.0
 21
1.0
 12
550.0
 22
550.0
 13
0.0
 23
0.0
 14
10.0
 24
10.0
 15
10.0
 25
10.0
 16
0.0
 26
0.0
 36
1.0
 17
0.0
 27
0.0
 37
0.0
 40
1100.0
 41
1.0
 42
50.0
 43
0.0
 44
0.0
 50
0.0
 51
0.0
 71
     0
 72
  2000
 73
     1
 74
     3
 75
     0
 76
     0
 77
     0
 78
     0
281
     0
 65
     1
110
0.0
120
0.0
130
0.0
111
1.0
121
0.0
131
0.0
112
0.0
122
1.0
132
0.0
 79
     0
146
0.0
  0
ENDTAB
  0
TABLE
  2
LTYPE
  5
5
330
0
100
AcDbSymbolTable
 70
     6
  0
LTYPE
  5
14
330
5
100
AcDbSymbolTableRecord
100
AcDbLinetypeTableRecord
  2
ByBlock
 70
     0
  3

 72
    65
 73
     0
 40
0.0
  0
LTYPE
  5
15
330
5
100
AcDbSymbolTableRecord
100
AcDbLinetypeTableRecord
  2
ByLayer
 70
     0
  3

 72
    65
 73
     0
 40
0.0
  0
LTYPE
  5
16
330
5
100
AcDbSymbolTableRecord
100
AcDbLinetypeTableRecord
  2
Continuous
 70
     0
  3
Solid line
 72
    65
 73
     0
 40
0.0
  0
LTYPE
  5
3F
330
5
100
AcDbSymbolTableRecord
100
AcDbLinetypeTableRecord
  2
HIDDEN
 70
     0
  3
Hidden __ __ __ __ __ __ __ __ __ __ __ __ __ __
 72
    65
 73
     2
 40
1.905
 49
1.27
 74
     0
 49
-0.635
 74
     0
  0
LTYPE
  5
40
330
5
100
AcDbSymbolTableRecord
100
AcDbLinetypeTableRecord
  2
PHANTOM
 70
     0
  3
Phantom ______  __  __  ______  __  __  ______
 72
    65
 73
     6
 40
12.7
 49
6.35
 74
     0
 49
-1.27
 74
     0
 49
1.27
 74
     0
 49
-1.27
 74
     0
 49
1.27
 74
     0
 49
-1.27
 74
     0
  0
LTYPE
  5
41
330
5
100
AcDbSymbolTableRecord
100
AcDbLinetypeTableRecord
  2
CENTER
 70
     0
  3
Center ____ _ ____ _ ____ _ ____ _ ____ _ ____
 72
    65
 73
     4
 40
10.16
 49
6.35
 74
     0
 49
-1.27
 74
     0
 49
1.27
 74
     0
 49
-1.27
 74
     0
  0
LTYPE
  5
42
330
5
100
AcDbSymbolTableRecord
100
AcDbLinetypeTableRecord
  2
CENTERX2
 70
     0
  3
Center (2x) ________  __  ________  __  _____
 72
    65
 73
     4
 40
20.32
 49
12.7
 74
     0
 49
-2.54
 74
     0
 49
2.54
 74
     0
 49
-2.54
 74
     0
  0
LTYPE
  5
43
330
5
100
AcDbSymbolTableRecord
100
AcDbLinetypeTableRecord
  2
DOT2
 70
     0
  3
Dot (.5x) ........................................
 72
    65
 73
     2
 40
0.635
 49
0.0
 74
     0
 49
-0.635
 74
     0
  0
ENDTAB
  0
TABLE
  2
LAYER
  5
2
330
0
100
AcDbSymbolTable
 70
     4
  0
LAYER
  5
10
330
2
100
AcDbSymbolTableRecord
100
AcDbLayerTableRecord
  2
0
 70
     0
 62
     7
  6
Continuous
370
    -3
390
F
  0
LAYER
  5
44
330
2
100
AcDbSymbolTableRecord
100
AcDbLayerTableRecord
  2
FORMAT
 70
     0
 62
     7
  6
Continuous
370
    -3
390
F
  0
LAYER
  5
45
330
2
100
AcDbSymbolTableRecord
100
AcDbLayerTableRecord
  2
SLD-0
 70
     0
 62
     1
  6
Continuous
370
    -3
390
F
  0
LAYER
  5
46
330
2
100
AcDbSymbolTableRecord
100
AcDbLayerTableRecord
  2
WATERMARK
 70
     0
 62
     1
  6
Continuous
370
    -3
390
F
  0
ENDTAB
  0
TABLE
  2
STYLE
  5
3
330
0
100
AcDbSymbolTable
 70
     1
  0
STYLE
  5
11
330
3
100
AcDbSymbolTableRecord
100
AcDbTextStyleTableRecord
  2
Standard
 70
     0
 40
0.0
 41
1.0
 50
0.0
 71
     0
 42
3.5
  3
txt
  4

  0
ENDTAB
  0
TABLE
  2
VIEW
  5
6
330
0
100
AcDbSymbolTable
 70
     0
  0
ENDTAB
  0
TABLE
  2
UCS
  5
7
330
0
100
AcDbSymbolTable
 70
     0
  0
ENDTAB
  0
TABLE
  2
APPID
  5
9
330
0
100
AcDbSymbolTable
 70
     1
  0
APPID
  5
12
330
9
100
AcDbSymbolTableRecord
100
AcDbRegAppTableRecord
  2
ACAD
 70
     0
  0
ENDTAB
  0
TABLE
  2
DIMSTYLE
  5
A
330
0
100
AcDbSymbolTable
 70
     1
100
AcDbDimStyleTable
  0
DIMSTYLE
105
27
330
A
100
AcDbSymbolTableRecord
100
AcDbDimStyleTableRecord
  2
ISO-25
 70
     0
 41
2.5
 42
0.625
 43
3.75
 44
1.25
 73
     0
 74
     0
 77
     1
 78
     8
140
2.5
141
2.5
143
0.0393700787
147
0.625
171
     3
172
     1
178
     0
271
     2
272
     2
274
     3
278
    44
283
     0
284
     8
340
11
  0
ENDTAB
  0
TABLE
  2
BLOCK_RECORD
  5
1
330
0
100
AcDbSymbolTable
 70
     1
  0
BLOCK_RECORD
  5
1F
330
1
100
AcDbSymbolTableRecord
100
AcDbBlockTableRecord
  2
*Model_Space
340
22
  0
BLOCK_RECORD
  5
1B
330
1
100
AcDbSymbolTableRecord
100
AcDbBlockTableRecord
  2
*Paper_Space
340
1E
  0
BLOCK_RECORD
  5
23
330
1
100
AcDbSymbolTableRecord
100
AcDbBlockTableRecord
  2
*Paper_Space0
340
26
  0
ENDTAB
  0
ENDSEC
  0
SECTION
  2
BLOCKS
  0
BLOCK
  5
20
330
1F
100
AcDbEntity
  8
0
100
AcDbBlockBegin
  2
*Model_Space
 70
     0
 10
0.0
 20
0.0
 30
0.0
  3
*Model_Space
  1

  0
ENDBLK
  5
21
330
1F
100
AcDbEntity
  8
0
100
AcDbBlockEnd
  0
BLOCK
  5
1C
330
1B
100
AcDbEntity
 67
     1
  8
0
100
AcDbBlockBegin
  2
*Paper_Space
 70
     0
 10
0.0
 20
0.0
 30
0.0
  3
*Paper_Space
  1

  0
ENDBLK
  5
1D
330
1B
100
AcDbEntity
 67
     1
  8
0
100
AcDbBlockEnd
  0
BLOCK
  5
24
330
23
100
AcDbEntity
  8
0
100
AcDbBlockBegin
  2
*Paper_Space0
 70
     0
 10
0.0
 20
0.0
 30
0.0
  3
*Paper_Space0
  1

  0
ENDBLK
  5
25
330
23
100
AcDbEntity
  8
0
100
AcDbBlockEnd
  0
ENDSEC
  0
SECTION
  2
ENTITIES
  0
LINE
  5
47
330
1F
100
AcDbEntity
  8
0
  6
Continuous
 62
     7
370
    15
100
AcDbLine
 10
144.622458086
 20
121.4572721661
 30
0.0
 11
944.6224700069
 21
121.4572721661
 31
0.0
  0
LINE
  5
48
330
1F
100
AcDbEntity
  8
0
  6
Continuous
 62
     7
370
    15
100
AcDbLine
 10
144.622458086
 20
121.3754945935
 30
0.0
 11
187.5198017215
 21
121.3754945935
 31
0.0
  0
LINE
  5
49
330
1F
100
AcDbEntity
  8
0
  6
Continuous
 62
     7
370
    15
100
AcDbLine
 10
434.3109782194
 20
121.3754945935
 30
0.0
 11
530.5405072277
 21
121.3754945935
 31
0.0
  0
LINE
  5
4A
330
1F
100
AcDbEntity
  8
0
  6
Continuous
 62
     7
370
    15
100
AcDbLine
 10
558.7144493466
 20
121.3754945935
 30
0.0
 11
820.7560907459
 21
121.3754945935
 31
0.0
  0
LINE
  5
4B
330
1F
100
AcDbEntity
  8
0
  6
Continuous
 62
     7
370
    15
100
AcDbLine
 10
848.9287327384
 20
121.3754945935
 30
0.0
 11
944.6224700069
 21
121.3754945935
 31
0.0
  0
SPLINE
  5
4C
330
1F
100
AcDbEntity
  8
0
  6
Continuous
 62
     7
370
    15
100
AcDbSpline
210
0.0
220
0.0
230
1.0
 70
     8
 71
     3
 72
     9
 73
     5
 74
     0
 42
0.00000001
 43
0.00000001
 12
1.0
 22
0.0
 32
0.0
 13
1.0
 23
0.0
 33
0.0
 40
0.0
 40
0.0
 40
0.0
 40
0.0
 40
0.0514698561442842
 40
1.0
 40
1.0
 40
1.0
 40
1.0
 10
554.9417742868636
 20
120.4338455141641
 30
0.0
 10
554.9465251741582
 20
120.4514168034857
 30
0.0
 10
555.0388294401986
 20
120.7928067089154
 30
0.0
 10
555.2226509948841
 20
121.1338152682639
 30
0.0
 10
555.3970112805937
 20
121.4572721661188
 30
0.0
  0
LINE
  5
4D
330
1F
100
AcDbEntity
  8
0
  6
Continuous
 62
     7
370
    15
100
AcDbLine
 10
533.8556570342
 20
121.4572721661
 30
0.0
 11
534.0813509529
 21
120.9278339089
 31
0.0
  0
ARC
  5
4E
330
1F
100
AcDbEntity
  8
0
  6
Continuous
 62
     7
370
    15
100
AcDbCircle
 10
555.2572673068
 20
110.2282372289
 30
0.0
 40
1.000000000000004
100
AcDbArc
 50
286.1036910378
 51
349.3444562998
  0
ARC
  5
4F
330
1F
100
AcDbEntity
  8
0
  6
Continuous
 62
     7
370
    15
100
AcDbCircle
 10
533.987660786
 20
110.2282372289
 30
0.0
 40
1.000000000000065
100
AcDbArc
 50
190.6555437002
 51
253.8963089622
  0
SPLINE
  5
50
330
1F
100
AcDbEntity
  8
0
  6
Continuous
 62
     7
370
    15
100
AcDbSpline
210
0.0
220
0.0
230
1.0
 70
     8
 71
     3
 72
    17
 73
    13
 74
     0
 42
0.00000001
 43
0.00000001
 12
1.0
 22
0.0
 32
0.0
 13
1.0
 23
0.0
 33
0.0
 40
0.0
 40
0.0
 40
0.0
 40
0.0
 40
0.0568463386070641
 40
0.1651287048834774
 40
0.2731859662942073
 40
0.3810465170422885
 40
0.4887964062122561
 40
0.5965119865262158
 40
0.7042562254836333
 40
0.8120888584994246
 40
0.9200909369167541
 40
1.0
 40
1.0
 40
1.0
 40
1.0
 10
533.7102840995167
 20
109.2674741090395
 30
0.0
 10
534.0800570784857
 20
109.1653565559834
 30
0.0
 10
535.1541831280119
 20
108.8687228642593
 30
0.0
 10
537.0544064757444
 20
108.4694999269311
 30
0.0
 10
539.4218143232056
 20
108.1175953605165
 30
0.0
 10
541.871511909862
 20
107.9000832015349
 30
0.0
 10
544.3623105403577
 20
107.8175883536041
 30
0.0
 10
546.8563664191998
 20
107.871722832535
 30
0.0
 10
549.3158350909164
 20
108.0608744425546
 30
0.0
 10
551.6990902190961
 20
108.3849956437794
 30
0.0
 10
553.7836721187117
 20
108.7919945066865
 30
0.0
 10
555.0122094660097
 20
109.125606061413
 30
0.0
 10
555.5346439933155
 20
109.2674741090395
 30
0.0
  0
SPLINE
  5
51
330
1F
100
AcDbEntity
  8
0
  6
Continuous
 62
     7
370
    15
100
AcDbSpline
210
0.0
220
0.0
230
1.0
 70
     8
 71
     3
 72
     9
 73
     5
 74
     0
 42
0.00000001
 43
0.00000001
 12
1.0
 22
0.0
 32
0.0
 13
1.0
 23
0.0
 33
0.0
 40
0.0
 40
0.0
 40
0.0
 40
0.0
 40
0.5245002533625086
 40
1.0
 40
1.0
 40
1.0
 40
1.0
 10
556.2408984979365
 20
110.0436904967882
 30
0.0
 10
556.630626197014
 20
112.044231877164
 30
0.0
 10
557.373671975503
 20
115.8584176045313
 30
0.0
 10
558.3213348258132
 20
119.7631867161404
 30
0.0
 10
558.7719482710336
 20
121.6199034393884
 30
0.0
  0
SPLINE
  5
52
330
1F
100
AcDbEntity
  8
0
  6
Continuous
 62
     7
370
    15
100
AcDbSpline
210
0.0
220
0.0
230
1.0
 70
     8
 71
     3
 72
    10
 73
     6
 74
     0
 42
0.00000001
 43
0.00000001
 12
1.0
 22
0.0
 32
0.0
 13
1.0
 23
0.0
 33
0.0
 40
0.0
 40
0.0
 40
0.0
 40
0.0
 40
0.1102505916719731
 40
0.7179886166271143
 40
1.0
 40
1.0
 40
1.0
 40
1.0
 10
530.4802078163002
 20
121.61717652689
 30
0.0
 10
530.5883906242765
 20
121.1859907418685
 30
0.0
 10
531.2929131439632
 20
118.3779651285642
 30
0.0
 10
532.1610416621963
 20
114.4935544969664
 30
0.0
 10
532.7778604674332
 20
111.1264830458084
 30
0.0
 10
532.9733648678039
 20
110.0592696608164
 30
0.0
  0
LINE
  5
53
330
1F
100
AcDbEntity
  8
0
  6
Continuous
 62
     7
370
    15
100
AcDbLine
 10
844.9490200137
 20
120.739952618
 30
0.0
 11
845.2562521552
 21
121.4572721661
 31
0.0
  0
SPLINE
  5
54
330
1F
100
AcDbEntity
  8
0
  6
Continuous
 62
     7
370
    15
100
AcDbSpline
210
0.0
220
0.0
230
1.0
 70
     8
 71
     3
 72
     9
 73
     5
 74
     0
 42
0.00000001
 43
0.00000001
 12
1.0
 22
0.0
 32
0.0
 13
1.0
 23
0.0
 33
0.0
 40
0.0
 40
0.0
 40
0.0
 40
0.0
 40
0.913043649212448
 40
1.0
 40
1.0
 40
1.0
 40
1.0
 10
823.7147461032246
 20
121.4572721661188
 30
0.0
 10
823.9424538767432
 20
121.0288112394703
 30
0.0
 10
824.191848058188
 20
120.5595445981459
 30
0.0
 10
824.318056911002
 20
120.0898235509976
 30
0.0
 10
824.3290315722797
 20
120.0489783228494
 30
0.0
  0
ARC
  5
55
330
1F
100
AcDbEntity
  8
0
  6
Continuous
 62
     7
370
    15
100
AcDbCircle
 10
845.4157379823
 20
110.2744919679
 30
0.0
 40
0.9999999999999825
100
AcDbArc
 50
286.4403576866
 51
348.995984334
  0
ARC
  5
56
330
1F
100
AcDbEntity
  8
0
  6
Continuous
 62
     7
370
    15
100
AcDbCircle
 10
824.1472412179
 20
110.1826690363
 30
0.0
 40
1.000000000000029
100
AcDbArc
 50
190.3043221748
 51
254.2294316995
  0
SPLINE
  5
57
330
1F
100
AcDbEntity
  8
0
  6
Continuous
 62
     7
370
    15
100
AcDbSpline
210
0.0
220
0.0
230
1.0
 70
     8
 71
     3
 72
     9
 73
     5
 74
     0
 42
0.00000001
 43
0.00000001
 12
1.0
 22
0.0
 32
0.0
 13
1.0
 23
0.0
 33
0.0
 40
0.0
 40
0.0
 40
0.0
 40
0.0
 40
0.5404665349740904
 40
1.0
 40
1.0
 40
1.0
 40
1.0
 10
846.3980089282368
 20
110.0838565767862
 30
0.0
 10
846.8018279847207
 20
112.0946936239395
 30
0.0
 10
847.5489955341475
 20
115.8152515438665
 30
0.0
 10
848.4943230907588
 20
119.6248545319842
 30
0.0
 10
848.9287327384327
 20
121.3754945934869
 30
0.0
  0
SPLINE
  5
58
330
1F
100
AcDbEntity
  8
0
  6
Continuous
 62
     7
370
    15
100
AcDbSpline
210
0.0
220
0.0
230
1.0
 70
     8
 71
     3
 72
    17
 73
    13
 74
     0
 42
0.00000001
 43
0.00000001
 12
1.0
 22
0.0
 32
0.0
 13
1.0
 23
0.0
 33
0.0
 40
0.0
 40
0.0
 40
0.0
 40
0.0
 40
0.056837932208163
 40
0.1650942182607857
 40
0.2731325437785057
 40
0.3809806251995822
 40
0.4887259186851603
 40
0.5964412340143683
 40
0.7041892545738385
 40
0.8120330072505718
 40
0.9200519158498115
 40
1.0
 40
1.0
 40
1.0
 40
1.0
 10
823.8754700278614
 20
109.2203119338609
 30
0.0
 10
824.2474992261746
 20
109.1198455988249
 30
0.0
 10
825.3281133034207
 20
108.8280262028702
 30
0.0
 10
827.2370684916021
 20
108.4371812802237
 30
0.0
 10
829.6120731008867
 20
108.0955989182837
 30
0.0
 10
832.0664223961198
 20
107.8886746813253
 30
0.0
 10
834.5588799010812
 20
107.8168947969345
 30
0.0
 10
837.0515484097136
 20
107.8817362230344
 30
0.0
 10
839.5066203017925
 20
108.0814871699862
 30
0.0
 10
841.8825129840188
 20
108.4159006123036
 30
0.0
 10
843.9580999053892
 20
108.8320152157046
 30
0.0
 10
845.179330492414
 20
109.1711356481829
 30
0.0
 10
845.6987570380543
 20
109.3153738916971
 30
0.0
  0
LINE
  5
59
330
1F
100
AcDbEntity
  8
0
  6
Continuous
 62
     7
370
    15
100
AcDbLine
 10
823.087407217
 20
110.2634155692
 30
0.0
 11
823.1316040611
 21
110.0195878686
 31
0.0
  0
SPLINE
  5
5A
330
1F
100
AcDbEntity
  8
0
  6
Continuous
 62
     7
370
    15
100
AcDbSpline
210
0.0
220
0.0
230
1.0
 70
     8
 71
     3
 72
    10
 73
     6
 74
     0
 42
0.00000001
 43
0.00000001
 12
1.0
 22
0.0
 32
0.0
 13
1.0
 23
0.0
 33
0.0
 40
0.0
 40
0.0
 40
0.0
 40
0.0
 40
0.1162633281345022
 40
0.7571590881470102
 40
1.0
 40
1.0
 40
1.0
 40
1.0
 10
820.7096587275837
 20
121.5659165323831
 30
0.0
 10
820.8153087249212
 20
121.1352392447644
 30
0.0
 10
821.5033490290341
 20
118.3304750288139
 30
0.0
 10
822.3084328253877
 20
114.6485105119797
 30
0.0
 10
822.870540325964
 20
111.4788036120467
 30
0.0
 10
823.0250011538837
 20
110.6078037561037
 30
0.0
  0
ARC
  5
5B
330
1F
100
AcDbEntity
  8
0
  6
Continuous
 62
     7
370
    15
100
AcDbCircle
 10
774.9224640464
 20
1003.5044978669
 30
0.0
 40
0.3000000000000427
100
AcDbArc
 50
0.0
 51
25.5368903365
  0
LINE
  5
5C
330
1F
100
AcDbEntity
  8
0
  6
Continuous
 62
     7
370
    15
100
AcDbLine
 10
782.222462759
 20
1003.5045155824
 30
0.0
 11
782.2226117706
 21
1003.5137543024
 31
0.0
  0
LINE
  5
5D
330
1F
100
AcDbEntity
  8
0
  6
Continuous
 62
     7
370
    15
100
AcDbLine
 10
775.2224634742
 20
1003.5045155824
 30
0.0
 11
775.2224634742
 21
998.9045271219
 31
0.0
  0
LINE
  5
5E
330
1F
100
AcDbEntity
  8
0
  6
Continuous
 62
     7
370
    15
100
AcDbLine
 10
782.222462759
 20
998.9045271219
 30
0.0
 11
782.222462759
 21
1003.5045155824
 31
0.0
  0
LINE
  5
5F
330
1F
100
AcDbEntity
  8
0
  6
Continuous
 62
     7
370
    15
100
AcDbLine
 10
775.2224634742
 20
998.9045271219
 30
0.0
 11
775.4724602556
 21
998.3044871629
 31
0.0
  0
LINE
  5
60
330
1F
100
AcDbEntity
  8
0
  6
Continuous
 62
     7
370
    15
100
AcDbLine
 10
781.9724659776
 20
998.3044871629
 30
0.0
 11
782.222462759
 21
998.9045271219
 31
0.0
  0
LINE
  5
61
330
1F
100
AcDbEntity
  8
0
  6
Continuous
 62
     7
370
    15
100
AcDbLine
 10
190.9295450305
 20
243.4278139413
 30
0.0
 11
190.9295450305
 21
243.1921800167
 31
0.0
  0
ARC
  5
62
330
1F
100
AcDbEntity
  8
0
  6
Continuous
 62
     7
370
    15
100
AcDbCircle
 10
428.6905824642
 20
140.2754864061
 30
0.0
 40
19.71450267087893
100
AcDbArc
 50
269.2001987363
 51
287.3431458656
  0
LINE
  5
63
330
1F
100
AcDbEntity
  8
0
  6
Continuous
 62
     7
370
    15
100
AcDbLine
 10
428.4153933977
 20
120.5629044713
 30
0.0
 11
193.4153865432
 21
120.5629044713
 31
0.0
  0
ARC
  5
64
330
1F
100
AcDbEntity
  8
0
  6
Continuous
 62
     7
370
    15
100
AcDbCircle
 10
193.1402053229
 20
140.275442463
 30
0.0
 40
19.71445862248822
100
AcDbArc
 50
252.656835636
 51
270.7997802454
  0
LINE
  5
65
330
1F
100
AcDbEntity
  8
0
  6
Continuous
 62
     7
370
    15
100
AcDbLine
 10
869.6224521255
 20
875.1531848253
 30
0.0
 11
219.6224759673
 21
875.1531848253
 31
0.0
  0
LINE
  5
66
330
1F
100
AcDbEntity
  8
0
  6
Continuous
 62
     7
370
    15
100
AcDbLine
 10
219.6224759673
 20
876.1618742288
 30
0.0
 11
869.6224521255
 21
876.1618742288
 31
0.0
  0
ARC
  5
67
330
1F
100
AcDbEntity
  8
0
  6
Continuous
 62
     7
370
    15
100
AcDbCircle
 10
219.6223645598
 20
871.1532881276
 30
0.0
 40
3.999896699275695
100
AcDbArc
 50
89.9984041636
 51
179.9990344634
  0
ARC
  5
68
330
1F
100
AcDbEntity
  8
0
  6
Continuous
 62
     7
370
    15
100
AcDbCircle
 10
219.6223317838
 20
871.1619933801
 30
0.0
 40
4.999880850827883
100
AcDbArc
 50
89.998347739
 51
179.9992616569
  0
ARC
  5
69
330
1F
100
AcDbEntity
  8
0
  6
Continuous
 62
     7
370
    15
100
AcDbCircle
 10
869.622563533
 20
871.1532881276
 30
0.0
 40
3.99989669927562
100
AcDbArc
 50
0.0009655366
 51
90.0015958364
  0
ARC
  5
6A
330
1F
100
AcDbEntity
  8
0
  6
Continuous
 62
     7
370
    15
100
AcDbCircle
 10
869.622596309
 20
871.1619933801
 30
0.0
 40
4.999880850827897
100
AcDbArc
 50
0.0007383431
 51
90.001652261
  0
LINE
  5
6B
330
1F
100
AcDbEntity
  8
0
  6
Continuous
 62
     7
370
    15
100
AcDbLine
 10
873.6224602317
 20
241.1773474456
 30
0.0
 11
873.6224602317
 21
871.153355533
 31
0.0
  0
ARC
  5
6C
330
1F
100
AcDbEntity
  8
0
  6
Continuous
 62
     7
370
    15
100
AcDbCircle
 10
869.6225343116
 20
241.1774254469
 30
0.0
 40
3.999925920915086
100
AcDbArc
 50
269.9988227494
 51
359.9988826927
  0
LINE
  5
6D
330
1F
100
AcDbEntity
  8
0
  6
Continuous
 62
     7
370
    15
100
AcDbLine
 10
219.6224759673
 20
237.1774995268
 30
0.0
 11
869.6224521255
 21
237.1774995268
 31
0.0
  0
ARC
  5
6E
330
1F
100
AcDbEntity
  8
0
  6
Continuous
 62
     7
370
    15
100
AcDbCircle
 10
219.6223937813
 20
241.1774254469
 30
0.0
 40
3.999925920915086
100
AcDbArc
 50
180.0011173073
 51
270.0011772506
  0
LINE
  5
6F
330
1F
100
AcDbEntity
  8
0
  6
Continuous
 62
     7
370
    15
100
AcDbLine
 10
215.6224678611
 20
871.153355533
 30
0.0
 11
215.6224678611
 21
241.1773474456
 31
0.0
  0
LINE
  5
70
330
1F
100
AcDbEntity
  8
0
  6
Continuous
 62
     7
370
    15
100
AcDbLine
 10
214.6224509334
 20
241.1860739381
 30
0.0
 11
214.6224509334
 21
871.1620578111
 31
0.0
  0
LINE
  5
71
330
1F
100
AcDbEntity
  8
0
  6
Continuous
 62
     7
370
    15
100
AcDbLine
 10
874.6224771594
 20
871.1620578111
 30
0.0
 11
874.6224771594
 21
241.1860739381
 31
0.0
  0
LINE
  5
72
330
1F
100
AcDbEntity
  8
0
  6
Continuous
 62
     7
370
    15
100
AcDbLine
 10
869.6224521255
 20
876.3102301897
 30
0.0
 11
219.6224759673
 21
876.3102301897
 31
0.0
  0
ARC
  5
73
330
1F
100
AcDbEntity
  8
0
  6
Continuous
 62
     7
370
    15
100
AcDbCircle
 10
219.6223317838
 20
871.3103493409
 30
0.0
 40
4.999880850827883
100
AcDbArc
 50
89.998347739
 51
179.9992616569
  0
LINE
  5
74
330
1F
100
AcDbEntity
  8
0
  6
Continuous
 62
     7
370
    15
100
AcDbLine
 10
214.6224509334
 20
871.1620578111
 30
0.0
 11
214.6224509334
 21
871.310413772
 31
0.0
  0
ARC
  5
75
330
1F
100
AcDbEntity
  8
0
  6
Continuous
 62
     7
370
    15
100
AcDbCircle
 10
869.622596309
 20
871.3103493409
 30
0.0
 40
4.999880850827897
100
AcDbArc
 50
0.0007383431
 51
90.001652261
  0
LINE
  5
76
330
1F
100
AcDbEntity
  8
0
  6
Continuous
 62
     7
370
    15
100
AcDbLine
 10
874.6224771594
 20
871.310413772
 30
0.0
 11
874.6224771594
 21
871.1620578111
 31
0.0
  0
ARC
  5
77
330
1F
100
AcDbEntity
  8
0
  6
Continuous
 62
     7
370
    15
100
AcDbCircle
 10
219.6223743634
 20
241.1861884012
 30
0.0
 40
4.99992343127777
100
AcDbArc
 50
180.001311671
 51
270.0011643137
  0
ARC
  5
78
330
1F
100
AcDbEntity
  8
0
  6
Continuous
 62
     7
370
    15
100
AcDbCircle
 10
869.6225537295
 20
241.1861884012
 30
0.0
 40
4.99992343127777
100
AcDbArc
 50
269.9988356863
 51
359.998688329
  0
LINE
  5
79
330
1F
100
AcDbEntity
  8
0
  6
Continuous
 62
     7
370
    15
100
AcDbLine
 10
869.6224521255
 20
236.186264971
 30
0.0
 11
219.6224759673
 21
236.186264971
 31
0.0
  0
LINE
  5
7A
330
1F
100
AcDbEntity
  8
0
  6
Continuous
 62
     7
370
    15
100
AcDbLine
 10
908.872468338
 20
909.7072490991
 30
0.0
 11
944.6224700069
 21
909.7072490991
 31
0.0
  0
LINE
  5
7B
330
1F
100
AcDbEntity
  8
0
  6
Continuous
 62
     7
370
    15
100
AcDbLine
 10
944.6224700069
 20
909.7072490991
 30
0.0
 11
944.6224700069
 21
189.0072756947
 31
0.0
  0
LINE
  5
7C
330
1F
100
AcDbEntity
  8
0
  6
Continuous
 62
     7
370
    15
100
AcDbLine
 10
944.6224700069
 20
189.0072756947
 30
0.0
 11
908.872468338
 21
189.0072756947
 31
0.0
  0
LINE
  5
7D
330
1F
100
AcDbEntity
  8
0
  6
Continuous
 62
     7
370
    15
100
AcDbLine
 10
904.6224783515
 20
905.4572591127
 30
0.0
 11
904.6224783515
 21
193.2572749944
 31
0.0
  0
ARC
  5
7E
330
1F
100
AcDbEntity
  8
0
  6
Continuous
 62
     7
370
    15
100
AcDbCircle
 10
902.4436695323
 20
656.8862217935
 30
0.0
 40
210.4814759807243
100
AcDbArc
 50
89.4068894723
 51
90.0193834438
  0
ARC
  5
7F
330
1F
100
AcDbEntity
  8
0
  6
Continuous
 62
     7
370
    15
100
AcDbCircle
 10
902.9353834684
 20
835.1155110919
 30
0.0
 40
32.22216380144002
100
AcDbArc
 50
86.9987230889
 51
91.0010075698
  0
ARC
  5
80
330
1F
100
AcDbEntity
  8
0
  6
Continuous
 62
     7
370
    15
100
AcDbCircle
 10
902.9347825652
 20
211.1669787935
 30
0.0
 40
32.26573551248014
100
AcDbArc
 50
87.0017112082
 51
90.9985884556
  0
LINE
  5
81
330
1F
100
AcDbEntity
  8
0
  6
Continuous
 62
     7
370
    15
100
AcDbLine
 10
874.6224771594
 20
243.4278139413
 30
0.0
 11
902.3724626159
 21
243.4278139413
 31
0.0
  0
LINE
  5
82
330
1F
100
AcDbEntity
  8
0
  6
Continuous
 62
     7
370
    15
100
AcDbLine
 10
874.6224771594
 20
867.3327574075
 30
0.0
 11
902.3724626159
 21
867.3327574075
 31
0.0
  0
LINE
  5
83
330
1F
100
AcDbEntity
  8
0
  6
Continuous
 62
     7
370
    15
100
AcDbLine
 10
874.6224771594
 20
867.3676857294
 30
0.0
 11
902.3724626159
 21
867.3676857294
 31
0.0
  0
LINE
  5
84
330
1F
100
AcDbEntity
  8
0
  6
Continuous
 62
     7
370
    15
100
AcDbLine
 10
944.6224700069
 20
950.7104167284
 30
0.0
 11
944.6224700069
 21
946.4604267419
 31
0.0
  0
LINE
  5
85
330
1F
100
AcDbEntity
  8
0
  6
Continuous
 62
     7
370
    15
100
AcDbLine
 10
944.6224700069
 20
946.4604267419
 30
0.0
 11
144.622458086
 21
946.4604267419
 31
0.0
  0
LINE
  5
86
330
1F
100
AcDbEntity
  8
0
  6
Continuous
 62
     7
370
    15
100
AcDbLine
 10
144.622458086
 20
950.7104167284
 30
0.0
 11
144.622458086
 21
946.4604267419
 31
0.0
  0
LINE
  5
87
330
1F
100
AcDbEntity
  8
0
  6
Continuous
 62
     7
370
    15
100
AcDbLine
 10
264.6224628543
 20
1001.4260420145
 30
0.0
 11
264.6224628543
 21
966.4947995485
 31
0.0
  0
LINE
  5
88
330
1F
100
AcDbEntity
  8
0
  6
Continuous
 62
     7
370
    15
100
AcDbLine
 10
824.6224652385
 20
966.4947995485
 30
0.0
 11
824.6224652385
 21
1001.4260420145
 31
0.0
  0
LINE
  5
89
330
1F
100
AcDbEntity
  8
0
  6
Continuous
 62
     7
370
    15
100
AcDbLine
 10
944.6224700069
 20
1017.2104248346
 30
0.0
 11
944.6224700069
 21
950.7104167284
 31
0.0
  0
LINE
  5
8A
330
1F
100
AcDbEntity
  8
0
  6
Continuous
 62
     7
370
    15
100
AcDbLine
 10
144.622458086
 20
1017.2104248346
 30
0.0
 11
144.622458086
 21
950.7104167284
 31
0.0
  0
LINE
  5
8B
330
1F
100
AcDbEntity
  8
0
  6
Continuous
 62
     7
370
    15
100
AcDbLine
 10
944.6224700069
 20
1021.460414821
 30
0.0
 11
144.622458086
 21
1021.460414821
 31
0.0
  0
LINE
  5
8C
330
1F
100
AcDbEntity
  8
0
  6
Continuous
 62
     7
370
    15
100
AcDbLine
 10
144.622458086
 20
1021.460414821
 30
0.0
 11
144.622458086
 21
1017.2104248346
 31
0.0
  0
LINE
  5
8D
330
1F
100
AcDbEntity
  8
0
  6
Continuous
 62
     7
370
    15
100
AcDbLine
 10
944.6224700069
 20
1021.460414821
 30
0.0
 11
944.6224700069
 21
1017.2104248346
 31
0.0
  0
LINE
  5
8E
330
1F
100
AcDbEntity
  8
0
  6
Continuous
 62
     7
370
    15
100
AcDbLine
 10
944.6224700069
 20
946.4604267419
 30
0.0
 11
944.6224700069
 21
944.2104110063
 31
0.0
  0
LINE
  5
8F
330
1F
100
AcDbEntity
  8
0
  6
Continuous
 62
     7
370
    15
100
AcDbLine
 10
144.622458086
 20
946.4604267419
 30
0.0
 11
144.622458086
 21
944.2104110063
 31
0.0
  0
LINE
  5
90
330
1F
100
AcDbEntity
  8
0
  6
Continuous
 62
     7
370
    15
100
AcDbLine
 10
904.6224783515
 20
905.4572591127
 30
0.0
 11
904.6224783515
 21
909.7072490991
 31
0.0
  0
LINE
  5
91
330
1F
100
AcDbEntity
  8
0
  6
Continuous
 62
     7
370
    15
100
AcDbLine
 10
904.6224783515
 20
905.4572591127
 30
0.0
 11
184.6224497413
 21
905.4572591127
 31
0.0
  0
LINE
  5
92
330
1F
100
AcDbEntity
  8
0
  6
Continuous
 62
     7
370
    15
100
AcDbLine
 10
184.6224497413
 20
905.4572591127
 30
0.0
 11
184.6224497413
 21
909.7072490991
 31
0.0
  0
LINE
  5
93
330
1F
100
AcDbEntity
  8
0
  6
Continuous
 62
     7
370
    15
100
AcDbLine
 10
184.6224497413
 20
909.7072490991
 30
0.0
 11
144.622458086
 21
909.7072490991
 31
0.0
  0
LINE
  5
94
330
1F
100
AcDbEntity
  8
0
  6
Continuous
 62
     7
370
    15
100
AcDbLine
 10
944.6224700069
 20
944.2104110063
 30
0.0
 11
944.6224700069
 21
909.7072490991
 31
0.0
  0
LINE
  5
95
330
1F
100
AcDbEntity
  8
0
  6
Continuous
 62
     7
370
    15
100
AcDbLine
 10
944.6224700069
 20
909.7072490991
 30
0.0
 11
904.6224783515
 21
909.7072490991
 31
0.0
  0
LINE
  5
96
330
1F
100
AcDbEntity
  8
0
  6
Continuous
 62
     7
370
    15
100
AcDbLine
 10
144.622458086
 20
944.2104110063
 30
0.0
 11
144.622458086
 21
909.7072490991
 31
0.0
  0
LINE
  5
97
330
1F
100
AcDbEntity
  8
0
  6
Continuous
 62
     7
370
    15
100
AcDbLine
 10
902.368588314
 20
867.7572616876
 30
0.0
 11
874.6224771594
 21
867.7572616876
 31
0.0
  0
LINE
  5
98
330
1F
100
AcDbEntity
  8
0
  6
Continuous
 62
     7
370
    15
100
AcDbLine
 10
214.6224509334
 20
867.7572616876
 30
0.0
 11
186.8763397788
 21
867.7572616876
 31
0.0
  0
LINE
  5
99
330
1F
100
AcDbEntity
  8
0
  6
Continuous
 62
     7
370
    15
100
AcDbLine
 10
186.8763397788
 20
868.7571296037
 30
0.0
 11
186.8763397788
 21
867.7572616876
 31
0.0
  0
LINE
  5
9A
330
1F
100
AcDbEntity
  8
0
  6
Continuous
 62
     7
370
    15
100
AcDbLine
 10
186.8763397788
 20
868.7571296037
 30
0.0
 11
184.6224497413
 21
868.7571296037
 31
0.0
  0
LINE
  5
9B
330
1F
100
AcDbEntity
  8
0
  6
Continuous
 62
     7
370
    15
100
AcDbLine
 10
902.368588314
 20
868.7571296037
 30
0.0
 11
904.6224783515
 21
868.7571296037
 31
0.0
  0
LINE
  5
9C
330
1F
100
AcDbEntity
  8
0
  6
Continuous
 62
     7
370
    15
100
AcDbLine
 10
902.368588314
 20
868.7571296037
 30
0.0
 11
902.368588314
 21
867.7572616876
 31
0.0
  0
LINE
  5
9D
330
1F
100
AcDbEntity
  8
0
  6
Continuous
 62
     7
370
    15
100
AcDbLine
 10
184.6224497413
 20
905.4572591127
 30
0.0
 11
184.6224497413
 21
193.2572749944
 31
0.0
  0
LINE
  5
9E
330
1F
100
AcDbEntity
  8
0
  6
Continuous
 62
     7
370
    15
100
AcDbLine
 10
144.622458086
 20
909.7072490991
 30
0.0
 11
144.622458086
 21
189.0072756947
 31
0.0
  0
LINE
  5
9F
330
1F
100
AcDbEntity
  8
0
  6
Continuous
 62
     7
370
    15
100
AcDbLine
 10
180.3724597549
 20
909.7072490991
 30
0.0
 11
144.622458086
 21
909.7072490991
 31
0.0
  0
LINE
  5
A0
330
1F
100
AcDbEntity
  8
0
  6
Continuous
 62
     7
370
    15
100
AcDbLine
 10
144.622458086
 20
189.0072756947
 30
0.0
 11
180.3724597549
 21
189.0072756947
 31
0.0
  0
ARC
  5
A1
330
1F
100
AcDbEntity
  8
0
  6
Continuous
 62
     7
370
    15
100
AcDbCircle
 10
186.3095446244
 20
835.1155110919
 30
0.0
 40
32.22216380144002
100
AcDbArc
 50
88.9989924302
 51
93.0012769111
  0
ARC
  5
A2
330
1F
100
AcDbEntity
  8
0
  6
Continuous
 62
     7
370
    15
100
AcDbCircle
 10
186.3101455277
 20
211.1669787935
 30
0.0
 40
32.26573551248014
100
AcDbArc
 50
89.0014115444
 51
92.9982887918
  0
ARC
  5
A3
330
1F
100
AcDbEntity
  8
0
  6
Continuous
 62
     7
370
    15
100
AcDbCircle
 10
186.8012585605
 20
656.8862217935
 30
0.0
 40
210.4814759807243
100
AcDbArc
 50
89.9806165562
 51
90.5931105277
  0
LINE
  5
A4
330
1F
100
AcDbEntity
  8
0
  6
Continuous
 62
     7
370
    15
100
AcDbLine
 10
214.6224509334
 20
867.3327574075
 30
0.0
 11
186.8724654769
 21
867.3327574075
 31
0.0
  0
LINE
  5
A5
330
1F
100
AcDbEntity
  8
0
  6
Continuous
 62
     7
370
    15
100
AcDbLine
 10
214.6224509334
 20
243.4278139413
 30
0.0
 11
186.8724654769
 21
243.4278139413
 31
0.0
  0
LINE
  5
A6
330
1F
100
AcDbEntity
  8
0
  6
Continuous
 62
     7
370
    15
100
AcDbLine
 10
214.6224509334
 20
867.3676857294
 30
0.0
 11
186.8724654769
 21
867.3676857294
 31
0.0
  0
LINE
  5
A7
330
1F
100
AcDbEntity
  8
0
  6
Continuous
 62
     7
370
    15
100
AcDbLine
 10
144.622458086
 20
133.4572741331
 30
0.0
 11
144.622458086
 21
121.4572721661
 31
0.0
  0
LINE
  5
A8
330
1F
100
AcDbEntity
  8
0
  6
Continuous
 62
     7
370
    15
100
AcDbLine
 10
944.6224700069
 20
133.4572741331
 30
0.0
 11
944.6224700069
 21
121.4572721661
 31
0.0
  0
LINE
  5
A9
330
1F
100
AcDbEntity
  8
0
  6
Continuous
 62
     7
370
    15
100
AcDbLine
 10
904.6224783515
 20
193.2572749944
 30
0.0
 11
184.6224497413
 21
193.2572749944
 31
0.0
  0
LINE
  5
AA
330
1F
100
AcDbEntity
  8
0
  6
Continuous
 62
     7
370
    15
100
AcDbLine
 10
904.6224783515
 20
189.0072756947
 30
0.0
 11
904.6224783515
 21
193.2572749944
 31
0.0
  0
LINE
  5
AB
330
1F
100
AcDbEntity
  8
0
  6
Continuous
 62
     7
370
    15
100
AcDbLine
 10
184.6224497413
 20
189.0072756947
 30
0.0
 11
184.6224497413
 21
193.2572749944
 31
0.0
  0
LINE
  5
AC
330
1F
100
AcDbEntity
  8
0
  6
Continuous
 62
     7
370
    15
100
AcDbLine
 10
184.6224497413
 20
189.0072756947
 30
0.0
 11
144.622458086
 21
189.0072756947
 31
0.0
  0
LINE
  5
AD
330
1F
100
AcDbEntity
  8
0
  6
Continuous
 62
     7
370
    15
100
AcDbLine
 10
944.6224700069
 20
189.0072756947
 30
0.0
 11
904.6224783515
 21
189.0072756947
 31
0.0
  0
LINE
  5
AE
330
1F
100
AcDbEntity
  8
0
  6
Continuous
 62
     7
370
    15
100
AcDbLine
 10
144.622458086
 20
189.0072756947
 30
0.0
 11
144.622458086
 21
133.4572741331
 31
0.0
  0
LINE
  5
AF
330
1F
100
AcDbEntity
  8
0
  6
Continuous
 62
     7
370
    15
100
AcDbLine
 10
944.6224700069
 20
189.0072756947
 30
0.0
 11
944.6224700069
 21
133.4572741331
 31
0.0
  0
LINE
  5
B0
330
1F
100
AcDbEntity
  8
0
  6
Continuous
 62
     7
370
    15
100
AcDbLine
 10
904.6224783515
 20
242.1574284823
 30
0.0
 11
902.3724626159
 21
242.1574284823
 31
0.0
  0
LINE
  5
B1
330
1F
100
AcDbEntity
  8
0
  6
Continuous
 62
     7
370
    15
100
AcDbLine
 10
184.6224497413
 20
242.1574284823
 30
0.0
 11
186.8724654769
 21
242.1574284823
 31
0.0
  0
LINE
  5
B2
330
1F
100
AcDbEntity
  8
0
  6
Continuous
 62
     7
370
    15
100
AcDbLine
 10
186.8724654769
 20
242.1574284823
 30
0.0
 11
186.8724654769
 21
243.1572759093
 31
0.0
  0
LINE
  5
B3
330
1F
100
AcDbEntity
  8
0
  6
Continuous
 62
     7
370
    15
100
AcDbLine
 10
214.6224509334
 20
243.1572759093
 30
0.0
 11
186.8724654769
 21
243.1572759093
 31
0.0
  0
LINE
  5
B4
330
1F
100
AcDbEntity
  8
0
  6
Continuous
 62
     7
370
    15
100
AcDbLine
 10
902.3724626159
 20
243.1572759093
 30
0.0
 11
874.6224771594
 21
243.1572759093
 31
0.0
  0
LINE
  5
B5
330
1F
100
AcDbEntity
  8
0
  6
Continuous
 62
     7
370
    15
100
AcDbLine
 10
902.3724626159
 20
242.1574284823
 30
0.0
 11
902.3724626159
 21
243.1572759093
 31
0.0
  0
LINE
  5
B6
330
1F
100
AcDbEntity
  8
0
  6
Continuous
 62
     7
370
    15
100
AcDbLine
 10
214.6224509334
 20
243.1921800167
 30
0.0
 11
186.8724654769
 21
243.1921800167
 31
0.0
  0
LINE
  5
B7
330
1F
100
AcDbEntity
  8
0
  6
Continuous
 62
     7
370
    15
100
AcDbLine
 10
186.8724654769
 20
243.1572759093
 30
0.0
 11
186.8724654769
 21
243.1921800167
 31
0.0
  0
LINE
  5
B8
330
1F
100
AcDbEntity
  8
0
  6
Continuous
 62
     7
370
    15
100
AcDbLine
 10
902.3724626159
 20
243.1921800167
 30
0.0
 11
874.6224771594
 21
243.1921800167
 31
0.0
  0
LINE
  5
B9
330
1F
100
AcDbEntity
  8
0
  6
Continuous
 62
     7
370
    15
100
AcDbLine
 10
902.3724626159
 20
243.1572759093
 30
0.0
 11
902.3724626159
 21
243.1921800167
 31
0.0
  0
LINE
  5
BA
330
1F
100
AcDbEntity
  8
0
  6
Continuous
 62
     7
370
    15
100
AcDbLine
 10
904.6224783515
 20
242.1923325897
 30
0.0
 11
902.3724626159
 21
242.1923325897
 31
0.0
  0
LINE
  5
BB
330
1F
100
AcDbEntity
  8
0
  6
Continuous
 62
     7
370
    15
100
AcDbLine
 10
186.8724654769
 20
242.1923325897
 30
0.0
 11
184.6224497413
 21
242.1923325897
 31
0.0
  0
ARC
  5
BC
330
1F
100
AcDbEntity
  8
0
  6
Continuous
 62
     7
370
    15
100
AcDbCircle
 10
213.6221703758
 20
230.4613683574
 30
0.0
 40
3.999714687131408
100
AcDbArc
 50
89.9957965931
 51
179.9953581807
  0
LINE
  5
BD
330
1F
100
AcDbEntity
  8
0
  6
Continuous
 62
     7
370
    15
100
AcDbLine
 10
213.622463808
 20
234.4610830338
 30
0.0
 11
265.6224499797
 21
234.4610830338
 31
0.0
  0
ARC
  5
BE
330
1F
100
AcDbEntity
  8
0
  6
Continuous
 62
     7
370
    15
100
AcDbCircle
 10
265.6227603687
 20
230.4613853168
 30
0.0
 40
3.999697729064211
100
AcDbArc
 50
0.0043988958
 51
90.0044463303
  0
LINE
  5
BF
330
1F
100
AcDbEntity
  8
0
  6
Continuous
 62
     7
370
    15
100
AcDbLine
 10
269.622458086
 20
230.4616923944
 30
0.0
 11
269.622458086
 21
208.4650434123
 31
0.0
  0
LINE
  5
C0
330
1F
100
AcDbEntity
  8
0
  6
Continuous
 62
     7
370
    15
100
AcDbLine
 10
209.6224557018
 20
208.4650434123
 30
0.0
 11
209.6224557018
 21
230.4616923944
 31
0.0
  0
ARC
  5
C1
330
1F
100
AcDbEntity
  8
0
  6
Continuous
 62
     7
370
    15
100
AcDbCircle
 10
265.6227584976
 20
208.4653514298
 30
0.0
 40
3.999699600170552
100
AcDbArc
 50
269.9955804744
 51
359.9955876417
  0
ARC
  5
C2
330
1F
100
AcDbEntity
  8
0
  6
Continuous
 62
     7
370
    15
100
AcDbCircle
 10
213.6221722468
 20
208.4653683892
 30
0.0
 40
3.999716558238939
100
AcDbArc
 50
180.0046552814
 51
270.0041766024
  0
ARC
  5
C3
330
1F
100
AcDbEntity
  8
0
  6
Continuous
 62
     7
370
    15
100
AcDbCircle
 10
213.6221707814
 20
208.5351770011
 30
0.0
 40
3.999715092765335
100
AcDbArc
 50
180.0046476299
 51
270.0041975962
  0
ARC
  5
C4
330
1F
100
AcDbEntity
  8
0
  6
Continuous
 62
     7
370
    15
100
AcDbCircle
 10
265.6227599631
 20
208.5351600418
 30
0.0
 40
3.999698134715547
100
AcDbArc
 50
269.9955594807
 51
359.9955952932
  0
LINE
  5
C5
330
1F
100
AcDbEntity
  8
0
  6
Continuous
 62
     7
370
    15
100
AcDbLine
 10
265.6224499797
 20
204.5354619191
 30
0.0
 11
213.622463808
 21
204.5354619191
 31
0.0
  0
ELLIPSE
  5
C6
330
1F
100
AcDbEntity
  8
0
  6
Continuous
 62
     7
370
    15
100
AcDbEllipse
 10
657.0246221768
 20
953.8339969712
 30
0.0
 11
2.00008477009203
 21
0.0005700245062598696
 31
0.0
210
0.0
220
0.0
230
1.0
 40
0.0923977318
 41
2.799914295308384
 42
3.10469866454868
  0
ELLIPSE
  5
C7
330
1F
100
AcDbEntity
  8
0
  6
Continuous
 62
     7
370
    15
100
AcDbEllipse
 10
657.0430365822
 20
955.8877711314
 30
0.0
 11
2.001816800467168
 21
1.98394871433868
 31
0.0
210
0.0
220
0.0
230
1.0
 40
0.1263244604
 41
3.355637671334461
 42
4.587840123242312
  0
ELLIPSE
  5
C8
330
1F
100
AcDbEntity
  8
0
  6
Continuous
 62
     7
370
    15
100
AcDbEllipse
 10
662.2018915106
 20
955.8877711314
 30
0.0
 11
2.001816800467281
 21
-1.98394871433868
 31
0.0
210
0.0
220
0.0
230
1.0
 40
0.1263244604
 41
4.836937837527092
 42
6.06914028943496
  0
ELLIPSE
  5
C9
330
1F
100
AcDbEntity
  8
0
  6
Continuous
 62
     7
370
    15
100
AcDbEllipse
 10
662.220305916
 20
953.8339969712
 30
0.0
 11
2.000084770091916
 21
-0.0005700245061461827
 31
0.0
210
0.0
220
0.0
230
1.0
 40
0.0923977318
 41
0.0368939890405002
 42
0.341678358280845
  0
ELLIPSE
  5
CA
330
1F
100
AcDbEntity
  8
0
  6
Continuous
 62
     7
370
    15
100
AcDbEllipse
 10
342.0246221768
 20
953.8339969712
 30
0.0
 11
2.000084770091973
 21
0.0005700245062598696
 31
0.0
210
0.0
220
0.0
230
1.0
 40
0.0923977318
 41
2.79991429530841
 42
3.104698664548681
  0
ELLIPSE
  5
CB
330
1F
100
AcDbEntity
  8
0
  6
Continuous
 62
     7
370
    15
100
AcDbEllipse
 10
342.0430365822
 20
955.8877711314
 30
0.0
 11
2.001816800467281
 21
1.98394871433868
 31
0.0
210
0.0
220
0.0
230
1.0
 40
0.1263244604
 41
3.355637671334567
 42
4.587840123242323
  0
ELLIPSE
  5
CC
330
1F
100
AcDbEntity
  8
0
  6
Continuous
 62
     7
370
    15
100
AcDbEllipse
 10
347.2018915106
 20
955.8877711314
 30
0.0
 11
2.001816800467281
 21
-1.98394871433868
 31
0.0
210
0.0
220
0.0
230
1.0
 40
0.1263244604
 41
4.836937837527078
 42
6.069140289435044
  0
ELLIPSE
  5
CD
330
1F
100
AcDbEntity
  8
0
  6
Continuous
 62
     7
370
    15
100
AcDbEllipse
 10
347.220305916
 20
953.8339969712
 30
0.0
 11
2.000084770091973
 21
-0.0005700245061461827
 31
0.0
210
0.0
220
0.0
230
1.0
 40
0.0923977318
 41
0.0368939890405002
 42
0.3416783582808445
  0
ELLIPSE
  5
CE
330
1F
100
AcDbEntity
  8
0
  6
Continuous
 62
     7
370
    15
100
AcDbEllipse
 10
248.1301037215
 20
1014.9527800106
 30
0.0
 11
-1.424997215780507
 21
1.424997215780422
 31
0.0
210
0.0
220
0.0
230
1.0
 40
0.9924325091
 41
5.501585242055393
 42
7.064785372303719
  0
ELLIPSE
  5
CF
330
1F
100
AcDbEntity
  8
0
  6
Continuous
 62
     7
370
    15
100
AcDbEllipse
 10
841.1148243713
 20
1014.9527800106
 30
0.0
 11
1.424997215780536
 21
1.424997215780422
 31
0.0
210
0.0
220
0.0
230
1.0
 40
0.9924325091
 41
5.501585242055517
 42
7.064785372303692
  0
LINE
  5
D0
330
1F
100
AcDbEntity
  8
0
  6
Continuous
 62
     7
370
    15
100
AcDbLine
 10
246.1224626159
 20
1014.9680384935
 30
0.0
 11
246.1224626159
 21
952.9528030695
 31
0.0
  0
LINE
  5
D1
330
1F
100
AcDbEntity
  8
0
  6
Continuous
 62
     7
370
    15
100
AcDbLine
 10
841.130061016
 20
1016.9604429544
 30
0.0
 11
248.1148670768
 21
1016.9604429544
 31
0.0
  0
LINE
  5
D2
330
1F
100
AcDbEntity
  8
0
  6
Continuous
 62
     7
370
    15
100
AcDbLine
 10
843.1224654769
 20
952.9528030695
 30
0.0
 11
843.1224654769
 21
1014.9680384935
 31
0.0
  0
LINE
  5
D3
330
1F
100
AcDbEntity
  8
0
  6
Continuous
 62
     7
370
    15
100
AcDbLine
 10
424.1208712911
 20
967.9264435114
 30
0.0
 11
424.1208712911
 21
999.9943980516
 31
0.0
  0
LINE
  5
D4
330
1F
100
AcDbEntity
  8
0
  6
Continuous
 62
     7
370
    15
100
AcDbLine
 10
739.1208689069
 20
968.6620840372
 30
0.0
 11
739.1208689069
 21
999.2587575258
 31
0.0
  0
LINE
  5
D5
330
1F
100
AcDbEntity
  8
0
  6
Continuous
 62
     7
370
    15
100
AcDbLine
 10
750.1240502452
 20
998.952330047
 30
0.0
 11
750.1240502452
 21
968.968511516
 31
0.0
  0
LINE
  5
D6
330
1F
100
AcDbEntity
  8
0
  6
Continuous
 62
     7
370
    15
100
AcDbLine
 10
665.1240568017
 20
999.9943980516
 30
0.0
 11
665.1240568017
 21
967.9264435114
 31
0.0
  0
LINE
  5
D7
330
1F
100
AcDbEntity
  8
0
  6
Continuous
 62
     7
370
    15
100
AcDbLine
 10
664.2190347766
 20
953.8402566255
 30
0.0
 11
664.681283698
 21
952.6821383775
 31
0.0
  0
LINE
  5
D8
330
1F
100
AcDbEntity
  8
0
  6
Continuous
 62
     7
370
    15
100
AcDbLine
 10
550.1240570439
 20
1000.564993316
 30
0.0
 11
550.1240570439
 21
967.3558482469
 31
0.0
  0
LINE
  5
D9
330
1F
100
AcDbEntity
  8
0
  6
Continuous
 62
     7
370
    15
100
AcDbLine
 10
829.120857582
 20
995.2934989275
 30
0.0
 11
829.120857582
 21
992.2298797906
 31
0.0
  0
LINE
  5
DA
330
1F
100
AcDbEntity
  8
0
  6
Continuous
 62
     7
370
    15
100
AcDbLine
 10
829.120857582
 20
975.6909617723
 30
0.0
 11
829.120857582
 21
972.6273426355
 31
0.0
  0
LINE
  5
DB
330
1F
100
AcDbEntity
  8
0
  6
Continuous
 62
     7
370
    15
100
AcDbLine
 10
435.12406008
 20
1000.1705893816
 30
0.0
 11
435.12406008
 21
967.7502521814
 31
0.0
  0
LINE
  5
DC
330
1F
100
AcDbEntity
  8
0
  6
Continuous
 62
     7
370
    15
100
AcDbLine
 10
260.1240705108
 20
995.2934989275
 30
0.0
 11
260.1240705108
 21
992.2298797906
 31
0.0
  0
LINE
  5
DD
330
1F
100
AcDbEntity
  8
0
  6
Continuous
 62
     7
370
    15
100
AcDbLine
 10
260.1240705108
 20
975.6909617723
 30
0.0
 11
260.1240705108
 21
972.6273426355
 31
0.0
  0
LINE
  5
DE
330
1F
100
AcDbEntity
  8
0
  6
Continuous
 62
     7
370
    15
100
AcDbLine
 10
350.1240591859
 20
999.2587575258
 30
0.0
 11
350.1240591859
 21
968.6620840372
 31
0.0
  0
LINE
  5
DF
330
1F
100
AcDbEntity
  8
0
  6
Continuous
 62
     7
370
    15
100
AcDbLine
 10
349.2190371608
 20
953.8402566255
 30
0.0
 11
349.6812860822
 21
952.6821383775
 31
0.0
  0
LINE
  5
E0
330
1F
100
AcDbEntity
  8
0
  6
Continuous
 62
     7
370
    15
100
AcDbLine
 10
654.5636411166
 20
952.6821383775
 30
0.0
 11
655.0258974885
 21
953.8402566255
 31
0.0
  0
LINE
  5
E1
330
1F
100
AcDbEntity
  8
0
  6
Continuous
 62
     7
370
    15
100
AcDbLine
 10
654.1208680128
 20
967.7502521814
 30
0.0
 11
654.1208680128
 21
1000.1705893816
 31
0.0
  0
LINE
  5
E2
330
1F
100
AcDbEntity
  8
0
  6
Continuous
 62
     7
370
    15
100
AcDbLine
 10
539.120871049
 20
967.3558482469
 30
0.0
 11
539.120871049
 21
1000.564993316
 31
0.0
  0
LINE
  5
E3
330
1F
100
AcDbEntity
  8
0
  6
Continuous
 62
     7
370
    15
100
AcDbLine
 10
339.5636360502
 20
952.6821383775
 30
0.0
 11
340.0258998727
 21
953.8402566255
 31
0.0
  0
LINE
  5
E4
330
1F
100
AcDbEntity
  8
0
  6
Continuous
 62
     7
370
    15
100
AcDbLine
 10
339.1208778476
 20
968.968511516
 30
0.0
 11
339.1208778476
 21
998.952330047
 31
0.0
  0
ELLIPSE
  5
E5
330
1F
100
AcDbEntity
  8
0
  6
Continuous
 62
     7
370
    15
100
AcDbEllipse
 10
248.1301037215
 20
952.9680593608
 30
0.0
 11
-1.424997215780507
 21
-1.424997215780422
 31
0.0
210
0.0
220
0.0
230
1.0
 40
0.9924325091
 41
5.501585242055492
 42
7.064785372303739
  0
ELLIPSE
  5
E6
330
1F
100
AcDbEntity
  8
0
  6
Continuous
 62
     7
370
    15
100
AcDbEllipse
 10
841.1148243713
 20
952.9680593608
 30
0.0
 11
1.424997215780536
 21
-1.424997215780422
 31
0.0
210
0.0
220
0.0
230
1.0
 40
0.9924325091
 41
5.501585242055435
 42
7.06478537230373
  0
SPLINE
  5
E7
330
1F
100
AcDbEntity
  8
0
  6
Continuous
 62
     7
370
    15
100
AcDbSpline
210
0.0
220
0.0
230
1.0
 70
     8
 71
     3
 72
    13
 73
     9
 74
     0
 42
0.00000001
 43
0.00000001
 12
1.0
 22
0.0
 32
0.0
 13
1.0
 23
0.0
 33
0.0
 40
0.0
 40
0.0
 40
0.0
 40
0.0
 40
0.0016184440483293
 40
0.1076388527886588
 40
0.2135387306358389
 40
0.5545559081619028
 40
0.7768823296141759
 40
1.0
 40
1.0
 40
1.0
 40
1.0
 10
669.896272883353
 20
952.1130332292176
 30
0.0
 10
669.8922048532836
 20
952.1132318280869
 30
0.0
 10
669.6216498778188
 20
952.1264401651154
 30
0.0
 10
669.0852548170516
 20
952.154835812287
 30
0.0
 10
667.7206734359903
 20
952.2286121678849
 30
0.0
 10
666.1989090694354
 20
952.3389252111414
 30
0.0
 10
664.9556629788963
 20
952.5123701469462
 30
0.0
 10
664.7728517017712
 20
952.6254819932552
 30
0.0
 10
664.6812836980198
 20
952.6821383775332
 30
0.0
  0
LINE
  5
E8
330
1F
100
AcDbEntity
  8
0
  6
Continuous
 62
     7
370
    15
100
AcDbLine
 10
248.1148670768
 20
950.9603986086
 30
0.0
 11
841.130061016
 21
950.9603986086
 31
0.0
  0
SPLINE
  5
E9
330
1F
100
AcDbEntity
  8
0
  6
Continuous
 62
     7
370
    15
100
AcDbSpline
210
0.0
220
0.0
230
1.0
 70
     8
 71
     3
 72
    13
 73
     9
 74
     0
 42
0.00000001
 43
0.00000001
 12
1.0
 22
0.0
 32
0.0
 13
1.0
 23
0.0
 33
0.0
 40
0.0
 40
0.0
 40
0.0
 40
0.0
 40
0.2231171137927011
 40
0.4454437663902379
 40
0.7864599961777522
 40
0.8923597781674352
 40
0.9983815574166394
 40
1.0
 40
1.0
 40
1.0
 40
1.0
 10
339.5636360501621
 20
952.6821383775332
 30
0.0
 10
339.4720747541525
 20
952.6254819422253
 30
0.0
 10
339.2892765462661
 20
952.512369794507
 30
0.0
 10
338.0460146381506
 20
952.3389256505957
 30
0.0
 10
336.5242588191112
 20
952.2286122707332
 30
0.0
 10
335.1596777908305
 20
952.1548353730684
 30
0.0
 10
334.6232735422202
 20
952.1264403472436
 30
0.0
 10
334.352714894688
 20
952.1132318281194
 30
0.0
 10
334.3486468648289
 20
952.1130332292176
 30
0.0
  0
SPLINE
  5
EA
330
1F
100
AcDbEntity
  8
0
  6
Continuous
 62
     7
370
    15
100
AcDbSpline
210
0.0
220
0.0
230
1.0
 70
     8
 71
     3
 72
    13
 73
     9
 74
     0
 42
0.00000001
 43
0.00000001
 12
1.0
 22
0.0
 32
0.0
 13
1.0
 23
0.0
 33
0.0
 40
0.0
 40
0.0
 40
0.0
 40
0.0
 40
0.0016184437138382
 40
0.1076388305424515
 40
0.2135386865028261
 40
0.5545564326104061
 40
0.7768823757269112
 40
1.0
 40
1.0
 40
1.0
 40
1.0
 10
354.8962752675388
 20
952.1130332292176
 30
0.0
 10
354.8922072374733
 20
952.1132318280872
 30
0.0
 10
354.6216522622639
 20
952.1264401651385
 30
0.0
 10
354.0852571005357
 20
952.1548358043112
 30
0.0
 10
352.7206749313164
 20
952.2286123076576
 30
0.0
 10
351.198901826707
 20
952.3389247455777
 30
0.0
 10
349.9556670098788
 20
952.5123703603089
 30
0.0
 10
349.77285469476
 20
952.6254820278182
 30
0.0
 10
349.6812860822056
 20
952.6821383775331
 30
0.0
  0
SPLINE
  5
EB
330
1F
100
AcDbEntity
  8
0
  6
Continuous
 62
     7
370
    15
100
AcDbSpline
210
0.0
220
0.0
230
1.0
 70
     8
 71
     3
 72
    13
 73
     9
 74
     0
 42
0.00000001
 43
0.00000001
 12
1.0
 22
0.0
 32
0.0
 13
1.0
 23
0.0
 33
0.0
 40
0.0
 40
0.0
 40
0.0
 40
0.0
 40
0.2231174151440856
 40
0.4454441913382902
 40
0.786460610704828
 40
0.8923604515667155
 40
0.9983815565169086
 40
1.0
 40
1.0
 40
1.0
 40
1.0
 10
654.5636411165569
 20
952.6821383775331
 30
0.0
 10
654.4720767710755
 20
952.6254819504584
 30
0.0
 10
654.2892725475592
 20
952.5123698640439
 30
0.0
 10
653.0460129114031
 20
952.3389256636503
 30
0.0
 10
651.5242571876056
 20
952.228612149424
 30
0.0
 10
650.1596763770362
 20
952.1548355966652
 30
0.0
 10
649.6232767728129
 20
952.1264402561676
 30
0.0
 10
649.3527199611899
 20
952.1132318281029
 30
0.0
 10
649.3486519312237
 20
952.1130332292176
 30
0.0
  0
SPLINE
  5
EC
330
1F
100
AcDbEntity
  8
0
  6
Continuous
 62
     7
370
    15
100
AcDbSpline
210
0.0
220
0.0
230
1.0
 70
     8
 71
     3
 72
    19
 73
    15
 74
     0
 42
0.00000001
 43
0.00000001
 12
1.0
 22
0.0
 32
0.0
 13
1.0
 23
0.0
 33
0.0
 40
0.0
 40
0.0
 40
0.0
 40
0.0
 40
0.3243826579895656
 40
0.5392432578436042
 40
0.6822266434855996
 40
0.7780903760785917
 40
0.843082342507122
 40
0.8878412963842656
 40
0.9311161097151607
 40
0.9564459738766932
 40
0.9725843776227623
 40
0.9849288401347149
 40
0.9973216634230891
 40
1.0
 40
1.0
 40
1.0
 40
1.0
 10
260.7364784335468
 20
975.3077039064027
 30
0.0
 10
260.6691616083834
 20
975.4477868985291
 30
0.0
 10
260.557256291577
 20
975.6806563420154
 30
0.0
 10
260.4149840315614
 20
975.9263823448915
 30
0.0
 10
260.31989791718
 20
976.0522680145434
 30
0.0
 10
260.2559537346524
 20
976.10249529385
 30
0.0
 10
260.2125460870086
 20
976.107309334627
 30
0.0
 10
260.1803090063525
 20
976.0829032396886
 30
0.0
 10
260.1566411354187
 20
976.0355120254044
 30
0.0
 10
260.1398574836809
 20
975.9609059886311
 30
0.0
 10
260.1305844618494
 20
975.8826100982869
 30
0.0
 10
260.1255877246437
 20
975.800032699301
 30
0.0
 10
260.1240789837986
 20
975.733891957128
 30
0.0
 10
260.1240717893475
 20
975.6974397861853
 30
0.0
 10
260.1240705108021
 20
975.6909617723085
 30
0.0
  0
SPLINE
  5
ED
330
1F
100
AcDbEntity
  8
0
  6
Continuous
 62
     7
370
    15
100
AcDbSpline
210
0.0
220
0.0
230
1.0
 70
     8
 71
     3
 72
    14
 73
    10
 74
     0
 42
0.00000001
 43
0.00000001
 12
1.0
 22
0.0
 32
0.0
 13
1.0
 23
0.0
 33
0.0
 40
0.0
 40
0.0
 40
0.0
 40
0.0
 40
0.0119801781243211
 40
0.0239915020015478
 40
0.0398818838890592
 40
0.0687359034047434
 40
0.167550149309891
 40
0.641138981377157
 40
1.0
 40
1.0
 40
1.0
 40
1.0
 10
260.1240705108021
 20
992.2298797906495
 30
0.0
 10
260.1242825122567
 20
992.2007214243738
 30
0.0
 10
260.1247070663218
 20
992.1423288866656
 30
0.0
 10
260.1291200550739
 20
992.0566210422394
 30
0.0
 10
260.1383337037063
 20
991.9666693864556
 30
0.0
 10
260.1669624471939
 20
991.83805733976
 30
0.0
 10
260.2948996308898
 20
991.7618814512764
 30
0.0
 10
260.4893862299486
 20
992.1127830588309
 30
0.0
 10
260.6620463418392
 20
992.4624148139815
 30
0.0
 10
260.7364784335468
 20
992.6131376565553
 30
0.0
  0
LINE
  5
EE
330
1F
100
AcDbEntity
  8
0
  6
Continuous
 62
     7
370
    15
100
AcDbLine
 10
260.7364784335
 20
992.6131376566
 30
0.0
 11
261.8317435836
 21
990.8905038179
 31
0.0
  0
LINE
  5
EF
330
1F
100
AcDbEntity
  8
0
  6
Continuous
 62
     7
370
    15
100
AcDbLine
 10
261.8317435836
 20
977.0303377451
 30
0.0
 11
260.7364784335
 21
975.3077039064
 31
0.0
  0
LINE
  5
F0
330
1F
100
AcDbEntity
  8
0
  6
Continuous
 62
     7
370
    15
100
AcDbLine
 10
828.5084496593
 20
975.3077039064
 30
0.0
 11
827.4131845092
 21
977.0303377451
 31
0.0
  0
LINE
  5
F1
330
1F
100
AcDbEntity
  8
0
  6
Continuous
 62
     7
370
    15
100
AcDbLine
 10
827.4131845092
 20
990.8905038179
 30
0.0
 11
828.5084496593
 21
992.6131376566
 31
0.0
  0
SPLINE
  5
F2
330
1F
100
AcDbEntity
  8
0
  6
Continuous
 62
     7
370
    15
100
AcDbSpline
210
0.0
220
0.0
230
1.0
 70
     8
 71
     3
 72
    19
 73
    15
 74
     0
 42
0.00000001
 43
0.00000001
 12
1.0
 22
0.0
 32
0.0
 13
1.0
 23
0.0
 33
0.0
 40
0.0
 40
0.0
 40
0.0
 40
0.0
 40
0.3243825813051378
 40
0.5392431303658873
 40
0.6822264822064484
 40
0.7780901921371456
 40
0.8430821432015014
 40
0.8878410864975776
 40
0.9311158895982578
 40
0.9564457477717817
 40
0.972584147702714
 40
0.9849286072964217
 40
0.9973134576501727
 40
1.0
 40
1.0
 40
1.0
 40
1.0
 10
828.5084496592854
 20
992.6131376565554
 30
0.0
 10
828.5757664845296
 20
992.4730546642502
 30
0.0
 10
828.6876718014702
 20
992.2401852204664
 30
0.0
 10
828.8299440608088
 20
991.9944592190909
 30
0.0
 10
828.9250301766159
 20
991.8685735462797
 30
0.0
 10
828.9889743561523
 20
991.8183462736018
 30
0.0
 10
829.032382010163
 20
991.8135322187134
 30
0.0
 10
829.0646190758129
 20
991.8379383469115
 30
0.0
 10
829.0882869894922
 20
991.885329466454
 30
0.0
 10
829.10507055259
 20
991.9599356996902
 30
0.0
 10
829.1143437482955
 20
992.0382312046587
 30
0.0
 10
829.1193390641799
 20
992.1207934934158
 30
0.0
 10
829.1208495768601
 20
992.1869287581542
 30
0.0
 10
829.1208563709531
 20
992.2233818635302
 30
0.0
 10
829.1208575820301
 20
992.2298797906495
 30
0.0
  0
SPLINE
  5
F3
330
1F
100
AcDbEntity
  8
0
  6
Continuous
 62
     7
370
    15
100
AcDbSpline
210
0.0
220
0.0
230
1.0
 70
     8
 71
     3
 72
    14
 73
    10
 74
     0
 42
0.00000001
 43
0.00000001
 12
1.0
 22
0.0
 32
0.0
 13
1.0
 23
0.0
 33
0.0
 40
0.0
 40
0.0
 40
0.0
 40
0.0
 40
0.0127091178562358
 40
0.0254420343552227
 40
0.0421286528758413
 40
0.0735984043211179
 40
0.1869883494288312
 40
0.6362523971919949
 40
1.0
 40
1.0
 40
1.0
 40
1.0
 10
829.1208575820301
 20
975.6909617723085
 30
0.0
 10
829.1206047122427
 20
975.7219324517868
 30
0.0
 10
829.120098499153
 20
975.7839318053377
 30
0.0
 10
829.1151971438867
 20
975.8728280245376
 30
0.0
 10
829.1049843650832
 20
975.9649312206008
 30
0.0
 10
829.0724077651621
 20
976.0972474069965
 30
0.0
 10
828.9458662921429
 20
976.1351333420589
 30
0.0
 10
828.7525890733557
 20
975.8060613324163
 30
0.0
 10
828.5839155002074
 20
975.4617509797811
 30
0.0
 10
828.5084496592854
 20
975.3077039064027
 30
0.0
  0
ARC
  5
F4
330
1F
100
AcDbEntity
  8
0
  6
Continuous
 62
     7
370
    15
100
AcDbCircle
 10
254.6224640464
 20
983.9604196857
 30
0.0
 40
9.999999999999996
100
AcDbArc
 50
316.1311450389
 51
43.8688549611
  0
ARC
  5
F5
330
1F
100
AcDbEntity
  8
0
  6
Continuous
 62
     7
370
    15
100
AcDbCircle
 10
834.6224640464
 20
983.9604196857
 30
0.0
 40
10.0000000000001
100
AcDbArc
 50
136.1311450389
 51
223.8688549611
  0
SPLINE
  5
F6
330
1F
100
AcDbEntity
  8
0
  6
Continuous
 62
     7
370
    15
100
AcDbSpline
210
0.0
220
0.0
230
1.0
 70
     8
 71
     3
 72
    12
 73
     8
 74
     0
 42
0.00000001
 43
0.00000001
 12
1.0
 22
0.0
 32
0.0
 13
1.0
 23
0.0
 33
0.0
 40
0.0
 40
0.0
 40
0.0
 40
0.0
 40
0.2156067986636624
 40
0.431248658233191
 40
0.6462096419210696
 40
0.8603641238534167
 40
1.0
 40
1.0
 40
1.0
 40
1.0
 10
550.1240570438777
 20
967.3558482469178
 30
0.0
 10
550.1793771903789
 20
966.7914593139658
 30
0.0
 10
550.2900264792685
 20
965.6625896699392
 30
0.0
 10
551.1544079308436
 20
964.1591949073394
 30
0.0
 10
552.425722075722
 20
963.0287532375994
 30
0.0
 10
553.8281188087195
 20
962.4349556136299
 30
0.0
 10
554.7513240948739
 20
962.3755032828282
 30
0.0
 10
555.1156997089956
 20
962.3520383180238
 30
0.0
  0
SPLINE
  5
F7
330
1F
100
AcDbEntity
  8
0
  6
Continuous
 62
     7
370
    15
100
AcDbSpline
210
0.0
220
0.0
230
1.0
 70
     8
 71
     3
 72
    12
 73
     8
 74
     0
 42
0.00000001
 43
0.00000001
 12
1.0
 22
0.0
 32
0.0
 13
1.0
 23
0.0
 33
0.0
 40
0.0
 40
0.0
 40
0.0
 40
0.0
 40
0.2138903683951605
 40
0.4277882968199269
 40
0.6416318079550613
 40
0.8559812207423776
 40
1.0
 40
1.0
 40
1.0
 40
1.0
 10
555.1156997089956
 20
1005.568803244934
 30
0.0
 10
554.5557400945754
 20
1005.514253950159
 30
0.0
 10
553.4358010737674
 20
1005.405153432545
 30
0.0
 10
551.942783506816
 20
1004.547588919789
 30
0.0
 10
550.8146878175274
 20
1003.28414584704
 30
0.0
 10
550.2112838559002
 20
1001.876043802177
 30
0.0
 10
550.1490622683433
 20
1000.940830870245
 30
0.0
 10
550.1240570438777
 20
1000.56499331604
 30
0.0
  0
SPLINE
  5
F8
330
1F
100
AcDbEntity
  8
0
  6
Continuous
 62
     7
370
    15
100
AcDbSpline
210
0.0
220
0.0
230
1.0
 70
     8
 71
     3
 72
    12
 73
     8
 74
     0
 42
0.00000001
 43
0.00000001
 12
1.0
 22
0.0
 32
0.0
 13
1.0
 23
0.0
 33
0.0
 40
0.0
 40
0.0
 40
0.0
 40
0.0
 40
0.2138902548195794
 40
0.4277880696647503
 40
0.6416314672491849
 40
0.8559737212883346
 40
1.0
 40
1.0
 40
1.0
 40
1.0
 10
534.1292283838366
 20
962.3520383180238
 30
0.0
 10
534.689187855025
 20
962.4065876646007
 30
0.0
 10
535.8091265893648
 20
962.5156882858201
 30
0.0
 10
537.3021463047054
 20
963.3732520215826
 30
0.0
 10
538.430221448402
 20
964.636684186174
 30
0.0
 10
539.0336598257323
 20
966.0447730426035
 30
0.0
 10
539.0958693816283
 20
966.9799899010906
 30
0.0
 10
539.1208710489545
 20
967.3558482469178
 30
0.0
  0
SPLINE
  5
F9
330
1F
100
AcDbEntity
  8
0
  6
Continuous
 62
     7
370
    15
100
AcDbSpline
210
0.0
220
0.0
230
1.0
 70
     8
 71
     3
 72
    12
 73
     8
 74
     0
 42
0.00000001
 43
0.00000001
 12
1.0
 22
0.0
 32
0.0
 13
1.0
 23
0.0
 33
0.0
 40
0.0
 40
0.0
 40
0.0
 40
0.0
 40
0.2156072413834172
 40
0.4312495437446935
 40
0.6462109688262321
 40
0.860363008138272
 40
1.0
 40
1.0
 40
1.0
 40
1.0
 10
539.1208710489545
 20
1000.56499331604
 30
0.0
 10
539.0655511086683
 20
1001.129382880346
 30
0.0
 10
538.9549022322419
 20
1002.258253787184
 30
0.0
 10
538.0905176900628
 20
1003.761639087493
 30
0.0
 10
536.8192209227649
 20
1004.892111507108
 30
0.0
 10
535.416792668715
 20
1005.485791912051
 30
0.0
 10
534.4936023632691
 20
1005.545311470538
 30
0.0
 10
534.1292283838366
 20
1005.568803244934
 30
0.0
  0
ARC
  5
FA
330
1F
100
AcDbEntity
  8
0
  6
Continuous
 62
     7
370
    15
100
AcDbCircle
 10
269.8756555622
 20
975.715837799
 30
0.0
 40
10.61242064468141
100
AcDbArc
 50
213.2125857976
 51
268.8508071346
  0
LINE
  5
FB
330
1F
100
AcDbEntity
  8
0
  6
Continuous
 62
     7
370
    15
100
AcDbLine
 10
260.9968315219
 20
969.9029335321
 30
0.0
 11
260.7894669628
 21
970.2374944032
 31
0.0
  0
ARC
  5
FC
330
1F
100
AcDbEntity
  8
0
  6
Continuous
 62
     7
370
    15
100
AcDbCircle
 10
819.3692725306
 20
992.2050015724
 30
0.0
 40
10.61242064468141
100
AcDbArc
 50
33.2125857976
 51
88.8508071346
  0
LINE
  5
FD
330
1F
100
AcDbEntity
  8
0
  6
Continuous
 62
     7
370
    15
100
AcDbLine
 10
828.2480965709
 20
998.0179080309
 30
0.0
 11
828.4554611301
 21
997.6833471597
 31
0.0
  0
SPLINE
  5
FE
330
1F
100
AcDbEntity
  8
0
  6
Continuous
 62
     7
370
    15
100
AcDbSpline
210
0.0
220
0.0
230
1.0
 70
     8
 71
     3
 72
    12
 73
     8
 74
     0
 42
0.00000001
 43
0.00000001
 12
1.0
 22
0.0
 32
0.0
 13
1.0
 23
0.0
 33
0.0
 40
0.0
 40
0.0
 40
0.0
 40
0.0
 40
0.2167536238205242
 40
0.4335416916108611
 40
0.6496452623047357
 40
0.8649494473505541
 40
1.0
 40
1.0
 40
1.0
 40
1.0
 10
435.1240600799892
 20
967.7502521813966
 30
0.0
 10
435.1793791343518
 20
967.1858813383741
 30
0.0
 10
435.290026033739
 20
966.0570499690657
 30
0.0
 10
436.1543645905305
 20
964.5537447751409
 30
0.0
 10
437.4257008385074
 20
963.4232143399458
 30
0.0
 10
438.8149175126771
 20
962.8354209102121
 30
0.0
 10
439.7236269943913
 20
962.771327158883
 30
0.0
 10
440.0739054536198
 20
962.7466210664369
 30
0.0
  0
SPLINE
  5
FF
330
1F
100
AcDbEntity
  8
0
  6
Continuous
 62
     7
370
    15
100
AcDbSpline
210
0.0
220
0.0
230
1.0
 70
     8
 71
     3
 72
    12
 73
     8
 74
     0
 42
0.00000001
 43
0.00000001
 12
1.0
 22
0.0
 32
0.0
 13
1.0
 23
0.0
 33
0.0
 40
0.0
 40
0.0
 40
0.0
 40
0.0
 40
0.2167536238205242
 40
0.4335416916108611
 40
0.6496452623047357
 40
0.8649494473505541
 40
1.0
 40
1.0
 40
1.0
 40
1.0
 10
654.120868012843
 20
1000.170589381562
 30
0.0
 10
654.0655489584803
 20
1000.734960224584
 30
0.0
 10
653.9549020590933
 20
1001.863791593893
 30
0.0
 10
653.0905635023017
 20
1003.367096787817
 30
0.0
 10
651.8192272543248
 20
1004.497627223013
 30
0.0
 10
650.4300105801551
 20
1005.085420652746
 30
0.0
 10
649.5213010984409
 20
1005.149514404075
 30
0.0
 10
649.1710226392124
 20
1005.174220496521
 30
0.0
  0
SPLINE
  5
100
330
1F
100
AcDbEntity
  8
0
  6
Continuous
 62
     7
370
    15
100
AcDbSpline
210
0.0
220
0.0
230
1.0
 70
     8
 71
     3
 72
    12
 73
     8
 74
     0
 42
0.00000001
 43
0.00000001
 12
1.0
 22
0.0
 32
0.0
 13
1.0
 23
0.0
 33
0.0
 40
0.0
 40
0.0
 40
0.0
 40
0.0
 40
0.2150368723014752
 40
0.430076961755624
 40
0.6450764116438304
 40
0.8605894126035709
 40
1.0
 40
1.0
 40
1.0
 40
1.0
 10
440.0739054536198
 20
1005.174220496521
 30
0.0
 10
439.514420983564
 20
1005.114946201464
 30
0.0
 10
438.3954436730415
 20
1004.996396724552
 30
0.0
 10
436.9096621812978
 20
1004.126380618986
 30
0.0
 10
435.7920284211477
 20
1002.853429814378
 30
0.0
 10
435.2063990594341
 20
1001.453544401495
 30
0.0
 10
435.1472810629864
 20
1000.532404367668
 30
0.0
 10
435.1240600799892
 20
1000.170589381562
 30
0.0
  0
SPLINE
  5
101
330
1F
100
AcDbEntity
  8
0
  6
Continuous
 62
     7
370
    15
100
AcDbSpline
210
0.0
220
0.0
230
1.0
 70
     8
 71
     3
 72
    12
 73
     8
 74
     0
 42
0.00000001
 43
0.00000001
 12
1.0
 22
0.0
 32
0.0
 13
1.0
 23
0.0
 33
0.0
 40
0.0
 40
0.0
 40
0.0
 40
0.0
 40
0.2150368723014752
 40
0.430076961755624
 40
0.6450764116438304
 40
0.8605894126035709
 40
1.0
 40
1.0
 40
1.0
 40
1.0
 10
649.1710226392124
 20
962.7466210664369
 30
0.0
 10
649.7305071092683
 20
962.8058953614939
 30
0.0
 10
650.8494844197908
 20
962.9244448384065
 30
0.0
 10
652.3352659115344
 20
963.7944609439726
 30
0.0
 10
653.4528996716845
 20
965.0674117485801
 30
0.0
 10
654.038529033398
 20
966.4672971614633
 30
0.0
 10
654.0976470298458
 20
967.3884371952896
 30
0.0
 10
654.120868012843
 20
967.7502521813966
 30
0.0
  0
SPLINE
  5
102
330
1F
100
AcDbEntity
  8
0
  6
Continuous
 62
     7
370
    15
100
AcDbSpline
210
0.0
220
0.0
230
1.0
 70
     8
 71
     3
 72
    12
 73
     8
 74
     0
 42
0.00000001
 43
0.00000001
 12
1.0
 22
0.0
 32
0.0
 13
1.0
 23
0.0
 33
0.0
 40
0.0
 40
0.0
 40
0.0
 40
0.0
 40
0.2144734709231572
 40
0.4289831523546465
 40
0.6428095985919496
 40
0.8558279753234292
 40
1.0
 40
1.0
 40
1.0
 40
1.0
 10
665.1240568017338
 20
967.9264435113527
 30
0.0
 10
665.1793767414214
 20
967.3620367165997
 30
0.0
 10
665.2900259607076
 20
966.2331278357884
 30
0.0
 10
666.1544417848424
 20
964.7296516885453
 30
0.0
 10
667.4257635738078
 20
963.5993364346472
 30
0.0
 10
668.8413303585587
 20
962.9996002858971
 30
0.0
 10
669.7790146595391
 20
962.9448510947846
 30
0.0
 10
670.1574902390812
 20
962.9227527917482
 30
0.0
  0
SPLINE
  5
103
330
1F
100
AcDbEntity
  8
0
  6
Continuous
 62
     7
370
    15
100
AcDbSpline
210
0.0
220
0.0
230
1.0
 70
     8
 71
     3
 72
    12
 73
     8
 74
     0
 42
0.00000001
 43
0.00000001
 12
1.0
 22
0.0
 32
0.0
 13
1.0
 23
0.0
 33
0.0
 40
0.0
 40
0.0
 40
0.0
 40
0.0
 40
0.2144734709231572
 40
0.4289831523546465
 40
0.6428095985919496
 40
0.8558279753234292
 40
1.0
 40
1.0
 40
1.0
 40
1.0
 10
424.1208712910984
 20
999.9943980516053
 30
0.0
 10
424.0655513514109
 20
1000.558804846358
 30
0.0
 10
423.9549021321247
 20
1001.687713727169
 30
0.0
 10
423.0904863079898
 20
1003.191189874413
 30
0.0
 10
421.8191645190245
 20
1004.321505128311
 30
0.0
 10
420.4035977342735
 20
1004.921241277061
 30
0.0
 10
419.4659134332931
 20
1004.975990468173
 30
0.0
 10
419.087437853751
 20
1004.99808877121
 30
0.0
  0
SPLINE
  5
104
330
1F
100
AcDbEntity
  8
0
  6
Continuous
 62
     7
370
    15
100
AcDbSpline
210
0.0
220
0.0
230
1.0
 70
     8
 71
     3
 72
    12
 73
     8
 74
     0
 42
0.00000001
 43
0.00000001
 12
1.0
 22
0.0
 32
0.0
 13
1.0
 23
0.0
 33
0.0
 40
0.0
 40
0.0
 40
0.0
 40
0.0
 40
0.2127585676330497
 40
0.4255230829189367
 40
0.6382312072076066
 40
0.8514216722576994
 40
1.0
 40
1.0
 40
1.0
 40
1.0
 10
419.087437853751
 20
962.9227527917482
 30
0.0
 10
419.6478287295781
 20
962.9726121653216
 30
0.0
 10
420.7686261469252
 20
963.0723323062838
 30
0.0
 10
422.2688584446385
 20
963.9172670431943
 30
0.0
 10
423.4072273861004
 20
965.1712120022123
 30
0.0
 10
424.0286508927819
 20
966.5872916386202
 30
0.0
 10
424.0940229911585
 20
967.5365736799425
 30
0.0
 10
424.1208712910984
 20
967.9264435113527
 30
0.0
  0
SPLINE
  5
105
330
1F
100
AcDbEntity
  8
0
  6
Continuous
 62
     7
370
    15
100
AcDbSpline
210
0.0
220
0.0
230
1.0
 70
     8
 71
     3
 72
    12
 73
     8
 74
     0
 42
0.00000001
 43
0.00000001
 12
1.0
 22
0.0
 32
0.0
 13
1.0
 23
0.0
 33
0.0
 40
0.0
 40
0.0
 40
0.0
 40
0.0
 40
0.2127585676330497
 40
0.4255230829189367
 40
0.6382312072076066
 40
0.8514216722576994
 40
1.0
 40
1.0
 40
1.0
 40
1.0
 10
670.1574902390812
 20
1004.99808877121
 30
0.0
 10
669.5970993632541
 20
1004.948229397637
 30
0.0
 10
668.4763019459072
 20
1004.848509256675
 30
0.0
 10
666.9760696481937
 20
1004.003574519764
 30
0.0
 10
665.8377007067319
 20
1002.749629560746
 30
0.0
 10
665.2162772000504
 20
1001.333549924338
 30
0.0
 10
665.1509051016737
 20
1000.384267883016
 30
0.0
 10
665.1240568017338
 20
999.9943980516053
 30
0.0
  0
ARC
  5
106
330
1F
100
AcDbEntity
  8
0
  6
Continuous
 62
     7
370
    15
100
AcDbCircle
 10
544.6224640464
 20
14672.0430990753
 30
0.0
 40
13709.69510003425
100
AcDbArc
 50
269.5630647268
 51
269.9561464964
  0
ARC
  5
107
330
1F
100
AcDbEntity
  8
0
  6
Continuous
 62
     7
370
    15
100
AcDbCircle
 10
544.6224640464
 20
-12704.1222596861
 30
0.0
 40
13709.69510001654
100
AcDbArc
 50
89.5630647268
 51
89.9561464964
  0
ARC
  5
108
330
1F
100
AcDbEntity
  8
0
  6
Continuous
 62
     7
370
    15
100
AcDbCircle
 10
544.6224640464
 20
14672.0430990753
 30
0.0
 40
13709.69510003425
100
AcDbArc
 50
270.0438535036
 51
270.4369352732
  0
ARC
  5
109
330
1F
100
AcDbEntity
  8
0
  6
Continuous
 62
     7
370
    15
100
AcDbCircle
 10
544.6224640464
 20
-12704.1222596861
 30
0.0
 40
13709.69510001654
100
AcDbArc
 50
90.0438535036
 51
90.4369352732
  0
ARC
  5
10A
330
1F
100
AcDbEntity
  8
0
  6
Continuous
 62
     7
370
    15
100
AcDbCircle
 10
819.3692725306
 20
975.715837799
 30
0.0
 40
10.612420644681
100
AcDbArc
 50
271.1491928654
 51
326.7874142024
  0
LINE
  5
10B
330
1F
100
AcDbEntity
  8
0
  6
Continuous
 62
     7
370
    15
100
AcDbLine
 10
828.4554611301
 20
970.2374944032
 30
0.0
 11
828.2480965709
 21
969.9029335321
 31
0.0
  0
ARC
  5
10C
330
1F
100
AcDbEntity
  8
0
  6
Continuous
 62
     7
370
    15
100
AcDbCircle
 10
269.8756555622
 20
992.2050015724
 30
0.0
 40
10.61242064468112
100
AcDbArc
 50
91.1491928654
 51
146.7874142024
  0
LINE
  5
10D
330
1F
100
AcDbEntity
  8
0
  6
Continuous
 62
     7
370
    15
100
AcDbLine
 10
260.7894669628
 20
997.6833471597
 30
0.0
 11
260.9968315219
 21
998.0179080309
 31
0.0
  0
ARC
  5
10E
330
1F
100
AcDbEntity
  8
0
  6
Continuous
 62
     7
370
    15
100
AcDbCircle
 10
544.6224640464
 20
-12704.1222596861
 30
0.0
 40
13709.69510001654
100
AcDbArc
 50
89.2076812253
 51
89.4753546315
  0
ARC
  5
10F
330
1F
100
AcDbEntity
  8
0
  6
Continuous
 62
     7
370
    15
100
AcDbCircle
 10
544.6224640464
 20
14672.0430990753
 30
0.0
 40
13709.69510003425
100
AcDbArc
 50
269.2076812253
 51
269.4753546315
  0
ARC
  5
110
330
1F
100
AcDbEntity
  8
0
  6
Continuous
 62
     7
370
    15
100
AcDbCircle
 10
544.6224640464
 20
-12704.1222596861
 30
0.0
 40
13709.69510001654
100
AcDbArc
 50
90.5246453685
 51
90.7923187747
  0
ARC
  5
111
330
1F
100
AcDbEntity
  8
0
  6
Continuous
 62
     7
370
    15
100
AcDbCircle
 10
544.6224640464
 20
14672.0430990753
 30
0.0
 40
13709.69510003425
100
AcDbArc
 50
270.5246453685
 51
270.7923187747
  0
SPLINE
  5
112
330
1F
100
AcDbEntity
  8
0
  6
Continuous
 62
     7
370
    15
100
AcDbSpline
210
0.0
220
0.0
230
1.0
 70
     8
 71
     3
 72
    12
 73
     8
 74
     0
 42
0.00000001
 43
0.00000001
 12
1.0
 22
0.0
 32
0.0
 13
1.0
 23
0.0
 33
0.0
 40
0.0
 40
0.0
 40
0.0
 40
0.0
 40
0.2176144135227958
 40
0.4352548119678705
 40
0.6522144329008405
 40
0.8683736515192321
 40
1.0
 40
1.0
 40
1.0
 40
1.0
 10
350.1240591859196
 20
968.6620840371705
 30
0.0
 10
350.1793770428189
 20
968.0977102874423
 30
0.0
 10
350.2900193620173
 20
966.9688953971919
 30
0.0
 10
351.1543478187924
 20
965.4656548344533
 30
0.0
 10
352.4256571564409
 20
964.3350029801285
 30
0.0
 10
353.8051662127592
 20
963.751705273618
 30
0.0
 10
354.7031479833611
 20
963.6843155341131
 30
0.0
 10
355.0430070018147
 20
963.6588105500795
 30
0.0
  0
SPLINE
  5
113
330
1F
100
AcDbEntity
  8
0
  6
Continuous
 62
     7
370
    15
100
AcDbSpline
210
0.0
220
0.0
230
1.0
 70
     8
 71
     3
 72
    12
 73
     8
 74
     0
 42
0.00000001
 43
0.00000001
 12
1.0
 22
0.0
 32
0.0
 13
1.0
 23
0.0
 33
0.0
 40
0.0
 40
0.0
 40
0.0
 40
0.0
 40
0.2158887075711415
 40
0.4317859133522706
 40
0.6476473576166176
 40
0.8640206568959058
 40
1.0
 40
1.0
 40
1.0
 40
1.0
 10
734.2019210910175
 20
963.6588105500795
 30
0.0
 10
734.7610267882857
 20
963.7215459846649
 30
0.0
 10
735.8792601913731
 20
963.8470193233439
 30
0.0
 10
737.3595808609386
 20
964.7263017813934
 30
0.0
 10
738.4694405061703
 20
966.0061851461504
 30
0.0
 10
739.0420768013886
 20
967.3998654869418
 30
0.0
 10
739.0989287123946
 20
968.3106107476569
 30
0.0
 10
739.1208689069126
 20
968.6620840371705
 30
0.0
  0
SPLINE
  5
114
330
1F
100
AcDbEntity
  8
0
  6
Continuous
 62
     7
370
    15
100
AcDbSpline
210
0.0
220
0.0
230
1.0
 70
     8
 71
     3
 72
    12
 73
     8
 74
     0
 42
0.00000001
 43
0.00000001
 12
1.0
 22
0.0
 32
0.0
 13
1.0
 23
0.0
 33
0.0
 40
0.0
 40
0.0
 40
0.0
 40
0.0
 40
0.2176144135227958
 40
0.4352548119678705
 40
0.6522144329008405
 40
0.8683736515192321
 40
1.0
 40
1.0
 40
1.0
 40
1.0
 10
739.1208689069126
 20
999.2587575257875
 30
0.0
 10
739.0655510500134
 20
999.823131275516
 30
0.0
 10
738.954908730815
 20
1000.951946165766
 30
0.0
 10
738.0905802740399
 20
1002.455186728504
 30
0.0
 10
736.8192709363915
 20
1003.58583858283
 30
0.0
 10
735.4397618800731
 20
1004.16913628934
 30
0.0
 10
734.5417801094711
 20
1004.236526028845
 30
0.0
 10
734.2019210910175
 20
1004.262031012879
 30
0.0
  0
SPLINE
  5
115
330
1F
100
AcDbEntity
  8
0
  6
Continuous
 62
     7
370
    15
100
AcDbSpline
210
0.0
220
0.0
230
1.0
 70
     8
 71
     3
 72
    12
 73
     8
 74
     0
 42
0.00000001
 43
0.00000001
 12
1.0
 22
0.0
 32
0.0
 13
1.0
 23
0.0
 33
0.0
 40
0.0
 40
0.0
 40
0.0
 40
0.0
 40
0.2158887075711415
 40
0.4317859133522706
 40
0.6476473576166176
 40
0.8640206568959058
 40
1.0
 40
1.0
 40
1.0
 40
1.0
 10
355.0430070018147
 20
1004.262031012879
 30
0.0
 10
354.4839013045465
 20
1004.199295578293
 30
0.0
 10
353.3656679014592
 20
1004.073822239614
 30
0.0
 10
351.8853472318935
 20
1003.194539781564
 30
0.0
 10
350.7754875866621
 20
1001.914656416808
 30
0.0
 10
350.2028512914437
 20
1000.520976076016
 30
0.0
 10
350.1459993804377
 20
999.6102308153008
 30
0.0
 10
350.1240591859196
 20
999.2587575257875
 30
0.0
  0
SPLINE
  5
116
330
1F
100
AcDbEntity
  8
0
  6
Continuous
 62
     7
370
    15
100
AcDbSpline
210
0.0
220
0.0
230
1.0
 70
     8
 71
     3
 72
    12
 73
     8
 74
     0
 42
0.00000001
 43
0.00000001
 12
1.0
 22
0.0
 32
0.0
 13
1.0
 23
0.0
 33
0.0
 40
0.0
 40
0.0
 40
0.0
 40
0.0
 40
0.2119302179343887
 40
0.423865457803528
 40
0.63573610953606
 40
0.8480817398277699
 40
1.0
 40
1.0
 40
1.0
 40
1.0
 10
334.0565394019459
 20
963.9651188195802
 30
0.0
 10
334.6172308996821
 20
964.01149678144
 30
0.0
 10
335.7386271813961
 20
964.1042538041396
 30
0.0
 10
337.2440713756676
 20
964.9398834681676
 30
0.0
 10
338.3900558788131
 20
966.1866831403644
 30
0.0
 10
339.0248665986489
 20
967.6085625331841
 30
0.0
 10
339.0926206483221
 20
968.5682631092079
 30
0.0
 10
339.1208778476093
 20
968.9685115159608
 30
0.0
  0
SPLINE
  5
117
330
1F
100
AcDbEntity
  8
0
  6
Continuous
 62
     7
370
    15
100
AcDbSpline
210
0.0
220
0.0
230
1.0
 70
     8
 71
     3
 72
    12
 73
     8
 74
     0
 42
0.00000001
 43
0.00000001
 12
1.0
 22
0.0
 32
0.0
 13
1.0
 23
0.0
 33
0.0
 40
0.0
 40
0.0
 40
0.0
 40
0.0
 40
0.2136449934060148
 40
0.4273196656216693
 40
0.6403202332460542
 40
0.8525080421784667
 40
1.0
 40
1.0
 40
1.0
 40
1.0
 10
750.1240502452229
 20
968.9685115159608
 30
0.0
 10
750.1793707977924
 20
968.4040846495184
 30
0.0
 10
750.2900195878676
 20
967.2751525084416
 30
0.0
 10
751.1544966103553
 20
965.7716318232564
 30
0.0
 10
752.4257863206237
 20
964.6413769640494
 30
0.0
 10
753.8510923148725
 20
964.0371670207297
 30
0.0
 10
754.7994859758325
 20
963.9860713485367
 30
0.0
 10
755.1883886908863
 20
963.9651188195802
 30
0.0
  0
SPLINE
  5
118
330
1F
100
AcDbEntity
  8
0
  6
Continuous
 62
     7
370
    15
100
AcDbSpline
210
0.0
220
0.0
230
1.0
 70
     8
 71
     3
 72
    12
 73
     8
 74
     0
 42
0.00000001
 43
0.00000001
 12
1.0
 22
0.0
 32
0.0
 13
1.0
 23
0.0
 33
0.0
 40
0.0
 40
0.0
 40
0.0
 40
0.0
 40
0.2136449934060148
 40
0.4273196656216693
 40
0.6403202332460542
 40
0.8525080421784667
 40
1.0
 40
1.0
 40
1.0
 40
1.0
 10
339.1208778476093
 20
998.9523300469972
 30
0.0
 10
339.0655572950399
 20
999.5167569134401
 30
0.0
 10
338.9549085049646
 20
1000.645689054517
 30
0.0
 10
338.090431482477
 20
1002.149209739702
 30
0.0
 10
336.8191417722085
 20
1003.279464598909
 30
0.0
 10
335.3938357779598
 20
1003.883674542228
 30
0.0
 10
334.4454421169997
 20
1003.934770214421
 30
0.0
 10
334.0565394019459
 20
1003.955722743378
 30
0.0
  0
SPLINE
  5
119
330
1F
100
AcDbEntity
  8
0
  6
Continuous
 62
     7
370
    15
100
AcDbSpline
210
0.0
220
0.0
230
1.0
 70
     8
 71
     3
 72
    12
 73
     8
 74
     0
 42
0.00000001
 43
0.00000001
 12
1.0
 22
0.0
 32
0.0
 13
1.0
 23
0.0
 33
0.0
 40
0.0
 40
0.0
 40
0.0
 40
0.0
 40
0.2119302179343887
 40
0.423865457803528
 40
0.63573610953606
 40
0.8480817398277699
 40
1.0
 40
1.0
 40
1.0
 40
1.0
 10
755.1883886908863
 20
1003.955722743378
 30
0.0
 10
754.6276971931502
 20
1003.909344781518
 30
0.0
 10
753.5063009114361
 20
1003.816587758819
 30
0.0
 10
752.0008567171647
 20
1002.980958094791
 30
0.0
 10
750.8548722140191
 20
1001.734158422594
 30
0.0
 10
750.2200614941834
 20
1000.312279029774
 30
0.0
 10
750.1523074445101
 20
999.3525784537503
 30
0.0
 10
750.1240502452229
 20
998.9523300469972
 30
0.0
  0
ARC
  5
11A
330
1F
100
AcDbEntity
  8
0
  6
Continuous
 62
     7
370
    15
100
AcDbCircle
 10
544.6224640464
 20
-12704.1222596861
 30
0.0
 40
13709.69510001654
100
AcDbArc
 50
90.880035123
 51
91.1491928654
  0
ARC
  5
11B
330
1F
100
AcDbEntity
  8
0
  6
Continuous
 62
     7
370
    15
100
AcDbCircle
 10
544.6224640464
 20
14672.0430990753
 30
0.0
 40
13709.69510003425
100
AcDbArc
 50
270.880035123
 51
271.1491928654
  0
ARC
  5
11C
330
1F
100
AcDbEntity
  8
0
  6
Continuous
 62
     7
370
    15
100
AcDbCircle
 10
544.6224640464
 20
-12704.1222596861
 30
0.0
 40
13709.69510001654
100
AcDbArc
 50
88.8508071346
 51
89.119964877
  0
ARC
  5
11D
330
1F
100
AcDbEntity
  8
0
  6
Continuous
 62
     7
370
    15
100
AcDbCircle
 10
544.6224640464
 20
14672.0430990753
 30
0.0
 40
13709.69510003425
100
AcDbArc
 50
268.8508071346
 51
269.119964877
  0
SPLINE
  5
11E
330
1F
100
AcDbEntity
  8
0
  6
Continuous
 62
     7
370
    15
100
AcDbSpline
210
0.0
220
0.0
230
1.0
 70
     8
 71
     3
 72
    12
 73
     8
 74
     0
 42
0.00000001
 43
0.00000001
 12
1.0
 22
0.0
 32
0.0
 13
1.0
 23
0.0
 33
0.0
 40
0.0
 40
0.0
 40
0.0
 40
0.0
 40
0.2406799381186928
 40
0.481494013822185
 40
0.7183687600625908
 40
0.9505623843350686
 40
1.0
 40
1.0
 40
1.0
 40
1.0
 10
260.2836321448658
 20
971.8951591790773
 30
0.0
 10
260.2789654593662
 20
971.8553324897206
 30
0.0
 10
260.2696294874941
 20
971.7756569144912
 30
0.0
 10
260.323637173121
 20
971.403214612338
 30
0.0
 10
260.4623487988329
 20
970.9061180205667
 30
0.0
 10
260.6433154145237
 20
970.4930015158769
 30
0.0
 10
260.767642547837
 20
970.2756485884416
 30
0.0
 10
260.7894669627521
 20
970.237494403229
 30
0.0
  0
SPLINE
  5
11F
330
1F
100
AcDbEntity
  8
0
  6
Continuous
 62
     7
370
    15
100
AcDbSpline
210
0.0
220
0.0
230
1.0
 70
     8
 71
     3
 72
    12
 73
     8
 74
     0
 42
0.00000001
 43
0.00000001
 12
1.0
 22
0.0
 32
0.0
 13
1.0
 23
0.0
 33
0.0
 40
0.0
 40
0.0
 40
0.0
 40
0.0
 40
0.0403642560090335
 40
0.0805614001943609
 40
0.1538426152043059
 40
0.3585470429430765
 40
1.0
 40
1.0
 40
1.0
 40
1.0
 10
260.1240705108021
 20
972.6273426354982
 30
0.0
 10
260.1243115554444
 20
972.5994564706062
 30
0.0
 10
260.1247926467813
 20
972.5437995921726
 30
0.0
 10
260.1295053992818
 20
972.4500098633321
 30
0.0
 10
260.1436759920751
 20
972.299664783058
 30
0.0
 10
260.1953269547799
 20
972.0486904999357
 30
0.0
 10
260.2455552212854
 20
971.961361407574
 30
0.0
 10
260.2836321448658
 20
971.8951591790773
 30
0.0
  0
SPLINE
  5
120
330
1F
100
AcDbEntity
  8
0
  6
Continuous
 62
     7
370
    15
100
AcDbSpline
210
0.0
220
0.0
230
1.0
 70
     8
 71
     3
 72
    12
 73
     8
 74
     0
 42
0.00000001
 43
0.00000001
 12
1.0
 22
0.0
 32
0.0
 13
1.0
 23
0.0
 33
0.0
 40
0.0
 40
0.0
 40
0.0
 40
0.0
 40
0.2406799381186928
 40
0.481494013822185
 40
0.7183687600625908
 40
0.9505623843350686
 40
1.0
 40
1.0
 40
1.0
 40
1.0
 10
828.9612959479664
 20
996.0256823838807
 30
0.0
 10
828.965962633466
 20
996.0655090732379
 30
0.0
 10
828.9752986053381
 20
996.145184648467
 30
0.0
 10
828.9212909197113
 20
996.51762695062
 30
0.0
 10
828.7825792939993
 20
997.0147235423918
 30
0.0
 10
828.6016126783086
 20
997.4278400470802
 30
0.0
 10
828.4772855449952
 20
997.6451929745167
 30
0.0
 10
828.45546113008
 20
997.6833471597292
 30
0.0
  0
SPLINE
  5
121
330
1F
100
AcDbEntity
  8
0
  6
Continuous
 62
     7
370
    15
100
AcDbSpline
210
0.0
220
0.0
230
1.0
 70
     8
 71
     3
 72
    12
 73
     8
 74
     0
 42
0.00000001
 43
0.00000001
 12
1.0
 22
0.0
 32
0.0
 13
1.0
 23
0.0
 33
0.0
 40
0.0
 40
0.0
 40
0.0
 40
0.0
 40
0.0402743683263018
 40
0.0803871616606045
 40
0.153525495165864
 40
0.3575443814810605
 40
1.0
 40
1.0
 40
1.0
 40
1.0
 10
829.1208575820301
 20
995.2934989274598
 30
0.0
 10
829.1206167638047
 20
995.3213217902531
 30
0.0
 10
829.1201360934823
 20
995.3768558945029
 30
0.0
 10
829.115418009956
 20
995.4705034766133
 30
0.0
 10
829.1013196293327
 20
995.6205507789916
 30
0.0
 10
829.0497148443935
 20
995.872145175561
 30
0.0
 10
828.9994476489106
 20
995.9594329067633
 30
0.0
 10
828.9612959479664
 20
996.0256823838808
 30
0.0
  0
SPLINE
  5
122
330
1F
100
AcDbEntity
  8
0
  6
Continuous
 62
     7
370
    15
100
AcDbSpline
210
0.0
220
0.0
230
1.0
 70
     8
 71
     3
 72
    12
 73
     8
 74
     0
 42
0.00000001
 43
0.00000001
 12
1.0
 22
0.0
 32
0.0
 13
1.0
 23
0.0
 33
0.0
 40
0.0
 40
0.0
 40
0.0
 40
0.0
 40
0.2431690130522459
 40
0.4869651590958585
 40
0.7196781880713163
 40
0.9552496516557559
 40
0.9999999999999999
 40
0.9999999999999999
 40
0.9999999999999999
 40
0.9999999999999999
 10
828.45546113008
 20
970.2374944032289
 30
0.0
 10
828.5552939915066
 20
970.4287778100218
 30
0.0
 10
828.7552171833532
 20
970.8118379435975
 30
0.0
 10
828.905752959143
 20
971.3378224706576
 30
0.0
 10
828.9692784426986
 20
971.7179460329138
 30
0.0
 10
828.9719077247833
 20
971.8637673561007
 30
0.0
 10
828.9627567950248
 20
971.8908376923891
 30
0.0
 10
828.9612959479664
 20
971.8951591790773
 30
0.0
  0
SPLINE
  5
123
330
1F
100
AcDbEntity
  8
0
  6
Continuous
 62
     7
370
    15
100
AcDbSpline
210
0.0
220
0.0
230
1.0
 70
     8
 71
     3
 72
    15
 73
    11
 74
     0
 42
0.00000001
 43
0.00000001
 12
1.0
 22
0.0
 32
0.0
 13
1.0
 23
0.0
 33
0.0
 40
0.0
 40
0.0
 40
0.0
 40
0.0
 40
0.3098112252031577
 40
0.5224493079557798
 40
0.6700834706852349
 40
0.821303342887439
 40
0.8849967479743559
 40
0.9493203183084045
 40
0.9897451429217796
 40
0.9999999999999999
 40
0.9999999999999999
 40
0.9999999999999999
 40
0.9999999999999999
 10
828.9612959479664
 20
971.8951591790773
 30
0.0
 10
828.9796815096475
 20
971.9270593180787
 30
0.0
 10
829.0106859510468
 20
971.9808540297907
 30
0.0
 10
829.049935194715
 20
972.084941322215
 30
0.0
 10
829.0791665555774
 20
972.1919845578966
 30
0.0
 10
829.099114685647
 20
972.2965052209064
 30
0.0
 10
829.1125217367621
 20
972.4136393628842
 30
0.0
 10
829.118822281897
 20
972.5073554763763
 30
0.0
 10
829.120807047416
 20
972.5853915922122
 30
0.0
 10
829.1208490774077
 20
972.6202825680575
 30
0.0
 10
829.1208575820301
 20
972.6273426354983
 30
0.0
  0
SPLINE
  5
124
330
1F
100
AcDbEntity
  8
0
  6
Continuous
 62
     7
370
    15
100
AcDbSpline
210
0.0
220
0.0
230
1.0
 70
     8
 71
     3
 72
    15
 73
    11
 74
     0
 42
0.00000001
 43
0.00000001
 12
1.0
 22
0.0
 32
0.0
 13
1.0
 23
0.0
 33
0.0
 40
0.0
 40
0.0
 40
0.0
 40
0.0
 40
0.3098112252031577
 40
0.5224493079557798
 40
0.6700834706852349
 40
0.821303342887439
 40
0.8849967479743559
 40
0.9493203183084045
 40
0.9897451429217796
 40
0.9999999999999999
 40
0.9999999999999999
 40
0.9999999999999999
 40
0.9999999999999999
 10
260.2836321448658
 20
996.0256823838807
 30
0.0
 10
260.2652465831848
 20
995.9937822448795
 30
0.0
 10
260.2342421417855
 20
995.9399875331676
 30
0.0
 10
260.1949928981173
 20
995.8359002407432
 30
0.0
 10
260.1657615372549
 20
995.7288570050613
 30
0.0
 10
260.1458134071852
 20
995.6243363420514
 30
0.0
 10
260.1324063560701
 20
995.5072022000742
 30
0.0
 10
260.1261058109351
 20
995.413486086582
 30
0.0
 10
260.1241210454162
 20
995.3354499707458
 30
0.0
 10
260.1240790154246
 20
995.3005589949007
 30
0.0
 10
260.124070510802
 20
995.29349892746
 30
0.0
  0
SPLINE
  5
125
330
1F
100
AcDbEntity
  8
0
  6
Continuous
 62
     7
370
    15
100
AcDbSpline
210
0.0
220
0.0
230
1.0
 70
     8
 71
     3
 72
    12
 73
     8
 74
     0
 42
0.00000001
 43
0.00000001
 12
1.0
 22
0.0
 32
0.0
 13
1.0
 23
0.0
 33
0.0
 40
0.0
 40
0.0
 40
0.0
 40
0.0
 40
0.2431690130522459
 40
0.4869651590958585
 40
0.7196781880713163
 40
0.9552496516557559
 40
0.9999999999999999
 40
0.9999999999999999
 40
0.9999999999999999
 40
0.9999999999999999
 10
260.7894669627522
 20
997.6833471597291
 30
0.0
 10
260.6896341013256
 20
997.4920637529364
 30
0.0
 10
260.4897109094791
 20
997.1090036193604
 30
0.0
 10
260.3391751336891
 20
996.5830190923007
 30
0.0
 10
260.2756496501336
 20
996.2028955300447
 30
0.0
 10
260.2730203680491
 20
996.0570742068567
 30
0.0
 10
260.2821712978074
 20
996.0300038705692
 30
0.0
 10
260.2836321448658
 20
996.0256823838807
 30
0.0
  0
LINE
  5
126
330
1F
100
AcDbEntity
  8
0
  6
Continuous
 62
     7
370
    15
100
AcDbLine
 10
260.6566082095
 20
995.6526765169
 30
0.0
 11
260.2837811565
 21
996.0255631746
 31
0.0
  0
ELLIPSE
  5
127
330
1F
100
AcDbEntity
  8
0
  6
Continuous
 62
     7
370
    15
100
AcDbEllipse
 10
260.6489891157
 20
994.6565091564
 30
0.0
 11
0.0
 21
1.0
 31
0.0
210
0.0
220
0.0
230
1.0
 40
0.0874886635
 41
4.712388980384691
 42
6.195918844579495
  0
LINE
  5
128
330
1F
100
AcDbEntity
  8
0
  6
Continuous
 62
     7
370
    15
100
AcDbLine
 10
260.7364784335
 20
992.6131376566
 30
0.0
 11
260.7364784335
 21
994.6565040887
 31
0.0
  0
ELLIPSE
  5
129
330
1F
100
AcDbEntity
  8
0
  6
Continuous
 62
     7
370
    15
100
AcDbEllipse
 10
260.2990344616
 20
998.0179233231
 30
0.0
 11
0.0
 21
2.000000000000114
 31
0.0
210
0.0
220
0.0
230
1.0
 40
0.0874886635
 41
3.053409736768842
 42
3.05432619098985
  0
LINE
  5
12A
330
1F
100
AcDbEntity
  8
0
  6
Continuous
 62
     7
370
    15
100
AcDbLine
 10
828.5883198833
 20
972.2681650461
 30
0.0
 11
828.9611469364
 21
971.8952783884
 31
0.0
  0
ELLIPSE
  5
12B
330
1F
100
AcDbEntity
  8
0
  6
Continuous
 62
     7
370
    15
100
AcDbEllipse
 10
828.5959389771
 20
973.2643302151
 30
0.0
 11
0.0
 21
1.0
 31
0.0
210
0.0
220
0.0
230
1.0
 40
0.0874886635
 41
1.570796326794897
 42
3.054326190989599
  0
LINE
  5
12C
330
1F
100
AcDbEntity
  8
0
  6
Continuous
 62
     7
370
    15
100
AcDbLine
 10
828.5084496593
 20
973.2643374742
 30
0.0
 11
828.5084496593
 21
975.3077039064
 31
0.0
  0
ELLIPSE
  5
12D
330
1F
100
AcDbEntity
  8
0
  6
Continuous
 62
     7
370
    15
100
AcDbEllipse
 10
828.9458936312
 20
969.9029160483
 30
0.0
 11
0.0
 21
2.0
 31
0.0
210
0.0
220
0.0
230
1.0
 40
0.0874886635
 41
6.195002390360754
 42
6.19591884458014
  0
LINE
  5
12E
330
1F
100
AcDbEntity
  8
0
  6
Continuous
 62
     7
370
    15
100
AcDbLine
 10
828.5084496593
 20
992.6131376566
 30
0.0
 11
828.5084496593
 21
994.6565040887
 31
0.0
  0
ELLIPSE
  5
12F
330
1F
100
AcDbEntity
  8
0
  6
Continuous
 62
     7
370
    15
100
AcDbEllipse
 10
828.5959389771
 20
994.6565091564
 30
0.0
 11
0.0
 21
1.0
 31
0.0
210
0.0
220
0.0
230
1.0
 40
0.0874886635
 41
0.0872664625989008
 42
1.570796326794897
  0
LINE
  5
130
330
1F
100
AcDbEntity
  8
0
  6
Continuous
 62
     7
370
    15
100
AcDbLine
 10
828.5883198833
 20
995.6526765169
 30
0.0
 11
828.9611469364
 21
996.0255631746
 31
0.0
  0
ELLIPSE
  5
131
330
1F
100
AcDbEntity
  8
0
  6
Continuous
 62
     7
370
    15
100
AcDbEllipse
 10
828.9458936312
 20
998.0179233231
 30
0.0
 11
0.0
 21
2.000000000000114
 31
0.0
210
0.0
220
0.0
230
1.0
 40
0.0874886635
 41
3.228859116189572
 42
3.229775570409598
  0
LINE
  5
132
330
1F
100
AcDbEntity
  8
0
  6
Continuous
 62
     7
370
    15
100
AcDbLine
 10
260.7364784335
 20
973.2643374742
 30
0.0
 11
260.7364784335
 21
975.3077039064
 31
0.0
  0
ELLIPSE
  5
133
330
1F
100
AcDbEntity
  8
0
  6
Continuous
 62
     7
370
    15
100
AcDbEllipse
 10
260.6489891157
 20
973.2643302151
 30
0.0
 11
0.0
 21
1.0
 31
0.0
210
0.0
220
0.0
230
1.0
 40
0.0874886635
 41
3.228859116189557
 42
4.712388980384691
  0
LINE
  5
134
330
1F
100
AcDbEntity
  8
0
  6
Continuous
 62
     7
370
    15
100
AcDbLine
 10
260.6566082095
 20
972.2681650461
 30
0.0
 11
260.2837811565
 21
971.8952783884
 31
0.0
  0
ELLIPSE
  5
135
330
1F
100
AcDbEntity
  8
0
  6
Continuous
 62
     7
370
    15
100
AcDbEllipse
 10
260.2990344616
 20
969.9029160483
 30
0.0
 11
0.0
 21
2.0
 31
0.0
210
0.0
220
0.0
230
1.0
 40
0.0874886635
 41
0.087266462599933
 42
0.0881829168196358
  0
CIRCLE
  5
136
330
1F
100
AcDbEntity
  8
0
  6
Continuous
 62
     7
370
    15
100
AcDbCircle
 10
934.6224640464
 20
983.9604196857
 30
0.0
 40
9.499999999999897
  0
CIRCLE
  5
137
330
1F
100
AcDbEntity
  8
0
  6
Continuous
 62
     7
370
    15
100
AcDbCircle
 10
154.6224640464
 20
983.9604196857
 30
0.0
 40
9.499999999999993
  0
LINE
  5
138
330
1F
100
AcDbEntity
  8
0
  6
Continuous
 62
     7
370
    15
100
AcDbLine
 10
209.7066174602
 20
231.2777870835
 30
0.0
 11
269.5382963275
 21
231.2777870835
 31
0.0
  0
LINE
  5
139
330
1F
100
AcDbEntity
  8
0
  6
Continuous
 62
     7
370
    15
100
AcDbLine
 10
944.6224700069
 20
121.3754945935
 30
0.0
 11
944.6224700069
 21
121.4572721661
 31
0.0
  0
LINE
  5
13A
330
1F
100
AcDbEntity
  8
0
  6
Continuous
 62
     7
370
    15
100
AcDbLine
 10
144.622458086
 20
121.4572721661
 30
0.0
 11
144.622458086
 21
121.3754945935
 31
0.0
  0
ARC
  5
13B
330
1F
100
AcDbEntity
  8
0
  6
Continuous
 62
     7
370
    15
100
AcDbCircle
 10
565.6682904831
 20
116.7940444061
 30
0.0
 40
11.37278806537938
100
AcDbArc
 50
159.9581281237
 51
197.7085127112
  0
ARC
  5
13C
330
1F
100
AcDbEntity
  8
0
  6
Continuous
 62
     7
370
    15
100
AcDbCircle
 10
523.5152883866
 20
116.7974655673
 30
0.0
 40
11.43261838431592
100
AcDbArc
 50
341.0816466127
 51
22.7581842655
  0
LWPOLYLINE
  5
13D
330
1F
100
AcDbEntity
  8
0
  6
Continuous
 62
     7
370
    15
100
AcDbPolyline
 90
        9
 70
   128
 43
0.0
 10
543.1224640334
 20
108.7166005314
 10
543.2366447631
 20
108.4740021766
 10
543.5618039328
 20
108.2683438004
 10
544.0484388956
 20
108.1309252919
 10
544.6224640464
 20
108.0826678814
 10
545.1964891973
 20
108.1309252919
 10
545.68312416
 20
108.2683438004
 10
546.0082833297
 20
108.4740021766
 10
546.1224640595
 20
108.7166005314
  0
LINE
  5
13E
330
1F
100
AcDbEntity
  8
0
  6
Continuous
 62
     7
370
    15
100
AcDbLine
 10
543.1224640334
 20
121.4572721661
 30
0.0
 11
543.1224640334
 21
108.7166005314
 31
0.0
  0
LINE
  5
13F
330
1F
100
AcDbEntity
  8
0
  6
Continuous
 62
     7
370
    15
100
AcDbLine
 10
546.1224640595
 20
108.7166005314
 30
0.0
 11
546.1224640595
 21
121.4572721661
 31
0.0
  0
LINE
  5
140
330
1F
100
AcDbEntity
  8
0
  6
Continuous
 62
     7
370
    15
100
AcDbLine
 10
533.0049041068
 20
110.0433328689
 30
0.0
 11
533.0017627557
 21
110.0616836489
 31
0.0
  0
ARC
  5
141
330
1F
100
AcDbEntity
  8
0
  6
Continuous
 62
     7
370
    15
100
AcDbCircle
 10
855.6408960944
 20
117.1015648896
 30
0.0
 40
11.35048014719279
100
AcDbArc
 50
159.922517738
 51
198.1244669127
  0
ARC
  5
142
330
1F
100
AcDbEntity
  8
0
  6
Continuous
 62
     7
370
    15
100
AcDbCircle
 10
813.5777978464
 20
116.4856262459
 30
0.0
 40
11.3751272962355
100
AcDbArc
 50
341.7177877644
 51
19.6087417246
  0
LINE
  5
143
330
1F
100
AcDbEntity
  8
0
  6
Continuous
 62
     7
370
    15
100
AcDbLine
 10
832.9880665397
 20
121.4572721661
 30
0.0
 11
833.2961927509
 21
108.7104985059
 31
0.0
  0
LWPOLYLINE
  5
144
330
1F
100
AcDbEntity
  8
0
  6
Continuous
 62
     7
370
    15
100
AcDbPolyline
 90
        9
 70
   128
 43
0.0
 10
833.2961927509
 20
108.7104985059
 10
833.4162365054
 20
108.4684067906
 10
833.7463568305
 20
108.2641640247
 10
834.2362772083
 20
108.1288540305
 10
834.811432228
 20
108.0830776633
 10
835.3842626666
 20
108.1338086666
 10
835.8675669288
 20
108.2733207883
 10
836.1877332782
 20
108.480372423
 10
836.2960349178
 20
108.723447615
  0
LINE
  5
145
330
1F
100
AcDbEntity
  8
0
  6
Continuous
 62
     7
370
    15
100
AcDbLine
 10
836.2960349178
 20
108.723447615
 30
0.0
 11
835.9882365321
 21
121.4572721661
 31
0.0
  0
ARC
  5
146
330
1F
100
AcDbEntity
  8
0
  6
Continuous
 62
     7
370
    15
100
AcDbCircle
 10
835.4530115496
 20
109.1718091301
 30
0.0
 40
0.8435533215301706
100
AcDbArc
 50
10.901332687
 51
25.1900929282
  0
LINE
  5
147
330
1F
100
AcDbEntity
  8
0
  6
Continuous
 62
     7
370
    15
100
AcDbLine
 10
823.1633733367
 20
110.0037926377
 30
0.0
 11
823.1603334998
 21
110.0221806706
 31
0.0
  0
LINE
  5
148
330
1F
100
AcDbEntity
  8
0
  6
Continuous
 62
     7
370
    15
100
AcDbLine
 10
836.2869452094
 20
109.1000893653
 30
0.0
 11
836.2696300601
 21
109.0514966787
 31
0.0
  0
LINE
  5
149
330
1F
100
AcDbEntity
  8
0
  6
Continuous
 62
     7
370
    15
100
AcDbLine
 10
778.7224631166
 20
998.9045271219
 30
0.0
 11
782.222462759
 21
998.9045271219
 31
0.0
  0
LINE
  5
14A
330
1F
100
AcDbEntity
  8
0
  6
Continuous
 62
     7
370
    15
100
AcDbLine
 10
775.2224634742
 20
998.9045271219
 30
0.0
 11
778.7224631166
 21
998.9045271219
 31
0.0
  0
LINE
  5
14B
330
1F
100
AcDbEntity
  8
0
  6
Continuous
 62
     7
370
    15
100
AcDbLine
 10
778.7224631166
 20
998.3044871629
 30
0.0
 11
781.9724659776
 21
998.3044871629
 31
0.0
  0
LINE
  5
14C
330
1F
100
AcDbEntity
  8
0
  6
Continuous
 62
     7
370
    15
100
AcDbLine
 10
775.4724602556
 20
998.3044871629
 30
0.0
 11
778.7224631166
 21
998.3044871629
 31
0.0
  0
LINE
  5
14D
330
1F
100
AcDbEntity
  8
0
  6
Continuous
 62
     7
370
    15
100
AcDbLine
 10
689.7668521261
 20
1004.804492885
 30
0.0
 11
668.9535732722
 21
1004.804492885
 31
0.0
  0
LINE
  5
14E
330
1F
100
AcDbEntity
  8
0
  6
Continuous
 62
     7
370
    15
100
AcDbLine
 10
650.8293207144
 20
1004.804492885
 30
0.0
 11
552.5902024811
 21
1004.804492885
 31
0.0
  0
LINE
  5
14F
330
1F
100
AcDbEntity
  8
0
  6
Continuous
 62
     7
370
    15
100
AcDbLine
 10
536.7786269044
 20
1004.804492885
 30
0.0
 11
438.2919128394
 21
1004.804492885
 31
0.0
  0
LINE
  5
150
330
1F
100
AcDbEntity
  8
0
  6
Continuous
 62
     7
370
    15
100
AcDbLine
 10
420.3982557511
 20
1004.804492885
 30
0.0
 11
399.4780759668
 21
1004.804492885
 31
0.0
  0
LINE
  5
151
330
1F
100
AcDbEntity
  8
0
  6
Continuous
 62
     7
370
    15
100
AcDbLine
 10
794.004542694
 20
1003.3044823946
 30
0.0
 11
787.2224579906
 21
1003.3044823946
 31
0.0
  0
LINE
  5
152
330
1F
100
AcDbEntity
  8
0
  6
Continuous
 62
     7
370
    15
100
AcDbLine
 10
787.2224579906
 20
1003.4261950792
 30
0.0
 11
787.2224579906
 21
1003.3044823946
 31
0.0
  0
ARC
  5
153
330
1F
100
AcDbEntity
  8
0
  6
Continuous
 62
     7
370
    15
100
AcDbCircle
 10
284.6224640464
 20
977.9161681474
 30
0.0
 40
5.000000000000095
100
AcDbArc
 50
106.9603019367
 51
166.9603019367
  0
SPLINE
  5
154
330
1F
100
AcDbEntity
  8
0
  6
Continuous
 62
     7
370
    15
100
AcDbSpline
210
0.0
220
0.0
230
1.0
 70
     8
 71
     3
 72
     9
 73
     5
 74
     0
 42
0.00000001
 43
0.00000001
 12
1.0
 22
0.0
 32
0.0
 13
1.0
 23
0.0
 33
0.0
 40
0.0
 40
0.0
 40
0.0
 40
0.0
 40
0.7681470928204296
 40
1.0
 40
1.0
 40
1.0
 40
1.0
 10
280.4027329539631
 20
981.8565854371644
 30
0.0
 10
280.2376985301728
 20
981.1440928019398
 30
0.0
 10
280.0228511066354
 20
980.2165456669129
 30
0.0
 10
279.8024937028632
 20
979.2649494392232
 30
0.0
 10
279.75140319818
 20
979.044319087372
 30
0.0
  0
SPLINE
  5
155
330
1F
100
AcDbEntity
  8
0
  6
Continuous
 62
     7
370
    15
100
AcDbSpline
210
0.0
220
0.0
230
1.0
 70
     8
 71
     3
 72
     9
 73
     5
 74
     0
 42
0.00000001
 43
0.00000001
 12
1.0
 22
0.0
 32
0.0
 13
1.0
 23
0.0
 33
0.0
 40
0.0
 40
0.0
 40
0.0
 40
0.0
 40
0.0701992131338165
 40
1.0
 40
1.0
 40
1.0
 40
1.0
 10
283.1639181231831
 20
982.6986798585511
 30
0.0
 10
283.0984613246429
 20
982.6787230014191
 30
0.0
 10
282.1660178453193
 20
982.394434100717
 30
0.0
 10
281.2523044178211
 20
982.1157272687926
 30
0.0
 10
280.4027329539631
 20
981.8565854371644
 30
0.0
  0
ARC
  5
156
330
1F
100
AcDbEntity
  8
0
  6
Continuous
 62
     7
370
    15
100
AcDbCircle
 10
284.6224640464
 20
977.9161681474
 30
0.0
 40
5.000000000000095
100
AcDbArc
 50
46.9603019367
 51
106.9603019367
  0
LINE
  5
157
330
1F
100
AcDbEntity
  8
0
  6
Continuous
 62
     7
370
    15
100
AcDbLine
 10
285.9251032924
 20
983.5407742799
 30
0.0
 11
283.1639181232
 21
982.6986798586
 31
0.0
  0
SPLINE
  5
158
330
1F
100
AcDbEntity
  8
0
  6
Continuous
 62
     7
370
    15
100
AcDbSpline
210
0.0
220
0.0
230
1.0
 70
     8
 71
     3
 72
     9
 73
     5
 74
     0
 42
0.00000001
 43
0.00000001
 12
1.0
 22
0.0
 32
0.0
 13
1.0
 23
0.0
 33
0.0
 40
0.0
 40
0.0
 40
0.0
 40
0.0
 40
0.0701882484641003
 40
1.0
 40
1.0
 40
1.0
 40
1.0
 10
288.0349885081623
 20
981.5706023515321
 30
0.0
 10
287.9849764755513
 20
981.6172945334613
 30
0.0
 10
287.2724350785874
 20
982.2825366922411
 30
0.0
 10
286.5742676096039
 20
982.9345368610117
 30
0.0
 10
285.925103292403
 20
983.5407742799379
 30
0.0
  0
ARC
  5
159
330
1F
100
AcDbEntity
  8
0
  6
Continuous
 62
     7
370
    15
100
AcDbCircle
 10
284.6224640464
 20
977.9161681474
 30
0.0
 40
5.000000000000041
100
AcDbArc
 50
166.9603019367
 51
226.9603019367
  0
LINE
  5
15A
330
1F
100
AcDbEntity
  8
0
  6
Continuous
 62
     7
370
    15
100
AcDbLine
 10
279.1000734424
 20
976.2319931329
 30
0.0
 11
281.2099288558
 21
974.2617615999
 31
0.0
  0
SPLINE
  5
15B
330
1F
100
AcDbEntity
  8
0
  6
Continuous
 62
     7
370
    15
100
AcDbSpline
210
0.0
220
0.0
230
1.0
 70
     8
 71
     3
 72
     9
 73
     5
 74
     0
 42
0.00000001
 43
0.00000001
 12
1.0
 22
0.0
 32
0.0
 13
1.0
 23
0.0
 33
0.0
 40
0.0
 40
0.0
 40
0.0
 40
0.0
 40
0.7890029824643555
 40
1.0
 40
1.0
 40
1.0
 40
1.0
 10
279.75140319818
 20
979.0443190873721
 30
0.0
 10
279.5774133923774
 20
978.2930734203647
 30
0.0
 10
279.3568948269604
 20
977.3409278851722
 30
0.0
 10
279.1448204941217
 20
976.4252074199854
 30
0.0
 10
279.1000734423969
 20
976.2319931329348
 30
0.0
  0
ARC
  5
15C
330
1F
100
AcDbEntity
  8
0
  6
Continuous
 62
     7
370
    15
100
AcDbCircle
 10
284.6224640464
 20
977.9161681474
 30
0.0
 40
5.000000000000002
100
AcDbArc
 50
346.9603019367
 51
46.9603019367
  0
ARC
  5
15D
330
1F
100
AcDbEntity
  8
0
  6
Continuous
 62
     7
370
    15
100
AcDbCircle
 10
284.6224640464
 20
977.9161681474
 30
0.0
 40
4.99999999999997
100
AcDbArc
 50
286.9603019367
 51
346.9603019367
  0
ARC
  5
15E
330
1F
100
AcDbEntity
  8
0
  6
Continuous
 62
     7
370
    15
100
AcDbCircle
 10
284.6224640464
 20
977.9161681474
 30
0.0
 40
5.000000000000041
100
AcDbArc
 50
226.9603019367
 51
286.9603019367
  0
LINE
  5
15F
330
1F
100
AcDbEntity
  8
0
  6
Continuous
 62
     7
370
    15
100
AcDbLine
 10
290.1448737239
 20
979.6003708185
 30
0.0
 11
288.0349885082
 21
981.5706023515
 31
0.0
  0
SPLINE
  5
160
330
1F
100
AcDbEntity
  8
0
  6
Continuous
 62
     7
370
    15
100
AcDbSpline
210
0.0
220
0.0
230
1.0
 70
     8
 71
     3
 72
     9
 73
     5
 74
     0
 42
0.00000001
 43
0.00000001
 12
1.0
 22
0.0
 32
0.0
 13
1.0
 23
0.0
 33
0.0
 40
0.0
 40
0.0
 40
0.0
 40
0.0
 40
0.2318483884055694
 40
1.0
 40
1.0
 40
1.0
 40
1.0
 10
289.4935439681385
 20
976.7880448640443
 30
0.0
 10
289.544634618373
 20
977.0086751490613
 30
0.0
 10
289.7649969447447
 20
977.9602896352966
 30
0.0
 10
289.9798409528523
 20
978.8878578214355
 30
0.0
 10
290.1448737239215
 20
979.6003708184817
 30
0.0
  0
SPLINE
  5
161
330
1F
100
AcDbEntity
  8
0
  6
Continuous
 62
     7
370
    15
100
AcDbSpline
210
0.0
220
0.0
230
1.0
 70
     8
 71
     3
 72
     9
 73
     5
 74
     0
 42
0.00000001
 43
0.00000001
 12
1.0
 22
0.0
 32
0.0
 13
1.0
 23
0.0
 33
0.0
 40
0.0
 40
0.0
 40
0.0
 40
0.0
 40
0.0701985378025668
 40
1.0
 40
1.0
 40
1.0
 40
1.0
 10
286.0809992408131
 20
973.1336244882203
 30
0.0
 10
286.1464560361741
 20
973.1535813524133
 30
0.0
 10
287.0789084405969
 20
973.4378730886481
 30
0.0
 10
287.9926323683168
 20
973.7165783500413
 30
0.0
 10
288.8422142123554
 20
973.975718909607
 30
0.0
  0
SPLINE
  5
162
330
1F
100
AcDbEntity
  8
0
  6
Continuous
 62
     7
370
    15
100
AcDbSpline
210
0.0
220
0.0
230
1.0
 70
     8
 71
     3
 72
     9
 73
     5
 74
     0
 42
0.00000001
 43
0.00000001
 12
1.0
 22
0.0
 32
0.0
 13
1.0
 23
0.0
 33
0.0
 40
0.0
 40
0.0
 40
0.0
 40
0.0
 40
0.2109970175356445
 40
1.0
 40
1.0
 40
1.0
 40
1.0
 10
288.8422142123554
 20
973.975718909607
 30
0.0
 10
288.8869612640802
 20
974.1689331966577
 30
0.0
 10
289.0990355969189
 20
975.0846536618443
 30
0.0
 10
289.3195541623359
 20
976.036799197037
 30
0.0
 10
289.4935439681385
 20
976.7880448640444
 30
0.0
  0
SPLINE
  5
163
330
1F
100
AcDbEntity
  8
0
  6
Continuous
 62
     7
370
    15
100
AcDbSpline
210
0.0
220
0.0
230
1.0
 70
     8
 71
     3
 72
     9
 73
     5
 74
     0
 42
0.00000001
 43
0.00000001
 12
1.0
 22
0.0
 32
0.0
 13
1.0
 23
0.0
 33
0.0
 40
0.0
 40
0.0
 40
0.0
 40
0.0
 40
0.0702086299667932
 40
1.0
 40
1.0
 40
1.0
 40
1.0
 10
281.2099288558338
 20
974.2617615998842
 30
0.0
 10
281.259950663798
 20
974.2150493508409
 30
0.0
 10
281.9724244435569
 20
973.5497144900793
 30
0.0
 10
282.6706292593516
 20
972.897734984531
 30
0.0
 10
283.319814071593
 20
972.2915300668337
 30
0.0
  0
LINE
  5
164
330
1F
100
AcDbEntity
  8
0
  6
Continuous
 62
     7
370
    15
100
AcDbLine
 10
283.3198140716
 20
972.2915300668
 30
0.0
 11
286.0809992408
 21
973.1336244882
 31
0.0
  0
ARC
  5
165
330
1F
100
AcDbEntity
  8
0
  6
Continuous
 62
     7
370
    15
100
AcDbCircle
 10
544.6224640464
 20
977.9161681474
 30
0.0
 40
10.00000000000006
100
AcDbArc
 50
123.3779429052
 51
236.6220570948
  0
ARC
  5
166
330
1F
100
AcDbEntity
  8
0
  6
Continuous
 62
     7
370
    15
100
AcDbCircle
 10
544.6224640464
 20
977.9161681474
 30
0.0
 40
10.00000000000005
100
AcDbArc
 50
303.3779429052
 51
56.6220570948
  0
ARC
  5
167
330
1F
100
AcDbEntity
  8
0
  6
Continuous
 62
     7
370
    15
100
AcDbCircle
 10
344.6224640464
 20
977.9161681474
 30
0.0
 40
9.999999999999938
100
AcDbArc
 50
123.3779429051
 51
236.6220570949
  0
ARC
  5
168
330
1F
100
AcDbEntity
  8
0
  6
Continuous
 62
     7
370
    15
100
AcDbCircle
 10
344.6224640464
 20
977.9161681474
 30
0.0
 40
9.999999999999934
100
AcDbArc
 50
303.3779429051
 51
56.6220570949
  0
CIRCLE
  5
169
330
1F
100
AcDbEntity
  8
0
  6
Continuous
 62
     7
370
    15
100
AcDbCircle
 10
504.6224640464
 20
977.9161681474
 30
0.0
 40
10.0
  0
CIRCLE
  5
16A
330
1F
100
AcDbEntity
  8
0
  6
Continuous
 62
     7
370
    15
100
AcDbCircle
 10
464.6224640464
 20
977.9161681474
 30
0.0
 40
10.0
  0
ARC
  5
16B
330
1F
100
AcDbEntity
  8
0
  6
Continuous
 62
     7
370
    15
100
AcDbCircle
 10
424.6224640464
 20
977.9161681474
 30
0.0
 40
9.999999999999947
100
AcDbArc
 50
92.8751231729
 51
267.1248768271
  0
CIRCLE
  5
16C
330
1F
100
AcDbEntity
  8
0
  6
Continuous
 62
     7
370
    15
100
AcDbCircle
 10
384.6224640464
 20
977.9161681474
 30
0.0
 40
10.0
  0
CIRCLE
  5
16D
330
1F
100
AcDbEntity
  8
0
  6
Continuous
 62
     7
370
    15
100
AcDbCircle
 10
584.6224640464
 20
977.9161681474
 30
0.0
 40
9.999999999999886
  0
CIRCLE
  5
16E
330
1F
100
AcDbEntity
  8
0
  6
Continuous
 62
     7
370
    15
100
AcDbCircle
 10
624.6224640464
 20
977.9161681474
 30
0.0
 40
10.0
  0
ARC
  5
16F
330
1F
100
AcDbEntity
  8
0
  6
Continuous
 62
     7
370
    15
100
AcDbCircle
 10
664.6224640464
 20
977.9161681474
 30
0.0
 40
10.00000000000009
100
AcDbArc
 50
272.8751231729
 51
87.1248768271
  0
CIRCLE
  5
170
330
1F
100
AcDbEntity
  8
0
  6
Continuous
 62
     7
370
    15
100
AcDbCircle
 10
704.6224640464
 20
977.9161681474
 30
0.0
 40
10.0
  0
ARC
  5
171
330
1F
100
AcDbEntity
  8
0
  6
Continuous
 62
     7
370
    15
100
AcDbCircle
 10
744.6224640464
 20
977.9161681474
 30
0.0
 40
10.00000000000007
100
AcDbArc
 50
123.3779429052
 51
236.6220570949
  0
ARC
  5
172
330
1F
100
AcDbEntity
  8
0
  6
Continuous
 62
     7
370
    15
100
AcDbCircle
 10
744.6224640464
 20
977.9161681474
 30
0.0
 40
10.00000000000006
100
AcDbArc
 50
303.3779429052
 51
56.6220570948
  0
CIRCLE
  5
173
330
1F
100
AcDbEntity
  8
0
  6
Continuous
 62
     7
370
    15
100
AcDbCircle
 10
804.6224640464
 20
997.3161681474
 30
0.0
 40
2.199999999999932
  0
CIRCLE
  5
174
330
1F
100
AcDbEntity
  8
0
  6
Continuous
 62
     7
370
    15
100
AcDbCircle
 10
284.6224640464
 20
997.3161681474
 30
0.0
 40
2.199999999999932
  0
LINE
  5
175
330
1F
100
AcDbEntity
  8
0
  6
Continuous
 62
     7
370
    15
100
AcDbLine
 10
814.5062755203
 20
1002.9161581339
 30
0.0
 11
782.222462759
 21
1002.9161581339
 31
0.0
  0
LINE
  5
176
330
1F
100
AcDbEntity
  8
0
  6
Continuous
 62
     7
370
    15
100
AcDbLine
 10
775.2224634742
 20
1002.9161581339
 30
0.0
 11
752.0676981067
 21
1002.9161581339
 31
0.0
  0
LINE
  5
177
330
1F
100
AcDbEntity
  8
0
  6
Continuous
 62
     7
370
    15
100
AcDbLine
 10
737.4341170644
 20
1002.9161581339
 30
0.0
 11
666.1115791058
 21
1002.9161581339
 31
0.0
  0
LINE
  5
178
330
1F
100
AcDbEntity
  8
0
  6
Continuous
 62
     7
370
    15
100
AcDbLine
 10
653.2376687383
 20
1002.9161581339
 30
0.0
 11
550.7597587412
 21
1002.9161581339
 31
0.0
  0
LINE
  5
179
330
1F
100
AcDbEntity
  8
0
  6
Continuous
 62
     7
370
    15
100
AcDbLine
 10
538.4562936952
 20
1002.9161581339
 30
0.0
 11
435.9682630157
 21
1002.9161581339
 31
0.0
  0
LINE
  5
17A
330
1F
100
AcDbEntity
  8
0
  6
Continuous
 62
     7
370
    15
100
AcDbLine
 10
423.1400619602
 20
1002.9161581339
 30
0.0
 11
351.763723359
 21
1002.9161581339
 31
0.0
  0
LINE
  5
17B
330
1F
100
AcDbEntity
  8
0
  6
Continuous
 62
     7
370
    15
100
AcDbLine
 10
337.0892535304
 20
1002.9161581339
 30
0.0
 11
274.7386525726
 21
1002.9161581339
 31
0.0
  0
ENDSEC
  0
SECTION
  2
OBJECTS
  0
DICTIONARY
  5
C
330
0
100
AcDbDictionary
281
     1
  3
ACAD_GROUP
350
D
  3
ACAD_LAYOUT
350
1A
  3
ACAD_MLINESTYLE
350
17
  3
ACAD_PLOTSETTINGS
350
19
  3
ACAD_PLOTSTYLENAME
350
E
  0
DICTIONARY
  5
D
102
{ACAD_REACTORS
330
C
102
}
330
C
100
AcDbDictionary
281
     1
  0
DICTIONARY
  5
1A
102
{ACAD_REACTORS
330
C
102
}
330
C
100
AcDbDictionary
281
     1
  3
Layout1
350
1E
  3
Layout2
350
26
  3
Model
350
22
  0
DICTIONARY
  5
17
102
{ACAD_REACTORS
330
C
102
}
330
C
100
AcDbDictionary
281
     1
  3
Standard
350
18
  0
DICTIONARY
  5
19
102
{ACAD_REACTORS
330
C
102
}
330
C
100
AcDbDictionary
281
     1
  0
ACDBDICTIONARYWDFLT
  5
E
102
{ACAD_REACTORS
330
C
102
}
330
C
100
AcDbDictionary
281
     1
  3
Normal
350
F
100
AcDbDictionaryWithDefault
340
F
  0
LAYOUT
  5
1E
102
{ACAD_REACTORS
330
1A
102
}
330
1A
100
AcDbPlotSettings
  1

  2
none_device
  4

  6

 40
0.0
 41
0.0
 42
0.0
 43
0.0
 44
0.0
 45
0.0
 46
0.0
 47
0.0
 48
0.0
 49
0.0
140
0.0
141
0.0
142
1.0
143
1.0
 70
   688
 72
     0
 73
     0
 74
     5
  7

 75
    16
147
1.0
148
0.0
149
0.0
100
AcDbLayout
  1
Layout1
 70
     1
 71
     1
 10
0.0
 20
0.0
 11
420.0
 21
297.0
 12
0.0
 22
0.0
 32
0.0
 14
1.0000000000E+20
 24
1.0000000000E+20
 34
1.0000000000E+20
 15
-1.0000000000E+20
 25
-1.0000000000E+20
 35
-1.0000000000E+20
146
0.0
 13
0.0
 23
0.0
 33
0.0
 16
1.0
 26
0.0
 36
0.0
 17
0.0
 27
1.0
 37
0.0
 76
     0
330
1B
  0
LAYOUT
  5
26
102
{ACAD_REACTORS
330
1A
102
}
330
1A
100
AcDbPlotSettings
  1

  2
none_device
  4

  6

 40
0.0
 41
0.0
 42
0.0
 43
0.0
 44
0.0
 45
0.0
 46
0.0
 47
0.0
 48
0.0
 49
0.0
140
0.0
141
0.0
142
1.0
143
1.0
 70
   688
 72
     0
 73
     0
 74
     5
  7

 75
    16
147
1.0
148
0.0
149
0.0
100
AcDbLayout
  1
Layout2
 70
     1
 71
     2
 10
0.0
 20
0.0
 11
0.0
 21
0.0
 12
0.0
 22
0.0
 32
0.0
 14
0.0
 24
0.0
 34
0.0
 15
0.0
 25
0.0
 35
0.0
146
0.0
 13
0.0
 23
0.0
 33
0.0
 16
1.0
 26
0.0
 36
0.0
 17
0.0
 27
1.0
 37
0.0
 76
     0
330
23
  0
LAYOUT
  5
22
102
{ACAD_REACTORS
330
1A
102
}
330
1A
100
AcDbPlotSettings
  1

  2
none_device
  4

  6

 40
0.0
 41
0.0
 42
0.0
 43
0.0
 44
0.0
 45
0.0
 46
0.0
 47
0.0
 48
0.0
 49
0.0
140
0.0
141
0.0
142
1.0
143
1.0
 70
  1712
 72
     0
 73
     0
 74
     0
  7

 75
     0
147
1.0
148
0.0
149
0.0
100
AcDbLayout
  1
Model
 70
     1
 71
     0
 10
0.0
 20
0.0
 11
1100.0
 21
1100.0
 12
0.0
 22
0.0
 32
0.0
 14
0.0
 24
0.0
 34
0.0
 15
1100.0
 25
1100.0
 35
0.0
146
0.0
 13
0.0
 23
0.0
 33
0.0
 16
1.0
 26
0.0
 36
0.0
 17
0.0
 27
1.0
 37
0.0
 76
     0
330
1F
331
29
  0
MLINESTYLE
  5
18
102
{ACAD_REACTORS
330
17
102
}
330
17
100
AcDbMlineStyle
  2
Standard
 70
     0
  3

 62
   256
 51
90.0
 52
90.0
 71
     2
 49
0.5
 62
   256
  6
BYLAYER
 49
-0.5
 62
   256
  6
BYLAYER
  0
ACDBPLACEHOLDER
  5
F
102
{ACAD_REACTORS
330
E
102
}
330
E
  0
ENDSEC
  0
EOF
