  0
SECTION
  2
HEADER
  9
$ACADVER
  1
AC1015
  9
$ACADMAINTVER
 70
     6
  9
$DWGCODEPAGE
  3
ANSI_1252
  9
$INSBASE
 10
0.0
 20
0.0
 30
0.0
  9
$EXTMIN
 10
0.0
 20
0.0
 30
0.0
  9
$EXTMAX
 10
1100.0
 20
1500.0
 30
0.0
  9
$LIMMIN
 10
0.0
 20
0.0
  9
$LIMMAX
 10
1100.0
 20
1500.0
  9
$ORTHOMODE
 70
     0
  9
$REGENMODE
 70
     1
  9
$FILLMODE
 70
     1
  9
$QTEXTMODE
 70
     0
  9
$MIRRTEXT
 70
     1
  9
$LTSCALE
 40
1.0
  9
$ATTMODE
 70
     1
  9
$TEXTSIZE
 40
3.5
  9
$TRACEWID
 40
1.0
  9
$TEXTSTYLE
  7
Standard
  9
$CLAYER
  8
0
  9
$CELTYPE
  6
ByLayer
  9
$CECOLOR
 62
   256
  9
$CELTSCALE
 40
1.0
  9
$DISPSILH
 70
     0
  9
$DIMSCALE
 40
1.0
  9
$DIMASZ
 40
3.302
  9
$DIMEXO
 40
1.0
  9
$DIMDLI
 40
3.75
  9
$DIMRND
 40
0.0
  9
$DIMDLE
 40
0.0
  9
$DIMEXE
 40
1.0
  9
$DIMTP
 40
0.0
  9
$DIMTM
 40
0.0
  9
$DIMTXT
 40
3.5
  9
$DIMCEN
 40
2.5
  9
$DIMTSZ
 40
0.0
  9
$DIMTOL
 70
     0
  9
$DIMLIM
 70
     0
  9
$DIMTIH
 70
     1
  9
$DIMTOH
 70
     1
  9
$DIMSE1
 70
     0
  9
$DIMSE2
 70
     0
  9
$DIMTAD
 70
     1
  9
$DIMZIN
 70
     0
  9
$DIMBLK
  1

  9
$DIMASO
 70
     1
  9
$DIMSHO
 70
     1
  9
$DIMPOST
  1

  9
$DIMAPOST
  1

  9
$DIMALT
 70
     0
  9
$DIMALTD
 70
     3
  9
$DIMALTF
 40
0.0393700787
  9
$DIMLFAC
 40
1.0
  9
$DIMTOFL
 70
     1
  9
$DIMTVP
 40
0.0
  9
$DIMTIX
 70
     0
  9
$DIMSOXD
 70
     0
  9
$DIMSAH
 70
     0
  9
$DIMBLK1
  1

  9
$DIMBLK2
  1

  9
$DIMSTYLE
  2
ISO-25
  9
$DIMCLRD
 70
     0
  9
$DIMCLRE
 70
     0
  9
$DIMCLRT
 70
     0
  9
$DIMTFAC
 40
1.0
  9
$DIMGAP
 40
1.524
  9
$DIMJUST
 70
     0
  9
$DIMSD1
 70
     0
  9
$DIMSD2
 70
     0
  9
$DIMTOLJ
 70
     0
  9
$DIMTZIN
 70
     0
  9
$DIMALTZ
 70
     0
  9
$DIMALTTZ
 70
     0
  9
$DIMUPT
 70
     0
  9
$DIMDEC
 70
     1
  9
$DIMTDEC
 70
     1
  9
$DIMALTU
 70
     2
  9
$DIMALTTD
 70
     3
  9
$DIMTXSTY
  7
Standard
  9
$DIMAUNIT
 70
     0
  9
$DIMADEC
 70
     1
  9
$DIMALTRND
 40
0.0
  9
$DIMAZIN
 70
     0
  9
$DIMDSEP
 70
    44
  9
$DIMATFIT
 70
     3
  9
$DIMFRAC
 70
     0
  9
$DIMLDRBLK
  1

  9
$DIMLUNIT
 70
     2
  9
$DIMLWD
 70
    -2
  9
$DIMLWE
 70
    -2
  9
$DIMTMOVE
 70
     0
  9
$LUNITS
 70
     2
  9
$LUPREC
 70
     1
  9
$SKETCHINC
 40
1.0
  9
$FILLETRAD
 40
10.0
  9
$AUNITS
 70
     0
  9
$AUPREC
 70
     1
  9
$MENU
  1
.
  9
$ELEVATION
 40
0.0
  9
$PELEVATION
 40
0.0
  9
$THICKNESS
 40
0.0
  9
$LIMCHECK
 70
     0
  9
$CHAMFERA
 40
10.0
  9
$CHAMFERB
 40
10.0
  9
$CHAMFERC
 40
20.0
  9
$CHAMFERD
 40
0.0
  9
$SKPOLY
 70
     0
  9
$TDCREATE
 40
2457423.410271215
  9
$TDUCREATE
 40
2457423.410271215
  9
$TDUPDATE
 40
2457423.410272118
  9
$TDUUPDATE
 40
2457423.410272118
  9
$TDINDWG
 40
0.0000000116
  9
$TDUSRTIMER
 40
0.0000000116
  9
$USRTIMER
 70
     1
  9
$ANGBASE
 50
0.0
  9
$ANGDIR
 70
     0
  9
$PDMODE
 70
     0
  9
$PDSIZE
 40
-1.0
  9
$PLINEWID
 40
0.0
  9
$SPLFRAME
 70
     0
  9
$SPLINETYPE
 70
     6
  9
$SPLINESEGS
 70
     8
  9
$HANDSEED
  5
2A6
  9
$SURFTAB1
 70
     6
  9
$SURFTAB2
 70
     6
  9
$SURFTYPE
 70
     6
  9
$SURFU
 70
     6
  9
$SURFV
 70
     6
  9
$UCSBASE
  2

  9
$UCSNAME
  2

  9
$UCSORG
 10
0.0
 20
0.0
 30
0.0
  9
$UCSXDIR
 10
1.0
 20
0.0
 30
0.0
  9
$UCSYDIR
 10
0.0
 20
1.0
 30
0.0
  9
$UCSORTHOREF
  2

  9
$UCSORTHOVIEW
 70
     0
  9
$UCSORGTOP
 10
0.0
 20
0.0
 30
0.0
  9
$UCSORGBOTTOM
 10
0.0
 20
0.0
 30
0.0
  9
$UCSORGLEFT
 10
0.0
 20
0.0
 30
0.0
  9
$UCSORGRIGHT
 10
0.0
 20
0.0
 30
0.0
  9
$UCSORGFRONT
 10
0.0
 20
0.0
 30
0.0
  9
$UCSORGBACK
 10
0.0
 20
0.0
 30
0.0
  9
$PUCSBASE
  2

  9
$PUCSNAME
  2

  9
$PUCSORG
 10
0.0
 20
0.0
 30
0.0
  9
$PUCSXDIR
 10
1.0
 20
0.0
 30
0.0
  9
$PUCSYDIR
 10
0.0
 20
1.0
 30
0.0
  9
$PUCSORTHOREF
  2

  9
$PUCSORTHOVIEW
 70
     0
  9
$PUCSORGTOP
 10
0.0
 20
0.0
 30
0.0
  9
$PUCSORGBOTTOM
 10
0.0
 20
0.0
 30
0.0
  9
$PUCSORGLEFT
 10
0.0
 20
0.0
 30
0.0
  9
$PUCSORGRIGHT
 10
0.0
 20
0.0
 30
0.0
  9
$PUCSORGFRONT
 10
0.0
 20
0.0
 30
0.0
  9
$PUCSORGBACK
 10
0.0
 20
0.0
 30
0.0
  9
$USERI1
 70
     0
  9
$USERI2
 70
     0
  9
$USERI3
 70
     0
  9
$USERI4
 70
     0
  9
$USERI5
 70
     0
  9
$USERR1
 40
0.0
  9
$USERR2
 40
0.0
  9
$USERR3
 40
0.0
  9
$USERR4
 40
0.0
  9
$USERR5
 40
0.0
  9
$WORLDVIEW
 70
     1
  9
$SHADEDGE
 70
     3
  9
$SHADEDIF
 70
    70
  9
$TILEMODE
 70
     1
  9
$MAXACTVP
 70
    64
  9
$PINSBASE
 10
0.0
 20
0.0
 30
0.0
  9
$PLIMCHECK
 70
     0
  9
$PEXTMIN
 10
1.0000000000E+20
 20
1.0000000000E+20
 30
1.0000000000E+20
  9
$PEXTMAX
 10
-1.0000000000E+20
 20
-1.0000000000E+20
 30
-1.0000000000E+20
  9
$PLIMMIN
 10
0.0
 20
0.0
  9
$PLIMMAX
 10
420.0
 20
297.0
  9
$UNITMODE
 70
     0
  9
$VISRETAIN
 70
     1
  9
$PLINEGEN
 70
     0
  9
$PSLTSCALE
 70
     1
  9
$TREEDEPTH
 70
  3020
  9
$CMLSTYLE
  2
Standard
  9
$CMLJUST
 70
     0
  9
$CMLSCALE
 40
20.0
  9
$PROXYGRAPHICS
 70
     1
  9
$MEASUREMENT
 70
     1
  9
$CELWEIGHT
370
    -1
  9
$ENDCAPS
280
     0
  9
$JOINSTYLE
280
     0
  9
$LWDISPLAY
290
     1
  9
$INSUNITS
 70
     4
  9
$HYPERLINKBASE
  1

  9
$STYLESHEET
  1

  9
$XEDIT
290
     1
  9
$CEPSNTYPE
380
     0
  9
$PSTYLEMODE
290
     1
  9
$FINGERPRINTGUID
  2
{7D7592DF-3241-4E7A-BFB1-DE8DCD8CCD1B}
  9
$VERSIONGUID
  2
{FAEB1C32-E019-11D5-929B-00C0DF256EC4}
  9
$EXTNAMES
290
     1
  9
$PSVPSCALE
 40
0.0
  9
$OLESTARTUP
290
     0
  0
ENDSEC
  0
SECTION
  2
CLASSES
  0
CLASS
  1
ACDBDICTIONARYWDFLT
  2
AcDbDictionaryWithDefault
  3
ObjectDBX Classes
 90
        0
280
     0
281
     0
  0
CLASS
  1
VISUALSTYLE
  2
AcDbVisualStyle
  3
ObjectDBX Classes
 90
     4095
280
     0
281
     0
  0
CLASS
  1
MATERIAL
  2
AcDbMaterial
  3
ObjectDBX Classes
 90
     1153
280
     0
281
     0
  0
CLASS
  1
ACDBPLACEHOLDER
  2
AcDbPlaceHolder
  3
ObjectDBX Classes
 90
        0
280
     0
281
     0
  0
CLASS
  1
LAYOUT
  2
AcDbLayout
  3
ObjectDBX Classes
 90
        0
280
     0
281
     0
  0
ENDSEC
  0
SECTION
  2
TABLES
  0
TABLE
  2
VPORT
  5
8
330
0
100
AcDbSymbolTable
 70
     1
  0
VPORT
  5
29
330
8
100
AcDbSymbolTableRecord
100
AcDbViewportTableRecord
  2
*Active
 70
     0
 10
0.0
 20
0.0
 11
1.0
 21
1.0
 12
550.0
 22
750.0
 13
0.0
 23
0.0
 14
10.0
 24
10.0
 15
10.0
 25
10.0
 16
0.0
 26
0.0
 36
1.0
 17
0.0
 27
0.0
 37
0.0
 40
1500.0
 41
0.7333333333
 42
50.0
 43
0.0
 44
0.0
 50
0.0
 51
0.0
 71
     0
 72
  2000
 73
     1
 74
     3
 75
     0
 76
     0
 77
     0
 78
     0
281
     0
 65
     1
110
0.0
120
0.0
130
0.0
111
1.0
121
0.0
131
0.0
112
0.0
122
1.0
132
0.0
 79
     0
146
0.0
  0
ENDTAB
  0
TABLE
  2
LTYPE
  5
5
330
0
100
AcDbSymbolTable
 70
     6
  0
LTYPE
  5
14
330
5
100
AcDbSymbolTableRecord
100
AcDbLinetypeTableRecord
  2
ByBlock
 70
     0
  3

 72
    65
 73
     0
 40
0.0
  0
LTYPE
  5
15
330
5
100
AcDbSymbolTableRecord
100
AcDbLinetypeTableRecord
  2
ByLayer
 70
     0
  3

 72
    65
 73
     0
 40
0.0
  0
LTYPE
  5
16
330
5
100
AcDbSymbolTableRecord
100
AcDbLinetypeTableRecord
  2
Continuous
 70
     0
  3
Solid line
 72
    65
 73
     0
 40
0.0
  0
LTYPE
  5
3F
330
5
100
AcDbSymbolTableRecord
100
AcDbLinetypeTableRecord
  2
HIDDEN
 70
     0
  3
Hidden __ __ __ __ __ __ __ __ __ __ __ __ __ __
 72
    65
 73
     2
 40
1.905
 49
1.27
 74
     0
 49
-0.635
 74
     0
  0
LTYPE
  5
40
330
5
100
AcDbSymbolTableRecord
100
AcDbLinetypeTableRecord
  2
PHANTOM
 70
     0
  3
Phantom ______  __  __  ______  __  __  ______
 72
    65
 73
     6
 40
12.7
 49
6.35
 74
     0
 49
-1.27
 74
     0
 49
1.27
 74
     0
 49
-1.27
 74
     0
 49
1.27
 74
     0
 49
-1.27
 74
     0
  0
LTYPE
  5
41
330
5
100
AcDbSymbolTableRecord
100
AcDbLinetypeTableRecord
  2
CENTER
 70
     0
  3
Center ____ _ ____ _ ____ _ ____ _ ____ _ ____
 72
    65
 73
     4
 40
10.16
 49
6.35
 74
     0
 49
-1.27
 74
     0
 49
1.27
 74
     0
 49
-1.27
 74
     0
  0
LTYPE
  5
42
330
5
100
AcDbSymbolTableRecord
100
AcDbLinetypeTableRecord
  2
CENTERX2
 70
     0
  3
Center (2x) ________  __  ________  __  _____
 72
    65
 73
     4
 40
20.32
 49
12.7
 74
     0
 49
-2.54
 74
     0
 49
2.54
 74
     0
 49
-2.54
 74
     0
  0
LTYPE
  5
43
330
5
100
AcDbSymbolTableRecord
100
AcDbLinetypeTableRecord
  2
DOT2
 70
     0
  3
Dot (.5x) ........................................
 72
    65
 73
     2
 40
0.635
 49
0.0
 74
     0
 49
-0.635
 74
     0
  0
ENDTAB
  0
TABLE
  2
LAYER
  5
2
330
0
100
AcDbSymbolTable
 70
     4
  0
LAYER
  5
10
330
2
100
AcDbSymbolTableRecord
100
AcDbLayerTableRecord
  2
0
 70
     0
 62
     7
  6
Continuous
370
    -3
390
F
  0
LAYER
  5
44
330
2
100
AcDbSymbolTableRecord
100
AcDbLayerTableRecord
  2
FORMAT
 70
     0
 62
     7
  6
Continuous
370
    -3
390
F
  0
LAYER
  5
45
330
2
100
AcDbSymbolTableRecord
100
AcDbLayerTableRecord
  2
SLD-0
 70
     0
 62
     1
  6
Continuous
370
    -3
390
F
  0
LAYER
  5
46
330
2
100
AcDbSymbolTableRecord
100
AcDbLayerTableRecord
  2
WATERMARK
 70
     0
 62
     1
  6
Continuous
370
    -3
390
F
  0
ENDTAB
  0
TABLE
  2
STYLE
  5
3
330
0
100
AcDbSymbolTable
 70
     1
  0
STYLE
  5
11
330
3
100
AcDbSymbolTableRecord
100
AcDbTextStyleTableRecord
  2
Standard
 70
     0
 40
0.0
 41
1.0
 50
0.0
 71
     0
 42
3.5
  3
txt
  4

  0
ENDTAB
  0
TABLE
  2
VIEW
  5
6
330
0
100
AcDbSymbolTable
 70
     0
  0
ENDTAB
  0
TABLE
  2
UCS
  5
7
330
0
100
AcDbSymbolTable
 70
     0
  0
ENDTAB
  0
TABLE
  2
APPID
  5
9
330
0
100
AcDbSymbolTable
 70
     1
  0
APPID
  5
12
330
9
100
AcDbSymbolTableRecord
100
AcDbRegAppTableRecord
  2
ACAD
 70
     0
  0
ENDTAB
  0
TABLE
  2
DIMSTYLE
  5
A
330
0
100
AcDbSymbolTable
 70
     1
100
AcDbDimStyleTable
  0
DIMSTYLE
105
27
330
A
100
AcDbSymbolTableRecord
100
AcDbDimStyleTableRecord
  2
ISO-25
 70
     0
 41
2.5
 42
0.625
 43
3.75
 44
1.25
 73
     0
 74
     0
 77
     1
 78
     8
140
2.5
141
2.5
143
0.0393700787
147
0.625
171
     3
172
     1
178
     0
271
     2
272
     2
274
     3
278
    44
283
     0
284
     8
340
11
  0
ENDTAB
  0
TABLE
  2
BLOCK_RECORD
  5
1
330
0
100
AcDbSymbolTable
 70
     1
  0
BLOCK_RECORD
  5
1F
330
1
100
AcDbSymbolTableRecord
100
AcDbBlockTableRecord
  2
*Model_Space
340
22
  0
BLOCK_RECORD
  5
1B
330
1
100
AcDbSymbolTableRecord
100
AcDbBlockTableRecord
  2
*Paper_Space
340
1E
  0
BLOCK_RECORD
  5
23
330
1
100
AcDbSymbolTableRecord
100
AcDbBlockTableRecord
  2
*Paper_Space0
340
26
  0
ENDTAB
  0
ENDSEC
  0
SECTION
  2
BLOCKS
  0
BLOCK
  5
20
330
1F
100
AcDbEntity
  8
0
100
AcDbBlockBegin
  2
*Model_Space
 70
     0
 10
0.0
 20
0.0
 30
0.0
  3
*Model_Space
  1

  0
ENDBLK
  5
21
330
1F
100
AcDbEntity
  8
0
100
AcDbBlockEnd
  0
BLOCK
  5
1C
330
1B
100
AcDbEntity
 67
     1
  8
0
100
AcDbBlockBegin
  2
*Paper_Space
 70
     0
 10
0.0
 20
0.0
 30
0.0
  3
*Paper_Space
  1

  0
ENDBLK
  5
1D
330
1B
100
AcDbEntity
 67
     1
  8
0
100
AcDbBlockEnd
  0
BLOCK
  5
24
330
23
100
AcDbEntity
  8
0
100
AcDbBlockBegin
  2
*Paper_Space0
 70
     0
 10
0.0
 20
0.0
 30
0.0
  3
*Paper_Space0
  1

  0
ENDBLK
  5
25
330
23
100
AcDbEntity
  8
0
100
AcDbBlockEnd
  0
ENDSEC
  0
SECTION
  2
ENTITIES
  0
LINE
  5
47
330
1F
100
AcDbEntity
  8
0
  6
Continuous
 62
     7
370
    15
100
AcDbLine
 10
139.7365784767
 20
1134.4697044335
 30
0.0
 11
139.7365784767
 21
1134.1197044335
 31
0.0
  0
LINE
  5
48
330
1F
100
AcDbEntity
  8
0
  6
Continuous
 62
     7
370
    15
100
AcDbLine
 10
145.7365784767
 20
1134.1197044335
 30
0.0
 11
145.7365784767
 21
1134.4697044335
 31
0.0
  0
LINE
  5
49
330
1F
100
AcDbEntity
  8
0
  6
Continuous
 62
     7
370
    15
100
AcDbLine
 10
985.8566341757
 20
965.7034044092
 30
0.0
 11
985.8353933604
 21
965.6934996544
 31
0.0
  0
LINE
  5
4A
330
1F
100
AcDbEntity
  8
0
  6
Continuous
 62
     7
370
    15
100
AcDbLine
 10
988.5401502355
 20
959.8931298173
 30
0.0
 11
988.5613910509
 21
959.9030345722
 31
0.0
  0
ARC
  5
4B
330
1F
100
AcDbEntity
  8
0
  6
Continuous
 62
     7
370
    15
100
AcDbCircle
 10
271.7760787304
 20
221.1697044335
 30
0.0
 40
2.0
100
AcDbArc
 50
270.0
 51
0.0
  0
ARC
  5
4C
330
1F
100
AcDbEntity
  8
0
  6
Continuous
 62
     7
370
    15
100
AcDbCircle
 10
218.7760787304
 20
221.1697044335
 30
0.0
 40
2.000000000000028
100
AcDbArc
 50
180.0
 51
270.0
  0
LINE
  5
4D
330
1F
100
AcDbEntity
  8
0
  6
Continuous
 62
     7
370
    15
100
AcDbLine
 10
273.7760787304
 20
221.1697044335
 30
0.0
 11
273.7760787304
 21
225.1697044335
 31
0.0
  0
LINE
  5
4E
330
1F
100
AcDbEntity
  8
0
  6
Continuous
 62
     7
370
    15
100
AcDbLine
 10
216.7760787304
 20
225.1697044335
 30
0.0
 11
216.7760787304
 21
221.1697044335
 31
0.0
  0
ARC
  5
4F
330
1F
100
AcDbEntity
  8
0
  6
Continuous
 62
     7
370
    15
100
AcDbCircle
 10
850.7760787304
 20
221.1697044335
 30
0.0
 40
2.0
100
AcDbArc
 50
270.0
 51
0.0
  0
ARC
  5
50
330
1F
100
AcDbEntity
  8
0
  6
Continuous
 62
     7
370
    15
100
AcDbCircle
 10
797.7760787304
 20
221.1697044335
 30
0.0
 40
2.000000000000114
100
AcDbArc
 50
180.0
 51
270.0
  0
LINE
  5
51
330
1F
100
AcDbEntity
  8
0
  6
Continuous
 62
     7
370
    15
100
AcDbLine
 10
852.7760787304
 20
221.1697044335
 30
0.0
 11
852.7760787304
 21
225.1697044335
 31
0.0
  0
LINE
  5
52
330
1F
100
AcDbEntity
  8
0
  6
Continuous
 62
     7
370
    15
100
AcDbLine
 10
795.7760787304
 20
225.1697044335
 30
0.0
 11
795.7760787304
 21
221.1697044335
 31
0.0
  0
LINE
  5
53
330
1F
100
AcDbEntity
  8
0
  6
Continuous
 62
     7
370
    15
100
AcDbLine
 10
273.5760787304
 20
225.1697044335
 30
0.0
 11
273.5760787304
 21
293.1697044335
 31
0.0
  0
LINE
  5
54
330
1F
100
AcDbEntity
  8
0
  6
Continuous
 62
     7
370
    15
100
AcDbLine
 10
216.9760787304
 20
293.1697044335
 30
0.0
 11
216.9760787304
 21
225.1697044335
 31
0.0
  0
LINE
  5
55
330
1F
100
AcDbEntity
  8
0
  6
Continuous
 62
     7
370
    15
100
AcDbLine
 10
852.5760787304
 20
225.1697044335
 30
0.0
 11
852.5760787304
 21
293.1697044335
 31
0.0
  0
LINE
  5
56
330
1F
100
AcDbEntity
  8
0
  6
Continuous
 62
     7
370
    15
100
AcDbLine
 10
795.9760787304
 20
293.1697044335
 30
0.0
 11
795.9760787304
 21
225.1697044335
 31
0.0
  0
ARC
  5
57
330
1F
100
AcDbEntity
  8
0
  6
Continuous
 62
     7
370
    15
100
AcDbCircle
 10
278.6760787304
 20
385.6697044335
 30
0.0
 40
1.5
100
AcDbArc
 50
90.0
 51
180.0
  0
ARC
  5
58
330
1F
100
AcDbEntity
  8
0
  6
Continuous
 62
     7
370
    15
100
AcDbCircle
 10
211.8760787304
 20
385.6697044335
 30
0.0
 40
1.5
100
AcDbArc
 50
0.0
 51
90.0
  0
LINE
  5
59
330
1F
100
AcDbEntity
  8
0
  6
Continuous
 62
     7
370
    15
100
AcDbLine
 10
277.1760787304
 20
299.2022703792
 30
0.0
 11
277.1760787304
 21
385.6697044335
 31
0.0
  0
LINE
  5
5A
330
1F
100
AcDbEntity
  8
0
  6
Continuous
 62
     7
370
    15
100
AcDbLine
 10
213.3760787304
 20
385.6697044335
 30
0.0
 11
213.3760787304
 21
299.2022703792
 31
0.0
  0
ARC
  5
5B
330
1F
100
AcDbEntity
  8
0
  6
Continuous
 62
     7
370
    15
100
AcDbCircle
 10
272.4760787304
 20
299.2022703792
 30
0.0
 40
4.7
100
AcDbArc
 50
350.5402980318
 51
0.0
  0
ARC
  5
5C
330
1F
100
AcDbEntity
  8
0
  6
Continuous
 62
     7
370
    15
100
AcDbCircle
 10
218.0760787304
 20
299.2022703792
 30
0.0
 40
4.7
100
AcDbArc
 50
180.0
 51
189.4597019682
  0
LINE
  5
5D
330
1F
100
AcDbEntity
  8
0
  6
Continuous
 62
     7
370
    15
100
AcDbLine
 10
213.4399919574
 20
298.4298071547
 30
0.0
 11
214.3164285101
 21
293.1697044335
 31
0.0
  0
LINE
  5
5E
330
1F
100
AcDbEntity
  8
0
  6
Continuous
 62
     7
370
    15
100
AcDbLine
 10
276.2357289508
 20
293.1697044335
 30
0.0
 11
277.1121655034
 21
298.4298071547
 31
0.0
  0
ARC
  5
5F
330
1F
100
AcDbEntity
  8
0
  6
Continuous
 62
     7
370
    15
100
AcDbCircle
 10
857.6760787304
 20
385.6697044335
 30
0.0
 40
1.5
100
AcDbArc
 50
90.0
 51
180.0
  0
ARC
  5
60
330
1F
100
AcDbEntity
  8
0
  6
Continuous
 62
     7
370
    15
100
AcDbCircle
 10
790.8760787304
 20
385.6697044335
 30
0.0
 40
1.5
100
AcDbArc
 50
0.0
 51
90.0
  0
LINE
  5
61
330
1F
100
AcDbEntity
  8
0
  6
Continuous
 62
     7
370
    15
100
AcDbLine
 10
856.1760787304
 20
299.2022703792
 30
0.0
 11
856.1760787304
 21
385.6697044335
 31
0.0
  0
LINE
  5
62
330
1F
100
AcDbEntity
  8
0
  6
Continuous
 62
     7
370
    15
100
AcDbLine
 10
792.3760787304
 20
385.6697044335
 30
0.0
 11
792.3760787304
 21
299.2022703792
 31
0.0
  0
ARC
  5
63
330
1F
100
AcDbEntity
  8
0
  6
Continuous
 62
     7
370
    15
100
AcDbCircle
 10
851.4760787304
 20
299.2022703792
 30
0.0
 40
4.699999999999932
100
AcDbArc
 50
350.5402980318
 51
0.0
  0
ARC
  5
64
330
1F
100
AcDbEntity
  8
0
  6
Continuous
 62
     7
370
    15
100
AcDbCircle
 10
797.0760787304
 20
299.2022703792
 30
0.0
 40
4.700000000000113
100
AcDbArc
 50
180.0
 51
189.4597019682
  0
LINE
  5
65
330
1F
100
AcDbEntity
  8
0
  6
Continuous
 62
     7
370
    15
100
AcDbLine
 10
792.4399919574
 20
298.4298071547
 30
0.0
 11
793.3164285101
 21
293.1697044335
 31
0.0
  0
LINE
  5
66
330
1F
100
AcDbEntity
  8
0
  6
Continuous
 62
     7
370
    15
100
AcDbLine
 10
855.2357289508
 20
293.1697044335
 30
0.0
 11
856.1121655034
 21
298.4298071547
 31
0.0
  0
LINE
  5
67
330
1F
100
AcDbEntity
  8
0
  6
Continuous
 62
     7
370
    15
100
AcDbLine
 10
152.2365784767
 20
1136.4697044335
 30
0.0
 11
152.2365784767
 21
1145.9697044335
 31
0.0
  0
LINE
  5
68
330
1F
100
AcDbEntity
  8
0
  6
Continuous
 62
     7
370
    15
100
AcDbLine
 10
133.2365784767
 20
1145.9697044335
 30
0.0
 11
133.2365784767
 21
1136.4697044335
 31
0.0
  0
ARC
  5
69
330
1F
100
AcDbEntity
  8
0
  6
Continuous
 62
     7
370
    15
100
AcDbCircle
 10
135.2365784767
 20
1145.9697044335
 30
0.0
 40
2.0
100
AcDbArc
 50
90.0
 51
180.0
  0
ARC
  5
6A
330
1F
100
AcDbEntity
  8
0
  6
Continuous
 62
     7
370
    15
100
AcDbCircle
 10
150.2365784767
 20
1145.9697044335
 30
0.0
 40
2.0
100
AcDbArc
 50
0.0
 51
90.0
  0
LINE
  5
6B
330
1F
100
AcDbEntity
  8
0
  6
Continuous
 62
     7
370
    15
100
AcDbLine
 10
979.6478644458
 20
980.9111153293
 30
0.0
 11
982.3339306995
 21
983.4325332005
 31
0.0
  0
LINE
  5
6C
330
1F
100
AcDbEntity
  8
0
  6
Continuous
 62
     7
370
    15
100
AcDbLine
 10
976.7131078183
 20
995.4864267681
 30
0.0
 11
973.0550195627
 21
995.0495168071
 31
0.0
  0
LINE
  5
6D
330
1F
100
AcDbEntity
  8
0
  6
Continuous
 62
     7
370
    15
100
AcDbLine
 10
978.8804464878
 20
980.6084313544
 30
0.0
 11
978.9016873031
 21
980.6183361093
 31
0.0
  0
LINE
  5
6E
330
1F
100
AcDbEntity
  8
0
  6
Continuous
 62
     7
370
    15
100
AcDbLine
 10
972.3511042461
 20
994.6661068084
 30
0.0
 11
972.3298634308
 21
994.6562020535
 31
0.0
  0
LINE
  5
6F
330
1F
100
AcDbEntity
  8
0
  6
Continuous
 62
     7
370
    15
100
AcDbLine
 10
981.6035710746
 20
974.7686718326
 30
0.0
 11
981.6248118899
 21
974.7785765875
 31
0.0
  0
LINE
  5
70
330
1F
100
AcDbEntity
  8
0
  6
Continuous
 62
     7
370
    15
100
AcDbLine
 10
993.8384796542
 20
948.5862815421
 30
0.0
 11
993.8172388389
 21
948.5763767872
 31
0.0
  0
LINE
  5
71
330
1F
100
AcDbEntity
  8
0
  6
Continuous
 62
     7
370
    15
100
AcDbLine
 10
998.5083015442
 20
938.5163603511
 30
0.0
 11
998.5295423596
 21
938.526265106
 31
0.0
  0
LINE
  5
72
330
1F
100
AcDbEntity
  8
0
  6
Continuous
 62
     7
370
    15
100
AcDbLine
 10
120.5686389775
 20
1347.8697044335
 30
0.0
 11
120.5686389775
 21
1347.7697044335
 31
0.0
  0
LINE
  5
73
330
1F
100
AcDbEntity
  8
0
  6
Continuous
 62
     7
370
    15
100
AcDbLine
 10
113.4814519002
 20
1240.4197044335
 30
0.0
 11
113.9814519002
 21
1240.4197044335
 31
0.0
  0
LINE
  5
74
330
1F
100
AcDbEntity
  8
0
  6
Continuous
 62
     7
370
    15
100
AcDbLine
 10
113.9814519002
 20
1247.4197044335
 30
0.0
 11
113.4814519002
 21
1247.4197044335
 31
0.0
  0
LINE
  5
75
330
1F
100
AcDbEntity
  8
0
  6
Continuous
 62
     7
370
    15
100
AcDbLine
 10
113.4814519002
 20
1336.7197044335
 30
0.0
 11
113.9814519002
 21
1336.7197044335
 31
0.0
  0
LINE
  5
76
330
1F
100
AcDbEntity
  8
0
  6
Continuous
 62
     7
370
    15
100
AcDbLine
 10
113.9814519002
 20
1343.7197044335
 30
0.0
 11
113.4814519002
 21
1343.7197044335
 31
0.0
  0
LINE
  5
77
330
1F
100
AcDbEntity
  8
0
  6
Continuous
 62
     7
370
    15
100
AcDbLine
 10
134.8760787304
 20
853.7197044335
 30
0.0
 11
134.8760787304
 21
846.9111324654
 31
0.0
  0
LINE
  5
78
330
1F
100
AcDbEntity
  8
0
  6
Continuous
 62
     7
370
    15
100
AcDbLine
 10
156.6760787304
 20
846.9111324654
 30
0.0
 11
156.6760787304
 21
852.0697044335
 31
0.0
  0
ARC
  5
79
330
1F
100
AcDbEntity
  8
0
  6
Continuous
 62
     7
370
    15
100
AcDbCircle
 10
154.6760787304
 20
846.9111324654
 30
0.0
 40
2.000000000000167
100
AcDbArc
 50
288.9655749888
 51
331.4768286205
  0
LWPOLYLINE
  5
7A
330
1F
100
AcDbEntity
  8
0
  6
Continuous
 62
     7
370
    15
100
AcDbPolyline
 90
        3
 70
   128
 43
0.0
 10
156.637400758
 20
846.5197044335
 10
156.6521101047
 20
846.6024254717
 10
156.6760787304
 20
846.9111324654
  0
LWPOLYLINE
  5
7B
330
1F
100
AcDbEntity
  8
0
  6
Continuous
 62
     7
370
    15
100
AcDbPolyline
 90
        3
 70
   128
 43
0.0
 10
134.8760787304
 20
846.9111324654
 10
134.9000473562
 20
846.6024254717
 10
134.9147567028
 20
846.5197044335
  0
ARC
  5
7C
330
1F
100
AcDbEntity
  8
0
  6
Continuous
 62
     7
370
    15
100
AcDbCircle
 10
136.8760787304
 20
846.9111324654
 30
0.0
 40
2.00000000000006
100
AcDbArc
 50
208.5231718825
 51
251.0344250112
  0
LINE
  5
7D
330
1F
100
AcDbEntity
  8
0
  6
Continuous
 62
     7
370
    15
100
AcDbLine
 10
134.8760787304
 20
860.0197044335
 30
0.0
 11
134.8760787304
 21
857.6197044335
 31
0.0
  0
LINE
  5
7E
330
1F
100
AcDbEntity
  8
0
  6
Continuous
 62
     7
370
    15
100
AcDbLine
 10
155.9260787304
 20
863.2697044335
 30
0.0
 11
155.9260787304
 21
865.2197044335
 31
0.0
  0
LINE
  5
7F
330
1F
100
AcDbEntity
  8
0
  6
Continuous
 62
     7
370
    15
100
AcDbLine
 10
135.6260787304
 20
865.2197044335
 30
0.0
 11
135.6260787304
 21
860.0197044335
 31
0.0
  0
LINE
  5
80
330
1F
100
AcDbEntity
  8
0
  6
Continuous
 62
     7
370
    15
100
AcDbLine
 10
155.2010787304
 20
865.2197044335
 30
0.0
 11
155.2010787304
 21
866.5197044335
 31
0.0
  0
LINE
  5
81
330
1F
100
AcDbEntity
  8
0
  6
Continuous
 62
     7
370
    15
100
AcDbLine
 10
136.3510787304
 20
866.5197044335
 30
0.0
 11
136.3510787304
 21
865.2197044335
 31
0.0
  0
LWPOLYLINE
  5
82
330
1F
100
AcDbEntity
  8
0
  6
Continuous
 62
     7
370
    15
100
AcDbPolyline
 90
        3
 70
   128
 43
0.0
 10
134.8760787304
 20
846.5197044335
 10
134.9843146386
 20
846.2088524999
 10
135.1188305995
 20
845.9561041908
  0
LWPOLYLINE
  5
83
330
1F
100
AcDbEntity
  8
0
  6
Continuous
 62
     7
370
    15
100
AcDbPolyline
 90
        3
 70
   128
 43
0.0
 10
156.4333268706
 20
845.9561042056
 10
156.5678428222
 20
846.2088524999
 10
156.6760787304
 20
846.5197044335
  0
LINE
  5
84
330
1F
100
AcDbEntity
  8
0
  6
Continuous
 62
     7
370
    15
100
AcDbLine
 10
122.3349714209
 20
1196.73292195
 30
0.0
 11
122.2349714209
 21
1196.73292195
 31
0.0
  0
LINE
  5
85
330
1F
100
AcDbEntity
  8
0
  6
Continuous
 62
     7
370
    15
100
AcDbLine
 10
949.3132647425
 20
1046.4371146407
 30
0.0
 11
949.2226339638
 21
1046.3948528146
 31
0.0
  0
LINE
  5
86
330
1F
100
AcDbEntity
  8
0
  6
Continuous
 62
     7
370
    15
100
AcDbLine
 10
112.5814519002
 20
1328.8888194652
 30
0.0
 11
112.4814519002
 21
1328.8888194652
 31
0.0
  0
SPLINE
  5
87
330
1F
100
AcDbEntity
  8
0
  6
Continuous
 62
     7
370
    15
100
AcDbSpline
210
0.0
220
0.0
230
1.0
 70
     8
 71
     3
 72
    13
 73
     9
 74
     0
 42
0.00000001
 43
0.00000001
 12
1.0
 22
0.0
 32
0.0
 13
1.0
 23
0.0
 33
0.0
 40
0.0
 40
0.0
 40
0.0
 40
0.0
 40
0.0634888169692912
 40
0.2470479163437233
 40
0.4311284030628724
 40
0.6187780680160031
 40
0.831555268184453
 40
1.0
 40
1.0
 40
1.0
 40
1.0
 10
175.2669221691182
 20
375.8198133238118
 30
0.0
 10
175.2664498372859
 20
375.8300393859653
 30
0.0
 10
175.2646118979356
 20
375.8698310763444
 30
0.0
 10
175.2779569148763
 20
375.9373905198345
 30
0.0
 10
175.3039048599854
 20
376.0074900334076
 30
0.0
 10
175.3358729736487
 20
376.0539581967952
 30
0.0
 10
175.3588882578057
 20
376.069984822331
 30
0.0
 10
175.3581457670349
 20
376.0692842444824
 30
0.0
 10
175.3578176939409
 20
376.068974690813
 30
0.0
  0
LINE
  5
88
330
1F
100
AcDbEntity
  8
0
  6
Continuous
 62
     7
370
    15
100
AcDbLine
 10
175.2651269068
 20
370.7197044335
 30
0.0
 11
175.2651269068
 21
375.8197044335
 31
0.0
  0
ARC
  5
89
330
1F
100
AcDbEntity
  8
0
  6
Continuous
 62
     7
370
    15
100
AcDbCircle
 10
175.0151269068
 20
370.7197044335
 30
0.0
 40
0.25
100
AcDbArc
 50
270.0
 51
0.0
  0
ARC
  5
8A
330
1F
100
AcDbEntity
  8
0
  6
Continuous
 62
     7
370
    15
100
AcDbCircle
 10
169.9584327345
 20
370.7197044335
 30
0.0
 40
0.2500000000000568
100
AcDbArc
 50
180.0
 51
270.0
  0
LINE
  5
8B
330
1F
100
AcDbEntity
  8
0
  6
Continuous
 62
     7
370
    15
100
AcDbLine
 10
169.7084327345
 20
375.8197044335
 30
0.0
 11
169.7084327345
 21
370.7197044335
 31
0.0
  0
ARC
  5
8C
330
1F
100
AcDbEntity
  8
0
  6
Continuous
 62
     7
370
    15
100
AcDbCircle
 10
169.9260787304
 20
376.3197044335
 30
0.0
 40
0.2500000000000284
100
AcDbArc
 50
180.0
 51
232.7089330724
  0
ARC
  5
8D
330
1F
100
AcDbEntity
  8
0
  6
Continuous
 62
     7
370
    15
100
AcDbCircle
 10
169.9260787304
 20
377.0197044335
 30
0.0
 40
0.25
100
AcDbArc
 50
90.0
 51
180.0
  0
LINE
  5
8E
330
1F
100
AcDbEntity
  8
0
  6
Continuous
 62
     7
370
    15
100
AcDbLine
 10
169.6760787304
 20
377.0197044335
 30
0.0
 11
169.6760787304
 21
376.3197044335
 31
0.0
  0
ARC
  5
8F
330
1F
100
AcDbEntity
  8
0
  6
Continuous
 62
     7
370
    15
100
AcDbCircle
 10
186.7937247263
 20
370.7197044335
 30
0.0
 40
0.2499999999999716
100
AcDbArc
 50
270.0
 51
0.0
  0
LINE
  5
90
330
1F
100
AcDbEntity
  8
0
  6
Continuous
 62
     7
370
    15
100
AcDbLine
 10
187.0437247263
 20
370.7197044335
 30
0.0
 11
187.0437247263
 21
374.9966994723
 31
0.0
  0
ARC
  5
91
330
1F
100
AcDbEntity
  8
0
  6
Continuous
 62
     7
370
    15
100
AcDbCircle
 10
169.9260787304
 20
375.1197044335
 30
0.0
 40
0.2500000000000284
100
AcDbArc
 50
180.0
 51
209.4734267879
  0
LINE
  5
92
330
1F
100
AcDbEntity
  8
0
  6
Continuous
 62
     7
370
    15
100
AcDbLine
 10
169.6760787304
 20
375.8197044335
 30
0.0
 11
169.6760787304
 21
375.1197044335
 31
0.0
  0
SPLINE
  5
93
330
1F
100
AcDbEntity
  8
0
  6
Continuous
 62
     7
370
    15
100
AcDbSpline
210
0.0
220
0.0
230
1.0
 70
     8
 71
     3
 72
    13
 73
     9
 74
     0
 42
0.00000001
 43
0.00000001
 12
1.0
 22
0.0
 32
0.0
 13
1.0
 23
0.0
 33
0.0
 40
0.0
 40
0.0
 40
0.0
 40
0.0
 40
0.0546880530910538
 40
0.2134688124181329
 40
0.3745771152282752
 40
0.544503415839883
 40
0.7475374221075219
 40
1.0
 40
1.0
 40
1.0
 40
1.0
 10
182.3303536412841
 20
376.3196123684075
 30
0.0
 10
182.330847599171
 20
376.3100286409918
 30
0.0
 10
182.3327757095633
 20
376.2726196129802
 30
0.0
 10
182.3187413614455
 20
376.2087738803115
 30
0.0
 10
182.2911006171474
 20
376.1413828613327
 30
0.0
 10
182.2541946415742
 20
376.0937868456263
 30
0.0
 10
182.2194177388249
 20
376.0709123531495
 30
0.0
 10
182.2075875663377
 20
376.0704584131111
 30
0.0
 10
182.201030599838
 20
376.070206813261
 30
0.0
  0
LINE
  5
94
330
1F
100
AcDbEntity
  8
0
  6
Continuous
 62
     7
370
    15
100
AcDbLine
 10
182.3322284801
 20
381.4197044335
 30
0.0
 11
182.3322284801
 21
376.3197044335
 31
0.0
  0
ARC
  5
95
330
1F
100
AcDbEntity
  8
0
  6
Continuous
 62
     7
370
    15
100
AcDbCircle
 10
182.5822284801
 20
381.4197044335
 30
0.0
 40
0.2500000000000284
100
AcDbArc
 50
90.0
 51
180.0
  0
ARC
  5
96
330
1F
100
AcDbEntity
  8
0
  6
Continuous
 62
     7
370
    15
100
AcDbCircle
 10
187.2821988793
 20
381.4197044335
 30
0.0
 40
0.2500000000001137
100
AcDbArc
 50
0.0
 51
90.0
  0
LINE
  5
97
330
1F
100
AcDbEntity
  8
0
  6
Continuous
 62
     7
370
    15
100
AcDbLine
 10
187.5321988793
 20
376.3197044335
 30
0.0
 11
187.5321988793
 21
381.4197044335
 31
0.0
  0
ARC
  5
98
330
1F
100
AcDbEntity
  8
0
  6
Continuous
 62
     7
370
    15
100
AcDbCircle
 10
186.8260787304
 20
375.1197044335
 30
0.0
 40
0.25
100
AcDbArc
 50
270.0
 51
0.0
  0
LINE
  5
99
330
1F
100
AcDbEntity
  8
0
  6
Continuous
 62
     7
370
    15
100
AcDbLine
 10
169.2199585815
 20
381.4197044335
 30
0.0
 11
169.2199585815
 21
376.3197044335
 31
0.0
  0
ARC
  5
9A
330
1F
100
AcDbEntity
  8
0
  6
Continuous
 62
     7
370
    15
100
AcDbCircle
 10
169.4699585815
 20
381.4197044335
 30
0.0
 40
0.25
100
AcDbArc
 50
90.0
 51
180.0
  0
ARC
  5
9B
330
1F
100
AcDbEntity
  8
0
  6
Continuous
 62
     7
370
    15
100
AcDbCircle
 10
140.3260787304
 20
856.7197044335
 30
0.0
 40
0.2500000000000393
100
AcDbArc
 50
180.0
 51
209.4734267879
  0
LINE
  5
9C
330
1F
100
AcDbEntity
  8
0
  6
Continuous
 62
     7
370
    15
100
AcDbLine
 10
140.0760787304
 20
857.4197044335
 30
0.0
 11
140.0760787304
 21
856.7197044335
 31
0.0
  0
SPLINE
  5
9D
330
1F
100
AcDbEntity
  8
0
  6
Continuous
 62
     7
370
    15
100
AcDbSpline
210
0.0
220
0.0
230
1.0
 70
     8
 71
     3
 72
    13
 73
     9
 74
     0
 42
0.00000001
 43
0.00000001
 12
1.0
 22
0.0
 32
0.0
 13
1.0
 23
0.0
 33
0.0
 40
0.0
 40
0.0
 40
0.0
 40
0.0
 40
0.0546880530910523
 40
0.2134688124182272
 40
0.3745771152282377
 40
0.5445034158398816
 40
0.747537422107515
 40
1.0
 40
1.0
 40
1.0
 40
1.0
 10
152.7303536412816
 20
857.919612368408
 30
0.0
 10
152.7308475991685
 20
857.9100286409922
 30
0.0
 10
152.7327757095608
 20
857.8726196129804
 30
0.0
 10
152.7187413614429
 20
857.808773880312
 30
0.0
 10
152.6911006171451
 20
857.7413828613336
 30
0.0
 10
152.6541946415718
 20
857.6937868456268
 30
0.0
 10
152.6194177388225
 20
857.6709123531499
 30
0.0
 10
152.6075875663352
 20
857.6704584131114
 30
0.0
 10
152.6010305998356
 20
857.6702068132614
 30
0.0
  0
LINE
  5
9E
330
1F
100
AcDbEntity
  8
0
  6
Continuous
 62
     7
370
    15
100
AcDbLine
 10
152.7322284801
 20
863.0197044335
 30
0.0
 11
152.7322284801
 21
857.9197044335
 31
0.0
  0
ARC
  5
9F
330
1F
100
AcDbEntity
  8
0
  6
Continuous
 62
     7
370
    15
100
AcDbCircle
 10
152.9822284801
 20
863.0197044335
 30
0.0
 40
0.2500000000000284
100
AcDbArc
 50
90.0
 51
180.0
  0
ARC
  5
A0
330
1F
100
AcDbEntity
  8
0
  6
Continuous
 62
     7
370
    15
100
AcDbCircle
 10
157.6821988793
 20
863.0197044335
 30
0.0
 40
0.25
100
AcDbArc
 50
0.0
 51
90.0
  0
LINE
  5
A1
330
1F
100
AcDbEntity
  8
0
  6
Continuous
 62
     7
370
    15
100
AcDbLine
 10
157.9321988793
 20
857.9197044335
 30
0.0
 11
157.9321988793
 21
863.0197044335
 31
0.0
  0
ARC
  5
A2
330
1F
100
AcDbEntity
  8
0
  6
Continuous
 62
     7
370
    15
100
AcDbCircle
 10
157.2260787304
 20
856.7197044335
 30
0.0
 40
0.25
100
AcDbArc
 50
270.0
 51
0.0
  0
LINE
  5
A3
330
1F
100
AcDbEntity
  8
0
  6
Continuous
 62
     7
370
    15
100
AcDbLine
 10
139.6199585815
 20
863.0197044335
 30
0.0
 11
139.6199585815
 21
857.9197044335
 31
0.0
  0
ARC
  5
A4
330
1F
100
AcDbEntity
  8
0
  6
Continuous
 62
     7
370
    15
100
AcDbCircle
 10
139.8699585815
 20
863.0197044335
 30
0.0
 40
0.2500000000000284
100
AcDbArc
 50
90.0
 51
180.0
  0
SPLINE
  5
A5
330
1F
100
AcDbEntity
  8
0
  6
Continuous
 62
     7
370
    15
100
AcDbSpline
210
0.0
220
0.0
230
1.0
 70
     8
 71
     3
 72
    13
 73
     9
 74
     0
 42
0.00000001
 43
0.00000001
 12
1.0
 22
0.0
 32
0.0
 13
1.0
 23
0.0
 33
0.0
 40
0.0
 40
0.0
 40
0.0
 40
0.0
 40
0.06348881696939
 40
0.2470479163437716
 40
0.4311284030628785
 40
0.6187780680158864
 40
0.8315552681841181
 40
1.0
 40
1.0
 40
1.0
 40
1.0
 10
145.6669221691158
 20
857.4198133238123
 30
0.0
 10
145.6664498372835
 20
857.4300393859658
 30
0.0
 10
145.6646118979333
 20
857.4698310763454
 30
0.0
 10
145.6779569148738
 20
857.5373905198352
 30
0.0
 10
145.7039048599829
 20
857.607490033408
 30
0.0
 10
145.7358729736463
 20
857.6539581967957
 30
0.0
 10
145.7588882578032
 20
857.6699848223317
 30
0.0
 10
145.7581457670325
 20
857.6692842444827
 30
0.0
 10
145.7578176939384
 20
857.6689746908135
 30
0.0
  0
ARC
  5
A6
330
1F
100
AcDbEntity
  8
0
  6
Continuous
 62
     7
370
    15
100
AcDbCircle
 10
145.4151269068
 20
852.3197044335
 30
0.0
 40
0.2500000000000284
100
AcDbArc
 50
270.0
 51
0.0
  0
LINE
  5
A7
330
1F
100
AcDbEntity
  8
0
  6
Continuous
 62
     7
370
    15
100
AcDbLine
 10
145.6651269068
 20
852.3197044335
 30
0.0
 11
145.6651269068
 21
857.4197044335
 31
0.0
  0
ARC
  5
A8
330
1F
100
AcDbEntity
  8
0
  6
Continuous
 62
     7
370
    15
100
AcDbCircle
 10
140.3584327345
 20
852.3197044335
 30
0.0
 40
0.2500000000000284
100
AcDbArc
 50
180.0
 51
270.0
  0
LINE
  5
A9
330
1F
100
AcDbEntity
  8
0
  6
Continuous
 62
     7
370
    15
100
AcDbLine
 10
140.1084327345
 20
857.4197044335
 30
0.0
 11
140.1084327345
 21
852.3197044335
 31
0.0
  0
ARC
  5
AA
330
1F
100
AcDbEntity
  8
0
  6
Continuous
 62
     7
370
    15
100
AcDbCircle
 10
140.3260787304
 20
857.9197044335
 30
0.0
 40
0.2500000000000284
100
AcDbArc
 50
180.0
 51
232.7089330724
  0
ARC
  5
AB
330
1F
100
AcDbEntity
  8
0
  6
Continuous
 62
     7
370
    15
100
AcDbCircle
 10
140.3260787304
 20
858.6197044335
 30
0.0
 40
0.2500000000001137
100
AcDbArc
 50
90.0
 51
180.0
  0
LINE
  5
AC
330
1F
100
AcDbEntity
  8
0
  6
Continuous
 62
     7
370
    15
100
AcDbLine
 10
140.0760787304
 20
858.6197044335
 30
0.0
 11
140.0760787304
 21
857.9197044335
 31
0.0
  0
ARC
  5
AD
330
1F
100
AcDbEntity
  8
0
  6
Continuous
 62
     7
370
    15
100
AcDbCircle
 10
157.1937247263
 20
852.3197044335
 30
0.0
 40
0.2500000000001137
100
AcDbArc
 50
270.0
 51
0.0
  0
LINE
  5
AE
330
1F
100
AcDbEntity
  8
0
  6
Continuous
 62
     7
370
    15
100
AcDbLine
 10
157.4437247263
 20
852.3197044335
 30
0.0
 11
157.4437247263
 21
856.5966994723
 31
0.0
  0
LINE
  5
AF
330
1F
100
AcDbEntity
  8
0
  6
Continuous
 62
     7
370
    15
100
AcDbLine
 10
172.9143873266
 20
369.9362620898
 30
0.0
 11
173.3760787304
 21
369.6697044335
 31
0.0
  0
LINE
  5
B0
330
1F
100
AcDbEntity
  8
0
  6
Continuous
 62
     7
370
    15
100
AcDbLine
 10
183.3760787304
 20
369.6697044335
 30
0.0
 11
183.8377701343
 21
369.9362620898
 31
0.0
  0
LINE
  5
B1
330
1F
100
AcDbEntity
  8
0
  6
Continuous
 62
     7
370
    15
100
AcDbLine
 10
183.8140321134
 20
374.61685193
 30
0.0
 11
183.3760787304
 21
374.8697044335
 31
0.0
  0
LINE
  5
B2
330
1F
100
AcDbEntity
  8
0
  6
Continuous
 62
     7
370
    15
100
AcDbLine
 10
183.6234597839
 20
382.3268789157
 30
0.0
 11
183.3760787304
 21
382.4697044335
 31
0.0
  0
LINE
  5
B3
330
1F
100
AcDbEntity
  8
0
  6
Continuous
 62
     7
370
    15
100
AcDbLine
 10
173.1286976769
 20
377.4125299513
 30
0.0
 11
173.3760787304
 21
377.2697044335
 31
0.0
  0
LINE
  5
B4
330
1F
100
AcDbEntity
  8
0
  6
Continuous
 62
     7
370
    15
100
AcDbLine
 10
173.3760787304
 20
382.4697044335
 30
0.0
 11
173.1286976769
 21
382.3268789157
 31
0.0
  0
LINE
  5
B5
330
1F
100
AcDbEntity
  8
0
  6
Continuous
 62
     7
370
    15
100
AcDbLine
 10
143.6868275806
 20
864.3712336089
 30
0.0
 11
143.7760787304
 21
864.3197044335
 31
0.0
  0
LINE
  5
B6
330
1F
100
AcDbEntity
  8
0
  6
Continuous
 62
     7
370
    15
100
AcDbLine
 10
153.7760787304
 20
864.3197044335
 30
0.0
 11
153.8653298802
 21
864.3712336089
 31
0.0
  0
LINE
  5
B7
330
1F
100
AcDbEntity
  8
0
  6
Continuous
 62
     7
370
    15
100
AcDbLine
 10
143.3143873266
 20
851.5362620898
 30
0.0
 11
143.7760787304
 21
851.2697044335
 31
0.0
  0
LINE
  5
B8
330
1F
100
AcDbEntity
  8
0
  6
Continuous
 62
     7
370
    15
100
AcDbLine
 10
153.7760787304
 20
851.2697044335
 30
0.0
 11
154.2377701343
 21
851.5362620898
 31
0.0
  0
LINE
  5
B9
330
1F
100
AcDbEntity
  8
0
  6
Continuous
 62
     7
370
    15
100
AcDbLine
 10
154.2140321134
 20
856.21685193
 30
0.0
 11
153.7760787304
 21
856.4697044335
 31
0.0
  0
LINE
  5
BA
330
1F
100
AcDbEntity
  8
0
  6
Continuous
 62
     7
370
    15
100
AcDbLine
 10
173.2868275806
 20
382.7712336089
 30
0.0
 11
173.3760787304
 21
382.7197044335
 31
0.0
  0
LINE
  5
BB
330
1F
100
AcDbEntity
  8
0
  6
Continuous
 62
     7
370
    15
100
AcDbLine
 10
183.3760787304
 20
382.7197044335
 30
0.0
 11
183.4653298802
 21
382.7712336089
 31
0.0
  0
LINE
  5
BC
330
1F
100
AcDbEntity
  8
0
  6
Continuous
 62
     7
370
    15
100
AcDbLine
 10
154.0234597839
 20
863.9268789157
 30
0.0
 11
153.7760787304
 21
864.0697044335
 31
0.0
  0
LINE
  5
BD
330
1F
100
AcDbEntity
  8
0
  6
Continuous
 62
     7
370
    15
100
AcDbLine
 10
143.7760787304
 20
864.0697044335
 30
0.0
 11
143.5286976769
 21
863.9268789157
 31
0.0
  0
LINE
  5
BE
330
1F
100
AcDbEntity
  8
0
  6
Continuous
 62
     7
370
    15
100
AcDbLine
 10
143.5286976769
 20
859.0125299513
 30
0.0
 11
143.7760787304
 21
858.8697044335
 31
0.0
  0
LINE
  5
BF
330
1F
100
AcDbEntity
  8
0
  6
Continuous
 62
     7
370
    15
100
AcDbLine
 10
175.3760787304
 20
382.7197044335
 30
0.0
 11
175.3760787304
 21
382.4697044335
 31
0.0
  0
LINE
  5
C0
330
1F
100
AcDbEntity
  8
0
  6
Continuous
 62
     7
370
    15
100
AcDbLine
 10
181.3760787304
 20
382.4697044335
 30
0.0
 11
181.3760787304
 21
382.7197044335
 31
0.0
  0
LINE
  5
C1
330
1F
100
AcDbEntity
  8
0
  6
Continuous
 62
     7
370
    15
100
AcDbLine
 10
145.7760787304
 20
864.3197044335
 30
0.0
 11
145.7760787304
 21
864.0697044335
 31
0.0
  0
LINE
  5
C2
330
1F
100
AcDbEntity
  8
0
  6
Continuous
 62
     7
370
    15
100
AcDbLine
 10
151.7760787304
 20
864.0697044335
 30
0.0
 11
151.7760787304
 21
864.3197044335
 31
0.0
  0
LINE
  5
C3
330
1F
100
AcDbEntity
  8
0
  6
Continuous
 62
     7
370
    15
100
AcDbLine
 10
271.7760787304
 20
219.1697044335
 30
0.0
 11
218.7760787304
 21
219.1697044335
 31
0.0
  0
LINE
  5
C4
330
1F
100
AcDbEntity
  8
0
  6
Continuous
 62
     7
370
    15
100
AcDbLine
 10
273.7760787304
 20
225.1697044335
 30
0.0
 11
216.7760787304
 21
225.1697044335
 31
0.0
  0
LINE
  5
C5
330
1F
100
AcDbEntity
  8
0
  6
Continuous
 62
     7
370
    15
100
AcDbLine
 10
850.7760787304
 20
219.1697044335
 30
0.0
 11
797.7760787304
 21
219.1697044335
 31
0.0
  0
LINE
  5
C6
330
1F
100
AcDbEntity
  8
0
  6
Continuous
 62
     7
370
    15
100
AcDbLine
 10
852.7760787304
 20
225.1697044335
 30
0.0
 11
795.7760787304
 21
225.1697044335
 31
0.0
  0
LINE
  5
C7
330
1F
100
AcDbEntity
  8
0
  6
Continuous
 62
     7
370
    15
100
AcDbLine
 10
290.2760787304
 20
387.1697044335
 30
0.0
 11
290.2760787304
 21
387.6697044335
 31
0.0
  0
LINE
  5
C8
330
1F
100
AcDbEntity
  8
0
  6
Continuous
 62
     7
370
    15
100
AcDbLine
 10
200.2760787304
 20
387.1697044335
 30
0.0
 11
290.2760787304
 21
387.1697044335
 31
0.0
  0
LINE
  5
C9
330
1F
100
AcDbEntity
  8
0
  6
Continuous
 62
     7
370
    15
100
AcDbLine
 10
200.2760787304
 20
387.1697044335
 30
0.0
 11
200.2760787304
 21
387.6697044335
 31
0.0
  0
LINE
  5
CA
330
1F
100
AcDbEntity
  8
0
  6
Continuous
 62
     7
370
    15
100
AcDbLine
 10
276.2357289508
 20
293.1697044335
 30
0.0
 11
214.3164285101
 21
293.1697044335
 31
0.0
  0
LINE
  5
CB
330
1F
100
AcDbEntity
  8
0
  6
Continuous
 62
     7
370
    15
100
AcDbLine
 10
869.2760787304
 20
387.1697044335
 30
0.0
 11
869.2760787304
 21
387.6697044335
 31
0.0
  0
LINE
  5
CC
330
1F
100
AcDbEntity
  8
0
  6
Continuous
 62
     7
370
    15
100
AcDbLine
 10
779.2760787304
 20
387.1697044335
 30
0.0
 11
779.2760787304
 21
387.6697044335
 31
0.0
  0
LINE
  5
CD
330
1F
100
AcDbEntity
  8
0
  6
Continuous
 62
     7
370
    15
100
AcDbLine
 10
779.2760787304
 20
387.1697044335
 30
0.0
 11
869.2760787304
 21
387.1697044335
 31
0.0
  0
LINE
  5
CE
330
1F
100
AcDbEntity
  8
0
  6
Continuous
 62
     7
370
    15
100
AcDbLine
 10
855.2357289508
 20
293.1697044335
 30
0.0
 11
793.3164285101
 21
293.1697044335
 31
0.0
  0
SPLINE
  5
CF
330
1F
100
AcDbEntity
  8
0
  6
Continuous
 62
     7
370
    15
100
AcDbSpline
210
0.0
220
0.0
230
1.0
 70
     8
 71
     3
 72
    12
 73
     8
 74
     0
 42
0.00000001
 43
0.00000001
 12
1.0
 22
0.0
 32
0.0
 13
1.0
 23
0.0
 33
0.0
 40
0.0
 40
0.0
 40
0.0
 40
0.0
 40
0.2096821001528697
 40
0.4420453733186195
 40
0.6744332966681429
 40
0.9068208701180732
 40
1.0
 40
1.0
 40
1.0
 40
1.0
 10
910.0760787304026
 20
866.9697044334995
 30
0.0
 10
910.3284096883779
 20
867.073989641427
 30
0.0
 10
910.8603660758649
 20
867.2938405187139
 30
0.0
 10
911.5817475056801
 20
867.6298086485967
 30
0.0
 10
912.1251064396662
 20
867.9767139170136
 30
0.0
 10
912.3537282798095
 20
868.2550905792464
 30
0.0
 10
912.3711053184338
 20
868.4164510404681
 30
0.0
 10
912.3760787304025
 20
868.4626333656878
 30
0.0
  0
LINE
  5
D0
330
1F
100
AcDbEntity
  8
0
  6
Continuous
 62
     7
370
    15
100
AcDbLine
 10
912.3760787304
 20
388.4767755013
 30
0.0
 11
912.3760787304
 21
868.4626333657
 31
0.0
  0
SPLINE
  5
D1
330
1F
100
AcDbEntity
  8
0
  6
Continuous
 62
     7
370
    15
100
AcDbSpline
210
0.0
220
0.0
230
1.0
 70
     8
 71
     3
 72
    12
 73
     8
 74
     0
 42
0.00000001
 43
0.00000001
 12
1.0
 22
0.0
 32
0.0
 13
1.0
 23
0.0
 33
0.0
 40
0.0
 40
0.0
 40
0.0
 40
0.0
 40
0.2096821001528677
 40
0.4420453733185968
 40
0.6744332966681031
 40
0.9068208701180454
 40
1.0
 40
1.0
 40
1.0
 40
1.0
 10
912.3760787304025
 20
388.4767755013114
 30
0.0
 10
912.3517387602338
 20
388.581060709239
 30
0.0
 10
912.300425981547
 20
388.8009115865258
 30
0.0
 10
911.8794953946183
 20
389.1368797164087
 30
0.0
 10
911.2277059167229
 20
389.4837849848249
 30
0.0
 10
910.5782648776203
 20
389.7621616470585
 30
0.0
 10
910.1878249605139
 20
389.9235221082798
 30
0.0
 10
910.0760787304025
 20
389.9697044334995
 30
0.0
  0
LINE
  5
D2
330
1F
100
AcDbEntity
  8
0
  6
Continuous
 62
     7
370
    15
100
AcDbLine
 10
171.2760787304
 20
866.9697044335
 30
0.0
 11
171.2760787304
 21
869.2697044335
 31
0.0
  0
LINE
  5
D3
330
1F
100
AcDbEntity
  8
0
  6
Continuous
 62
     7
370
    15
100
AcDbLine
 10
171.2760787304
 20
869.2697044335
 30
0.0
 11
911.5690076626
 21
869.2697044335
 31
0.0
  0
SPLINE
  5
D4
330
1F
100
AcDbEntity
  8
0
  6
Continuous
 62
     7
370
    15
100
AcDbSpline
210
0.0
220
0.0
230
1.0
 70
     8
 71
     3
 72
    12
 73
     8
 74
     0
 42
0.00000001
 43
0.00000001
 12
1.0
 22
0.0
 32
0.0
 13
1.0
 23
0.0
 33
0.0
 40
0.0
 40
0.0
 40
0.0
 40
0.0
 40
0.2096821001528724
 40
0.4420453733186285
 40
0.6744332966681282
 40
0.906820870118053
 40
1.0
 40
1.0
 40
1.0
 40
1.0
 10
911.5690076625906
 20
869.2697044334996
 30
0.0
 10
911.4647224546632
 20
869.2453644633312
 30
0.0
 10
911.2448715773764
 20
869.1940516846441
 30
0.0
 10
910.9089034474932
 20
868.7731210977154
 30
0.0
 10
910.5619981790768
 20
868.1213316198198
 30
0.0
 10
910.2836215168437
 20
867.4718905807175
 30
0.0
 10
910.1222610556222
 20
867.081450663611
 30
0.0
 10
910.0760787304025
 20
866.9697044334996
 30
0.0
  0
LINE
  5
D5
330
1F
100
AcDbEntity
  8
0
  6
Continuous
 62
     7
370
    15
100
AcDbLine
 10
170.0760787304
 20
868.4697044335
 30
0.0
 11
171.0260787304
 21
868.4697044335
 31
0.0
  0
LINE
  5
D6
330
1F
100
AcDbEntity
  8
0
  6
Continuous
 62
     7
370
    15
100
AcDbLine
 10
171.0260787304
 20
866.9697044335
 30
0.0
 11
171.0260787304
 21
868.4697044335
 31
0.0
  0
ARC
  5
D7
330
1F
100
AcDbEntity
  8
0
  6
Continuous
 62
     7
370
    15
100
AcDbCircle
 10
171.1510787304
 20
866.9697044335
 30
0.0
 40
0.1250000000000284
100
AcDbArc
 50
180.0
 51
0.0
  0
SPLINE
  5
D8
330
1F
100
AcDbEntity
  8
0
  6
Continuous
 62
     7
370
    15
100
AcDbSpline
210
0.0
220
0.0
230
1.0
 70
     8
 71
     3
 72
    11
 73
     7
 74
     0
 42
0.00000001
 43
0.00000001
 12
1.0
 22
0.0
 32
0.0
 13
1.0
 23
0.0
 33
0.0
 40
0.0
 40
0.0
 40
0.0
 40
0.0
 40
0.2543211584720885
 40
0.5088664984542024
 40
0.7634130007197079
 40
1.0
 40
1.0
 40
1.0
 40
1.0
 10
910.0760787304025
 20
866.9697044334996
 30
0.0
 10
910.2760539205419
 20
867.0962855412849
 30
0.0
 10
910.6761805769129
 20
867.3495593368128
 30
0.0
 10
911.1778043310085
 20
867.7295040062978
 30
0.0
 10
911.513869577867
 20
868.1007291379692
 30
0.0
 10
911.555854101978
 20
868.3449757826381
 30
0.0
 10
911.5760787304025
 20
868.4626333656878
 30
0.0
  0
LINE
  5
D9
330
1F
100
AcDbEntity
  8
0
  6
Continuous
 62
     7
370
    15
100
AcDbLine
 10
912.3760787304
 20
868.4626333657
 30
0.0
 11
911.5760787304
 21
868.4626333657
 31
0.0
  0
LINE
  5
DA
330
1F
100
AcDbEntity
  8
0
  6
Continuous
 62
     7
370
    15
100
AcDbLine
 10
911.5690076626
 20
869.2697044335
 30
0.0
 11
911.5690076626
 21
868.4697044335
 31
0.0
  0
SPLINE
  5
DB
330
1F
100
AcDbEntity
  8
0
  6
Continuous
 62
     7
370
    15
100
AcDbSpline
210
0.0
220
0.0
230
1.0
 70
     8
 71
     3
 72
    11
 73
     7
 74
     0
 42
0.00000001
 43
0.00000001
 12
1.0
 22
0.0
 32
0.0
 13
1.0
 23
0.0
 33
0.0
 40
0.0
 40
0.0
 40
0.0
 40
0.0
 40
0.2543211584721276
 40
0.5088664984542325
 40
0.7634130007197432
 40
1.0
 40
1.0
 40
1.0
 40
1.0
 10
911.5690076625906
 20
868.4697044334996
 30
0.0
 10
911.4424265548051
 20
868.4463503714804
 30
0.0
 10
911.1891527592776
 20
868.3996216610743
 30
0.0
 10
910.809208089792
 20
868.0407340448797
 30
0.0
 10
910.4379829581214
 20
867.5415110655897
 30
0.0
 10
910.1937363134522
 20
867.1556027489946
 30
0.0
 10
910.0760787304025
 20
866.9697044334996
 30
0.0
  0
LINE
  5
DC
330
1F
100
AcDbEntity
  8
0
  6
Continuous
 62
     7
370
    15
100
AcDbLine
 10
912.3760787304
 20
388.4767755013
 30
0.0
 11
911.5760787304
 21
388.4767755013
 31
0.0
  0
SPLINE
  5
DD
330
1F
100
AcDbEntity
  8
0
  6
Continuous
 62
     7
370
    15
100
AcDbSpline
210
0.0
220
0.0
230
1.0
 70
     8
 71
     3
 72
    11
 73
     7
 74
     0
 42
0.00000001
 43
0.00000001
 12
1.0
 22
0.0
 32
0.0
 13
1.0
 23
0.0
 33
0.0
 40
0.0
 40
0.0
 40
0.0
 40
0.0
 40
0.2543211584721233
 40
0.5088664984542294
 40
0.7634130007197152
 40
1.0
 40
1.0
 40
1.0
 40
1.0
 10
911.5760787304025
 20
388.4767755013114
 30
0.0
 10
911.5527246683835
 20
388.6033566090969
 30
0.0
 10
911.5059959579777
 20
388.8566304046244
 30
0.0
 10
911.1471083417823
 20
389.2365750741101
 30
0.0
 10
910.6478853624928
 20
389.6078002057808
 30
0.0
 10
910.2619770458978
 20
389.8520468504501
 30
0.0
 10
910.0760787304025
 20
389.9697044334997
 30
0.0
  0
SPLINE
  5
DE
330
1F
100
AcDbEntity
  8
0
  6
Continuous
 62
     7
370
    15
100
AcDbSpline
210
0.0
220
0.0
230
1.0
 70
     8
 71
     3
 72
    17
 73
    13
 74
     0
 42
0.00000001
 43
0.00000001
 12
1.0
 22
0.0
 32
0.0
 13
1.0
 23
0.0
 33
0.0
 40
0.0
 40
0.0
 40
0.0
 40
0.0
 40
0.1035984107084097
 40
0.2096300057674968
 40
0.3241995137045016
 40
0.442090388979568
 40
0.5566717778555648
 40
0.6745756090648228
 40
0.789156824900046
 40
0.9070604758598311
 40
0.9534246172613716
 40
1.0
 40
1.0
 40
1.0
 40
1.0
 10
910.0760787304024
 20
389.9697044334997
 30
0.0
 10
910.1276291971475
 20
389.8449576501275
 30
0.0
 10
910.231940880765
 20
389.5925341936387
 30
0.0
 10
910.3932536813444
 20
389.2125772377922
 30
0.0
 10
910.5617340839693
 20
388.8386819419349
 30
0.0
 10
910.7344624273804
 20
388.492630467838
 30
0.0
 10
910.9088432857658
 20
388.1927504219948
 30
0.0
 10
911.0815940044654
 20
387.9544373599257
 30
0.0
 10
911.2559564328118
 20
387.7810747586601
 30
0.0
 10
911.3948215954002
 20
387.701910640996
 30
0.0
 10
911.4996333733538
 20
387.6732658032981
 30
0.0
 10
911.5458478860068
 20
387.6708933542046
 30
0.0
 10
911.5690076625906
 20
387.6697044334996
 30
0.0
  0
LINE
  5
DF
330
1F
100
AcDbEntity
  8
0
  6
Continuous
 62
     7
370
    15
100
AcDbLine
 10
911.5690076626
 20
387.6697044335
 30
0.0
 11
168.5831497982
 21
387.6697044335
 31
0.0
  0
SPLINE
  5
E0
330
1F
100
AcDbEntity
  8
0
  6
Continuous
 62
     7
370
    15
100
AcDbSpline
210
0.0
220
0.0
230
1.0
 70
     8
 71
     3
 72
    17
 73
    13
 74
     0
 42
0.00000001
 43
0.00000001
 12
1.0
 22
0.0
 32
0.0
 13
1.0
 23
0.0
 33
0.0
 40
0.0
 40
0.0
 40
0.0
 40
0.0
 40
0.1035984107083665
 40
0.2096300057674964
 40
0.3241995137044663
 40
0.4420903889795322
 40
0.5566717778555739
 40
0.674575609064821
 40
0.7891568249000801
 40
0.9070604758598428
 40
0.9534246172613797
 40
0.9999999999999999
 40
0.9999999999999999
 40
0.9999999999999999
 40
0.9999999999999999
 10
168.5831497982141
 20
387.6697044334996
 30
0.0
 10
168.6347002649592
 20
387.67558915591
 30
0.0
 10
168.7390119485767
 20
387.6874968134154
 30
0.0
 10
168.9003247491557
 20
387.7864977394967
 30
0.0
 10
169.0688051517811
 20
387.9520622438893
 30
0.0
 10
169.2415334951921
 20
388.1900562277494
 30
0.0
 10
169.4159143535776
 20
388.4892759492665
 30
0.0
 10
169.588665072277
 20
388.8349581038117
 30
0.0
 10
169.7630275006235
 20
389.2215735247433
 30
0.0
 10
169.9018926632123
 20
389.5495362924311
 30
0.0
 10
170.0067044411654
 20
389.8018279090463
 30
0.0
 10
170.0529189538186
 20
389.9136608640046
 30
0.0
 10
170.0760787304024
 20
389.9697044334995
 30
0.0
  0
SPLINE
  5
E1
330
1F
100
AcDbEntity
  8
0
  6
Continuous
 62
     7
370
    15
100
AcDbSpline
210
0.0
220
0.0
230
1.0
 70
     8
 71
     3
 72
    15
 73
    11
 74
     0
 42
0.00000001
 43
0.00000001
 12
1.0
 22
0.0
 32
0.0
 13
1.0
 23
0.0
 33
0.0
 40
0.0
 40
0.0
 40
0.0
 40
0.0
 40
0.1253607905739542
 40
0.2543493449801063
 40
0.3798182032806078
 40
0.5089245063805423
 40
0.6343939312769167
 40
0.7635008384375714
 40
0.880293052750542
 40
1.0
 40
1.0
 40
1.0
 40
1.0
 10
910.0760787304024
 20
389.9697044334995
 30
0.0
 10
910.1384623012923
 20
389.8712486721796
 30
0.0
 10
910.2650347353102
 20
389.6714879791699
 30
0.0
 10
910.4540727815452
 20
389.3848502628692
 30
0.0
 10
910.6449384357607
 20
389.1189115904285
 30
0.0
 10
910.8340934886143
 20
388.8890948075008
 30
0.0
 10
911.0250141019277
 20
388.7001643114937
 30
0.0
 10
911.2098614713594
 20
388.5674917374162
 30
0.0
 10
911.3917555887281
 20
388.4849174687317
 30
0.0
 10
911.5094401702573
 20
388.4748169398858
 30
0.0
 10
911.5690076625906
 20
388.4697044334996
 30
0.0
  0
LINE
  5
E2
330
1F
100
AcDbEntity
  8
0
  6
Continuous
 62
     7
370
    15
100
AcDbLine
 10
911.5690076626
 20
387.6697044335
 30
0.0
 11
911.5690076626
 21
388.4697044335
 31
0.0
  0
SPLINE
  5
E3
330
1F
100
AcDbEntity
  8
0
  6
Continuous
 62
     7
370
    15
100
AcDbSpline
210
0.0
220
0.0
230
1.0
 70
     8
 71
     3
 72
    24
 73
    20
 74
     0
 42
0.00000001
 43
0.00000001
 12
1.0
 22
0.0
 32
0.0
 13
1.0
 23
0.0
 33
0.0
 40
0.0
 40
0.0
 40
0.0
 40
0.0
 40
0.0647080043858644
 40
0.1696746425194582
 40
0.2095587450136963
 40
0.2523902778209279
 40
0.32440370242925
 40
0.3829403418356241
 40
0.442061748299464
 40
0.4992143175435235
 40
0.556925139450389
 40
0.6154681316474436
 40
0.6745960826934091
 40
0.7174319703446039
 40
0.7894528538947001
 40
0.8479957571687224
 40
0.9071236161218991
 40
0.9534562591478483
 40
1.0
 40
1.0
 40
1.0
 40
1.0
 10
170.0760787304024
 20
389.9697044334994
 30
0.0
 10
169.9981676158491
 20
389.937508091811
 30
0.0
 10
169.7938723260224
 20
389.8530841813804
 30
0.0
 10
169.5445925607352
 20
389.748665882717
 30
0.0
 10
169.3285172427917
 20
389.6553048874236
 30
0.0
 10
169.154257717426
 20
389.5783218021542
 30
0.0
 10
168.9661761069553
 20
389.4920127231396
 30
0.0
 10
168.7719434772868
 20
389.3976428747314
 30
0.0
 10
168.6039233738519
 20
389.3106543472697
 30
0.0
 10
168.4489624683919
 20
389.224077502676
 30
0.0
 10
168.3078243944933
 20
389.1377858940645
 30
0.0
 10
168.1798869611227
 20
389.0505183549232
 30
0.0
 10
168.0775047055094
 20
388.9706449638434
 30
0.0
 10
167.9811943571836
 20
388.8840898710192
 30
0.0
 10
167.902202166638
 20
388.7977692875182
 30
0.0
 10
167.8379096269437
 20
388.7033859381586
 30
0.0
 10
167.8003664203503
 20
388.6217746507743
 30
0.0
 10
167.7796263026598
 20
388.5461473106001
 30
0.0
 10
167.7772630449633
 20
388.4999344499941
 30
0.0
 10
167.7760787304024
 20
388.4767755013112
 30
0.0
  0
LINE
  5
E4
330
1F
100
AcDbEntity
  8
0
  6
Continuous
 62
     7
370
    15
100
AcDbLine
 10
167.7760787304
 20
866.7197044335
 30
0.0
 11
167.7760787304
 21
388.4767755013
 31
0.0
  0
SPLINE
  5
E5
330
1F
100
AcDbEntity
  8
0
  6
Continuous
 62
     7
370
    15
100
AcDbSpline
210
0.0
220
0.0
230
1.0
 70
     8
 71
     3
 72
    12
 73
     8
 74
     0
 42
0.00000001
 43
0.00000001
 12
1.0
 22
0.0
 32
0.0
 13
1.0
 23
0.0
 33
0.0
 40
0.0
 40
0.0
 40
0.0
 40
0.0
 40
0.2039309378942017
 40
0.4425616402550611
 40
0.6812426816310142
 40
0.9199234516442947
 40
1.0
 40
1.0
 40
1.0
 40
1.0
 10
167.7760787304024
 20
866.7197044334996
 30
0.0
 10
167.7991433541026
 20
866.8385397723898
 30
0.0
 10
167.8491971507556
 20
867.0964308164981
 30
0.0
 10
168.2716613658191
 20
867.4943124916099
 30
0.0
 10
168.9448572881551
 20
867.9119245034195
 30
0.0
 10
169.5978354011297
 20
868.2380247502028
 30
0.0
 10
169.9800586120589
 20
868.4231885507965
 30
0.0
 10
170.0760787304024
 20
868.4697044334996
 30
0.0
  0
LINE
  5
E6
330
1F
100
AcDbEntity
  8
0
  6
Continuous
 62
     7
370
    15
100
AcDbLine
 10
168.5831497982
 20
387.6697044335
 30
0.0
 11
168.5831497982
 21
388.4697044335
 31
0.0
  0
SPLINE
  5
E7
330
1F
100
AcDbEntity
  8
0
  6
Continuous
 62
     7
370
    15
100
AcDbSpline
210
0.0
220
0.0
230
1.0
 70
     8
 71
     3
 72
    15
 73
    11
 74
     0
 42
0.00000001
 43
0.00000001
 12
1.0
 22
0.0
 32
0.0
 13
1.0
 23
0.0
 33
0.0
 40
0.0
 40
0.0
 40
0.0
 40
0.0
 40
0.1253607905739279
 40
0.2543493449800346
 40
0.3798182032805281
 40
0.5089245063804704
 40
0.6343939312768699
 40
0.7635008384375616
 40
0.8802930527505346
 40
1.0
 40
1.0
 40
1.0
 40
1.0
 10
168.5831497982141
 20
388.4697044334996
 30
0.0
 10
168.645533369104
 20
388.4753289014009
 30
0.0
 10
168.7721058031219
 20
388.4867406013432
 30
0.0
 10
168.9611438493565
 20
388.578255305623
 30
0.0
 10
169.1520095035722
 20
388.7219682362
 30
0.0
 10
169.3411645564258
 20
388.9150705924844
 30
0.0
 10
169.5320851697396
 20
389.1518096735007
 30
0.0
 10
169.7169325391708
 20
389.4128838528597
 30
0.0
 10
169.8988266565399
 20
389.6899627879305
 30
0.0
 10
170.0165112380692
 20
389.8756942029585
 30
0.0
 10
170.0760787304024
 20
389.9697044334997
 30
0.0
  0
SPLINE
  5
E8
330
1F
100
AcDbEntity
  8
0
  6
Continuous
 62
     7
370
    15
100
AcDbSpline
210
0.0
220
0.0
230
1.0
 70
     8
 71
     3
 72
    21
 73
    17
 74
     0
 42
0.00000001
 43
0.00000001
 12
1.0
 22
0.0
 32
0.0
 13
1.0
 23
0.0
 33
0.0
 40
0.0
 40
0.0
 40
0.0
 40
0.0
 40
0.0624761742076787
 40
0.1253861965483251
 40
0.1896604679996954
 40
0.2544074554450841
 40
0.380249063669137
 40
0.4441247472167116
 40
0.5089313809605015
 40
0.5714614124240607
 40
0.634426422976214
 40
0.6987593423347885
 40
0.7635662813820234
 40
0.8219735039912697
 40
0.9401348131379583
 40
0.9999999999999999
 40
0.9999999999999999
 40
0.9999999999999999
 40
0.9999999999999999
 10
170.0760787304024
 20
389.9697044334997
 30
0.0
 10
170.0270204341162
 20
389.9386188367846
 30
0.0
 10
169.9285631700714
 20
389.8762317782145
 30
0.0
 10
169.7810724045903
 20
389.7818722055571
 30
0.0
 10
169.6347484896361
 20
389.6863716268762
 30
0.0
 10
169.4464668625082
 20
389.559597228699
 30
0.0
 10
169.2697923607039
 20
389.4327642825309
 30
0.0
 10
169.1102377519003
 20
389.3061674966427
 30
0.0
 10
169.0000723760078
 20
389.2110178062814
 30
0.0
 10
168.9011736650556
 20
389.1163345611371
 30
0.0
 10
168.8140022076198
 20
389.0218895404853
 30
0.0
 10
168.7384761610028
 20
388.9263112301762
 30
0.0
 10
168.6779780422424
 20
388.8329852966622
 30
0.0
 10
168.6175351017914
 20
388.7129242357075
 30
0.0
 10
168.5813665580569
 20
388.5951142033186
 30
0.0
 10
168.5774094065607
 20
388.5065553087567
 30
0.0
 10
168.5760787304025
 20
388.4767755013113
 30
0.0
  0
LINE
  5
E9
330
1F
100
AcDbEntity
  8
0
  6
Continuous
 62
     7
370
    15
100
AcDbLine
 10
167.7760787304
 20
388.4767755013
 30
0.0
 11
168.5760787304
 21
388.4767755013
 31
0.0
  0
LINE
  5
EA
330
1F
100
AcDbEntity
  8
0
  6
Continuous
 62
     7
370
    15
100
AcDbLine
 10
168.5831497982
 20
388.4697044335
 30
0.0
 11
168.5760787304
 21
388.4697044335
 31
0.0
  0
LINE
  5
EB
330
1F
100
AcDbEntity
  8
0
  6
Continuous
 62
     7
370
    15
100
AcDbLine
 10
169.3760787304
 20
388.9484283353
 30
0.0
 11
169.3760787304
 21
389.4887055404
 31
0.0
  0
LINE
  5
EC
330
1F
100
AcDbEntity
  8
0
  6
Continuous
 62
     7
370
    15
100
AcDbLine
 10
168.5760787304
 20
388.4697044335
 30
0.0
 11
168.5760787304
 21
388.4767755013
 31
0.0
  0
LINE
  5
ED
330
1F
100
AcDbEntity
  8
0
  6
Continuous
 62
     7
370
    15
100
AcDbLine
 10
171.0260787304
 20
867.6697044335
 30
0.0
 11
171.2760787304
 21
867.6697044335
 31
0.0
  0
LINE
  5
EE
330
1F
100
AcDbEntity
  8
0
  6
Continuous
 62
     7
370
    15
100
AcDbLine
 10
171.0260787304
 20
868.4697044335
 30
0.0
 11
171.2760787304
 21
868.4697044335
 31
0.0
  0
LINE
  5
EF
330
1F
100
AcDbEntity
  8
0
  6
Continuous
 62
     7
370
    15
100
AcDbLine
 10
169.6438901627
 20
389.6925741604
 30
0.0
 11
169.7537531267
 21
389.5069042619
 31
0.0
  0
LWPOLYLINE
  5
F0
330
1F
100
AcDbEntity
  8
0
  6
Continuous
 62
     7
370
    15
100
AcDbPolyline
 90
        3
 70
   128
 43
0.0
 10
910.4932811414
 20
389.3598195455
 10
910.5884588387
 20
389.4918928976
 10
910.6534458223
 20
389.5949621707
  0
LINE
  5
F1
330
1F
100
AcDbEntity
  8
0
  6
Continuous
 62
     7
370
    15
100
AcDbLine
 10
570.734971421
 20
1096.4697044335
 30
0.0
 11
574.934971421
 21
1096.4697044335
 31
0.0
  0
LINE
  5
F2
330
1F
100
AcDbEntity
  8
0
  6
Continuous
 62
     7
370
    15
100
AcDbLine
 10
571.3652775753
 20
1094.9697044335
 30
0.0
 11
574.3046652666
 21
1094.9697044335
 31
0.0
  0
LINE
  5
F3
330
1F
100
AcDbEntity
  8
0
  6
Continuous
 62
     7
370
    15
100
AcDbLine
 10
118.2349714209
 20
1118.4697044335
 30
0.0
 11
109.4849714209
 21
1118.4697044335
 31
0.0
  0
LINE
  5
F4
330
1F
100
AcDbEntity
  8
0
  6
Continuous
 62
     7
370
    15
100
AcDbLine
 10
118.2349714209
 20
1116.4697044335
 30
0.0
 11
109.4849714209
 21
1116.4697044335
 31
0.0
  0
ARC
  5
F5
330
1F
100
AcDbEntity
  8
0
  6
Continuous
 62
     7
370
    15
100
AcDbCircle
 10
109.4849714209
 20
1120.7197044335
 30
0.0
 40
4.249999999999972
100
AcDbArc
 50
180.0
 51
270.0
  0
ARC
  5
F6
330
1F
100
AcDbEntity
  8
0
  6
Continuous
 62
     7
370
    15
100
AcDbCircle
 10
109.4849714209
 20
1120.7197044335
 30
0.0
 40
2.25
100
AcDbArc
 50
180.0
 51
270.0
  0
LINE
  5
F7
330
1F
100
AcDbEntity
  8
0
  6
Continuous
 62
     7
370
    15
100
AcDbLine
 10
105.2349714209
 20
1120.7197044335
 30
0.0
 11
105.2349714209
 21
1132.2197044335
 31
0.0
  0
LINE
  5
F8
330
1F
100
AcDbEntity
  8
0
  6
Continuous
 62
     7
370
    15
100
AcDbLine
 10
107.2349714209
 20
1120.7197044335
 30
0.0
 11
107.2349714209
 21
1132.2197044335
 31
0.0
  0
LINE
  5
F9
330
1F
100
AcDbEntity
  8
0
  6
Continuous
 62
     7
370
    15
100
AcDbLine
 10
120.2349714209
 20
1118.4697044335
 30
0.0
 11
120.2349714209
 21
1116.4697044335
 31
0.0
  0
LINE
  5
FA
330
1F
100
AcDbEntity
  8
0
  6
Continuous
 62
     7
370
    15
100
AcDbLine
 10
120.2349714209
 20
1116.4697044335
 30
0.0
 11
118.2349714209
 21
1116.4697044335
 31
0.0
  0
LINE
  5
FB
330
1F
100
AcDbEntity
  8
0
  6
Continuous
 62
     7
370
    15
100
AcDbLine
 10
119.8849714198
 20
1118.4697044335
 30
0.0
 11
120.2349714209
 21
1118.4697044335
 31
0.0
  0
LINE
  5
FC
330
1F
100
AcDbEntity
  8
0
  6
Continuous
 62
     7
370
    15
100
AcDbLine
 10
109.4849714209
 20
1136.4697044335
 30
0.0
 11
175.9849714209
 21
1136.4697044335
 31
0.0
  0
LINE
  5
FD
330
1F
100
AcDbEntity
  8
0
  6
Continuous
 62
     7
370
    15
100
AcDbLine
 10
109.4849714209
 20
1134.4697044335
 30
0.0
 11
175.9849714209
 21
1134.4697044335
 31
0.0
  0
LINE
  5
FE
330
1F
100
AcDbEntity
  8
0
  6
Continuous
 62
     7
370
    15
100
AcDbLine
 10
966.2704749418
 20
1056.3994903946
 30
0.0
 11
964.4578593677
 21
1055.5542538712
 31
0.0
  0
LINE
  5
FF
330
1F
100
AcDbEntity
  8
0
  6
Continuous
 62
     7
370
    15
100
AcDbLine
 10
964.4578593677
 20
1055.5542538712
 30
0.0
 11
963.6126228442
 21
1057.3668694452
 31
0.0
  0
LINE
  5
100
330
1F
100
AcDbEntity
  8
0
  6
Continuous
 62
     7
370
    15
100
AcDbLine
 10
963.6126228442
 20
1057.3668694452
 30
0.0
 11
965.4252384183
 21
1058.2121059687
 31
0.0
  0
LINE
  5
101
330
1F
100
AcDbEntity
  8
0
  6
Continuous
 62
     7
370
    15
100
AcDbLine
 10
180.2349714209
 20
1132.2197044335
 30
0.0
 11
180.2349714209
 21
1120.7197044335
 31
0.0
  0
LINE
  5
102
330
1F
100
AcDbEntity
  8
0
  6
Continuous
 62
     7
370
    15
100
AcDbLine
 10
178.2349714209
 20
1132.2197044335
 30
0.0
 11
178.2349714209
 21
1120.7197044335
 31
0.0
  0
ARC
  5
103
330
1F
100
AcDbEntity
  8
0
  6
Continuous
 62
     7
370
    15
100
AcDbCircle
 10
182.4849714209
 20
1120.7197044335
 30
0.0
 40
2.25
100
AcDbArc
 50
180.0
 51
270.0
  0
ARC
  5
104
330
1F
100
AcDbEntity
  8
0
  6
Continuous
 62
     7
370
    15
100
AcDbCircle
 10
182.4849714209
 20
1120.7197044335
 30
0.0
 40
4.249999999999972
100
AcDbArc
 50
180.0
 51
270.0
  0
LINE
  5
105
330
1F
100
AcDbEntity
  8
0
  6
Continuous
 62
     7
370
    15
100
AcDbLine
 10
182.4849714209
 20
1118.4697044335
 30
0.0
 11
993.2349714209
 21
1118.4697044335
 31
0.0
  0
LINE
  5
106
330
1F
100
AcDbEntity
  8
0
  6
Continuous
 62
     7
370
    15
100
AcDbLine
 10
182.4849714209
 20
1116.4697044335
 30
0.0
 11
993.2349714209
 21
1116.4697044335
 31
0.0
  0
ARC
  5
107
330
1F
100
AcDbEntity
  8
0
  6
Continuous
 62
     7
370
    15
100
AcDbCircle
 10
993.2349714209
 20
1106.4697044335
 30
0.0
 40
12.00000000000006
100
AcDbArc
 50
335.0
 51
90.0
  0
ARC
  5
108
330
1F
100
AcDbEntity
  8
0
  6
Continuous
 62
     7
370
    15
100
AcDbCircle
 10
993.2349714209
 20
1106.4697044335
 30
0.0
 40
10.00000000000023
100
AcDbArc
 50
335.0
 51
90.0
  0
LINE
  5
109
330
1F
100
AcDbEntity
  8
0
  6
Continuous
 62
     7
370
    15
100
AcDbLine
 10
1004.1106648654
 20
1101.3982852926
 30
0.0
 11
989.6571203138
 21
1070.402558976
 31
0.0
  0
LINE
  5
10A
330
1F
100
AcDbEntity
  8
0
  6
Continuous
 62
     7
370
    15
100
AcDbLine
 10
1002.2980492913
 20
1102.2435218161
 30
0.0
 11
987.8445047398
 21
1071.2477954994
 31
0.0
  0
ARC
  5
10B
330
1F
100
AcDbEntity
  8
0
  6
Continuous
 62
     7
370
    15
100
AcDbCircle
 10
978.7814268694
 20
1075.4739781168
 30
0.0
 40
12.0
100
AcDbArc
 50
295.0
 51
335.0
  0
ARC
  5
10C
330
1F
100
AcDbEntity
  8
0
  6
Continuous
 62
     7
370
    15
100
AcDbCircle
 10
978.7814268694
 20
1075.4739781168
 30
0.0
 40
10.00000000000013
100
AcDbArc
 50
295.0
 51
335.0
  0
ARC
  5
10D
330
1F
100
AcDbEntity
  8
0
  6
Continuous
 62
     7
370
    15
100
AcDbCircle
 10
175.9849714209
 20
1132.2197044335
 30
0.0
 40
4.250000000000227
100
AcDbArc
 50
0.0
 51
90.0
  0
ARC
  5
10E
330
1F
100
AcDbEntity
  8
0
  6
Continuous
 62
     7
370
    15
100
AcDbCircle
 10
175.9849714209
 20
1132.2197044335
 30
0.0
 40
2.25
100
AcDbArc
 50
0.0
 51
90.0
  0
LINE
  5
10F
330
1F
100
AcDbEntity
  8
0
  6
Continuous
 62
     7
370
    15
100
AcDbLine
 10
983.8528460103
 20
1064.5982846724
 30
0.0
 11
966.2704749418
 21
1056.3994903946
 31
0.0
  0
LINE
  5
110
330
1F
100
AcDbEntity
  8
0
  6
Continuous
 62
     7
370
    15
100
AcDbLine
 10
983.0076094868
 20
1066.4109002465
 30
0.0
 11
965.4252384183
 21
1058.2121059687
 31
0.0
  0
ARC
  5
111
330
1F
100
AcDbEntity
  8
0
  6
Continuous
 62
     7
370
    15
100
AcDbCircle
 10
109.4849714209
 20
1132.2197044335
 30
0.0
 40
4.250000000000227
100
AcDbArc
 50
90.0
 51
180.0
  0
ARC
  5
112
330
1F
100
AcDbEntity
  8
0
  6
Continuous
 62
     7
370
    15
100
AcDbCircle
 10
109.4849714209
 20
1132.2197044335
 30
0.0
 40
2.25
100
AcDbArc
 50
90.0
 51
180.0
  0
LINE
  5
113
330
1F
100
AcDbEntity
  8
0
  6
Continuous
 62
     7
370
    15
100
AcDbLine
 10
110.0849714209
 20
1131.8197044335
 30
0.0
 11
110.0849714209
 21
1134.1197044335
 31
0.0
  0
LINE
  5
114
330
1F
100
AcDbEntity
  8
0
  6
Continuous
 62
     7
370
    15
100
AcDbLine
 10
110.0849714209
 20
1134.1197044335
 30
0.0
 11
175.3849714209
 21
1134.1197044335
 31
0.0
  0
LINE
  5
115
330
1F
100
AcDbEntity
  8
0
  6
Continuous
 62
     7
370
    15
100
AcDbLine
 10
175.3849714209
 20
1134.1197044335
 30
0.0
 11
175.3849714209
 21
1131.8197044335
 31
0.0
  0
LINE
  5
116
330
1F
100
AcDbEntity
  8
0
  6
Continuous
 62
     7
370
    15
100
AcDbLine
 10
119.8849714198
 20
1118.4697044335
 30
0.0
 11
109.4849714209
 21
1118.4697044335
 31
0.0
  0
ARC
  5
117
330
1F
100
AcDbEntity
  8
0
  6
Continuous
 62
     7
370
    15
100
AcDbCircle
 10
109.4849714209
 20
1120.4697044335
 30
0.0
 40
2.0
100
AcDbArc
 50
180.0
 51
270.0
  0
LINE
  5
118
330
1F
100
AcDbEntity
  8
0
  6
Continuous
 62
     7
370
    15
100
AcDbLine
 10
107.4849714209
 20
1120.4697044335
 30
0.0
 11
107.4849714209
 21
1132.1197044335
 31
0.0
  0
ARC
  5
119
330
1F
100
AcDbEntity
  8
0
  6
Continuous
 62
     7
370
    15
100
AcDbCircle
 10
109.4849714209
 20
1132.1197044335
 30
0.0
 40
2.0
100
AcDbArc
 50
90.0
 51
180.0
  0
LINE
  5
11A
330
1F
100
AcDbEntity
  8
0
  6
Continuous
 62
     7
370
    15
100
AcDbLine
 10
109.4849714209
 20
1134.1197044335
 30
0.0
 11
109.4849714209
 21
1131.2197044335
 31
0.0
  0
ARC
  5
11B
330
1F
100
AcDbEntity
  8
0
  6
Continuous
 62
     7
370
    15
100
AcDbCircle
 10
109.7849714209
 20
1131.2197044335
 30
0.0
 40
0.3000000000000256
100
AcDbArc
 50
180.0
 51
0.0
  0
LINE
  5
11C
330
1F
100
AcDbEntity
  8
0
  6
Continuous
 62
     7
370
    15
100
AcDbLine
 10
110.0849714209
 20
1131.2197044335
 30
0.0
 11
110.0849714209
 21
1131.8197044335
 31
0.0
  0
LINE
  5
11D
330
1F
100
AcDbEntity
  8
0
  6
Continuous
 62
     7
370
    15
100
AcDbLine
 10
175.3849714209
 20
1131.8197044335
 30
0.0
 11
175.3849714209
 21
1131.2197044335
 31
0.0
  0
ARC
  5
11E
330
1F
100
AcDbEntity
  8
0
  6
Continuous
 62
     7
370
    15
100
AcDbCircle
 10
175.6849714209
 20
1131.2197044335
 30
0.0
 40
0.3000000000000114
100
AcDbArc
 50
180.0
 51
0.0
  0
LINE
  5
11F
330
1F
100
AcDbEntity
  8
0
  6
Continuous
 62
     7
370
    15
100
AcDbLine
 10
175.9849714209
 20
1131.2197044335
 30
0.0
 11
175.9849714209
 21
1134.1197044335
 31
0.0
  0
ARC
  5
120
330
1F
100
AcDbEntity
  8
0
  6
Continuous
 62
     7
370
    15
100
AcDbCircle
 10
175.9849714209
 20
1132.1197044335
 30
0.0
 40
2.0
100
AcDbArc
 50
0.0
 51
90.0
  0
LINE
  5
121
330
1F
100
AcDbEntity
  8
0
  6
Continuous
 62
     7
370
    15
100
AcDbLine
 10
177.9849714209
 20
1132.1197044335
 30
0.0
 11
177.9849714209
 21
1118.7197044335
 31
0.0
  0
LINE
  5
122
330
1F
100
AcDbEntity
  8
0
  6
Continuous
 62
     7
370
    15
100
AcDbLine
 10
120.4849714198
 20
1118.7197044335
 30
0.0
 11
120.4849714198
 21
1119.3197044335
 31
0.0
  0
ARC
  5
123
330
1F
100
AcDbEntity
  8
0
  6
Continuous
 62
     7
370
    15
100
AcDbCircle
 10
120.1849714198
 20
1119.3197044335
 30
0.0
 40
0.3000000000000256
100
AcDbArc
 50
0.0
 51
180.0
  0
LINE
  5
124
330
1F
100
AcDbEntity
  8
0
  6
Continuous
 62
     7
370
    15
100
AcDbLine
 10
119.8849714198
 20
1119.3197044335
 30
0.0
 11
119.8849714198
 21
1118.4697044335
 31
0.0
  0
LINE
  5
125
330
1F
100
AcDbEntity
  8
0
  6
Continuous
 62
     7
370
    15
100
AcDbLine
 10
177.9849714209
 20
1118.7197044335
 30
0.0
 11
177.9849714209
 21
1116.4197044335
 31
0.0
  0
LINE
  5
126
330
1F
100
AcDbEntity
  8
0
  6
Continuous
 62
     7
370
    15
100
AcDbLine
 10
177.9849714209
 20
1116.4197044335
 30
0.0
 11
120.4849714198
 21
1116.4197044335
 31
0.0
  0
LINE
  5
127
330
1F
100
AcDbEntity
  8
0
  6
Continuous
 62
     7
370
    15
100
AcDbLine
 10
120.4849714198
 20
1116.4197044335
 30
0.0
 11
120.4849714198
 21
1118.7197044335
 31
0.0
  0
LINE
  5
128
330
1F
100
AcDbEntity
  8
0
  6
Continuous
 62
     7
370
    15
100
AcDbLine
 10
135.2365784767
 20
1147.9697044335
 30
0.0
 11
150.2365784767
 21
1147.9697044335
 31
0.0
  0
LINE
  5
129
330
1F
100
AcDbEntity
  8
0
  6
Continuous
 62
     7
370
    15
100
AcDbLine
 10
1003.5798305874
 20
927.6958870509
 30
0.0
 11
947.6729609612
 21
1047.5885558682
 31
0.0
  0
LINE
  5
12A
330
1F
100
AcDbEntity
  8
0
  6
Continuous
 62
     7
370
    15
100
AcDbLine
 10
1004.304876817
 20
928.0339816603
 30
0.0
 11
948.3980071909
 21
1047.9266504776
 31
0.0
  0
LINE
  5
12B
330
1F
100
AcDbEntity
  8
0
  6
Continuous
 62
     7
370
    15
100
AcDbLine
 10
915.2766568346
 20
869.2697044335
 30
0.0
 11
973.9059542266
 21
869.2697044335
 31
0.0
  0
LINE
  5
12C
330
1F
100
AcDbEntity
  8
0
  6
Continuous
 62
     7
370
    15
100
AcDbLine
 10
915.2766568346
 20
868.4697044335
 30
0.0
 11
973.9059542266
 21
868.4697044335
 31
0.0
  0
ARC
  5
12D
330
1F
100
AcDbEntity
  8
0
  6
Continuous
 62
     7
370
    15
100
AcDbCircle
 10
973.9059542266
 20
879.2697044335
 30
0.0
 40
10.00000000000003
100
AcDbArc
 50
270.0
 51
335.0
  0
ARC
  5
12E
330
1F
100
AcDbEntity
  8
0
  6
Continuous
 62
     7
370
    15
100
AcDbCircle
 10
973.9059542266
 20
879.2697044335
 30
0.0
 40
10.80000000000006
100
AcDbArc
 50
270.0
 51
335.0
  0
ARC
  5
12F
330
1F
100
AcDbEntity
  8
0
  6
Continuous
 62
     7
370
    15
100
AcDbCircle
 10
994.516752717
 20
923.4697044335
 30
0.0
 40
10.00000000000003
100
AcDbArc
 50
335.0
 51
25.0
  0
ARC
  5
130
330
1F
100
AcDbEntity
  8
0
  6
Continuous
 62
     7
370
    15
100
AcDbCircle
 10
994.516752717
 20
923.4697044335
 30
0.0
 40
10.7999999999999
100
AcDbArc
 50
335.0
 51
25.0
  0
LINE
  5
131
330
1F
100
AcDbEntity
  8
0
  6
Continuous
 62
     7
370
    15
100
AcDbLine
 10
983.6940783265
 20
874.7054272067
 30
0.0
 11
1004.304876817
 21
918.9054272067
 31
0.0
  0
LINE
  5
132
330
1F
100
AcDbEntity
  8
0
  6
Continuous
 62
     7
370
    15
100
AcDbLine
 10
982.9690320969
 20
875.0435218161
 30
0.0
 11
1003.5798305874
 21
919.2435218161
 31
0.0
  0
LINE
  5
133
330
1F
100
AcDbEntity
  8
0
  6
Continuous
 62
     7
370
    15
100
AcDbLine
 10
913.2766568346
 20
868.4697044335
 30
0.0
 11
913.2766568346
 21
869.2697044335
 31
0.0
  0
LINE
  5
134
330
1F
100
AcDbEntity
  8
0
  6
Continuous
 62
     7
370
    15
100
AcDbLine
 10
913.2766568346
 20
869.2697044335
 30
0.0
 11
915.2766568346
 21
869.2697044335
 31
0.0
  0
LINE
  5
135
330
1F
100
AcDbEntity
  8
0
  6
Continuous
 62
     7
370
    15
100
AcDbLine
 10
915.2766568346
 20
868.4697044335
 30
0.0
 11
913.2766568346
 21
868.4697044335
 31
0.0
  0
ARC
  5
136
330
1F
100
AcDbEntity
  8
0
  6
Continuous
 62
     7
370
    15
100
AcDbCircle
 10
949.5308919247
 20
1048.4549233047
 30
0.0
 40
1.250000000000073
100
AcDbArc
 50
115.0
 51
205.0
  0
ARC
  5
137
330
1F
100
AcDbEntity
  8
0
  6
Continuous
 62
     7
370
    15
100
AcDbCircle
 10
949.5308919247
 20
1048.4549233047
 30
0.0
 40
2.050000000000105
100
AcDbArc
 50
115.0
 51
205.0
  0
LINE
  5
138
330
1F
100
AcDbEntity
  8
0
  6
Continuous
 62
     7
370
    15
100
AcDbLine
 10
949.0026190975
 20
1049.5878080385
 30
0.0
 11
961.6456127266
 21
1055.4833327898
 31
0.0
  0
LINE
  5
139
330
1F
100
AcDbEntity
  8
0
  6
Continuous
 62
     7
370
    15
100
AcDbLine
 10
948.6645244881
 20
1050.3128542682
 30
0.0
 11
961.3075181173
 21
1056.2083790194
 31
0.0
  0
LINE
  5
13A
330
1F
100
AcDbEntity
  8
0
  6
Continuous
 62
     7
370
    15
100
AcDbLine
 10
963.1201336913
 20
1057.0536155429
 30
0.0
 11
963.4582283007
 21
1056.3285693133
 31
0.0
  0
LINE
  5
13B
330
1F
100
AcDbEntity
  8
0
  6
Continuous
 62
     7
370
    15
100
AcDbLine
 10
963.4582283007
 20
1056.3285693133
 30
0.0
 11
961.6456127266
 21
1055.4833327898
 31
0.0
  0
LINE
  5
13C
330
1F
100
AcDbEntity
  8
0
  6
Continuous
 62
     7
370
    15
100
AcDbLine
 10
961.3075181173
 20
1056.2083790194
 30
0.0
 11
963.1201336913
 21
1057.0536155429
 31
0.0
  0
ARC
  5
13D
330
1F
100
AcDbEntity
  8
0
  6
Continuous
 62
     7
370
    15
100
AcDbCircle
 10
960.8634310174
 20
1057.6563646823
 30
0.0
 40
1.500000000000061
100
AcDbArc
 50
295.0
 51
313.2887754011
  0
LINE
  5
13E
330
1F
100
AcDbEntity
  8
0
  6
Continuous
 62
     7
370
    15
100
AcDbLine
 10
963.1699504447
 20
1057.1604479153
 30
0.0
 11
963.1201336913
 21
1057.0536155429
 31
0.0
  0
LINE
  5
13F
330
1F
100
AcDbEntity
  8
0
  6
Continuous
 62
     7
370
    15
100
AcDbLine
 10
978.8873451548
 20
990.8237597533
 30
0.0
 11
982.3339306995
 21
983.4325332005
 31
0.0
  0
LINE
  5
140
330
1F
100
AcDbEntity
  8
0
  6
Continuous
 62
     7
370
    15
100
AcDbLine
 10
976.7131078183
 20
995.4864267681
 30
0.0
 11
978.8873451548
 21
990.8237597533
 31
0.0
  0
LINE
  5
141
330
1F
100
AcDbEntity
  8
0
  6
Continuous
 62
     7
370
    15
100
AcDbLine
 10
980.932908258
 20
976.2069128842
 30
0.0
 11
980.9541490733
 21
976.216817639
 31
0.0
  0
LINE
  5
142
330
1F
100
AcDbEntity
  8
0
  6
Continuous
 62
     7
370
    15
100
AcDbLine
 10
970.1561425836
 20
999.3177614536
 30
0.0
 11
970.1773833989
 21
999.3276662085
 31
0.0
  0
LINE
  5
143
330
1F
100
AcDbEntity
  8
0
  6
Continuous
 62
     7
370
    15
100
AcDbLine
 10
969.0995969292
 20
1001.5835309212
 30
0.0
 11
969.1208377446
 21
1001.5934356761
 31
0.0
  0
LINE
  5
144
330
1F
100
AcDbEntity
  8
0
  6
Continuous
 62
     7
370
    15
100
AcDbLine
 10
968.7827431352
 20
1002.3184819057
 30
0.0
 11
968.7615023198
 21
1002.3085771508
 31
0.0
  0
LINE
  5
145
330
1F
100
AcDbEntity
  8
0
  6
Continuous
 62
     7
370
    15
100
AcDbLine
 10
982.0106947277
 20
973.9510481714
 30
0.0
 11
981.9894539123
 21
973.9411434166
 31
0.0
  0
LINE
  5
146
330
1F
100
AcDbEntity
  8
0
  6
Continuous
 62
     7
370
    15
100
AcDbLine
 10
982.3275485217
 20
973.2160971869
 30
0.0
 11
982.3487893371
 21
973.2260019418
 31
0.0
  0
LINE
  5
147
330
1F
100
AcDbEntity
  8
0
  6
Continuous
 62
     7
370
    15
100
AcDbLine
 10
969.7335243218
 20
1000.2240692406
 30
0.0
 11
969.7547651372
 21
1000.2339739955
 31
0.0
  0
LINE
  5
148
330
1F
100
AcDbEntity
  8
0
  6
Continuous
 62
     7
370
    15
100
AcDbLine
 10
981.3767673351
 20
975.310509852
 30
0.0
 11
981.3555265197
 21
975.3006050971
 31
0.0
  0
LINE
  5
149
330
1F
100
AcDbEntity
  8
0
  6
Continuous
 62
     7
370
    15
100
AcDbLine
 10
975.2015285198
 20
1002.2773214094
 30
0.0
 11
980.9112675781
 21
1004.9398164584
 31
0.0
  0
ARC
  5
14A
330
1F
100
AcDbEntity
  8
0
  6
Continuous
 62
     7
370
    15
100
AcDbCircle
 10
981.122576709
 20
1004.4866625649
 30
0.0
 40
0.5000000000001338
100
AcDbArc
 50
25.0
 51
115.0
  0
LINE
  5
14B
330
1F
100
AcDbEntity
  8
0
  6
Continuous
 62
     7
370
    15
100
AcDbLine
 10
981.5757306025
 20
1004.6979716957
 30
0.0
 11
992.3947581031
 21
981.4964923476
 31
0.0
  0
LINE
  5
14C
330
1F
100
AcDbEntity
  8
0
  6
Continuous
 62
     7
370
    15
100
AcDbLine
 10
992.1529133404
 20
980.8320293232
 30
0.0
 11
986.4431742821
 21
978.1695342743
 31
0.0
  0
ARC
  5
14D
330
1F
100
AcDbEntity
  8
0
  6
Continuous
 62
     7
370
    15
100
AcDbCircle
 10
991.9416042095
 20
981.2851832167
 30
0.0
 40
0.5000000000000308
100
AcDbArc
 50
295.0
 51
25.0
  0
ARC
  5
14E
330
1F
100
AcDbEntity
  8
0
  6
Continuous
 62
     7
370
    15
100
AcDbCircle
 10
972.6258785989
 20
1005.4346189065
 30
0.0
 40
1.000000000000068
100
AcDbArc
 50
25.0
 51
115.0
  0
LINE
  5
14F
330
1F
100
AcDbEntity
  8
0
  6
Continuous
 62
     7
370
    15
100
AcDbLine
 10
968.578029189
 20
1004.6504536466
 30
0.0
 11
972.2032603371
 21
1006.3409266935
 31
0.0
  0
LINE
  5
150
330
1F
100
AcDbEntity
  8
0
  6
Continuous
 62
     7
370
    15
100
AcDbLine
 10
973.5321863859
 20
1005.8572371682
 30
0.0
 11
988.112516416
 21
974.5896185155
 31
0.0
  0
LINE
  5
151
330
1F
100
AcDbEntity
  8
0
  6
Continuous
 62
     7
370
    15
100
AcDbLine
 10
987.6288268907
 20
973.2606924667
 30
0.0
 11
984.0035957425
 21
971.5702194197
 31
0.0
  0
ARC
  5
152
330
1F
100
AcDbEntity
  8
0
  6
Continuous
 62
     7
370
    15
100
AcDbCircle
 10
987.2062086289
 20
974.1670002537
 30
0.0
 40
1.000000000000006
100
AcDbArc
 50
295.0
 51
25.0
  0
LINE
  5
153
330
1F
100
AcDbEntity
  8
0
  6
Continuous
 62
     7
370
    15
100
AcDbLine
 10
1001.7426385444
 20
937.314641901
 30
0.0
 11
985.4536882018
 21
972.2464086385
 31
0.0
  0
LINE
  5
154
330
1F
100
AcDbEntity
  8
0
  6
Continuous
 62
     7
370
    15
100
AcDbLine
 10
1001.1352398539
 20
934.8312900631
 30
0.0
 11
1002.5853323132
 21
935.5074792819
 31
0.0
  0
SPLINE
  5
155
330
1F
100
AcDbEntity
  8
0
  6
Continuous
 62
     7
370
    15
100
AcDbSpline
210
0.0
220
0.0
230
1.0
 70
    24
 71
     3
 72
    11
 73
     7
 74
     0
 42
0.00000001
 43
0.00000001
 12
1.0
 22
0.0
 32
0.0
 13
1.0
 23
0.0
 33
0.0
 40
0.0
 40
0.0
 40
0.0
 40
0.0
 40
0.2832771686238258
 40
0.5580022489005106
 40
0.775402242853924
 40
1.0
 40
1.0
 40
1.0
 40
1.0
 10
1002.5853323132
 20
935.5074792818543
 30
0.0
 10
1002.569152866593
 20
935.5421762170737
 30
0.0
 10
1002.537282428051
 20
935.610522593086
 30
0.0
 10
1002.312052815361
 20
936.093529056204
 30
0.0
 10
1002.037171573404
 20
936.6830137818989
 30
0.0
 10
1001.841876323368
 20
937.1018257971425
 30
0.0
 10
1001.742638544375
 20
937.3146419009702
 30
0.0
  0
LINE
  5
156
330
1F
100
AcDbEntity
  8
0
  6
Continuous
 62
     7
370
    15
100
AcDbLine
 10
986.7225191036
 20
972.8380742049
 30
0.0
 11
1002.7816782982
 21
938.3990961746
 31
0.0
  0
SPLINE
  5
157
330
1F
100
AcDbEntity
  8
0
  6
Continuous
 62
     7
370
    15
100
AcDbSpline
210
0.0
220
0.0
230
1.0
 70
     8
 71
     3
 72
    11
 73
     7
 74
     0
 42
0.00000001
 43
0.00000001
 12
1.0
 22
0.0
 32
0.0
 13
1.0
 23
0.0
 33
0.0
 40
0.0
 40
0.0
 40
0.0
 40
0.0
 40
0.2514201137491295
 40
0.5021380165204706
 40
0.7627995894819207
 40
1.0
 40
1.0
 40
1.0
 40
1.0
 10
1002.78167829823
 20
938.3990961745567
 30
0.0
 10
1002.87164333566
 20
938.1628371325912
 30
0.0
 10
1003.051322140102
 20
937.69097891509
 30
0.0
 10
1003.084379985928
 20
936.916694692382
 30
0.0
 10
1002.945778763084
 20
936.164249061382
 30
0.0
 10
1002.701646311277
 20
935.7194151155902
 30
0.0
 10
1002.5853323132
 20
935.5074792818543
 30
0.0
  0
SPLINE
  5
158
330
1F
100
AcDbEntity
  8
0
  6
Continuous
 62
     7
370
    15
100
AcDbSpline
210
0.0
220
0.0
230
1.0
 70
    24
 71
     3
 72
    13
 73
     9
 74
     0
 42
0.00000001
 43
0.00000001
 12
1.0
 22
0.0
 32
0.0
 13
1.0
 23
0.0
 33
0.0
 40
0.0
 40
0.0
 40
0.0
 40
0.0
 40
0.1275872441294505
 40
0.2546759233236668
 40
0.5000487292309107
 40
0.7453982611490053
 40
0.872539756542471
 40
0.9999999999999999
 40
0.9999999999999999
 40
0.9999999999999999
 40
0.9999999999999999
 10
1001.742638544375
 20
937.3146419009702
 30
0.0
 10
1001.798919252832
 20
937.193947532193
 30
0.0
 10
1001.911260745035
 20
936.9530304247029
 30
0.0
 10
1002.122461615112
 20
936.5001086972055
 30
0.0
 10
1002.353804278019
 20
936.0039927555921
 30
0.0
 10
1002.508378080515
 20
935.6725081664113
 30
0.0
 10
1002.576107026062
 20
935.5272629739648
 30
0.0
 10
1002.582254651985
 20
935.514079347628
 30
0.0
 10
1002.5853323132
 20
935.5074792818543
 30
0.0
  0
LINE
  5
159
330
1F
100
AcDbEntity
  8
0
  6
Continuous
 62
     7
370
    15
100
AcDbLine
 10
912.3760787304
 20
868.2697044335
 30
0.0
 11
977.2766568346
 21
868.2697044335
 31
0.0
  0
LINE
  5
15A
330
1F
100
AcDbEntity
  8
0
  6
Continuous
 62
     7
370
    15
100
AcDbLine
 10
977.2766568346
 20
868.1947044335
 30
0.0
 11
977.2766568346
 21
868.2697044335
 31
0.0
  0
LINE
  5
15B
330
1F
100
AcDbEntity
  8
0
  6
Continuous
 62
     7
370
    15
100
AcDbLine
 10
912.3760787304
 20
868.1947044335
 30
0.0
 11
977.2766568346
 21
868.1947044335
 31
0.0
  0
LINE
  5
15C
330
1F
100
AcDbEntity
  8
0
  6
Continuous
 62
     7
370
    15
100
AcDbLine
 10
913.2766568346
 20
868.2697044335
 30
0.0
 11
913.2766568346
 21
868.4697044335
 31
0.0
  0
LINE
  5
15D
330
1F
100
AcDbEntity
  8
0
  6
Continuous
 62
     7
370
    15
100
AcDbLine
 10
967.2766568346
 20
868.2697044335
 30
0.0
 11
967.2766568346
 21
868.4697044335
 31
0.0
  0
ARC
  5
15E
330
1F
100
AcDbEntity
  8
0
  6
Continuous
 62
     7
370
    15
100
AcDbCircle
 10
115.7814519002
 20
1280.1697044335
 30
0.0
 40
2.300000000000017
100
AcDbArc
 50
180.0
 51
217.9821134655
  0
ARC
  5
15F
330
1F
100
AcDbEntity
  8
0
  6
Continuous
 62
     7
370
    15
100
AcDbCircle
 10
115.7814519002
 20
1310.5697044335
 30
0.0
 40
2.299999999999969
100
AcDbArc
 50
142.0178865346
 51
180.0
  0
LINE
  5
160
330
1F
100
AcDbEntity
  8
0
  6
Continuous
 62
     7
370
    15
100
AcDbLine
 10
113.4814519002
 20
1343.3697044335
 30
0.0
 11
113.4814519002
 21
1240.7697044335
 31
0.0
  0
LINE
  5
161
330
1F
100
AcDbEntity
  8
0
  6
Continuous
 62
     7
370
    15
100
AcDbLine
 10
112.6814519002
 20
1343.3697044335
 30
0.0
 11
112.6814519002
 21
1240.7697044335
 31
0.0
  0
LINE
  5
162
330
1F
100
AcDbEntity
  8
0
  6
Continuous
 62
     7
370
    15
100
AcDbLine
 10
112.6814519002
 20
1345.3697044335
 30
0.0
 11
113.4814519002
 21
1345.3697044335
 31
0.0
  0
LINE
  5
163
330
1F
100
AcDbEntity
  8
0
  6
Continuous
 62
     7
370
    15
100
AcDbLine
 10
112.6814519002
 20
1343.3697044335
 30
0.0
 11
112.6814519002
 21
1345.3697044335
 31
0.0
  0
LINE
  5
164
330
1F
100
AcDbEntity
  8
0
  6
Continuous
 62
     7
370
    15
100
AcDbLine
 10
113.4814519002
 20
1345.3697044335
 30
0.0
 11
113.4814519002
 21
1343.3697044335
 31
0.0
  0
LINE
  5
165
330
1F
100
AcDbEntity
  8
0
  6
Continuous
 62
     7
370
    15
100
AcDbLine
 10
113.4814519002
 20
1238.7697044335
 30
0.0
 11
112.6814519002
 21
1238.7697044335
 31
0.0
  0
LINE
  5
166
330
1F
100
AcDbEntity
  8
0
  6
Continuous
 62
     7
370
    15
100
AcDbLine
 10
112.6814519002
 20
1238.7697044335
 30
0.0
 11
112.6814519002
 21
1240.7697044335
 31
0.0
  0
LINE
  5
167
330
1F
100
AcDbEntity
  8
0
  6
Continuous
 62
     7
370
    15
100
AcDbLine
 10
113.4814519002
 20
1240.7697044335
 30
0.0
 11
113.4814519002
 21
1238.7697044335
 31
0.0
  0
LINE
  5
168
330
1F
100
AcDbEntity
  8
0
  6
Continuous
 62
     7
370
    15
100
AcDbLine
 10
123.2349714209
 20
1137.4697044335
 30
0.0
 11
123.2349714209
 21
1136.8082666057
 31
0.0
  0
LINE
  5
169
330
1F
100
AcDbEntity
  8
0
  6
Continuous
 62
     7
370
    15
100
AcDbLine
 10
122.4349714209
 20
1136.4697044335
 30
0.0
 11
122.4349714209
 21
1137.4697044335
 31
0.0
  0
LINE
  5
16A
330
1F
100
AcDbEntity
  8
0
  6
Continuous
 62
     7
370
    15
100
AcDbLine
 10
123.2349714209
 20
1235.4697044335
 30
0.0
 11
123.2349714209
 21
1137.4697044335
 31
0.0
  0
LINE
  5
16B
330
1F
100
AcDbEntity
  8
0
  6
Continuous
 62
     7
370
    15
100
AcDbLine
 10
122.4349714209
 20
1235.4697044335
 30
0.0
 11
122.4349714209
 21
1137.4697044335
 31
0.0
  0
LINE
  5
16C
330
1F
100
AcDbEntity
  8
0
  6
Continuous
 62
     7
370
    15
100
AcDbLine
 10
123.2349714209
 20
1236.1311422613
 30
0.0
 11
123.2349714209
 21
1235.4697044335
 31
0.0
  0
LINE
  5
16D
330
1F
100
AcDbEntity
  8
0
  6
Continuous
 62
     7
370
    15
100
AcDbLine
 10
122.4349714209
 20
1235.4697044335
 30
0.0
 11
122.4349714209
 21
1236.4697044335
 31
0.0
  0
LINE
  5
16E
330
1F
100
AcDbEntity
  8
0
  6
Continuous
 62
     7
370
    15
100
AcDbLine
 10
123.2349714209
 20
1236.4697044335
 30
0.0
 11
123.2349714209
 21
1236.1311422613
 31
0.0
  0
LINE
  5
16F
330
1F
100
AcDbEntity
  8
0
  6
Continuous
 62
     7
370
    15
100
AcDbLine
 10
123.2349714209
 20
1136.8082666057
 30
0.0
 11
123.2349714209
 21
1136.4697044335
 31
0.0
  0
LINE
  5
170
330
1F
100
AcDbEntity
  8
0
  6
Continuous
 62
     7
370
    15
100
AcDbLine
 10
167.2349714209
 20
1236.4697044335
 30
0.0
 11
167.2349714209
 21
1136.4697044335
 31
0.0
  0
LINE
  5
171
330
1F
100
AcDbEntity
  8
0
  6
Continuous
 62
     7
370
    15
100
AcDbLine
 10
116.2814518986
 20
1347.7697044335
 30
0.0
 11
151.2814518986
 21
1347.7697044335
 31
0.0
  0
LINE
  5
172
330
1F
100
AcDbEntity
  8
0
  6
Continuous
 62
     7
370
    15
100
AcDbLine
 10
151.2814518986
 20
1347.7697044335
 30
0.0
 11
151.2814518986
 21
1347.6697044335
 31
0.0
  0
LINE
  5
173
330
1F
100
AcDbEntity
  8
0
  6
Continuous
 62
     7
370
    15
100
AcDbLine
 10
116.2814518986
 20
1347.7697044335
 30
0.0
 11
116.2814518986
 21
1347.6697044335
 31
0.0
  0
LINE
  5
174
330
1F
100
AcDbEntity
  8
0
  6
Continuous
 62
     7
370
    15
100
AcDbLine
 10
116.2814518986
 20
1347.6697044335
 30
0.0
 11
151.2814518986
 21
1347.6697044335
 31
0.0
  0
LINE
  5
175
330
1F
100
AcDbEntity
  8
0
  6
Continuous
 62
     7
370
    15
100
AcDbLine
 10
147.2814518986
 20
1347.8697044335
 30
0.0
 11
147.2814518986
 21
1347.7697044335
 31
0.0
  0
LINE
  5
176
330
1F
100
AcDbEntity
  8
0
  6
Continuous
 62
     7
370
    15
100
AcDbLine
 10
145.7814518986
 20
1347.8697044335
 30
0.0
 11
147.2814518986
 21
1347.8697044335
 31
0.0
  0
LINE
  5
177
330
1F
100
AcDbEntity
  8
0
  6
Continuous
 62
     7
370
    15
100
AcDbLine
 10
121.0686389775
 20
1347.8697044335
 30
0.0
 11
145.7814518986
 21
1347.8697044335
 31
0.0
  0
LINE
  5
178
330
1F
100
AcDbEntity
  8
0
  6
Continuous
 62
     7
370
    15
100
AcDbLine
 10
120.5686389775
 20
1347.8697044335
 30
0.0
 11
121.0686389775
 21
1347.8697044335
 31
0.0
  0
LINE
  5
179
330
1F
100
AcDbEntity
  8
0
  6
Continuous
 62
     7
370
    15
100
AcDbLine
 10
216.2570130939
 20
1346.8506733874
 30
0.0
 11
116.2570130939
 21
1346.8506733874
 31
0.0
  0
ARC
  5
17A
330
1F
100
AcDbEntity
  8
0
  6
Continuous
 62
     7
370
    15
100
AcDbCircle
 10
215.5814519002
 20
1334.8697044335
 30
0.0
 40
11.99999999999994
100
AcDbArc
 50
328.717990258
 51
86.7727266533
  0
LINE
  5
17B
330
1F
100
AcDbEntity
  8
0
  6
Continuous
 62
     7
370
    15
100
AcDbLine
 10
171.0062901699
 20
1237.9722551278
 30
0.0
 11
225.8369148373
 21
1328.6386948887
 31
0.0
  0
ARC
  5
17C
330
1F
100
AcDbEntity
  8
0
  6
Continuous
 62
     7
370
    15
100
AcDbCircle
 10
169.7227489656
 20
1238.7484780191
 30
0.0
 40
1.500000000000035
100
AcDbArc
 50
270.0
 51
328.8365047595
  0
LINE
  5
17D
330
1F
100
AcDbEntity
  8
0
  6
Continuous
 62
     7
370
    15
100
AcDbLine
 10
116.2685852032
 20
1237.2484780191
 30
0.0
 11
169.7227489656
 21
1237.2484780191
 31
0.0
  0
ARC
  5
17E
330
1F
100
AcDbEntity
  8
0
  6
Continuous
 62
     7
370
    15
100
AcDbCircle
 10
116.2685852032
 20
1238.7484780191
 30
0.0
 40
1.499999999924967
100
AcDbArc
 50
180.0000000001
 51
270.0
  0
LINE
  5
17F
330
1F
100
AcDbEntity
  8
0
  6
Continuous
 62
     7
370
    15
100
AcDbLine
 10
114.7685852033
 20
1249.048478019
 30
0.0
 11
114.7685852033
 21
1238.748478019
 31
0.0
  0
LINE
  5
180
330
1F
100
AcDbEntity
  8
0
  6
Continuous
 62
     7
370
    15
100
AcDbLine
 10
113.9685852032
 20
1249.048478019
 30
0.0
 11
114.7685852033
 21
1249.048478019
 31
0.0
  0
LINE
  5
181
330
1F
100
AcDbEntity
  8
0
  6
Continuous
 62
     7
370
    15
100
AcDbLine
 10
113.9685852032
 20
1335.048478019
 30
0.0
 11
113.9685852032
 21
1249.048478019
 31
0.0
  0
LINE
  5
182
330
1F
100
AcDbEntity
  8
0
  6
Continuous
 62
     7
370
    15
100
AcDbLine
 10
114.7685852032
 20
1335.048478019
 30
0.0
 11
113.9685852032
 21
1335.048478019
 31
0.0
  0
LINE
  5
183
330
1F
100
AcDbEntity
  8
0
  6
Continuous
 62
     7
370
    15
100
AcDbLine
 10
114.7570130939
 20
1345.2917387096
 30
0.0
 11
114.7685852032
 21
1335.048478019
 31
0.0
  0
ARC
  5
184
330
1F
100
AcDbEntity
  8
0
  6
Continuous
 62
     7
370
    15
100
AcDbCircle
 10
116.2689395889
 20
1345.3380837703
 30
0.0
 40
1.512636635472334
100
AcDbArc
 50
90.4517574763
 51
181.7557369266
  0
LINE
  5
185
330
1F
100
AcDbEntity
  8
0
  6
Continuous
 62
     7
370
    15
100
AcDbLine
 10
216.2570130939
 20
1346.8506733874
 30
0.0
 11
215.5814519002
 21
1346.8697044335
 31
0.0
  0
ARC
  5
186
330
1F
100
AcDbEntity
  8
0
  6
Continuous
 62
     7
370
    15
100
AcDbCircle
 10
215.5814519002
 20
1334.8697044335
 30
0.0
 40
12.79999999999995
100
AcDbArc
 50
328.8365047595
 51
90.0
  0
LINE
  5
187
330
1F
100
AcDbEntity
  8
0
  6
Continuous
 62
     7
370
    15
100
AcDbLine
 10
171.7037121758
 20
1237.5794960002
 30
0.0
 11
226.5343368432
 21
1328.245935761
 31
0.0
  0
LINE
  5
188
330
1F
100
AcDbEntity
  8
0
  6
Continuous
 62
     7
370
    15
100
AcDbLine
 10
171.0191568669
 20
1237.9934815422
 30
0.0
 11
225.8497815343
 21
1328.6599213031
 31
0.0
  0
LINE
  5
189
330
1F
100
AcDbEntity
  8
0
  6
Continuous
 62
     7
370
    15
100
AcDbLine
 10
215.5814519002
 20
1347.6697044335
 30
0.0
 11
116.2814519002
 21
1347.6697044335
 31
0.0
  0
LINE
  5
18A
330
1F
100
AcDbEntity
  8
0
  6
Continuous
 62
     7
370
    15
100
AcDbLine
 10
215.5814519002
 20
1346.8697044335
 30
0.0
 11
116.2814519002
 21
1346.8697044335
 31
0.0
  0
ARC
  5
18B
330
1F
100
AcDbEntity
  8
0
  6
Continuous
 62
     7
370
    15
100
AcDbCircle
 10
169.7356156626
 20
1238.7697044335
 30
0.0
 40
2.300000000000182
100
AcDbArc
 50
270.0
 51
328.8365047595
  0
LINE
  5
18C
330
1F
100
AcDbEntity
  8
0
  6
Continuous
 62
     7
370
    15
100
AcDbLine
 10
116.2814519002
 20
1236.4697044335
 30
0.0
 11
169.7356156626
 21
1236.4697044335
 31
0.0
  0
LINE
  5
18D
330
1F
100
AcDbEntity
  8
0
  6
Continuous
 62
     7
370
    15
100
AcDbLine
 10
113.9814519002
 20
1248.0697044335
 30
0.0
 11
113.9814519002
 21
1238.7697044335
 31
0.0
  0
ARC
  5
18E
330
1F
100
AcDbEntity
  8
0
  6
Continuous
 62
     7
370
    15
100
AcDbCircle
 10
116.2814519002
 20
1238.7697044335
 30
0.0
 40
2.300000000000182
100
AcDbArc
 50
180.0
 51
270.0
  0
LINE
  5
18F
330
1F
100
AcDbEntity
  8
0
  6
Continuous
 62
     7
370
    15
100
AcDbLine
 10
114.7685612231
 20
1335.0697044335
 30
0.0
 11
113.9814519002
 21
1335.0697044335
 31
0.0
  0
LINE
  5
190
330
1F
100
AcDbEntity
  8
0
  6
Continuous
 62
     7
370
    15
100
AcDbLine
 10
113.9814519002
 20
1335.0697044335
 30
0.0
 11
113.9814519002
 21
1336.0697044335
 31
0.0
  0
LINE
  5
191
330
1F
100
AcDbEntity
  8
0
  6
Continuous
 62
     7
370
    15
100
AcDbLine
 10
113.9814519002
 20
1345.3697044335
 30
0.0
 11
113.9814519002
 21
1336.0697044335
 31
0.0
  0
LINE
  5
192
330
1F
100
AcDbEntity
  8
0
  6
Continuous
 62
     7
370
    15
100
AcDbLine
 10
113.9814519002
 20
1248.0697044335
 30
0.0
 11
113.9814519002
 21
1249.048478019
 31
0.0
  0
ARC
  5
193
330
1F
100
AcDbEntity
  8
0
  6
Continuous
 62
     7
370
    15
100
AcDbCircle
 10
116.2814519002
 20
1345.3697044335
 30
0.0
 40
2.300000000000026
100
AcDbArc
 50
90.0
 51
180.0
  0
ARC
  5
194
330
1F
100
AcDbEntity
  8
0
  6
Continuous
 62
     7
370
    15
100
AcDbCircle
 10
116.2814519002
 20
1345.3697044335
 30
0.0
 40
1.500000000000005
100
AcDbArc
 50
90.0
 51
136.3814284678
  0
CIRCLE
  5
195
330
1F
100
AcDbEntity
  8
0
  6
Continuous
 62
     7
370
    15
100
AcDbCircle
 10
952.834971421
 20
1096.4697044335
 30
0.0
 40
2.524999999999966
  0
CIRCLE
  5
196
330
1F
100
AcDbEntity
  8
0
  6
Continuous
 62
     7
370
    15
100
AcDbCircle
 10
952.834971421
 20
1096.4697044335
 30
0.0
 40
2.099999999999716
  0
LINE
  5
197
330
1F
100
AcDbEntity
  8
0
  6
Continuous
 62
     7
370
    15
100
AcDbLine
 10
963.6126228442
 20
1057.3668694452
 30
0.0
 11
947.6143235152
 21
1049.9067399506
 31
0.0
  0
SPLINE
  5
198
330
1F
100
AcDbEntity
  8
0
  6
Continuous
 62
     7
370
    15
100
AcDbSpline
210
0.0
220
0.0
230
1.0
 70
     8
 71
     3
 72
    11
 73
     7
 74
     0
 42
0.00000001
 43
0.00000001
 12
1.0
 22
0.0
 32
0.0
 13
1.0
 23
0.0
 33
0.0
 40
0.0
 40
0.0
 40
0.0
 40
0.0
 40
0.2889759275645162
 40
0.5779517763250717
 40
0.8674414070450556
 40
1.0
 40
1.0
 40
1.0
 40
1.0
 10
947.6143235151904
 20
1049.906739950647
 30
0.0
 10
947.310795605635
 20
1049.816464566332
 30
0.0
 10
946.7037398692964
 20
1049.635913822319
 30
0.0
 10
945.5552218918646
 20
1049.87530018699
 30
0.0
 10
944.5206640941642
 20
1050.267080465814
 30
0.0
 10
943.8937156716723
 20
1050.533926455264
 30
0.0
 10
943.6968012053176
 20
1050.617738510174
 30
0.0
  0
SPLINE
  5
199
330
1F
100
AcDbEntity
  8
0
  6
Continuous
 62
     7
370
    15
100
AcDbSpline
210
0.0
220
0.0
230
1.0
 70
     8
 71
     3
 72
    11
 73
     7
 74
     0
 42
0.00000001
 43
0.00000001
 12
1.0
 22
0.0
 32
0.0
 13
1.0
 23
0.0
 33
0.0
 40
0.0
 40
0.0
 40
0.0
 40
0.0
 40
0.288807707719401
 40
0.5776153362197848
 40
0.8669345414323609
 40
1.0
 40
1.0
 40
1.0
 40
1.0
 10
943.696801205318
 20
1050.617738510174
 30
0.0
 10
944.1444992300958
 20
1050.481529755318
 30
0.0
 10
945.0398951568492
 20
1050.209112282967
 30
0.0
 10
946.1870567459098
 20
1049.709102955852
 30
0.0
 10
946.8619442946415
 20
1049.172852225423
 30
0.0
 10
947.083298379091
 20
1048.773804089371
 30
0.0
 10
947.153032404208
 20
1048.648090426524
 30
0.0
  0
LINE
  5
19A
330
1F
100
AcDbEntity
  8
0
  6
Continuous
 62
     7
370
    15
100
AcDbLine
 10
947.1530324042
 20
1048.6480904265
 30
0.0
 11
1003.553971109
 21
927.6958870509
 31
0.0
  0
SPLINE
  5
19B
330
1F
100
AcDbEntity
  8
0
  6
Continuous
 62
     7
370
    15
100
AcDbSpline
210
0.0
220
0.0
230
1.0
 70
     8
 71
     3
 72
    12
 73
     8
 74
     0
 42
0.00000001
 43
0.00000001
 12
1.0
 22
0.0
 32
0.0
 13
1.0
 23
0.0
 33
0.0
 40
0.0
 40
0.0
 40
0.0
 40
0.0
 40
0.2096821001528649
 40
0.4420453733186019
 40
0.67443329666813
 40
0.9068208701180617
 40
1.0
 40
1.0
 40
1.0
 40
1.0
 10
107.5877490109245
 20
871.5697044334969
 30
0.0
 10
107.3354180529491
 20
871.4654192255693
 30
0.0
 10
106.803461665462
 20
871.2455683482825
 30
0.0
 10
106.082080235647
 20
870.9096002183995
 30
0.0
 10
105.5387213016607
 20
870.5626949499828
 30
0.0
 10
105.3100994615173
 20
870.28431828775
 30
0.0
 10
105.2927224228931
 20
870.1229578265284
 30
0.0
 10
105.2877490109245
 20
870.0767755013088
 30
0.0
  0
SPLINE
  5
19C
330
1F
100
AcDbEntity
  8
0
  6
Continuous
 62
     7
370
    15
100
AcDbSpline
210
0.0
220
0.0
230
1.0
 70
     8
 71
     3
 72
    11
 73
     7
 74
     0
 42
0.00000001
 43
0.00000001
 12
1.0
 22
0.0
 32
0.0
 13
1.0
 23
0.0
 33
0.0
 40
0.0
 40
0.0
 40
0.0
 40
0.0
 40
0.254321158472143
 40
0.5088664984542307
 40
0.7634130007197321
 40
1.0
 40
1.0
 40
1.0
 40
1.0
 10
107.5877490109245
 20
871.5697044334969
 30
0.0
 10
107.3877738207852
 20
871.4431233257117
 30
0.0
 10
106.9876471644141
 20
871.189849530184
 30
0.0
 10
106.4860234103185
 20
870.8099048606983
 30
0.0
 10
106.1499581634597
 20
870.4386797290275
 30
0.0
 10
106.1079736393489
 20
870.1944330843581
 30
0.0
 10
106.0877490109244
 20
870.0767755013087
 30
0.0
  0
LINE
  5
19D
330
1F
100
AcDbEntity
  8
0
  6
Continuous
 62
     7
370
    15
100
AcDbLine
 10
105.2877490109
 20
870.0767755013
 30
0.0
 11
106.0877490109
 21
870.0767755013
 31
0.0
  0
SPLINE
  5
19E
330
1F
100
AcDbEntity
  8
0
  6
Continuous
 62
     7
370
    15
100
AcDbSpline
210
0.0
220
0.0
230
1.0
 70
     8
 71
     3
 72
    12
 73
     8
 74
     0
 42
0.00000001
 43
0.00000001
 12
1.0
 22
0.0
 32
0.0
 13
1.0
 23
0.0
 33
0.0
 40
0.0
 40
0.0
 40
0.0
 40
0.0
 40
0.2096821001528659
 40
0.442045373318591
 40
0.6744332966681127
 40
0.9068208701180268
 40
1.0
 40
1.0
 40
1.0
 40
1.0
 10
105.2877490109244
 20
1115.662633365685
 30
0.0
 10
105.312088981093
 20
1115.558348157758
 30
0.0
 10
105.3634017597798
 20
1115.338497280471
 30
0.0
 10
105.7843323467085
 20
1115.002529150588
 30
0.0
 10
106.436121824604
 20
1114.655623882172
 30
0.0
 10
107.0855628637065
 20
1114.377247219939
 30
0.0
 10
107.476002780813
 20
1114.215886758717
 30
0.0
 10
107.5877490109244
 20
1114.169704433497
 30
0.0
  0
LINE
  5
19F
330
1F
100
AcDbEntity
  8
0
  6
Continuous
 62
     7
370
    15
100
AcDbLine
 10
105.2877490109
 20
1115.6626333657
 30
0.0
 11
106.0877490109
 21
1115.6626333657
 31
0.0
  0
SPLINE
  5
1A0
330
1F
100
AcDbEntity
  8
0
  6
Continuous
 62
     7
370
    15
100
AcDbSpline
210
0.0
220
0.0
230
1.0
 70
     8
 71
     3
 72
    11
 73
     7
 74
     0
 42
0.00000001
 43
0.00000001
 12
1.0
 22
0.0
 32
0.0
 13
1.0
 23
0.0
 33
0.0
 40
0.0
 40
0.0
 40
0.0
 40
0.0
 40
0.2543211584721066
 40
0.5088664984542097
 40
0.7634130007196994
 40
1.0
 40
1.0
 40
1.0
 40
1.0
 10
106.0877490109244
 20
1115.662633365686
 30
0.0
 10
106.1111030729435
 20
1115.5360522579
 30
0.0
 10
106.1578317833494
 20
1115.282778462372
 30
0.0
 10
106.5167193995445
 20
1114.902833792887
 30
0.0
 10
107.015942378834
 20
1114.531608661216
 30
0.0
 10
107.4018506954293
 20
1114.287362016547
 30
0.0
 10
107.5877490109244
 20
1114.169704433497
 30
0.0
  0
SPLINE
  5
1A1
330
1F
100
AcDbEntity
  8
0
  6
Continuous
 62
     7
370
    15
100
AcDbSpline
210
0.0
220
0.0
230
1.0
 70
     8
 71
     3
 72
    12
 73
     8
 74
     0
 42
0.00000001
 43
0.00000001
 12
1.0
 22
0.0
 32
0.0
 13
1.0
 23
0.0
 33
0.0
 40
0.0
 40
0.0
 40
0.0
 40
0.0
 40
0.2096821001528799
 40
0.4420453733185745
 40
0.6744332966681301
 40
0.9068208701180551
 40
0.9999999999999999
 40
0.9999999999999999
 40
0.9999999999999999
 40
0.9999999999999999
 10
107.5877490109244
 20
1114.169704433497
 30
0.0
 10
107.483463802997
 20
1114.422035391473
 30
0.0
 10
107.2636129257102
 20
1114.95399177896
 30
0.0
 10
106.9276447958272
 20
1115.675373208775
 30
0.0
 10
106.5807395274105
 20
1116.218732142761
 30
0.0
 10
106.3023628651776
 20
1116.447353982905
 30
0.0
 10
106.141002403956
 20
1116.464731021529
 30
0.0
 10
106.0948200787363
 20
1116.469704433497
 30
0.0
  0
LINE
  5
1A2
330
1F
100
AcDbEntity
  8
0
  6
Continuous
 62
     7
370
    15
100
AcDbLine
 10
106.0948200787
 20
1116.4697044335
 30
0.0
 11
109.4849714209
 21
1116.4697044335
 31
0.0
  0
LINE
  5
1A3
330
1F
100
AcDbEntity
  8
0
  6
Continuous
 62
     7
370
    15
100
AcDbLine
 10
120.2349714209
 20
1116.4697044335
 30
0.0
 11
120.4849714198
 21
1116.4697044335
 31
0.0
  0
LINE
  5
1A4
330
1F
100
AcDbEntity
  8
0
  6
Continuous
 62
     7
370
    15
100
AcDbLine
 10
177.9849714209
 20
1116.4697044335
 30
0.0
 11
182.4849714209
 21
1116.4697044335
 31
0.0
  0
SPLINE
  5
1A5
330
1F
100
AcDbEntity
  8
0
  6
Continuous
 62
     7
370
    15
100
AcDbSpline
210
0.0
220
0.0
230
1.0
 70
     8
 71
     3
 72
    11
 73
     7
 74
     0
 42
0.00000001
 43
0.00000001
 12
1.0
 22
0.0
 32
0.0
 13
1.0
 23
0.0
 33
0.0
 40
0.0
 40
0.0
 40
0.0
 40
0.0
 40
0.2543211584720612
 40
0.5088664984541674
 40
0.7634130007196556
 40
1.0
 40
1.0
 40
1.0
 40
1.0
 10
107.5877490109244
 20
1114.169704433497
 30
0.0
 10
107.461167903139
 20
1114.369679623636
 30
0.0
 10
107.2078941076115
 20
1114.769806280008
 30
0.0
 10
106.8279494381261
 20
1115.271430034103
 30
0.0
 10
106.456724306455
 20
1115.607495280962
 30
0.0
 10
106.2124776617859
 20
1115.649479805073
 30
0.0
 10
106.0948200787363
 20
1115.669704433497
 30
0.0
  0
LINE
  5
1A6
330
1F
100
AcDbEntity
  8
0
  6
Continuous
 62
     7
370
    15
100
AcDbLine
 10
106.0948200787
 20
1116.4697044335
 30
0.0
 11
106.0948200787
 21
1115.6697044335
 31
0.0
  0
LINE
  5
1A7
330
1F
100
AcDbEntity
  8
0
  6
Continuous
 62
     7
370
    15
100
AcDbLine
 10
105.2877490109
 20
1115.6626333657
 30
0.0
 11
105.2877490109
 21
870.0767755013
 31
0.0
  0
CIRCLE
  5
1A8
330
1F
100
AcDbEntity
  8
0
  6
Continuous
 62
     7
370
    15
100
AcDbCircle
 10
182.8349714209
 20
1096.4697044335
 30
0.0
 40
6.347663105371794
  0
CIRCLE
  5
1A9
330
1F
100
AcDbEntity
  8
0
  6
Continuous
 62
     7
370
    15
100
AcDbCircle
 10
952.8349714209
 20
1096.4697044335
 30
0.0
 40
6.347663105371794
  0
CIRCLE
  5
1AA
330
1F
100
AcDbEntity
  8
0
  6
Continuous
 62
     7
370
    15
100
AcDbCircle
 10
572.8349714209
 20
1096.4697044335
 30
0.0
 40
6.347663105371794
  0
SPLINE
  5
1AB
330
1F
100
AcDbEntity
  8
0
  6
Continuous
 62
     7
370
    15
100
AcDbSpline
210
0.0
220
0.0
230
1.0
 70
     8
 71
     3
 72
    12
 73
     8
 74
     0
 42
0.00000001
 43
0.00000001
 12
1.0
 22
0.0
 32
0.0
 13
1.0
 23
0.0
 33
0.0
 40
0.0
 40
0.0
 40
0.0
 40
0.0
 40
0.2096821001528681
 40
0.4420453733186049
 40
0.674433296668129
 40
0.9068208701180608
 40
1.0
 40
1.0
 40
1.0
 40
1.0
 10
106.0948200787363
 20
869.2697044334969
 30
0.0
 10
106.1991052866639
 20
869.2940444036655
 30
0.0
 10
106.4189561639506
 20
869.3453571823522
 30
0.0
 10
106.7549242938335
 20
869.7662877692811
 30
0.0
 10
107.1018295622503
 20
870.4180772471767
 30
0.0
 10
107.380206224483
 20
871.0675182862791
 30
0.0
 10
107.5415666857048
 20
871.4579582033855
 30
0.0
 10
107.5877490109244
 20
871.5697044334969
 30
0.0
  0
LINE
  5
1AC
330
1F
100
AcDbEntity
  8
0
  6
Continuous
 62
     7
370
    15
100
AcDbLine
 10
106.0948200787
 20
869.2697044335
 30
0.0
 11
106.0948200787
 21
870.0697044335
 31
0.0
  0
SPLINE
  5
1AD
330
1F
100
AcDbEntity
  8
0
  6
Continuous
 62
     7
370
    15
100
AcDbSpline
210
0.0
220
0.0
230
1.0
 70
     8
 71
     3
 72
    11
 73
     7
 74
     0
 42
0.00000001
 43
0.00000001
 12
1.0
 22
0.0
 32
0.0
 13
1.0
 23
0.0
 33
0.0
 40
0.0
 40
0.0
 40
0.0
 40
0.0
 40
0.2543211584721358
 40
0.5088664984542378
 40
0.7634130007197196
 40
1.0
 40
1.0
 40
1.0
 40
1.0
 10
106.0948200787363
 20
870.0697044334969
 30
0.0
 10
106.2214011865218
 20
870.093058495516
 30
0.0
 10
106.4746749820494
 20
870.1397872059217
 30
0.0
 10
106.8546196515349
 20
870.4986748221171
 30
0.0
 10
107.2258447832056
 20
870.9978978014065
 30
0.0
 10
107.4700914278748
 20
871.3838061180018
 30
0.0
 10
107.5877490109244
 20
871.5697044334969
 30
0.0
  0
LINE
  5
1AE
330
1F
100
AcDbEntity
  8
0
  6
Continuous
 62
     7
370
    15
100
AcDbLine
 10
913.2766568346
 20
869.2697044335
 30
0.0
 11
106.0948200787
 21
869.2697044335
 31
0.0
  0
LINE
  5
1AF
330
1F
100
AcDbEntity
  8
0
  6
Continuous
 62
     7
370
    15
100
AcDbLine
 10
982.9431726185
 20
875.0435218161
 30
0.0
 11
1003.553971109
 21
919.2435218161
 31
0.0
  0
CIRCLE
  5
1B0
330
1F
100
AcDbEntity
  8
0
  6
Continuous
 62
     7
370
    15
100
AcDbCircle
 10
182.8349714209
 20
1096.4697044335
 30
0.0
 40
2.700000000000045
  0
CIRCLE
  5
1B1
330
1F
100
AcDbEntity
  8
0
  6
Continuous
 62
     7
370
    15
100
AcDbCircle
 10
572.8349714209
 20
1096.4697044335
 30
0.0
 40
2.700000000000045
  0
CIRCLE
  5
1B2
330
1F
100
AcDbEntity
  8
0
  6
Continuous
 62
     7
370
    15
100
AcDbCircle
 10
952.8349714209
 20
1096.4697044335
 30
0.0
 40
2.700000000000045
  0
CIRCLE
  5
1B3
330
1F
100
AcDbEntity
  8
0
  6
Continuous
 62
     7
370
    15
100
AcDbCircle
 10
182.834971421
 20
1096.4697044335
 30
0.0
 40
2.525000000000006
  0
CIRCLE
  5
1B4
330
1F
100
AcDbEntity
  8
0
  6
Continuous
 62
     7
370
    15
100
AcDbCircle
 10
182.834971421
 20
1096.4697044335
 30
0.0
 40
2.099999999999994
  0
CIRCLE
  5
1B5
330
1F
100
AcDbEntity
  8
0
  6
Continuous
 62
     7
370
    15
100
AcDbCircle
 10
572.834971421
 20
1096.4697044335
 30
0.0
 40
2.524999999999977
  0
CIRCLE
  5
1B6
330
1F
100
AcDbEntity
  8
0
  6
Continuous
 62
     7
370
    15
100
AcDbCircle
 10
572.834971421
 20
1096.4697044335
 30
0.0
 40
2.100000000000023
  0
LINE
  5
1B7
330
1F
100
AcDbEntity
  8
0
  6
Continuous
 62
     7
370
    15
100
AcDbLine
 10
155.1568473623
 20
845.0197044335
 30
0.0
 11
155.3260787304
 21
845.0197044335
 31
0.0
  0
LINE
  5
1B8
330
1F
100
AcDbEntity
  8
0
  6
Continuous
 62
     7
370
    15
100
AcDbLine
 10
136.2260787304
 20
845.0197044335
 30
0.0
 11
155.1568473623
 21
845.0197044335
 31
0.0
  0
LINE
  5
1B9
330
1F
100
AcDbEntity
  8
0
  6
Continuous
 62
     7
370
    15
100
AcDbLine
 10
134.8760787304
 20
860.0197044335
 30
0.0
 11
139.6199585815
 21
860.0197044335
 31
0.0
  0
LINE
  5
1BA
330
1F
100
AcDbEntity
  8
0
  6
Continuous
 62
     7
370
    15
100
AcDbLine
 10
155.746215025
 20
865.2197044335
 30
0.0
 11
155.9260787304
 21
865.2197044335
 31
0.0
  0
LINE
  5
1BB
330
1F
100
AcDbEntity
  8
0
  6
Continuous
 62
     7
370
    15
100
AcDbLine
 10
135.6260787304
 20
865.2197044335
 30
0.0
 11
143.32550496
 21
865.2197044335
 31
0.0
  0
LINE
  5
1BC
330
1F
100
AcDbEntity
  8
0
  6
Continuous
 62
     7
370
    15
100
AcDbLine
 10
154.2266525008
 20
865.2197044335
 30
0.0
 11
155.746215025
 21
865.2197044335
 31
0.0
  0
LINE
  5
1BD
330
1F
100
AcDbEntity
  8
0
  6
Continuous
 62
     7
370
    15
100
AcDbLine
 10
134.2151545309
 20
857.6197044335
 30
0.0
 11
134.2151545309
 21
853.7197044335
 31
0.0
  0
LINE
  5
1BE
330
1F
100
AcDbEntity
  8
0
  6
Continuous
 62
     7
370
    15
100
AcDbLine
 10
134.2151545309
 20
853.7197044335
 30
0.0
 11
140.1084327345
 21
853.7197044335
 31
0.0
  0
LINE
  5
1BF
330
1F
100
AcDbEntity
  8
0
  6
Continuous
 62
     7
370
    15
100
AcDbLine
 10
134.2151545309
 20
857.6197044335
 30
0.0
 11
139.6776756088
 21
857.6197044335
 31
0.0
  0
LINE
  5
1C0
330
1F
100
AcDbEntity
  8
0
  6
Continuous
 62
     7
370
    15
100
AcDbLine
 10
157.4599960636
 20
853.7197044335
 30
0.0
 11
157.4599960636
 21
856.6314849275
 31
0.0
  0
LINE
  5
1C1
330
1F
100
AcDbEntity
  8
0
  6
Continuous
 62
     7
370
    15
100
AcDbLine
 10
157.4437247263
 20
853.7197044335
 30
0.0
 11
157.4599960636
 21
853.7197044335
 31
0.0
  0
LINE
  5
1C2
330
1F
100
AcDbEntity
  8
0
  6
Continuous
 62
     7
370
    15
100
AcDbLine
 10
134.0921613972
 20
853.7197044335
 30
0.0
 11
134.0921613972
 21
857.6197044335
 31
0.0
  0
LINE
  5
1C3
330
1F
100
AcDbEntity
  8
0
  6
Continuous
 62
     7
370
    15
100
AcDbLine
 10
134.2151545309
 20
853.7197044335
 30
0.0
 11
134.0921613972
 21
853.7197044335
 31
0.0
  0
LINE
  5
1C4
330
1F
100
AcDbEntity
  8
0
  6
Continuous
 62
     7
370
    15
100
AcDbLine
 10
134.0921613972
 20
857.6197044335
 30
0.0
 11
134.2151545309
 21
857.6197044335
 31
0.0
  0
LINE
  5
1C5
330
1F
100
AcDbEntity
  8
0
  6
Continuous
 62
     7
370
    15
100
AcDbLine
 10
157.9274991112
 20
866.5197044335
 30
0.0
 11
157.9274991112
 21
869.2697044335
 31
0.0
  0
LINE
  5
1C6
330
1F
100
AcDbEntity
  8
0
  6
Continuous
 62
     7
370
    15
100
AcDbLine
 10
154.2266525008
 20
866.5197044335
 30
0.0
 11
157.9274991112
 21
866.5197044335
 31
0.0
  0
LINE
  5
1C7
330
1F
100
AcDbEntity
  8
0
  6
Continuous
 62
     7
370
    15
100
AcDbLine
 10
138.8233926447
 20
869.2697044335
 30
0.0
 11
138.8233926447
 21
866.5197044335
 31
0.0
  0
LINE
  5
1C8
330
1F
100
AcDbEntity
  8
0
  6
Continuous
 62
     7
370
    15
100
AcDbLine
 10
138.8233926447
 20
866.5197044335
 30
0.0
 11
143.32550496
 21
866.5197044335
 31
0.0
  0
LINE
  5
1C9
330
1F
100
AcDbEntity
  8
0
  6
Continuous
 62
     7
370
    15
100
AcDbLine
 10
137.3167583946
 20
866.5197044335
 30
0.0
 11
137.3167583946
 21
869.2697044335
 31
0.0
  0
LINE
  5
1CA
330
1F
100
AcDbEntity
  8
0
  6
Continuous
 62
     7
370
    15
100
AcDbLine
 10
138.8233926447
 20
866.5197044335
 30
0.0
 11
137.3167583946
 21
866.5197044335
 31
0.0
  0
LINE
  5
1CB
330
1F
100
AcDbEntity
  8
0
  6
Continuous
 62
     7
370
    15
100
AcDbLine
 10
133.7480401553
 20
869.2697044335
 30
0.0
 11
133.7480401553
 21
866.5197044335
 31
0.0
  0
LINE
  5
1CC
330
1F
100
AcDbEntity
  8
0
  6
Continuous
 62
     7
370
    15
100
AcDbLine
 10
133.7480401553
 20
866.5197044335
 30
0.0
 11
137.3167583946
 21
866.5197044335
 31
0.0
  0
LINE
  5
1CD
330
1F
100
AcDbEntity
  8
0
  6
Continuous
 62
     7
370
    15
100
AcDbLine
 10
133.6246583496
 20
866.5197044335
 30
0.0
 11
133.6246583496
 21
869.2697044335
 31
0.0
  0
LINE
  5
1CE
330
1F
100
AcDbEntity
  8
0
  6
Continuous
 62
     7
370
    15
100
AcDbLine
 10
133.7480401553
 20
866.5197044335
 30
0.0
 11
133.6246583496
 21
866.5197044335
 31
0.0
  0
LINE
  5
1CF
330
1F
100
AcDbEntity
  8
0
  6
Continuous
 62
     7
370
    15
100
AcDbLine
 10
156.6760787304
 20
846.5197044335
 30
0.0
 11
134.8760787304
 21
846.5197044335
 31
0.0
  0
LINE
  5
1D0
330
1F
100
AcDbEntity
  8
0
  6
Continuous
 62
     7
370
    15
100
AcDbLine
 10
122.3349714209
 20
1174.4697044335
 30
0.0
 11
122.4349714209
 21
1174.4697044335
 31
0.0
  0
LINE
  5
1D1
330
1F
100
AcDbEntity
  8
0
  6
Continuous
 62
     7
370
    15
100
AcDbLine
 10
122.3349714209
 20
1198.4697044335
 30
0.0
 11
122.4349714209
 21
1198.4697044335
 31
0.0
  0
LINE
  5
1D2
330
1F
100
AcDbEntity
  8
0
  6
Continuous
 62
     7
370
    15
100
AcDbLine
 10
122.3349714209
 20
1174.4697044335
 30
0.0
 11
122.3349714209
 21
1198.4697044335
 31
0.0
  0
LINE
  5
1D3
330
1F
100
AcDbEntity
  8
0
  6
Continuous
 62
     7
370
    15
100
AcDbLine
 10
122.2349714209
 20
1176.23292195
 30
0.0
 11
122.3349714209
 21
1176.23292195
 31
0.0
  0
LINE
  5
1D4
330
1F
100
AcDbEntity
  8
0
  6
Continuous
 62
     7
370
    15
100
AcDbLine
 10
122.2349714209
 20
1176.23292195
 30
0.0
 11
122.2349714209
 21
1176.98292195
 31
0.0
  0
LINE
  5
1D5
330
1F
100
AcDbEntity
  8
0
  6
Continuous
 62
     7
370
    15
100
AcDbLine
 10
122.2349714209
 20
1176.98292195
 30
0.0
 11
122.2349714209
 21
1196.48292195
 31
0.0
  0
LINE
  5
1D6
330
1F
100
AcDbEntity
  8
0
  6
Continuous
 62
     7
370
    15
100
AcDbLine
 10
122.2349714209
 20
1196.48292195
 30
0.0
 11
122.2349714209
 21
1196.73292195
 31
0.0
  0
LINE
  5
1D7
330
1F
100
AcDbEntity
  8
0
  6
Continuous
 62
     7
370
    15
100
AcDbLine
 10
948.4886379696
 20
1047.9689123037
 30
0.0
 11
948.3980071909
 21
1047.9266504776
 31
0.0
  0
LINE
  5
1D8
330
1F
100
AcDbEntity
  8
0
  6
Continuous
 62
     7
370
    15
100
AcDbLine
 10
948.4886379696
 20
1047.9689123037
 30
0.0
 11
958.6314762513
 21
1026.2175254149
 31
0.0
  0
LINE
  5
1D9
330
1F
100
AcDbEntity
  8
0
  6
Continuous
 62
     7
370
    15
100
AcDbLine
 10
958.6314762513
 20
1026.2175254149
 30
0.0
 11
958.5408454726
 21
1026.1752635887
 31
0.0
  0
LINE
  5
1DA
330
1F
100
AcDbEntity
  8
0
  6
Continuous
 62
     7
370
    15
100
AcDbLine
 10
957.9769391081
 20
1027.8578050065
 30
0.0
 11
957.8863083294
 21
1027.8155431803
 31
0.0
  0
LINE
  5
1DB
330
1F
100
AcDbEntity
  8
0
  6
Continuous
 62
     7
370
    15
100
AcDbLine
 10
957.6599754118
 20
1028.5375358468
 30
0.0
 11
957.9769391081
 21
1027.8578050065
 31
0.0
  0
LINE
  5
1DC
330
1F
100
AcDbEntity
  8
0
  6
Continuous
 62
     7
370
    15
100
AcDbLine
 10
949.4189193079
 20
1046.210537694
 30
0.0
 11
957.6599754118
 21
1028.5375358468
 31
0.0
  0
LINE
  5
1DD
330
1F
100
AcDbEntity
  8
0
  6
Continuous
 62
     7
370
    15
100
AcDbLine
 10
949.3132647425
 20
1046.4371146407
 30
0.0
 11
949.4189193079
 21
1046.210537694
 31
0.0
  0
LINE
  5
1DE
330
1F
100
AcDbEntity
  8
0
  6
Continuous
 62
     7
370
    15
100
AcDbLine
 10
112.5814519002
 20
1330.6256019487
 30
0.0
 11
112.6814519002
 21
1330.6256019487
 31
0.0
  0
LINE
  5
1DF
330
1F
100
AcDbEntity
  8
0
  6
Continuous
 62
     7
370
    15
100
AcDbLine
 10
112.5814519002
 20
1306.6256019487
 30
0.0
 11
112.6814519002
 21
1306.6256019487
 31
0.0
  0
LINE
  5
1E0
330
1F
100
AcDbEntity
  8
0
  6
Continuous
 62
     7
370
    15
100
AcDbLine
 10
112.5814519002
 20
1306.6256019487
 30
0.0
 11
112.5814519002
 21
1330.6256019487
 31
0.0
  0
LINE
  5
1E1
330
1F
100
AcDbEntity
  8
0
  6
Continuous
 62
     7
370
    15
100
AcDbLine
 10
112.4814519002
 20
1308.3888194652
 30
0.0
 11
112.5814519002
 21
1308.3888194652
 31
0.0
  0
LINE
  5
1E2
330
1F
100
AcDbEntity
  8
0
  6
Continuous
 62
     7
370
    15
100
AcDbLine
 10
112.4814519002
 20
1308.3888194652
 30
0.0
 11
112.4814519002
 21
1309.1388194652
 31
0.0
  0
LINE
  5
1E3
330
1F
100
AcDbEntity
  8
0
  6
Continuous
 62
     7
370
    15
100
AcDbLine
 10
112.4814519002
 20
1309.1388194652
 30
0.0
 11
112.4814519002
 21
1328.6388194652
 31
0.0
  0
LINE
  5
1E4
330
1F
100
AcDbEntity
  8
0
  6
Continuous
 62
     7
370
    15
100
AcDbLine
 10
112.4814519002
 20
1328.6388194652
 30
0.0
 11
112.4814519002
 21
1328.8888194652
 31
0.0
  0
SPLINE
  5
1E5
330
1F
100
AcDbEntity
  8
0
  6
Continuous
 62
     7
370
    15
100
AcDbSpline
210
0.0
220
0.0
230
1.0
 70
     8
 71
     3
 72
    13
 73
     9
 74
     0
 42
0.00000001
 43
0.00000001
 12
1.0
 22
0.0
 32
0.0
 13
1.0
 23
0.0
 33
0.0
 40
0.0
 40
0.0
 40
0.0
 40
0.0
 40
0.1695411050600698
 40
0.338645838307646
 40
0.5184804584265648
 40
0.7277236211485144
 40
0.9924537768853592
 40
1.0
 40
1.0
 40
1.0
 40
1.0
 10
175.6450734757852
 20
377.0197044334973
 30
0.0
 10
175.6443706723898
 20
377.0443155807839
 30
0.0
 10
175.6429668745032
 20
377.0934745301823
 30
0.0
 10
175.6323289488115
 20
377.1596103235625
 30
0.0
 10
175.6163362844823
 20
377.2152819266677
 30
0.0
 10
175.5934600394019
 20
377.2580007059382
 30
0.0
 10
175.5749954402214
 20
377.2695863655544
 30
0.0
 10
175.5647030975774
 20
377.2697012494546
 30
0.0
 10
175.5644178421532
 20
377.2697044334972
 30
0.0
  0
LINE
  5
1E6
330
1F
100
AcDbEntity
  8
0
  6
Continuous
 62
     7
370
    15
100
AcDbLine
 10
175.5644178422
 20
377.2697044335
 30
0.0
 11
182.3322284801
 21
377.2697044335
 31
0.0
  0
SPLINE
  5
1E7
330
1F
100
AcDbEntity
  8
0
  6
Continuous
 62
     7
370
    15
100
AcDbSpline
210
0.0
220
0.0
230
1.0
 70
     8
 71
     3
 72
    13
 73
     9
 74
     0
 42
0.00000001
 43
0.00000001
 12
1.0
 22
0.0
 32
0.0
 13
1.0
 23
0.0
 33
0.0
 40
0.0
 40
0.0
 40
0.0
 40
0.0
 40
0.0075462231145887
 40
0.2722763788514566
 40
0.4815195415734093
 40
0.6613541616923964
 40
0.8304588949399515
 40
0.9999999999999999
 40
0.9999999999999999
 40
0.9999999999999999
 40
0.9999999999999999
 10
175.5644178421534
 20
376.0697044334972
 30
0.0
 10
175.5647030975776
 20
376.0697076175397
 30
0.0
 10
175.5749954402193
 20
376.0698225014419
 30
0.0
 10
175.5934600394028
 20
376.0814081610556
 30
0.0
 10
175.6163362844819
 20
376.1241269403271
 30
0.0
 10
175.6323289488119
 20
376.179798543432
 30
0.0
 10
175.6429668745033
 20
376.2459343368123
 30
0.0
 10
175.6443706723899
 20
376.2950932862106
 30
0.0
 10
175.6450734757852
 20
376.3197044334973
 30
0.0
  0
LINE
  5
1E8
330
1F
100
AcDbEntity
  8
0
  6
Continuous
 62
     7
370
    15
100
AcDbLine
 10
181.9869381302
 20
376.0697044335
 30
0.0
 11
175.5644178422
 21
376.0697044335
 31
0.0
  0
LINE
  5
1E9
330
1F
100
AcDbEntity
  8
0
  6
Continuous
 62
     7
370
    15
100
AcDbLine
 10
175.6450734758
 20
376.3197044335
 30
0.0
 11
175.6450734758
 21
377.0197044335
 31
0.0
  0
SPLINE
  5
1EA
330
1F
100
AcDbEntity
  8
0
  6
Continuous
 62
     7
370
    15
100
AcDbSpline
210
0.0
220
0.0
230
1.0
 70
     8
 71
     3
 72
    12
 73
     8
 74
     0
 42
0.00000001
 43
0.00000001
 12
1.0
 22
0.0
 32
0.0
 13
1.0
 23
0.0
 33
0.0
 40
0.0
 40
0.0
 40
0.0
 40
0.0
 40
0.2289440738515811
 40
0.4594214300241363
 40
0.6825355698157645
 40
0.8947175231628797
 40
1.0
 40
1.0
 40
1.0
 40
1.0
 10
170.7769513616286
 20
377.2697044334973
 30
0.0
 10
170.6551404472644
 20
377.2523699489197
 30
0.0
 10
170.4107028275074
 20
377.2175848874007
 30
0.0
 10
170.0907630661145
 20
376.9437150415883
 30
0.0
 10
169.8613165756206
 20
376.5466785071059
 30
0.0
 10
169.7585703662484
 20
376.1458025177525
 30
0.0
 10
169.7498320329934
 20
375.9009171246655
 30
0.0
 10
169.7469340914257
 20
375.8197044334975
 30
0.0
  0
LINE
  5
1EB
330
1F
100
AcDbEntity
  8
0
  6
Continuous
 62
     7
370
    15
100
AcDbLine
 10
170.7769513616
 20
377.2697044335
 30
0.0
 11
175.3576665858
 21
377.2697044335
 31
0.0
  0
LINE
  5
1EC
330
1F
100
AcDbEntity
  8
0
  6
Continuous
 62
     7
370
    15
100
AcDbLine
 10
174.5391479587
 20
370.4697044335
 30
0.0
 11
169.9584327345
 21
370.4697044335
 31
0.0
  0
LINE
  5
1ED
330
1F
100
AcDbEntity
  8
0
  6
Continuous
 62
     7
370
    15
100
AcDbLine
 10
175.0151269068
 20
370.4697044335
 30
0.0
 11
174.5391479587
 21
370.4697044335
 31
0.0
  0
LINE
  5
1EE
330
1F
100
AcDbEntity
  8
0
  6
Continuous
 62
     7
370
    15
100
AcDbLine
 10
175.3576665858
 20
377.2697044335
 30
0.0
 11
175.5644178422
 21
377.2697044335
 31
0.0
  0
LINE
  5
1EF
330
1F
100
AcDbEntity
  8
0
  6
Continuous
 62
     7
370
    15
100
AcDbLine
 10
175.5644178422
 20
376.0697044335
 30
0.0
 11
175.3576665858
 21
376.0697044335
 31
0.0
  0
LINE
  5
1F0
330
1F
100
AcDbEntity
  8
0
  6
Continuous
 62
     7
370
    15
100
AcDbLine
 10
169.7469340914
 20
375.8197044335
 30
0.0
 11
169.7084327345
 21
375.8197044335
 31
0.0
  0
LINE
  5
1F1
330
1F
100
AcDbEntity
  8
0
  6
Continuous
 62
     7
370
    15
100
AcDbLine
 10
169.9260787304
 20
377.2697044335
 30
0.0
 11
170.7769513616
 21
377.2697044335
 31
0.0
  0
ARC
  5
1F2
330
1F
100
AcDbEntity
  8
0
  6
Continuous
 62
     7
370
    15
100
AcDbCircle
 10
186.3368822946
 20
370.7032746128
 30
0.0
 40
0.2343528001291852
100
AcDbArc
 50
175.9798550465
 51
265.3161909111
  0
LINE
  5
1F3
330
1F
100
AcDbEntity
  8
0
  6
Continuous
 62
     7
370
    15
100
AcDbLine
 10
186.3177457782
 20
370.4697044335
 30
0.0
 11
184.1058667668
 21
370.4697044335
 31
0.0
  0
LINE
  5
1F4
330
1F
100
AcDbEntity
  8
0
  6
Continuous
 62
     7
370
    15
100
AcDbLine
 10
186.7937247263
 20
370.4697044335
 30
0.0
 11
186.3177457782
 21
370.4697044335
 31
0.0
  0
SPLINE
  5
1F5
330
1F
100
AcDbEntity
  8
0
  6
Continuous
 62
     7
370
    15
100
AcDbSpline
210
0.0
220
0.0
230
1.0
 70
     8
 71
     3
 72
    13
 73
     9
 74
     0
 42
0.00000001
 43
0.00000001
 12
1.0
 22
0.0
 32
0.0
 13
1.0
 23
0.0
 33
0.0
 40
0.0
 40
0.0
 40
0.0
 40
0.0
 40
0.1695411050600321
 40
0.3386458383077635
 40
0.5184804584270573
 40
0.7277236211487272
 40
0.992453776885357
 40
1.0
 40
1.0
 40
1.0
 40
1.0
 10
181.9196742736419
 20
375.8197044334975
 30
0.0
 10
181.920124264878
 20
375.8443155807842
 30
0.0
 10
181.9210230891447
 20
375.893474530183
 30
0.0
 10
181.9278222312725
 20
375.9596103235631
 30
0.0
 10
181.9380079228838
 20
376.0152819266673
 30
0.0
 10
181.952505437661
 20
376.0580007059398
 30
0.0
 10
181.9641203960949
 20
376.0695863655516
 30
0.0
 10
181.9705636212802
 20
376.0697012494551
 30
0.0
 10
181.9707421972368
 20
376.0697044334974
 30
0.0
  0
LINE
  5
1F6
330
1F
100
AcDbEntity
  8
0
  6
Continuous
 62
     7
370
    15
100
AcDbLine
 10
175.5644178422
 20
376.0697044335
 30
0.0
 11
181.9707421972
 21
376.0697044335
 31
0.0
  0
SPLINE
  5
1F7
330
1F
100
AcDbEntity
  8
0
  6
Continuous
 62
     7
370
    15
100
AcDbSpline
210
0.0
220
0.0
230
1.0
 70
     8
 71
     3
 72
    13
 73
     9
 74
     0
 42
0.00000001
 43
0.00000001
 12
1.0
 22
0.0
 32
0.0
 13
1.0
 23
0.0
 33
0.0
 40
0.0
 40
0.0
 40
0.0
 40
0.0
 40
0.0075462231144878
 40
0.2722763788514012
 40
0.4815195415730352
 40
0.6613541616925248
 40
0.8304588949399297
 40
1.0
 40
1.0
 40
1.0
 40
1.0
 10
181.9707421972368
 20
374.8697044334975
 30
0.0
 10
181.9705636212801
 20
374.8697076175399
 30
0.0
 10
181.9641203960939
 20
374.8698225014458
 30
0.0
 10
181.9525054376613
 20
374.8814081610542
 30
0.0
 10
181.9380079228837
 20
374.9241269403282
 30
0.0
 10
181.9278222312724
 20
374.9797985434321
 30
0.0
 10
181.9210230891443
 20
375.0459343368123
 30
0.0
 10
181.9201242648781
 20
375.0950932862108
 30
0.0
 10
181.919674273642
 20
375.1197044334975
 30
0.0
  0
LINE
  5
1F8
330
1F
100
AcDbEntity
  8
0
  6
Continuous
 62
     7
370
    15
100
AcDbLine
 10
181.9707421972
 20
374.8697044335
 30
0.0
 11
175.3760787304
 21
374.8697044335
 31
0.0
  0
LINE
  5
1F9
330
1F
100
AcDbEntity
  8
0
  6
Continuous
 62
     7
370
    15
100
AcDbLine
 10
181.9196742736
 20
375.8197044335
 30
0.0
 11
181.9196742736
 21
375.1197044335
 31
0.0
  0
SPLINE
  5
1FA
330
1F
100
AcDbEntity
  8
0
  6
Continuous
 62
     7
370
    15
100
AcDbSpline
210
0.0
220
0.0
230
1.0
 70
     8
 71
     3
 72
    12
 73
     8
 74
     0
 42
0.00000001
 43
0.00000001
 12
1.0
 22
0.0
 32
0.0
 13
1.0
 23
0.0
 33
0.0
 40
0.0
 40
0.0
 40
0.0
 40
0.0
 40
0.2289440738516375
 40
0.4594214300241784
 40
0.6825355698157424
 40
0.8947175231628344
 40
1.0
 40
1.0
 40
1.0
 40
1.0
 10
186.3710006773186
 20
374.8697044334972
 30
0.0
 10
186.5050926939381
 20
374.8870389180748
 30
0.0
 10
186.7741747671
 20
374.9218239795939
 30
0.0
 10
187.1267818225422
 20
375.1956938254062
 30
0.0
 10
187.3797913912093
 20
375.5927303598891
 30
0.0
 10
187.4931342360751
 20
375.9936063492422
 30
0.0
 10
187.5027738906553
 20
376.2384917423289
 30
0.0
 10
187.5059707423766
 20
376.3197044334972
 30
0.0
  0
LINE
  5
1FB
330
1F
100
AcDbEntity
  8
0
  6
Continuous
 62
     7
370
    15
100
AcDbLine
 10
186.3710006773
 20
374.8697044335
 30
0.0
 11
182.2009035727
 21
374.8697044335
 31
0.0
  0
LINE
  5
1FC
330
1F
100
AcDbEntity
  8
0
  6
Continuous
 62
     7
370
    15
100
AcDbLine
 10
183.1121017747
 20
381.6697044335
 30
0.0
 11
187.2821988793
 21
381.6697044335
 31
0.0
  0
LINE
  5
1FD
330
1F
100
AcDbEntity
  8
0
  6
Continuous
 62
     7
370
    15
100
AcDbLine
 10
182.5822284801
 20
381.6697044335
 30
0.0
 11
183.1121017747
 21
381.6697044335
 31
0.0
  0
LINE
  5
1FE
330
1F
100
AcDbEntity
  8
0
  6
Continuous
 62
     7
370
    15
100
AcDbLine
 10
181.9707421972
 20
376.0697044335
 30
0.0
 11
182.2009035727
 21
376.0697044335
 31
0.0
  0
LINE
  5
1FF
330
1F
100
AcDbEntity
  8
0
  6
Continuous
 62
     7
370
    15
100
AcDbLine
 10
182.2009035727
 20
374.8697044335
 30
0.0
 11
181.9707421972
 21
374.8697044335
 31
0.0
  0
LINE
  5
200
330
1F
100
AcDbEntity
  8
0
  6
Continuous
 62
     7
370
    15
100
AcDbLine
 10
187.5059707424
 20
376.3197044335
 30
0.0
 11
187.5321988793
 21
376.3197044335
 31
0.0
  0
LINE
  5
201
330
1F
100
AcDbEntity
  8
0
  6
Continuous
 62
     7
370
    15
100
AcDbLine
 10
186.8260787304
 20
374.8697044335
 30
0.0
 11
186.3710006773
 21
374.8697044335
 31
0.0
  0
SPLINE
  5
202
330
1F
100
AcDbEntity
  8
0
  6
Continuous
 62
     7
370
    15
100
AcDbSpline
210
0.0
220
0.0
230
1.0
 70
     8
 71
     3
 72
    11
 73
     7
 74
     0
 42
0.00000001
 43
0.00000001
 12
1.0
 22
0.0
 32
0.0
 13
1.0
 23
0.0
 33
0.0
 40
0.0
 40
0.0
 40
0.0
 40
0.0
 40
0.0449088511988768
 40
0.4391056468596373
 40
0.8139875175675533
 40
1.0
 40
1.0
 40
1.0
 40
1.0
 10
169.6760787304049
 20
375.1925302087973
 30
0.0
 10
169.6630985210323
 20
375.2019247159387
 30
0.0
 10
169.5361818201873
 20
375.2937814663382
 30
0.0
 10
169.3770396044547
 20
375.6027689452985
 30
0.0
 10
169.2585200853457
 20
375.9925256238623
 30
0.0
 10
169.2492582664321
 20
376.2382225944231
 30
0.0
 10
169.2461867184332
 20
376.3197044334974
 30
0.0
  0
ARC
  5
203
330
1F
100
AcDbEntity
  8
0
  6
Continuous
 62
     7
370
    15
100
AcDbCircle
 10
169.9874085634
 20
381.4309542426
 30
0.0
 40
0.2390731945685655
100
AcDbArc
 50
357.3028984186
 51
87.0213133887
  0
LINE
  5
204
330
1F
100
AcDbEntity
  8
0
  6
Continuous
 62
     7
370
    15
100
AcDbLine
 10
169.4699585815
 20
381.6697044335
 30
0.0
 11
169.9998318761
 21
381.6697044335
 31
0.0
  0
LINE
  5
205
330
1F
100
AcDbEntity
  8
0
  6
Continuous
 62
     7
370
    15
100
AcDbLine
 10
169.9998318761
 20
381.6697044335
 30
0.0
 11
172.735893473
 21
381.6697044335
 31
0.0
  0
SPLINE
  5
206
330
1F
100
AcDbEntity
  8
0
  6
Continuous
 62
     7
370
    15
100
AcDbSpline
210
0.0
220
0.0
230
1.0
 70
     8
 71
     3
 72
    13
 73
     9
 74
     0
 42
0.00000001
 43
0.00000001
 12
1.0
 22
0.0
 32
0.0
 13
1.0
 23
0.0
 33
0.0
 40
0.0
 40
0.0
 40
0.0
 40
0.0
 40
0.1695411050600339
 40
0.3386458383077671
 40
0.5184804584270627
 40
0.7277236211487349
 40
0.9924537768853569
 40
1.0
 40
1.0
 40
1.0
 40
1.0
 10
152.3196742736394
 20
857.419704433498
 30
0.0
 10
152.3201242648756
 20
857.4443155807847
 30
0.0
 10
152.3210230891422
 20
857.4934745301832
 30
0.0
 10
152.3278222312701
 20
857.5596103235637
 30
0.0
 10
152.3380079228813
 20
857.6152819266678
 30
0.0
 10
152.3525054376587
 20
857.65800070594
 30
0.0
 10
152.3641203960919
 20
857.6695863655532
 30
0.0
 10
152.3705636212777
 20
857.6697012494554
 30
0.0
 10
152.3707421972343
 20
857.6697044334979
 30
0.0
  0
LINE
  5
207
330
1F
100
AcDbEntity
  8
0
  6
Continuous
 62
     7
370
    15
100
AcDbLine
 10
145.9528372632
 20
857.6697044335
 30
0.0
 11
152.3707421972
 21
857.6697044335
 31
0.0
  0
SPLINE
  5
208
330
1F
100
AcDbEntity
  8
0
  6
Continuous
 62
     7
370
    15
100
AcDbSpline
210
0.0
220
0.0
230
1.0
 70
     8
 71
     3
 72
    13
 73
     9
 74
     0
 42
0.00000001
 43
0.00000001
 12
1.0
 22
0.0
 32
0.0
 13
1.0
 23
0.0
 33
0.0
 40
0.0
 40
0.0
 40
0.0
 40
0.0
 40
0.0075462231144878
 40
0.2722763788514027
 40
0.4815195415730379
 40
0.6613541616925365
 40
0.8304588949399214
 40
1.0
 40
1.0
 40
1.0
 40
1.0
 10
152.3707421972343
 20
856.4697044334979
 30
0.0
 10
152.3705636212776
 20
856.4697076175405
 30
0.0
 10
152.36412039609
 20
856.4698225014429
 30
0.0
 10
152.3525054376594
 20
856.4814081610563
 30
0.0
 10
152.3380079228811
 20
856.5241269403285
 30
0.0
 10
152.3278222312698
 20
856.5797985434324
 30
0.0
 10
152.3210230891419
 20
856.645934336813
 30
0.0
 10
152.3201242648756
 20
856.6950932862113
 30
0.0
 10
152.3196742736396
 20
856.719704433498
 30
0.0
  0
LINE
  5
209
330
1F
100
AcDbEntity
  8
0
  6
Continuous
 62
     7
370
    15
100
AcDbLine
 10
152.3707421972
 20
856.4697044335
 30
0.0
 11
145.6651269068
 21
856.4697044335
 31
0.0
  0
LINE
  5
20A
330
1F
100
AcDbEntity
  8
0
  6
Continuous
 62
     7
370
    15
100
AcDbLine
 10
152.3196742736
 20
857.4197044335
 30
0.0
 11
152.3196742736
 21
856.7197044335
 31
0.0
  0
SPLINE
  5
20B
330
1F
100
AcDbEntity
  8
0
  6
Continuous
 62
     7
370
    15
100
AcDbSpline
210
0.0
220
0.0
230
1.0
 70
     8
 71
     3
 72
    12
 73
     8
 74
     0
 42
0.00000001
 43
0.00000001
 12
1.0
 22
0.0
 32
0.0
 13
1.0
 23
0.0
 33
0.0
 40
0.0
 40
0.0
 40
0.0
 40
0.0
 40
0.2289440738516378
 40
0.4594214300241789
 40
0.6825355698157399
 40
0.8947175231628351
 40
1.0
 40
1.0
 40
1.0
 40
1.0
 10
156.7710006773162
 20
856.4697044334978
 30
0.0
 10
156.9050926939356
 20
856.4870389180754
 30
0.0
 10
157.1741747670976
 20
856.5218239795945
 30
0.0
 10
157.5267818225398
 20
856.7956938254068
 30
0.0
 10
157.7797913912068
 20
857.1927303598897
 30
0.0
 10
157.8931342360727
 20
857.5936063492427
 30
0.0
 10
157.9027738906529
 20
857.8384917423297
 30
0.0
 10
157.9059707423742
 20
857.9197044334978
 30
0.0
  0
LINE
  5
20C
330
1F
100
AcDbEntity
  8
0
  6
Continuous
 62
     7
370
    15
100
AcDbLine
 10
156.7710006773
 20
856.4697044335
 30
0.0
 11
152.6009035727
 21
856.4697044335
 31
0.0
  0
LINE
  5
20D
330
1F
100
AcDbEntity
  8
0
  6
Continuous
 62
     7
370
    15
100
AcDbLine
 10
153.5121017747
 20
863.2697044335
 30
0.0
 11
157.6821988793
 21
863.2697044335
 31
0.0
  0
LINE
  5
20E
330
1F
100
AcDbEntity
  8
0
  6
Continuous
 62
     7
370
    15
100
AcDbLine
 10
152.9822284801
 20
863.2697044335
 30
0.0
 11
153.5121017747
 21
863.2697044335
 31
0.0
  0
LINE
  5
20F
330
1F
100
AcDbEntity
  8
0
  6
Continuous
 62
     7
370
    15
100
AcDbLine
 10
152.3707421972
 20
857.6697044335
 30
0.0
 11
152.6009035727
 21
857.6697044335
 31
0.0
  0
LINE
  5
210
330
1F
100
AcDbEntity
  8
0
  6
Continuous
 62
     7
370
    15
100
AcDbLine
 10
152.6009035727
 20
856.4697044335
 30
0.0
 11
152.3707421972
 21
856.4697044335
 31
0.0
  0
LINE
  5
211
330
1F
100
AcDbEntity
  8
0
  6
Continuous
 62
     7
370
    15
100
AcDbLine
 10
157.9059707424
 20
857.9197044335
 30
0.0
 11
157.9321988793
 21
857.9197044335
 31
0.0
  0
LINE
  5
212
330
1F
100
AcDbEntity
  8
0
  6
Continuous
 62
     7
370
    15
100
AcDbLine
 10
157.2260787304
 20
856.4697044335
 30
0.0
 11
156.7710006773
 21
856.4697044335
 31
0.0
  0
SPLINE
  5
213
330
1F
100
AcDbEntity
  8
0
  6
Continuous
 62
     7
370
    15
100
AcDbSpline
210
0.0
220
0.0
230
1.0
 70
     8
 71
     3
 72
    11
 73
     7
 74
     0
 42
0.00000001
 43
0.00000001
 12
1.0
 22
0.0
 32
0.0
 13
1.0
 23
0.0
 33
0.0
 40
0.0
 40
0.0
 40
0.0
 40
0.0
 40
0.0796332959750547
 40
0.4594981978903351
 40
0.8207504115405633
 40
0.9999999999999999
 40
0.9999999999999999
 40
0.9999999999999999
 40
0.9999999999999999
 10
140.1084327345353
 20
856.7681950634715
 30
0.0
 10
140.0843695699753
 20
856.7851577938925
 30
0.0
 10
139.9455208558103
 20
856.8830357476338
 30
0.0
 10
139.7762755604294
 20
857.2013768246758
 30
0.0
 10
139.6586023401366
 20
857.5926754955854
 30
0.0
 10
139.6492787514721
 20
857.8382599190402
 30
0.0
 10
139.6461867184308
 20
857.9197044334977
 30
0.0
  0
ARC
  5
214
330
1F
100
AcDbEntity
  8
0
  6
Continuous
 62
     7
370
    15
100
AcDbCircle
 10
140.3874085634
 20
863.0309542426
 30
0.0
 40
0.2390731945686533
100
AcDbArc
 50
357.3028984186
 51
87.0213133887
  0
LINE
  5
215
330
1F
100
AcDbEntity
  8
0
  6
Continuous
 62
     7
370
    15
100
AcDbLine
 10
139.8699585815
 20
863.2697044335
 30
0.0
 11
140.3998318761
 21
863.2697044335
 31
0.0
  0
LINE
  5
216
330
1F
100
AcDbEntity
  8
0
  6
Continuous
 62
     7
370
    15
100
AcDbLine
 10
140.3998318761
 20
863.2697044335
 30
0.0
 11
143.135893473
 21
863.2697044335
 31
0.0
  0
SPLINE
  5
217
330
1F
100
AcDbEntity
  8
0
  6
Continuous
 62
     7
370
    15
100
AcDbSpline
210
0.0
220
0.0
230
1.0
 70
     8
 71
     3
 72
    13
 73
     9
 74
     0
 42
0.00000001
 43
0.00000001
 12
1.0
 22
0.0
 32
0.0
 13
1.0
 23
0.0
 33
0.0
 40
0.0
 40
0.0
 40
0.0
 40
0.0
 40
0.1695411050600838
 40
0.3386458383076654
 40
0.5184804584265675
 40
0.7277236211485363
 40
0.9924537768853897
 40
0.9999999999999999
 40
0.9999999999999999
 40
0.9999999999999999
 40
0.9999999999999999
 10
146.0450734757828
 20
858.6197044334978
 30
0.0
 10
146.0443706723875
 20
858.6443155807845
 30
0.0
 10
146.0429668745008
 20
858.6934745301829
 30
0.0
 10
146.0323289488089
 20
858.7596103235632
 30
0.0
 10
146.0163362844797
 20
858.8152819266679
 30
0.0
 10
145.9934600393993
 20
858.8580007059394
 30
0.0
 10
145.9749954402194
 20
858.8695863655538
 30
0.0
 10
145.964703097575
 20
858.8697012494553
 30
0.0
 10
145.9644178421507
 20
858.8697044334979
 30
0.0
  0
LINE
  5
218
330
1F
100
AcDbEntity
  8
0
  6
Continuous
 62
     7
370
    15
100
AcDbLine
 10
145.9644178422
 20
858.8697044335
 30
0.0
 11
152.7322284801
 21
858.8697044335
 31
0.0
  0
SPLINE
  5
219
330
1F
100
AcDbEntity
  8
0
  6
Continuous
 62
     7
370
    15
100
AcDbSpline
210
0.0
220
0.0
230
1.0
 70
     8
 71
     3
 72
    13
 73
     9
 74
     0
 42
0.00000001
 43
0.00000001
 12
1.0
 22
0.0
 32
0.0
 13
1.0
 23
0.0
 33
0.0
 40
0.0
 40
0.0
 40
0.0
 40
0.0
 40
0.0075462231145579
 40
0.2722763788514312
 40
0.4815195415734158
 40
0.661354161692384
 40
0.8304588949399426
 40
1.0
 40
1.0
 40
1.0
 40
1.0
 10
145.964417842151
 20
857.6697044334978
 30
0.0
 10
145.9647030975753
 20
857.6697076175403
 30
0.0
 10
145.9749954402165
 20
857.6698225014428
 30
0.0
 10
145.9934600394005
 20
857.681408161056
 30
0.0
 10
146.0163362844793
 20
857.7241269403278
 30
0.0
 10
146.0323289488095
 20
857.7797985434323
 30
0.0
 10
146.0429668745008
 20
857.8459343368128
 30
0.0
 10
146.0443706723874
 20
857.895093286211
 30
0.0
 10
146.0450734757827
 20
857.9197044334978
 30
0.0
  0
LINE
  5
21A
330
1F
100
AcDbEntity
  8
0
  6
Continuous
 62
     7
370
    15
100
AcDbLine
 10
152.3869381302
 20
857.6697044335
 30
0.0
 11
145.9644178422
 21
857.6697044335
 31
0.0
  0
LINE
  5
21B
330
1F
100
AcDbEntity
  8
0
  6
Continuous
 62
     7
370
    15
100
AcDbLine
 10
146.0450734758
 20
857.9197044335
 30
0.0
 11
146.0450734758
 21
858.6197044335
 31
0.0
  0
SPLINE
  5
21C
330
1F
100
AcDbEntity
  8
0
  6
Continuous
 62
     7
370
    15
100
AcDbSpline
210
0.0
220
0.0
230
1.0
 70
     8
 71
     3
 72
    12
 73
     8
 74
     0
 42
0.00000001
 43
0.00000001
 12
1.0
 22
0.0
 32
0.0
 13
1.0
 23
0.0
 33
0.0
 40
0.0
 40
0.0
 40
0.0
 40
0.0
 40
0.2289440738515896
 40
0.4594214300241381
 40
0.6825355698157638
 40
0.8947175231628794
 40
1.0
 40
1.0
 40
1.0
 40
1.0
 10
141.1769513616262
 20
858.8697044334979
 30
0.0
 10
141.0551404472621
 20
858.8523699489203
 30
0.0
 10
140.8107028275049
 20
858.8175848874012
 30
0.0
 10
140.4907630661122
 20
858.5437150415889
 30
0.0
 10
140.2613165756181
 20
858.1466785071057
 30
0.0
 10
140.158570366246
 20
857.7458025177531
 30
0.0
 10
140.1498320329911
 20
857.5009171246661
 30
0.0
 10
140.1469340914233
 20
857.4197044334979
 30
0.0
  0
LINE
  5
21D
330
1F
100
AcDbEntity
  8
0
  6
Continuous
 62
     7
370
    15
100
AcDbLine
 10
141.1769513616
 20
858.8697044335
 30
0.0
 11
145.7576665858
 21
858.8697044335
 31
0.0
  0
LINE
  5
21E
330
1F
100
AcDbEntity
  8
0
  6
Continuous
 62
     7
370
    15
100
AcDbLine
 10
144.9391479587
 20
852.0697044335
 30
0.0
 11
140.3584327345
 21
852.0697044335
 31
0.0
  0
LINE
  5
21F
330
1F
100
AcDbEntity
  8
0
  6
Continuous
 62
     7
370
    15
100
AcDbLine
 10
145.4151269068
 20
852.0697044335
 30
0.0
 11
144.9391479587
 21
852.0697044335
 31
0.0
  0
LINE
  5
220
330
1F
100
AcDbEntity
  8
0
  6
Continuous
 62
     7
370
    15
100
AcDbLine
 10
145.7576665858
 20
858.8697044335
 30
0.0
 11
145.9644178422
 21
858.8697044335
 31
0.0
  0
LINE
  5
221
330
1F
100
AcDbEntity
  8
0
  6
Continuous
 62
     7
370
    15
100
AcDbLine
 10
145.9644178422
 20
857.6697044335
 30
0.0
 11
145.7576665858
 21
857.6697044335
 31
0.0
  0
LINE
  5
222
330
1F
100
AcDbEntity
  8
0
  6
Continuous
 62
     7
370
    15
100
AcDbLine
 10
140.1469340914
 20
857.4197044335
 30
0.0
 11
140.1084327345
 21
857.4197044335
 31
0.0
  0
LINE
  5
223
330
1F
100
AcDbEntity
  8
0
  6
Continuous
 62
     7
370
    15
100
AcDbLine
 10
140.3260787304
 20
858.8697044335
 30
0.0
 11
141.1769513616
 21
858.8697044335
 31
0.0
  0
ARC
  5
224
330
1F
100
AcDbEntity
  8
0
  6
Continuous
 62
     7
370
    15
100
AcDbCircle
 10
156.7368822946
 20
852.3032746128
 30
0.0
 40
0.2343528001295498
100
AcDbArc
 50
175.9798550465
 51
265.316190911
  0
LINE
  5
225
330
1F
100
AcDbEntity
  8
0
  6
Continuous
 62
     7
370
    15
100
AcDbLine
 10
156.7177457782
 20
852.0697044335
 30
0.0
 11
154.5058667668
 21
852.0697044335
 31
0.0
  0
LINE
  5
226
330
1F
100
AcDbEntity
  8
0
  6
Continuous
 62
     7
370
    15
100
AcDbLine
 10
157.1937247263
 20
852.0697044335
 30
0.0
 11
156.7177457782
 21
852.0697044335
 31
0.0
  0
LINE
  5
227
330
1F
100
AcDbEntity
  8
0
  6
Continuous
 62
     7
370
    15
100
AcDbLine
 10
176.1253074958
 20
374.4231224461
 30
0.0
 11
178.990201514
 21
374.8697044335
 31
0.0
  0
SPLINE
  5
228
330
1F
100
AcDbEntity
  8
0
  6
Continuous
 62
     7
370
    15
100
AcDbSpline
210
0.0
220
0.0
230
1.0
 70
     8
 71
     3
 72
    10
 73
     6
 74
     0
 42
0.00000001
 43
0.00000001
 12
1.0
 22
0.0
 32
0.0
 13
1.0
 23
0.0
 33
0.0
 40
0.0
 40
0.0
 40
0.0
 40
0.0
 40
0.0700627427124773
 40
0.5307703520768609
 40
1.0
 40
1.0
 40
1.0
 40
1.0
 10
178.9902015140311
 20
374.8697044334973
 30
0.0
 10
179.0580822968362
 20
374.8691716160532
 30
0.0
 10
179.5723228988142
 20
374.8651351811163
 30
0.0
 10
180.5419244815739
 20
374.7676073217048
 30
0.0
 10
181.414705763531
 20
374.5386501335432
 30
0.0
 10
181.8550955322356
 20
374.423122446112
 30
0.0
  0
LINE
  5
229
330
1F
100
AcDbEntity
  8
0
  6
Continuous
 62
     7
370
    15
100
AcDbLine
 10
181.8550955322
 20
374.4231224461
 30
0.0
 11
181.8550955322
 21
370.1162864209
 31
0.0
  0
SPLINE
  5
22A
330
1F
100
AcDbEntity
  8
0
  6
Continuous
 62
     7
370
    15
100
AcDbSpline
210
0.0
220
0.0
230
1.0
 70
     8
 71
     3
 72
     9
 73
     5
 74
     0
 42
0.00000001
 43
0.00000001
 12
1.0
 22
0.0
 32
0.0
 13
1.0
 23
0.0
 33
0.0
 40
0.0
 40
0.0
 40
0.0
 40
0.0
 40
0.0702005767034296
 40
1.0
 40
1.0
 40
1.0
 40
1.0
 10
178.990201514031
 20
369.6697044334973
 30
0.0
 10
179.0581164536627
 20
369.6701505497648
 30
0.0
 10
180.0255577884908
 20
369.6765054301461
 30
0.0
 10
180.9736033323222
 20
369.9043949120412
 30
0.0
 10
181.8550955322356
 20
370.1162864208825
 30
0.0
  0
LINE
  5
22B
330
1F
100
AcDbEntity
  8
0
  6
Continuous
 62
     7
370
    15
100
AcDbLine
 10
176.1253074958
 20
370.1162864209
 30
0.0
 11
178.990201514
 21
369.6697044335
 31
0.0
  0
LINE
  5
22C
330
1F
100
AcDbEntity
  8
0
  6
Continuous
 62
     7
370
    15
100
AcDbLine
 10
176.1253074958
 20
374.4231224461
 30
0.0
 11
176.1253074958
 21
370.1162864209
 31
0.0
  0
SPLINE
  5
22D
330
1F
100
AcDbEntity
  8
0
  6
Continuous
 62
     7
370
    15
100
AcDbSpline
210
0.0
220
0.0
230
1.0
 70
     8
 71
     3
 72
     9
 73
     5
 74
     0
 42
0.00000001
 43
0.00000001
 12
1.0
 22
0.0
 32
0.0
 13
1.0
 23
0.0
 33
0.0
 40
0.0
 40
0.0
 40
0.0
 40
0.0
 40
0.5174000252722664
 40
1.0
 40
1.0
 40
1.0
 40
1.0
 10
176.1253074958266
 20
374.4231224461122
 30
0.0
 10
175.9797652882937
 20
374.4948737217917
 30
0.0
 10
175.6984699647069
 20
374.6335503205063
 30
0.0
 10
175.4061840714669
 20
374.675472933115
 30
0.0
 10
175.265126906776
 20
374.6957047849007
 30
0.0
  0
SPLINE
  5
22E
330
1F
100
AcDbEntity
  8
0
  6
Continuous
 62
     7
370
    15
100
AcDbSpline
210
0.0
220
0.0
230
1.0
 70
     8
 71
     3
 72
     9
 73
     5
 74
     0
 42
0.00000001
 43
0.00000001
 12
1.0
 22
0.0
 32
0.0
 13
1.0
 23
0.0
 33
0.0
 40
0.0
 40
0.0
 40
0.0
 40
0.0
 40
0.2575513451038085
 40
0.9999999999999999
 40
0.9999999999999999
 40
0.9999999999999999
 40
0.9999999999999999
 10
176.1253074958265
 20
370.1162864208825
 30
0.0
 10
175.9792727433002
 20
370.0488711981077
 30
0.0
 10
175.4122605521288
 20
369.7871167011638
 30
0.0
 10
174.8231691867487
 20
369.7197332133708
 30
0.0
 10
174.3857990949112
 20
369.6697044334973
 30
0.0
  0
LINE
  5
22F
330
1F
100
AcDbEntity
  8
0
  6
Continuous
 62
     7
370
    15
100
AcDbLine
 10
178.990201514
 20
369.6697044335
 30
0.0
 11
174.3857990949
 21
369.6697044335
 31
0.0
  0
SPLINE
  5
230
330
1F
100
AcDbEntity
  8
0
  6
Continuous
 62
     7
370
    15
100
AcDbSpline
210
0.0
220
0.0
230
1.0
 70
     8
 71
     3
 72
     9
 73
     5
 74
     0
 42
0.00000001
 43
0.00000001
 12
1.0
 22
0.0
 32
0.0
 13
1.0
 23
0.0
 33
0.0
 40
0.0
 40
0.0
 40
0.0
 40
0.0
 40
0.4954579634770074
 40
0.9999999999999999
 40
0.9999999999999999
 40
0.9999999999999999
 40
0.9999999999999999
 10
181.8550955322356
 20
374.423122446112
 30
0.0
 10
182.0378631039512
 20
374.5479412251633
 30
0.0
 10
182.4067492359512
 20
374.799867298115
 30
0.0
 10
182.7880824919494
 20
374.8462848349383
 30
0.0
 10
182.9804811495247
 20
374.8697044334973
 30
0.0
  0
LINE
  5
231
330
1F
100
AcDbEntity
  8
0
  6
Continuous
 62
     7
370
    15
100
AcDbLine
 10
181.8550955322
 20
370.1162864209
 30
0.0
 11
182.9804811495
 21
369.6697044335
 31
0.0
  0
LINE
  5
232
330
1F
100
AcDbEntity
  8
0
  6
Continuous
 62
     7
370
    15
100
AcDbLine
 10
182.9804811495
 20
369.6697044335
 30
0.0
 11
178.990201514
 21
369.6697044335
 31
0.0
  0
SPLINE
  5
233
330
1F
100
AcDbEntity
  8
0
  6
Continuous
 62
     7
370
    15
100
AcDbSpline
210
0.0
220
0.0
230
1.0
 70
     8
 71
     3
 72
     9
 73
     5
 74
     0
 42
0.00000001
 43
0.00000001
 12
1.0
 22
0.0
 32
0.0
 13
1.0
 23
0.0
 33
0.0
 40
0.0
 40
0.0
 40
0.0
 40
0.0
 40
0.2686336050555628
 40
1.0
 40
1.0
 40
1.0
 40
1.0
 10
174.3857990949112
 20
369.6697044334973
 30
0.0
 10
174.227629106623
 20
369.6763333860818
 30
0.0
 10
173.6388346099129
 20
369.7010099435179
 30
0.0
 10
173.0655625868361
 20
369.9408647071183
 30
0.0
 10
172.6462906939959
 20
370.1162864208825
 30
0.0
  0
LINE
  5
234
330
1F
100
AcDbEntity
  8
0
  6
Continuous
 62
     7
370
    15
100
AcDbLine
 10
172.646290694
 20
370.4697044335
 30
0.0
 11
172.646290694
 21
370.1162864209
 31
0.0
  0
LINE
  5
235
330
1F
100
AcDbEntity
  8
0
  6
Continuous
 62
     7
370
    15
100
AcDbLine
 10
183.8056145008
 20
374.6022721973
 30
0.0
 11
184.1058667668
 21
374.4231224461
 31
0.0
  0
LINE
  5
236
330
1F
100
AcDbEntity
  8
0
  6
Continuous
 62
     7
370
    15
100
AcDbLine
 10
184.1058667668
 20
374.4231224461
 30
0.0
 11
184.1058667668
 21
370.1162864209
 31
0.0
  0
SPLINE
  5
237
330
1F
100
AcDbEntity
  8
0
  6
Continuous
 62
     7
370
    15
100
AcDbSpline
210
0.0
220
0.0
230
1.0
 70
     8
 71
     3
 72
     9
 73
     5
 74
     0
 42
0.00000001
 43
0.00000001
 12
1.0
 22
0.0
 32
0.0
 13
1.0
 23
0.0
 33
0.0
 40
0.0
 40
0.0
 40
0.0
 40
0.0
 40
0.0702005767034201
 40
1.0
 40
1.0
 40
1.0
 40
1.0
 10
182.9804811495246
 20
369.6697044334973
 30
0.0
 10
183.0071594474913
 20
369.6701505497649
 30
0.0
 10
183.3871890600589
 20
369.6765054301447
 30
0.0
 10
183.7595996318929
 20
369.9043949120403
 30
0.0
 10
184.1058667668137
 20
370.1162864208823
 30
0.0
  0
LINE
  5
238
330
1F
100
AcDbEntity
  8
0
  6
Continuous
 62
     7
370
    15
100
AcDbLine
 10
172.9450415585
 20
369.989356777
 30
0.0
 11
172.646290694
 21
370.1162864209
 31
0.0
  0
LINE
  5
239
330
1F
100
AcDbEntity
  8
0
  6
Continuous
 62
     7
370
    15
100
AcDbLine
 10
174.3857990949
 20
369.6697044335
 30
0.0
 11
173.3760787304
 21
369.6697044335
 31
0.0
  0
LINE
  5
23A
330
1F
100
AcDbEntity
  8
0
  6
Continuous
 62
     7
370
    15
100
AcDbLine
 10
183.3760787304
 20
369.6697044335
 30
0.0
 11
182.9804811495
 21
369.6697044335
 31
0.0
  0
LINE
  5
23B
330
1F
100
AcDbEntity
  8
0
  6
Continuous
 62
     7
370
    15
100
AcDbLine
 10
174.4877011695
 20
382.0231224461
 30
0.0
 11
177.3077937982
 21
382.4697044335
 31
0.0
  0
SPLINE
  5
23C
330
1F
100
AcDbEntity
  8
0
  6
Continuous
 62
     7
370
    15
100
AcDbSpline
210
0.0
220
0.0
230
1.0
 70
     8
 71
     3
 72
    10
 73
     6
 74
     0
 42
0.00000001
 43
0.00000001
 12
1.0
 22
0.0
 32
0.0
 13
1.0
 23
0.0
 33
0.0
 40
0.0
 40
0.0
 40
0.0
 40
0.0
 40
0.0700627427124788
 40
0.5307703520768595
 40
1.0
 40
1.0
 40
1.0
 40
1.0
 10
177.3077937981913
 20
382.4697044334973
 30
0.0
 10
177.374613057125
 20
382.469171616053
 30
0.0
 10
177.8808119328285
 20
382.4651351811162
 30
0.0
 10
178.8352508261893
 20
382.3676073217044
 30
0.0
 10
179.6943835005877
 20
382.1386501335431
 30
0.0
 10
180.1278864269068
 20
382.023122446112
 30
0.0
  0
LINE
  5
23D
330
1F
100
AcDbEntity
  8
0
  6
Continuous
 62
     7
370
    15
100
AcDbLine
 10
180.1278864269
 20
382.0231224461
 30
0.0
 11
180.1278864269
 21
377.7162864209
 31
0.0
  0
SPLINE
  5
23E
330
1F
100
AcDbEntity
  8
0
  6
Continuous
 62
     7
370
    15
100
AcDbSpline
210
0.0
220
0.0
230
1.0
 70
     8
 71
     3
 72
     9
 73
     5
 74
     0
 42
0.00000001
 43
0.00000001
 12
1.0
 22
0.0
 32
0.0
 13
1.0
 23
0.0
 33
0.0
 40
0.0
 40
0.0
 40
0.0
 40
0.0
 40
0.0702005767034226
 40
0.9999999999999999
 40
0.9999999999999999
 40
0.9999999999999999
 40
0.9999999999999999
 10
177.3077937981913
 20
377.2697044334973
 30
0.0
 10
177.3746466798051
 20
377.2701505497651
 30
0.0
 10
178.3269591073247
 20
377.2765054301453
 30
0.0
 10
179.2601790564248
 20
377.5043949120408
 30
0.0
 10
180.1278864269068
 20
377.7162864208825
 30
0.0
  0
LINE
  5
23F
330
1F
100
AcDbEntity
  8
0
  6
Continuous
 62
     7
370
    15
100
AcDbLine
 10
174.4877011695
 20
377.7162864209
 30
0.0
 11
177.3077937982
 21
377.2697044335
 31
0.0
  0
LINE
  5
240
330
1F
100
AcDbEntity
  8
0
  6
Continuous
 62
     7
370
    15
100
AcDbLine
 10
174.4877011695
 20
382.0231224461
 30
0.0
 11
174.4877011695
 21
377.7162864209
 31
0.0
  0
LINE
  5
241
330
1F
100
AcDbEntity
  8
0
  6
Continuous
 62
     7
370
    15
100
AcDbLine
 10
180.1278864269
 20
377.7162864209
 30
0.0
 11
182.0720752074
 21
377.2697044335
 31
0.0
  0
SPLINE
  5
242
330
1F
100
AcDbEntity
  8
0
  6
Continuous
 62
     7
370
    15
100
AcDbSpline
210
0.0
220
0.0
230
1.0
 70
     8
 71
     3
 72
     9
 73
     5
 74
     0
 42
0.00000001
 43
0.00000001
 12
1.0
 22
0.0
 32
0.0
 13
1.0
 23
0.0
 33
0.0
 40
0.0
 40
0.0
 40
0.0
 40
0.0
 40
0.4954579634770053
 40
1.0
 40
1.0
 40
1.0
 40
1.0
 10
180.1278864269068
 20
382.023122446112
 30
0.0
 10
180.4436312319792
 20
382.1479412251634
 30
0.0
 10
181.0809099283525
 20
382.3998672981151
 30
0.0
 10
181.7396919729602
 20
382.4462848349382
 30
0.0
 10
182.0720752073713
 20
382.4697044334973
 30
0.0
  0
LINE
  5
243
330
1F
100
AcDbEntity
  8
0
  6
Continuous
 62
     7
370
    15
100
AcDbLine
 10
177.3077937982
 20
382.4697044335
 30
0.0
 11
182.0720752074
 21
382.4697044335
 31
0.0
  0
SPLINE
  5
244
330
1F
100
AcDbEntity
  8
0
  6
Continuous
 62
     7
370
    15
100
AcDbSpline
210
0.0
220
0.0
230
1.0
 70
     8
 71
     3
 72
     9
 73
     5
 74
     0
 42
0.00000001
 43
0.00000001
 12
1.0
 22
0.0
 32
0.0
 13
1.0
 23
0.0
 33
0.0
 40
0.0
 40
0.0
 40
0.0
 40
0.0
 40
0.2575513451038041
 40
1.0
 40
1.0
 40
1.0
 40
1.0
 10
174.4877011694759
 20
382.0231224461122
 30
0.0
 10
174.4141675195959
 20
382.0905376688868
 30
0.0
 10
174.1286568776289
 20
382.3522921658309
 30
0.0
 10
173.8320285925134
 20
382.4196756536238
 30
0.0
 10
173.611797321225
 20
382.4697044334973
 30
0.0
  0
LINE
  5
245
330
1F
100
AcDbEntity
  8
0
  6
Continuous
 62
     7
370
    15
100
AcDbLine
 10
173.6117973212
 20
382.4697044335
 30
0.0
 11
177.3077937982
 21
382.4697044335
 31
0.0
  0
SPLINE
  5
246
330
1F
100
AcDbEntity
  8
0
  6
Continuous
 62
     7
370
    15
100
AcDbSpline
210
0.0
220
0.0
230
1.0
 70
     8
 71
     3
 72
     9
 73
     5
 74
     0
 42
0.00000001
 43
0.00000001
 12
1.0
 22
0.0
 32
0.0
 13
1.0
 23
0.0
 33
0.0
 40
0.0
 40
0.0
 40
0.0
 40
0.0
 40
0.2575513451038104
 40
0.9999999999999999
 40
0.9999999999999999
 40
0.9999999999999999
 40
0.9999999999999999
 10
174.4877011694759
 20
377.7162864208825
 30
0.0
 10
174.4141675195958
 20
377.6488711981077
 30
0.0
 10
174.128656877629
 20
377.3871167011638
 30
0.0
 10
173.8320285925132
 20
377.319733213371
 30
0.0
 10
173.6117973212249
 20
377.2697044334972
 30
0.0
  0
SPLINE
  5
247
330
1F
100
AcDbEntity
  8
0
  6
Continuous
 62
     7
370
    15
100
AcDbSpline
210
0.0
220
0.0
230
1.0
 70
     8
 71
     3
 72
    10
 73
     6
 74
     0
 42
0.00000001
 43
0.00000001
 12
1.0
 22
0.0
 32
0.0
 13
1.0
 23
0.0
 33
0.0
 40
0.0
 40
0.0
 40
0.0
 40
0.0
 40
0.0700627427124699
 40
0.5307703520768513
 40
1.0
 40
1.0
 40
1.0
 40
1.0
 10
182.0720752073713
 20
382.4697044334973
 30
0.0
 10
182.1181408054353
 20
382.469171616053
 30
0.0
 10
182.4671173478387
 20
382.4651351811161
 30
0.0
 10
183.1251132481211
 20
382.3676073217048
 30
0.0
 10
183.7174044691569
 20
382.1386501335431
 30
0.0
 10
184.0162639878358
 20
382.023122446112
 30
0.0
  0
LINE
  5
248
330
1F
100
AcDbEntity
  8
0
  6
Continuous
 62
     7
370
    15
100
AcDbLine
 10
184.0162639878
 20
382.0231224461
 30
0.0
 11
184.0162639878
 21
381.6697044335
 31
0.0
  0
SPLINE
  5
249
330
1F
100
AcDbEntity
  8
0
  6
Continuous
 62
     7
370
    15
100
AcDbSpline
210
0.0
220
0.0
230
1.0
 70
     8
 71
     3
 72
     9
 73
     5
 74
     0
 42
0.00000001
 43
0.00000001
 12
1.0
 22
0.0
 32
0.0
 13
1.0
 23
0.0
 33
0.0
 40
0.0
 40
0.0
 40
0.0
 40
0.0
 40
0.5278771639353241
 40
1.0
 40
1.0
 40
1.0
 40
1.0
 10
182.0720752073712
 20
377.2697044334973
 30
0.0
 10
182.1183049514738
 20
377.2677779761852
 30
0.0
 10
182.2058816592024
 20
377.26412853377
 30
0.0
 10
182.2917079352189
 20
377.2899402195275
 30
0.0
 10
182.3322284800606
 20
377.3021265058109
 30
0.0
  0
LINE
  5
24A
330
1F
100
AcDbEntity
  8
0
  6
Continuous
 62
     7
370
    15
100
AcDbLine
 10
173.139816856
 20
377.4557832821
 30
0.0
 11
172.735893473
 21
377.7162864209
 31
0.0
  0
LINE
  5
24B
330
1F
100
AcDbEntity
  8
0
  6
Continuous
 62
     7
370
    15
100
AcDbLine
 10
172.735893473
 20
382.0231224461
 30
0.0
 11
172.735893473
 21
377.7162864209
 31
0.0
  0
SPLINE
  5
24C
330
1F
100
AcDbEntity
  8
0
  6
Continuous
 62
     7
370
    15
100
AcDbSpline
210
0.0
220
0.0
230
1.0
 70
     8
 71
     3
 72
     9
 73
     5
 74
     0
 42
0.00000001
 43
0.00000001
 12
1.0
 22
0.0
 32
0.0
 13
1.0
 23
0.0
 33
0.0
 40
0.0
 40
0.0
 40
0.0
 40
0.0
 40
0.2686336050555652
 40
1.0
 40
1.0
 40
1.0
 40
1.0
 10
173.611797321225
 20
382.4697044334973
 30
0.0
 10
173.532153152018
 20
382.4630754809127
 30
0.0
 10
173.2356743507509
 20
382.4383989234765
 30
0.0
 10
172.947011662578
 20
382.1985441598765
 30
0.0
 10
172.735893472974
 20
382.0231224461122
 30
0.0
  0
SPLINE
  5
24D
330
1F
100
AcDbEntity
  8
0
  6
Continuous
 62
     7
370
    15
100
AcDbSpline
210
0.0
220
0.0
230
1.0
 70
     8
 71
     3
 72
     9
 73
     5
 74
     0
 42
0.00000001
 43
0.00000001
 12
1.0
 22
0.0
 32
0.0
 13
1.0
 23
0.0
 33
0.0
 40
0.0
 40
0.0
 40
0.0
 40
0.0
 40
0.5537258314515485
 40
1.0
 40
1.0
 40
1.0
 40
1.0
 10
184.0162639878358
 20
382.023122446112
 30
0.0
 10
183.9428362548398
 20
382.0915515737991
 30
0.0
 10
183.8102295949636
 20
382.215131012937
 30
0.0
 10
183.6741814100713
 20
382.2867397129351
 30
0.0
 10
183.6134666194761
 20
382.3186968259876
 30
0.0
  0
LINE
  5
24E
330
1F
100
AcDbEntity
  8
0
  6
Continuous
 62
     7
370
    15
100
AcDbLine
 10
182.0720752074
 20
382.4697044335
 30
0.0
 11
183.3760787304
 21
382.4697044335
 31
0.0
  0
LINE
  5
24F
330
1F
100
AcDbEntity
  8
0
  6
Continuous
 62
     7
370
    15
100
AcDbLine
 10
173.6117973212
 20
382.4697044335
 30
0.0
 11
173.3760787304
 21
382.4697044335
 31
0.0
  0
LINE
  5
250
330
1F
100
AcDbEntity
  8
0
  6
Continuous
 62
     7
370
    15
100
AcDbLine
 10
147.6995593183
 20
869.0731224461
 30
0.0
 11
148.5096472865
 21
869.2697044335
 31
0.0
  0
LINE
  5
251
330
1F
100
AcDbEntity
  8
0
  6
Continuous
 62
     7
370
    15
100
AcDbLine
 10
152.3522768019
 20
869.2697044335
 30
0.0
 11
153.1501330887
 21
869.0731224461
 31
0.0
  0
LINE
  5
252
330
1F
100
AcDbEntity
  8
0
  6
Continuous
 62
     7
370
    15
100
AcDbLine
 10
153.1501330887
 20
869.0731224461
 30
0.0
 11
153.1501330887
 21
864.7662864209
 31
0.0
  0
SPLINE
  5
253
330
1F
100
AcDbEntity
  8
0
  6
Continuous
 62
     7
370
    15
100
AcDbSpline
210
0.0
220
0.0
230
1.0
 70
     8
 71
     3
 72
     9
 73
     5
 74
     0
 42
0.00000001
 43
0.00000001
 12
1.0
 22
0.0
 32
0.0
 13
1.0
 23
0.0
 33
0.0
 40
0.0
 40
0.0
 40
0.0
 40
0.0
 40
0.0702005767034308
 40
1.0
 40
1.0
 40
1.0
 40
1.0
 10
150.4248462035186
 20
864.3197044334978
 30
0.0
 10
150.4894516280508
 20
864.3201505497655
 30
0.0
 10
151.4097492604355
 20
864.3265054301457
 30
0.0
 10
152.3115962644571
 20
864.5543949120411
 30
0.0
 10
153.1501330886981
 20
864.766286420883
 30
0.0
  0
LINE
  5
254
330
1F
100
AcDbEntity
  8
0
  6
Continuous
 62
     7
370
    15
100
AcDbLine
 10
147.6995593183
 20
864.7662864209
 30
0.0
 11
150.4248462035
 21
864.3197044335
 31
0.0
  0
LINE
  5
255
330
1F
100
AcDbEntity
  8
0
  6
Continuous
 62
     7
370
    15
100
AcDbLine
 10
147.6995593183
 20
869.0731224461
 30
0.0
 11
147.6995593183
 21
864.7662864209
 31
0.0
  0
SPLINE
  5
256
330
1F
100
AcDbEntity
  8
0
  6
Continuous
 62
     7
370
    15
100
AcDbSpline
210
0.0
220
0.0
230
1.0
 70
     8
 71
     3
 72
     9
 73
     5
 74
     0
 42
0.00000001
 43
0.00000001
 12
1.0
 22
0.0
 32
0.0
 13
1.0
 23
0.0
 33
0.0
 40
0.0
 40
0.0
 40
0.0
 40
0.0
 40
0.0702005767034267
 40
1.0
 40
1.0
 40
1.0
 40
1.0
 10
145.5125321391913
 20
864.3197044334978
 30
0.0
 10
145.5643776238412
 20
864.3201505497653
 30
0.0
 10
146.3029112240565
 20
864.3265054301457
 30
0.0
 10
147.0266383002605
 20
864.5543949120413
 30
0.0
 10
147.6995593183391
 20
864.766286420883
 30
0.0
  0
LINE
  5
257
330
1F
100
AcDbEntity
  8
0
  6
Continuous
 62
     7
370
    15
100
AcDbLine
 10
150.4248462035
 20
864.3197044335
 30
0.0
 11
145.5125321392
 21
864.3197044335
 31
0.0
  0
LINE
  5
258
330
1F
100
AcDbEntity
  8
0
  6
Continuous
 62
     7
370
    15
100
AcDbLine
 10
147.0592841995
 20
869.2697044335
 30
0.0
 11
147.6995593183
 21
869.0731224461
 31
0.0
  0
LINE
  5
259
330
1F
100
AcDbEntity
  8
0
  6
Continuous
 62
     7
370
    15
100
AcDbLine
 10
143.32550496
 20
869.0731224461
 30
0.0
 11
144.2882176567
 21
869.2697044335
 31
0.0
  0
LINE
  5
25A
330
1F
100
AcDbEntity
  8
0
  6
Continuous
 62
     7
370
    15
100
AcDbLine
 10
143.32550496
 20
864.7662864209
 30
0.0
 11
145.5125321392
 21
864.3197044335
 31
0.0
  0
LINE
  5
25B
330
1F
100
AcDbEntity
  8
0
  6
Continuous
 62
     7
370
    15
100
AcDbLine
 10
143.32550496
 20
869.0731224461
 30
0.0
 11
143.32550496
 21
864.7662864209
 31
0.0
  0
SPLINE
  5
25C
330
1F
100
AcDbEntity
  8
0
  6
Continuous
 62
     7
370
    15
100
AcDbSpline
210
0.0
220
0.0
230
1.0
 70
     8
 71
     3
 72
     9
 73
     5
 74
     0
 42
0.00000001
 43
0.00000001
 12
1.0
 22
0.0
 32
0.0
 13
1.0
 23
0.0
 33
0.0
 40
0.0
 40
0.0
 40
0.0
 40
0.0
 40
0.9479994757089094
 40
1.0
 40
1.0
 40
1.0
 40
1.0
 10
153.1501330886981
 20
869.0731224461126
 30
0.0
 10
153.1951019315096
 20
869.1453336490866
 30
0.0
 10
153.2425374459417
 20
869.2215058462496
 30
0.0
 10
153.2912082621136
 20
869.2673219709894
 30
0.0
 10
153.2937391700722
 20
869.2697044334969
 30
0.0
  0
SPLINE
  5
25D
330
1F
100
AcDbEntity
  8
0
  6
Continuous
 62
     7
370
    15
100
AcDbSpline
210
0.0
220
0.0
230
1.0
 70
     8
 71
     3
 72
     9
 73
     5
 74
     0
 42
0.00000001
 43
0.00000001
 12
1.0
 22
0.0
 32
0.0
 13
1.0
 23
0.0
 33
0.0
 40
0.0
 40
0.0
 40
0.0
 40
0.0
 40
0.2575513451038113
 40
1.0
 40
1.0
 40
1.0
 40
1.0
 10
153.1501330886981
 20
864.766286420883
 30
0.0
 10
153.1953209262066
 20
864.698871198108
 30
0.0
 10
153.3707726890009
 20
864.4371167011641
 30
0.0
 10
153.5530564566381
 20
864.3697332133715
 30
0.0
 10
153.6883927947298
 20
864.3197044334978
 30
0.0
  0
LINE
  5
25E
330
1F
100
AcDbEntity
  8
0
  6
Continuous
 62
     7
370
    15
100
AcDbLine
 10
153.6883927947
 20
864.3197044335
 30
0.0
 11
150.4248462035
 21
864.3197044335
 31
0.0
  0
SPLINE
  5
25F
330
1F
100
AcDbEntity
  8
0
  6
Continuous
 62
     7
370
    15
100
AcDbSpline
210
0.0
220
0.0
230
1.0
 70
     8
 71
     3
 72
     9
 73
     5
 74
     0
 42
0.00000001
 43
0.00000001
 12
1.0
 22
0.0
 32
0.0
 13
1.0
 23
0.0
 33
0.0
 40
0.0
 40
0.0
 40
0.0
 40
0.0
 40
0.9250528693482493
 40
1.0
 40
1.0
 40
1.0
 40
1.0
 10
143.3255049600434
 20
869.0731224461126
 30
0.0
 10
143.3703012874297
 20
869.1516761588776
 30
0.0
 10
143.4187269816474
 20
869.2365942380146
 30
0.0
 10
143.4690548288072
 20
869.2673959347104
 30
0.0
 10
143.4728267565438
 20
869.2697044334969
 30
0.0
  0
SPLINE
  5
260
330
1F
100
AcDbEntity
  8
0
  6
Continuous
 62
     7
370
    15
100
AcDbSpline
210
0.0
220
0.0
230
1.0
 70
     8
 71
     3
 72
     9
 73
     5
 74
     0
 42
0.00000001
 43
0.00000001
 12
1.0
 22
0.0
 32
0.0
 13
1.0
 23
0.0
 33
0.0
 40
0.0
 40
0.0
 40
0.0
 40
0.0
 40
0.2575513451038125
 40
0.9999999999999999
 40
0.9999999999999999
 40
0.9999999999999999
 40
0.9999999999999999
 10
143.3255049600435
 20
864.766286420883
 30
0.0
 10
143.370692797552
 20
864.6988711981082
 30
0.0
 10
143.5461445603464
 20
864.4371167011643
 30
0.0
 10
143.7284283279836
 20
864.3697332133718
 30
0.0
 10
143.8637646660752
 20
864.3197044334978
 30
0.0
  0
LINE
  5
261
330
1F
100
AcDbEntity
  8
0
  6
Continuous
 62
     7
370
    15
100
AcDbLine
 10
145.5125321392
 20
864.3197044335
 30
0.0
 11
143.7841015179
 21
864.3197044335
 31
0.0
  0
LINE
  5
262
330
1F
100
AcDbEntity
  8
0
  6
Continuous
 62
     7
370
    15
100
AcDbLine
 10
154.0775667793
 20
869.2697044335
 30
0.0
 11
154.2266525008
 21
869.0731224461
 31
0.0
  0
LINE
  5
263
330
1F
100
AcDbEntity
  8
0
  6
Continuous
 62
     7
370
    15
100
AcDbLine
 10
154.2266525008
 20
869.0731224461
 30
0.0
 11
154.2266525008
 21
864.7662864209
 31
0.0
  0
SPLINE
  5
264
330
1F
100
AcDbEntity
  8
0
  6
Continuous
 62
     7
370
    15
100
AcDbSpline
210
0.0
220
0.0
230
1.0
 70
     8
 71
     3
 72
     9
 73
     5
 74
     0
 42
0.00000001
 43
0.00000001
 12
1.0
 22
0.0
 32
0.0
 13
1.0
 23
0.0
 33
0.0
 40
0.0
 40
0.0
 40
0.0
 40
0.0
 40
0.268633605055562
 40
1.0
 40
1.0
 40
1.0
 40
1.0
 10
153.6883927947298
 20
864.3197044334978
 30
0.0
 10
153.7373356635048
 20
864.3263333860822
 30
0.0
 10
153.9195275704514
 20
864.3510099435185
 30
0.0
 10
154.0969163260648
 20
864.5908647071186
 30
0.0
 10
154.2266525007615
 20
864.766286420883
 30
0.0
  0
LINE
  5
265
330
1F
100
AcDbEntity
  8
0
  6
Continuous
 62
     7
370
    15
100
AcDbLine
 10
154.2266525008
 20
869.0731224461
 30
0.0
 11
153.2639398041
 21
869.2697044335
 31
0.0
  0
LINE
  5
266
330
1F
100
AcDbEntity
  8
0
  6
Continuous
 62
     7
370
    15
100
AcDbLine
 10
146.5253074958
 20
856.0231224461
 30
0.0
 11
149.390201514
 21
856.4697044335
 31
0.0
  0
SPLINE
  5
267
330
1F
100
AcDbEntity
  8
0
  6
Continuous
 62
     7
370
    15
100
AcDbSpline
210
0.0
220
0.0
230
1.0
 70
     8
 71
     3
 72
    10
 73
     6
 74
     0
 42
0.00000001
 43
0.00000001
 12
1.0
 22
0.0
 32
0.0
 13
1.0
 23
0.0
 33
0.0
 40
0.0
 40
0.0
 40
0.0
 40
0.0
 40
0.0700627427124768
 40
0.5307703520768545
 40
1.0
 40
1.0
 40
1.0
 40
1.0
 10
149.3902015140287
 20
856.4697044334978
 30
0.0
 10
149.4580822968337
 20
856.4691716160535
 30
0.0
 10
149.9723228988117
 20
856.4651351811167
 30
0.0
 10
150.9419244815715
 20
856.3676073217052
 30
0.0
 10
151.8147057635286
 20
856.1386501335437
 30
0.0
 10
152.2550955322332
 20
856.0231224461126
 30
0.0
  0
LINE
  5
268
330
1F
100
AcDbEntity
  8
0
  6
Continuous
 62
     7
370
    15
100
AcDbLine
 10
152.2550955322
 20
856.0231224461
 30
0.0
 11
152.2550955322
 21
851.7162864209
 31
0.0
  0
SPLINE
  5
269
330
1F
100
AcDbEntity
  8
0
  6
Continuous
 62
     7
370
    15
100
AcDbSpline
210
0.0
220
0.0
230
1.0
 70
     8
 71
     3
 72
     9
 73
     5
 74
     0
 42
0.00000001
 43
0.00000001
 12
1.0
 22
0.0
 32
0.0
 13
1.0
 23
0.0
 33
0.0
 40
0.0
 40
0.0
 40
0.0
 40
0.0
 40
0.0702005767034297
 40
1.0
 40
1.0
 40
1.0
 40
1.0
 10
149.3902015140287
 20
851.2697044334979
 30
0.0
 10
149.4581164536604
 20
851.2701505497654
 30
0.0
 10
150.4255577884881
 20
851.2765054301457
 30
0.0
 10
151.3736033323197
 20
851.5043949120413
 30
0.0
 10
152.2550955322332
 20
851.7162864208831
 30
0.0
  0
LINE
  5
26A
330
1F
100
AcDbEntity
  8
0
  6
Continuous
 62
     7
370
    15
100
AcDbLine
 10
146.5253074958
 20
851.7162864209
 30
0.0
 11
149.390201514
 21
851.2697044335
 31
0.0
  0
LINE
  5
26B
330
1F
100
AcDbEntity
  8
0
  6
Continuous
 62
     7
370
    15
100
AcDbLine
 10
146.5253074958
 20
856.0231224461
 30
0.0
 11
146.5253074958
 21
851.7162864209
 31
0.0
  0
SPLINE
  5
26C
330
1F
100
AcDbEntity
  8
0
  6
Continuous
 62
     7
370
    15
100
AcDbSpline
210
0.0
220
0.0
230
1.0
 70
     8
 71
     3
 72
     9
 73
     5
 74
     0
 42
0.00000001
 43
0.00000001
 12
1.0
 22
0.0
 32
0.0
 13
1.0
 23
0.0
 33
0.0
 40
0.0
 40
0.0
 40
0.0
 40
0.0
 40
0.2575513451038132
 40
1.0
 40
1.0
 40
1.0
 40
1.0
 10
146.5253074958242
 20
851.7162864208831
 30
0.0
 10
146.3792727432977
 20
851.648871198108
 30
0.0
 10
145.8122605521264
 20
851.3871167011642
 30
0.0
 10
145.2231691867463
 20
851.3197332133716
 30
0.0
 10
144.7857990949088
 20
851.2697044334979
 30
0.0
  0
LINE
  5
26D
330
1F
100
AcDbEntity
  8
0
  6
Continuous
 62
     7
370
    15
100
AcDbLine
 10
149.390201514
 20
851.2697044335
 30
0.0
 11
144.7857990949
 21
851.2697044335
 31
0.0
  0
SPLINE
  5
26E
330
1F
100
AcDbEntity
  8
0
  6
Continuous
 62
     7
370
    15
100
AcDbSpline
210
0.0
220
0.0
230
1.0
 70
     8
 71
     3
 72
     9
 73
     5
 74
     0
 42
0.00000001
 43
0.00000001
 12
1.0
 22
0.0
 32
0.0
 13
1.0
 23
0.0
 33
0.0
 40
0.0
 40
0.0
 40
0.0
 40
0.0
 40
0.5174000252722588
 40
1.0
 40
1.0
 40
1.0
 40
1.0
 10
146.5253074958242
 20
856.0231224461126
 30
0.0
 10
146.3797652882913
 20
856.0948737217922
 30
0.0
 10
146.0984699647044
 20
856.2335503205064
 30
0.0
 10
145.8061840714645
 20
856.2754729331156
 30
0.0
 10
145.6651269067736
 20
856.2957047849011
 30
0.0
  0
SPLINE
  5
26F
330
1F
100
AcDbEntity
  8
0
  6
Continuous
 62
     7
370
    15
100
AcDbSpline
210
0.0
220
0.0
230
1.0
 70
     8
 71
     3
 72
     9
 73
     5
 74
     0
 42
0.00000001
 43
0.00000001
 12
1.0
 22
0.0
 32
0.0
 13
1.0
 23
0.0
 33
0.0
 40
0.0
 40
0.0
 40
0.0
 40
0.0
 40
0.4954579634770067
 40
1.0
 40
1.0
 40
1.0
 40
1.0
 10
152.2550955322332
 20
856.0231224461126
 30
0.0
 10
152.4378631039488
 20
856.147941225164
 30
0.0
 10
152.8067492359487
 20
856.3998672981156
 30
0.0
 10
153.188082491947
 20
856.4462848349386
 30
0.0
 10
153.3804811495223
 20
856.4697044334978
 30
0.0
  0
LINE
  5
270
330
1F
100
AcDbEntity
  8
0
  6
Continuous
 62
     7
370
    15
100
AcDbLine
 10
152.2550955322
 20
851.7162864209
 30
0.0
 11
153.3804811495
 21
851.2697044335
 31
0.0
  0
LINE
  5
271
330
1F
100
AcDbEntity
  8
0
  6
Continuous
 62
     7
370
    15
100
AcDbLine
 10
153.3804811495
 20
851.2697044335
 30
0.0
 11
149.390201514
 21
851.2697044335
 31
0.0
  0
SPLINE
  5
272
330
1F
100
AcDbEntity
  8
0
  6
Continuous
 62
     7
370
    15
100
AcDbSpline
210
0.0
220
0.0
230
1.0
 70
     8
 71
     3
 72
     9
 73
     5
 74
     0
 42
0.00000001
 43
0.00000001
 12
1.0
 22
0.0
 32
0.0
 13
1.0
 23
0.0
 33
0.0
 40
0.0
 40
0.0
 40
0.0
 40
0.0
 40
0.26863360505556
 40
1.0
 40
1.0
 40
1.0
 40
1.0
 10
144.7857990949088
 20
851.2697044334979
 30
0.0
 10
144.6276291066208
 20
851.2763333860823
 30
0.0
 10
144.0388346099106
 20
851.3010099435186
 30
0.0
 10
143.4655625868337
 20
851.5408647071185
 30
0.0
 10
143.0462906939935
 20
851.7162864208831
 30
0.0
  0
LINE
  5
273
330
1F
100
AcDbEntity
  8
0
  6
Continuous
 62
     7
370
    15
100
AcDbLine
 10
143.046290694
 20
852.0697044335
 30
0.0
 11
143.046290694
 21
851.7162864209
 31
0.0
  0
LINE
  5
274
330
1F
100
AcDbEntity
  8
0
  6
Continuous
 62
     7
370
    15
100
AcDbLine
 10
154.2056145008
 20
856.2022721973
 30
0.0
 11
154.5058667668
 21
856.0231224461
 31
0.0
  0
LINE
  5
275
330
1F
100
AcDbEntity
  8
0
  6
Continuous
 62
     7
370
    15
100
AcDbLine
 10
154.5058667668
 20
856.0231224461
 30
0.0
 11
154.5058667668
 21
851.7162864209
 31
0.0
  0
SPLINE
  5
276
330
1F
100
AcDbEntity
  8
0
  6
Continuous
 62
     7
370
    15
100
AcDbSpline
210
0.0
220
0.0
230
1.0
 70
     8
 71
     3
 72
     9
 73
     5
 74
     0
 42
0.00000001
 43
0.00000001
 12
1.0
 22
0.0
 32
0.0
 13
1.0
 23
0.0
 33
0.0
 40
0.0
 40
0.0
 40
0.0
 40
0.0
 40
0.0702005767034275
 40
0.9999999999999999
 40
0.9999999999999999
 40
0.9999999999999999
 40
0.9999999999999999
 10
153.3804811495223
 20
851.2697044334979
 30
0.0
 10
153.4071594474889
 20
851.2701505497655
 30
0.0
 10
153.7871890600568
 20
851.2765054301459
 30
0.0
 10
154.1595996318907
 20
851.5043949120413
 30
0.0
 10
154.5058667668114
 20
851.7162864208831
 30
0.0
  0
LINE
  5
277
330
1F
100
AcDbEntity
  8
0
  6
Continuous
 62
     7
370
    15
100
AcDbLine
 10
143.3450415585
 20
851.589356777
 30
0.0
 11
143.046290694
 21
851.7162864209
 31
0.0
  0
LINE
  5
278
330
1F
100
AcDbEntity
  8
0
  6
Continuous
 62
     7
370
    15
100
AcDbLine
 10
144.7857990949
 20
851.2697044335
 30
0.0
 11
143.7760787304
 21
851.2697044335
 31
0.0
  0
LINE
  5
279
330
1F
100
AcDbEntity
  8
0
  6
Continuous
 62
     7
370
    15
100
AcDbLine
 10
153.7760787304
 20
851.2697044335
 30
0.0
 11
153.3804811495
 21
851.2697044335
 31
0.0
  0
LINE
  5
27A
330
1F
100
AcDbEntity
  8
0
  6
Continuous
 62
     7
370
    15
100
AcDbLine
 10
177.2995593183
 20
387.4731224461
 30
0.0
 11
178.1096472865
 21
387.6697044335
 31
0.0
  0
LINE
  5
27B
330
1F
100
AcDbEntity
  8
0
  6
Continuous
 62
     7
370
    15
100
AcDbLine
 10
181.9522768019
 20
387.6697044335
 30
0.0
 11
182.7501330887
 21
387.4731224461
 31
0.0
  0
LINE
  5
27C
330
1F
100
AcDbEntity
  8
0
  6
Continuous
 62
     7
370
    15
100
AcDbLine
 10
182.7501330887
 20
387.4731224461
 30
0.0
 11
182.7501330887
 21
383.1662864209
 31
0.0
  0
SPLINE
  5
27D
330
1F
100
AcDbEntity
  8
0
  6
Continuous
 62
     7
370
    15
100
AcDbSpline
210
0.0
220
0.0
230
1.0
 70
     8
 71
     3
 72
     9
 73
     5
 74
     0
 42
0.00000001
 43
0.00000001
 12
1.0
 22
0.0
 32
0.0
 13
1.0
 23
0.0
 33
0.0
 40
0.0
 40
0.0
 40
0.0
 40
0.0
 40
0.0702005767034223
 40
1.0
 40
1.0
 40
1.0
 40
1.0
 10
180.0248462035211
 20
382.7197044334973
 30
0.0
 10
180.0894516280532
 20
382.7201505497648
 30
0.0
 10
181.0097492604383
 20
382.7265054301457
 30
0.0
 10
181.9115962644597
 20
382.954394912041
 30
0.0
 10
182.7501330887006
 20
383.1662864208824
 30
0.0
  0
LINE
  5
27E
330
1F
100
AcDbEntity
  8
0
  6
Continuous
 62
     7
370
    15
100
AcDbLine
 10
177.2995593183
 20
383.1662864209
 30
0.0
 11
180.0248462035
 21
382.7197044335
 31
0.0
  0
LINE
  5
27F
330
1F
100
AcDbEntity
  8
0
  6
Continuous
 62
     7
370
    15
100
AcDbLine
 10
177.2995593183
 20
387.4731224461
 30
0.0
 11
177.2995593183
 21
383.1662864209
 31
0.0
  0
LINE
  5
280
330
1F
100
AcDbEntity
  8
0
  6
Continuous
 62
     7
370
    15
100
AcDbLine
 10
176.6592841995
 20
387.6697044335
 30
0.0
 11
177.2995593183
 21
387.4731224461
 31
0.0
  0
SPLINE
  5
281
330
1F
100
AcDbEntity
  8
0
  6
Continuous
 62
     7
370
    15
100
AcDbSpline
210
0.0
220
0.0
230
1.0
 70
     8
 71
     3
 72
     9
 73
     5
 74
     0
 42
0.00000001
 43
0.00000001
 12
1.0
 22
0.0
 32
0.0
 13
1.0
 23
0.0
 33
0.0
 40
0.0
 40
0.0
 40
0.0
 40
0.0
 40
0.0702005767034298
 40
1.0
 40
1.0
 40
1.0
 40
1.0
 10
175.1125321391937
 20
382.7197044334973
 30
0.0
 10
175.1643776238437
 20
382.720150549765
 30
0.0
 10
175.9029112240586
 20
382.7265054301436
 30
0.0
 10
176.6266383002628
 20
382.9543949120398
 30
0.0
 10
177.2995593183416
 20
383.1662864208826
 30
0.0
  0
LINE
  5
282
330
1F
100
AcDbEntity
  8
0
  6
Continuous
 62
     7
370
    15
100
AcDbLine
 10
180.0248462035
 20
382.7197044335
 30
0.0
 11
175.1125321392
 21
382.7197044335
 31
0.0
  0
LINE
  5
283
330
1F
100
AcDbEntity
  8
0
  6
Continuous
 62
     7
370
    15
100
AcDbLine
 10
172.92550496
 20
387.4731224461
 30
0.0
 11
173.8882176567
 21
387.6697044335
 31
0.0
  0
LINE
  5
284
330
1F
100
AcDbEntity
  8
0
  6
Continuous
 62
     7
370
    15
100
AcDbLine
 10
172.92550496
 20
383.1662864209
 30
0.0
 11
175.1125321392
 21
382.7197044335
 31
0.0
  0
LINE
  5
285
330
1F
100
AcDbEntity
  8
0
  6
Continuous
 62
     7
370
    15
100
AcDbLine
 10
172.92550496
 20
387.4731224461
 30
0.0
 11
172.92550496
 21
383.1662864209
 31
0.0
  0
SPLINE
  5
286
330
1F
100
AcDbEntity
  8
0
  6
Continuous
 62
     7
370
    15
100
AcDbSpline
210
0.0
220
0.0
230
1.0
 70
     8
 71
     3
 72
     9
 73
     5
 74
     0
 42
0.00000001
 43
0.00000001
 12
1.0
 22
0.0
 32
0.0
 13
1.0
 23
0.0
 33
0.0
 40
0.0
 40
0.0
 40
0.0
 40
0.0
 40
0.9479994756873502
 40
0.9999999999999999
 40
0.9999999999999999
 40
0.9999999999999999
 40
0.9999999999999999
 10
182.7501330887006
 20
387.4731224461121
 30
0.0
 10
182.7951019315122
 20
387.5453336490863
 30
0.0
 10
182.8425374459453
 20
387.6215058462509
 30
0.0
 10
182.8912082621184
 20
387.6673219709912
 30
0.0
 10
182.893739170078
 20
387.6697044334996
 30
0.0
  0
SPLINE
  5
287
330
1F
100
AcDbEntity
  8
0
  6
Continuous
 62
     7
370
    15
100
AcDbSpline
210
0.0
220
0.0
230
1.0
 70
     8
 71
     3
 72
     9
 73
     5
 74
     0
 42
0.00000001
 43
0.00000001
 12
1.0
 22
0.0
 32
0.0
 13
1.0
 23
0.0
 33
0.0
 40
0.0
 40
0.0
 40
0.0
 40
0.0
 40
0.2575513451038084
 40
1.0
 40
1.0
 40
1.0
 40
1.0
 10
182.7501330887006
 20
383.1662864208826
 30
0.0
 10
182.7953209262091
 20
383.0988711981077
 30
0.0
 10
182.9707726890035
 20
382.8371167011637
 30
0.0
 10
183.1530564566407
 20
382.7697332133712
 30
0.0
 10
183.2883927947323
 20
382.7197044334973
 30
0.0
  0
LINE
  5
288
330
1F
100
AcDbEntity
  8
0
  6
Continuous
 62
     7
370
    15
100
AcDbLine
 10
183.2883927947
 20
382.7197044335
 30
0.0
 11
180.0248462035
 21
382.7197044335
 31
0.0
  0
SPLINE
  5
289
330
1F
100
AcDbEntity
  8
0
  6
Continuous
 62
     7
370
    15
100
AcDbSpline
210
0.0
220
0.0
230
1.0
 70
     8
 71
     3
 72
     9
 73
     5
 74
     0
 42
0.00000001
 43
0.00000001
 12
1.0
 22
0.0
 32
0.0
 13
1.0
 23
0.0
 33
0.0
 40
0.0
 40
0.0
 40
0.0
 40
0.0
 40
0.2575513451038113
 40
1.0
 40
1.0
 40
1.0
 40
1.0
 10
172.9255049600459
 20
383.1662864208826
 30
0.0
 10
172.9706927975544
 20
383.0988711981078
 30
0.0
 10
173.1461445603488
 20
382.8371167011636
 30
0.0
 10
173.3284283279859
 20
382.769733213371
 30
0.0
 10
173.4637646660776
 20
382.7197044334973
 30
0.0
  0
LINE
  5
28A
330
1F
100
AcDbEntity
  8
0
  6
Continuous
 62
     7
370
    15
100
AcDbLine
 10
175.1125321392
 20
382.7197044335
 30
0.0
 11
173.3841015179
 21
382.7197044335
 31
0.0
  0
SPLINE
  5
28B
330
1F
100
AcDbEntity
  8
0
  6
Continuous
 62
     7
370
    15
100
AcDbSpline
210
0.0
220
0.0
230
1.0
 70
     8
 71
     3
 72
     9
 73
     5
 74
     0
 42
0.00000001
 43
0.00000001
 12
1.0
 22
0.0
 32
0.0
 13
1.0
 23
0.0
 33
0.0
 40
0.0
 40
0.0
 40
0.0
 40
0.0
 40
0.925052869346654
 40
1.0
 40
1.0
 40
1.0
 40
1.0
 10
172.925504960046
 20
387.4731224461122
 30
0.0
 10
172.9703012874322
 20
387.5516761588772
 30
0.0
 10
173.0187269816499
 20
387.6365942380139
 30
0.0
 10
173.06905482881
 20
387.6673959347101
 30
0.0
 10
173.0728267565466
 20
387.6697044334967
 30
0.0
  0
LINE
  5
28C
330
1F
100
AcDbEntity
  8
0
  6
Continuous
 62
     7
370
    15
100
AcDbLine
 10
183.6775667793
 20
387.6697044335
 30
0.0
 11
183.8266525008
 21
387.4731224461
 31
0.0
  0
LINE
  5
28D
330
1F
100
AcDbEntity
  8
0
  6
Continuous
 62
     7
370
    15
100
AcDbLine
 10
183.8266525008
 20
387.4731224461
 30
0.0
 11
183.8266525008
 21
383.1662864209
 31
0.0
  0
SPLINE
  5
28E
330
1F
100
AcDbEntity
  8
0
  6
Continuous
 62
     7
370
    15
100
AcDbSpline
210
0.0
220
0.0
230
1.0
 70
     8
 71
     3
 72
     9
 73
     5
 74
     0
 42
0.00000001
 43
0.00000001
 12
1.0
 22
0.0
 32
0.0
 13
1.0
 23
0.0
 33
0.0
 40
0.0
 40
0.0
 40
0.0
 40
0.0
 40
0.2686336050555673
 40
1.0
 40
1.0
 40
1.0
 40
1.0
 10
183.2883927947323
 20
382.7197044334973
 30
0.0
 10
183.3373356635072
 20
382.7263333860816
 30
0.0
 10
183.5195275704538
 20
382.7510099435183
 30
0.0
 10
183.6969163260672
 20
382.9908647071182
 30
0.0
 10
183.8266525007639
 20
383.1662864208823
 30
0.0
  0
LINE
  5
28F
330
1F
100
AcDbEntity
  8
0
  6
Continuous
 62
     7
370
    15
100
AcDbLine
 10
183.8266525008
 20
387.4731224461
 30
0.0
 11
182.8639398041
 21
387.6697044335
 31
0.0
  0
LINE
  5
290
330
1F
100
AcDbEntity
  8
0
  6
Continuous
 62
     7
370
    15
100
AcDbLine
 10
183.8266525008
 20
383.1662864209
 30
0.0
 11
181.6396253216
 21
382.7197044335
 31
0.0
  0
LINE
  5
291
330
1F
100
AcDbEntity
  8
0
  6
Continuous
 62
     7
370
    15
100
AcDbLine
 10
144.8877011695
 20
863.6231224461
 30
0.0
 11
147.7077937982
 21
864.0697044335
 31
0.0
  0
SPLINE
  5
292
330
1F
100
AcDbEntity
  8
0
  6
Continuous
 62
     7
370
    15
100
AcDbSpline
210
0.0
220
0.0
230
1.0
 70
     8
 71
     3
 72
    10
 73
     6
 74
     0
 42
0.00000001
 43
0.00000001
 12
1.0
 22
0.0
 32
0.0
 13
1.0
 23
0.0
 33
0.0
 40
0.0
 40
0.0
 40
0.0
 40
0.0
 40
0.0700627427124798
 40
0.5307703520768591
 40
1.0
 40
1.0
 40
1.0
 40
1.0
 10
147.7077937981889
 20
864.0697044334977
 30
0.0
 10
147.7746130571226
 20
864.0691716160536
 30
0.0
 10
148.2808119328259
 20
864.0651351811166
 30
0.0
 10
149.2352508261869
 20
863.9676073217053
 30
0.0
 10
150.0943835005853
 20
863.7386501335437
 30
0.0
 10
150.5278864269043
 20
863.6231224461126
 30
0.0
  0
LINE
  5
293
330
1F
100
AcDbEntity
  8
0
  6
Continuous
 62
     7
370
    15
100
AcDbLine
 10
150.5278864269
 20
863.6231224461
 30
0.0
 11
150.5278864269
 21
859.3162864209
 31
0.0
  0
SPLINE
  5
294
330
1F
100
AcDbEntity
  8
0
  6
Continuous
 62
     7
370
    15
100
AcDbSpline
210
0.0
220
0.0
230
1.0
 70
     8
 71
     3
 72
     9
 73
     5
 74
     0
 42
0.00000001
 43
0.00000001
 12
1.0
 22
0.0
 32
0.0
 13
1.0
 23
0.0
 33
0.0
 40
0.0
 40
0.0
 40
0.0
 40
0.0
 40
0.0702005767034328
 40
1.0
 40
1.0
 40
1.0
 40
1.0
 10
147.7077937981889
 20
858.8697044334979
 30
0.0
 10
147.7746466798025
 20
858.8701505497653
 30
0.0
 10
148.7269591073222
 20
858.8765054301458
 30
0.0
 10
149.6601790564223
 20
859.1043949120411
 30
0.0
 10
150.5278864269043
 20
859.316286420883
 30
0.0
  0
LINE
  5
295
330
1F
100
AcDbEntity
  8
0
  6
Continuous
 62
     7
370
    15
100
AcDbLine
 10
144.8877011695
 20
859.3162864209
 30
0.0
 11
147.7077937982
 21
858.8697044335
 31
0.0
  0
LINE
  5
296
330
1F
100
AcDbEntity
  8
0
  6
Continuous
 62
     7
370
    15
100
AcDbLine
 10
144.8877011695
 20
863.6231224461
 30
0.0
 11
144.8877011695
 21
859.3162864209
 31
0.0
  0
LINE
  5
297
330
1F
100
AcDbEntity
  8
0
  6
Continuous
 62
     7
370
    15
100
AcDbLine
 10
150.5278864269
 20
859.3162864209
 30
0.0
 11
152.4720752074
 21
858.8697044335
 31
0.0
  0
SPLINE
  5
298
330
1F
100
AcDbEntity
  8
0
  6
Continuous
 62
     7
370
    15
100
AcDbSpline
210
0.0
220
0.0
230
1.0
 70
     8
 71
     3
 72
     9
 73
     5
 74
     0
 42
0.00000001
 43
0.00000001
 12
1.0
 22
0.0
 32
0.0
 13
1.0
 23
0.0
 33
0.0
 40
0.0
 40
0.0
 40
0.0
 40
0.0
 40
0.4954579634770057
 40
1.0
 40
1.0
 40
1.0
 40
1.0
 10
150.5278864269043
 20
863.6231224461126
 30
0.0
 10
150.8436312319767
 20
863.7479412251638
 30
0.0
 10
151.4809099283501
 20
863.9998672981156
 30
0.0
 10
152.1396919729576
 20
864.0462848349387
 30
0.0
 10
152.4720752073688
 20
864.0697044334977
 30
0.0
  0
LINE
  5
299
330
1F
100
AcDbEntity
  8
0
  6
Continuous
 62
     7
370
    15
100
AcDbLine
 10
147.7077937982
 20
864.0697044335
 30
0.0
 11
152.4720752074
 21
864.0697044335
 31
0.0
  0
SPLINE
  5
29A
330
1F
100
AcDbEntity
  8
0
  6
Continuous
 62
     7
370
    15
100
AcDbSpline
210
0.0
220
0.0
230
1.0
 70
     8
 71
     3
 72
     9
 73
     5
 74
     0
 42
0.00000001
 43
0.00000001
 12
1.0
 22
0.0
 32
0.0
 13
1.0
 23
0.0
 33
0.0
 40
0.0
 40
0.0
 40
0.0
 40
0.0
 40
0.2575513451038093
 40
1.0
 40
1.0
 40
1.0
 40
1.0
 10
144.8877011694735
 20
863.6231224461126
 30
0.0
 10
144.8141675195934
 20
863.6905376688875
 30
0.0
 10
144.5286568776265
 20
863.9522921658314
 30
0.0
 10
144.2320285925108
 20
864.0196756536241
 30
0.0
 10
144.0117973212225
 20
864.0697044334977
 30
0.0
  0
LINE
  5
29B
330
1F
100
AcDbEntity
  8
0
  6
Continuous
 62
     7
370
    15
100
AcDbLine
 10
144.0117973212
 20
864.0697044335
 30
0.0
 11
147.7077937982
 21
864.0697044335
 31
0.0
  0
SPLINE
  5
29C
330
1F
100
AcDbEntity
  8
0
  6
Continuous
 62
     7
370
    15
100
AcDbSpline
210
0.0
220
0.0
230
1.0
 70
     8
 71
     3
 72
     9
 73
     5
 74
     0
 42
0.00000001
 43
0.00000001
 12
1.0
 22
0.0
 32
0.0
 13
1.0
 23
0.0
 33
0.0
 40
0.0
 40
0.0
 40
0.0
 40
0.0
 40
0.25755134510381
 40
0.9999999999999999
 40
0.9999999999999999
 40
0.9999999999999999
 40
0.9999999999999999
 10
144.8877011694735
 20
859.316286420883
 30
0.0
 10
144.8141675195934
 20
859.2488711981082
 30
0.0
 10
144.5286568776266
 20
858.9871167011645
 30
0.0
 10
144.2320285925109
 20
858.9197332133717
 30
0.0
 10
144.0117973212225
 20
858.8697044334979
 30
0.0
  0
SPLINE
  5
29D
330
1F
100
AcDbEntity
  8
0
  6
Continuous
 62
     7
370
    15
100
AcDbSpline
210
0.0
220
0.0
230
1.0
 70
     8
 71
     3
 72
    10
 73
     6
 74
     0
 42
0.00000001
 43
0.00000001
 12
1.0
 22
0.0
 32
0.0
 13
1.0
 23
0.0
 33
0.0
 40
0.0
 40
0.0
 40
0.0
 40
0.0
 40
0.0700627427124703
 40
0.5307703520768523
 40
1.0
 40
1.0
 40
1.0
 40
1.0
 10
152.4720752073688
 20
864.0697044334977
 30
0.0
 10
152.5181408054329
 20
864.0691716160536
 30
0.0
 10
152.8671173478361
 20
864.0651351811164
 30
0.0
 10
153.5251132481186
 20
863.967607321705
 30
0.0
 10
154.1174044691543
 20
863.7386501335437
 30
0.0
 10
154.4162639878334
 20
863.6231224461126
 30
0.0
  0
LINE
  5
29E
330
1F
100
AcDbEntity
  8
0
  6
Continuous
 62
     7
370
    15
100
AcDbLine
 10
154.4162639878
 20
863.6231224461
 30
0.0
 11
154.4162639878
 21
863.2697044335
 31
0.0
  0
SPLINE
  5
29F
330
1F
100
AcDbEntity
  8
0
  6
Continuous
 62
     7
370
    15
100
AcDbSpline
210
0.0
220
0.0
230
1.0
 70
     8
 71
     3
 72
     9
 73
     5
 74
     0
 42
0.00000001
 43
0.00000001
 12
1.0
 22
0.0
 32
0.0
 13
1.0
 23
0.0
 33
0.0
 40
0.0
 40
0.0
 40
0.0
 40
0.0
 40
0.5278771639353781
 40
1.0
 40
1.0
 40
1.0
 40
1.0
 10
152.4720752073688
 20
858.8697044334979
 30
0.0
 10
152.5183049514714
 20
858.8677779761857
 30
0.0
 10
152.6058816592
 20
858.8641285337706
 30
0.0
 10
152.6917079352164
 20
858.8899402195281
 30
0.0
 10
152.7322284800581
 20
858.9021265058115
 30
0.0
  0
LINE
  5
2A0
330
1F
100
AcDbEntity
  8
0
  6
Continuous
 62
     7
370
    15
100
AcDbLine
 10
143.539816856
 20
859.0557832821
 30
0.0
 11
143.135893473
 21
859.3162864209
 31
0.0
  0
LINE
  5
2A1
330
1F
100
AcDbEntity
  8
0
  6
Continuous
 62
     7
370
    15
100
AcDbLine
 10
143.135893473
 20
863.6231224461
 30
0.0
 11
143.135893473
 21
859.3162864209
 31
0.0
  0
SPLINE
  5
2A2
330
1F
100
AcDbEntity
  8
0
  6
Continuous
 62
     7
370
    15
100
AcDbSpline
210
0.0
220
0.0
230
1.0
 70
     8
 71
     3
 72
     9
 73
     5
 74
     0
 42
0.00000001
 43
0.00000001
 12
1.0
 22
0.0
 32
0.0
 13
1.0
 23
0.0
 33
0.0
 40
0.0
 40
0.0
 40
0.0
 40
0.0
 40
0.2686336050555651
 40
1.0
 40
1.0
 40
1.0
 40
1.0
 10
144.0117973212225
 20
864.0697044334977
 30
0.0
 10
143.9321531520156
 20
864.0630754809133
 30
0.0
 10
143.6356743507484
 20
864.0383989234768
 30
0.0
 10
143.3470116625755
 20
863.7985441598768
 30
0.0
 10
143.1358934729716
 20
863.6231224461126
 30
0.0
  0
SPLINE
  5
2A3
330
1F
100
AcDbEntity
  8
0
  6
Continuous
 62
     7
370
    15
100
AcDbSpline
210
0.0
220
0.0
230
1.0
 70
     8
 71
     3
 72
     9
 73
     5
 74
     0
 42
0.00000001
 43
0.00000001
 12
1.0
 22
0.0
 32
0.0
 13
1.0
 23
0.0
 33
0.0
 40
0.0
 40
0.0
 40
0.0
 40
0.0
 40
0.553725831451522
 40
1.0
 40
1.0
 40
1.0
 40
1.0
 10
154.4162639878334
 20
863.6231224461126
 30
0.0
 10
154.3428362548374
 20
863.6915515737995
 30
0.0
 10
154.2102295949612
 20
863.8151310129376
 30
0.0
 10
154.0741814100689
 20
863.8867397129358
 30
0.0
 10
154.0134666194736
 20
863.9186968259883
 30
0.0
  0
LINE
  5
2A4
330
1F
100
AcDbEntity
  8
0
  6
Continuous
 62
     7
370
    15
100
AcDbLine
 10
152.4720752074
 20
864.0697044335
 30
0.0
 11
153.7760787304
 21
864.0697044335
 31
0.0
  0
LINE
  5
2A5
330
1F
100
AcDbEntity
  8
0
  6
Continuous
 62
     7
370
    15
100
AcDbLine
 10
144.0117973212
 20
864.0697044335
 30
0.0
 11
143.7760787304
 21
864.0697044335
 31
0.0
  0
ENDSEC
  0
SECTION
  2
OBJECTS
  0
DICTIONARY
  5
C
330
0
100
AcDbDictionary
281
     1
  3
ACAD_GROUP
350
D
  3
ACAD_LAYOUT
350
1A
  3
ACAD_MLINESTYLE
350
17
  3
ACAD_PLOTSETTINGS
350
19
  3
ACAD_PLOTSTYLENAME
350
E
  0
DICTIONARY
  5
D
102
{ACAD_REACTORS
330
C
102
}
330
C
100
AcDbDictionary
281
     1
  0
DICTIONARY
  5
1A
102
{ACAD_REACTORS
330
C
102
}
330
C
100
AcDbDictionary
281
     1
  3
Layout1
350
1E
  3
Layout2
350
26
  3
Model
350
22
  0
DICTIONARY
  5
17
102
{ACAD_REACTORS
330
C
102
}
330
C
100
AcDbDictionary
281
     1
  3
Standard
350
18
  0
DICTIONARY
  5
19
102
{ACAD_REACTORS
330
C
102
}
330
C
100
AcDbDictionary
281
     1
  0
ACDBDICTIONARYWDFLT
  5
E
102
{ACAD_REACTORS
330
C
102
}
330
C
100
AcDbDictionary
281
     1
  3
Normal
350
F
100
AcDbDictionaryWithDefault
340
F
  0
LAYOUT
  5
1E
102
{ACAD_REACTORS
330
1A
102
}
330
1A
100
AcDbPlotSettings
  1

  2
none_device
  4

  6

 40
0.0
 41
0.0
 42
0.0
 43
0.0
 44
0.0
 45
0.0
 46
0.0
 47
0.0
 48
0.0
 49
0.0
140
0.0
141
0.0
142
1.0
143
1.0
 70
   688
 72
     0
 73
     0
 74
     5
  7

 75
    16
147
1.0
148
0.0
149
0.0
100
AcDbLayout
  1
Layout1
 70
     1
 71
     1
 10
0.0
 20
0.0
 11
420.0
 21
297.0
 12
0.0
 22
0.0
 32
0.0
 14
1.0000000000E+20
 24
1.0000000000E+20
 34
1.0000000000E+20
 15
-1.0000000000E+20
 25
-1.0000000000E+20
 35
-1.0000000000E+20
146
0.0
 13
0.0
 23
0.0
 33
0.0
 16
1.0
 26
0.0
 36
0.0
 17
0.0
 27
1.0
 37
0.0
 76
     0
330
1B
  0
LAYOUT
  5
26
102
{ACAD_REACTORS
330
1A
102
}
330
1A
100
AcDbPlotSettings
  1

  2
none_device
  4

  6

 40
0.0
 41
0.0
 42
0.0
 43
0.0
 44
0.0
 45
0.0
 46
0.0
 47
0.0
 48
0.0
 49
0.0
140
0.0
141
0.0
142
1.0
143
1.0
 70
   688
 72
     0
 73
     0
 74
     5
  7

 75
    16
147
1.0
148
0.0
149
0.0
100
AcDbLayout
  1
Layout2
 70
     1
 71
     2
 10
0.0
 20
0.0
 11
0.0
 21
0.0
 12
0.0
 22
0.0
 32
0.0
 14
0.0
 24
0.0
 34
0.0
 15
0.0
 25
0.0
 35
0.0
146
0.0
 13
0.0
 23
0.0
 33
0.0
 16
1.0
 26
0.0
 36
0.0
 17
0.0
 27
1.0
 37
0.0
 76
     0
330
23
  0
LAYOUT
  5
22
102
{ACAD_REACTORS
330
1A
102
}
330
1A
100
AcDbPlotSettings
  1

  2
none_device
  4

  6

 40
0.0
 41
0.0
 42
0.0
 43
0.0
 44
0.0
 45
0.0
 46
0.0
 47
0.0
 48
0.0
 49
0.0
140
0.0
141
0.0
142
1.0
143
1.0
 70
  1712
 72
     0
 73
     0
 74
     0
  7

 75
     0
147
1.0
148
0.0
149
0.0
100
AcDbLayout
  1
Model
 70
     1
 71
     0
 10
0.0
 20
0.0
 11
1100.0
 21
1500.0
 12
0.0
 22
0.0
 32
0.0
 14
0.0
 24
0.0
 34
0.0
 15
1100.0
 25
1500.0
 35
0.0
146
0.0
 13
0.0
 23
0.0
 33
0.0
 16
1.0
 26
0.0
 36
0.0
 17
0.0
 27
1.0
 37
0.0
 76
     0
330
1F
331
29
  0
MLINESTYLE
  5
18
102
{ACAD_REACTORS
330
17
102
}
330
17
100
AcDbMlineStyle
  2
Standard
 70
     0
  3

 62
   256
 51
90.0
 52
90.0
 71
     2
 49
0.5
 62
   256
  6
BYLAYER
 49
-0.5
 62
   256
  6
BYLAYER
  0
ACDBPLACEHOLDER
  5
F
102
{ACAD_REACTORS
330
E
102
}
330
E
  0
ENDSEC
  0
EOF
