  0
SECTION
  2
HEADER
  9
$ACADVER
  1
AC1015
  9
$ACADMAINTVER
 70
     6
  9
$DWGCODEPAGE
  3
ANSI_1252
  9
$INSBASE
 10
0.0
 20
0.0
 30
0.0
  9
$EXTMIN
 10
0.0
 20
0.0
 30
0.0
  9
$EXTMAX
 10
1100.0
 20
1500.0
 30
0.0
  9
$LIMMIN
 10
0.0
 20
0.0
  9
$LIMMAX
 10
1100.0
 20
1500.0
  9
$ORTHOMODE
 70
     0
  9
$REGENMODE
 70
     1
  9
$FILLMODE
 70
     1
  9
$QTEXTMODE
 70
     0
  9
$MIRRTEXT
 70
     1
  9
$LTSCALE
 40
1.0
  9
$ATTMODE
 70
     1
  9
$TEXTSIZE
 40
3.5
  9
$TRACEWID
 40
1.0
  9
$TEXTSTYLE
  7
Standard
  9
$CLAYER
  8
0
  9
$CELTYPE
  6
ByLayer
  9
$CECOLOR
 62
   256
  9
$CELTSCALE
 40
1.0
  9
$DISPSILH
 70
     0
  9
$DIMSCALE
 40
1.0
  9
$DIMASZ
 40
3.302
  9
$DIMEXO
 40
1.0
  9
$DIMDLI
 40
3.75
  9
$DIMRND
 40
0.0
  9
$DIMDLE
 40
0.0
  9
$DIMEXE
 40
1.0
  9
$DIMTP
 40
0.0
  9
$DIMTM
 40
0.0
  9
$DIMTXT
 40
3.5
  9
$DIMCEN
 40
2.5
  9
$DIMTSZ
 40
0.0
  9
$DIMTOL
 70
     0
  9
$DIMLIM
 70
     0
  9
$DIMTIH
 70
     1
  9
$DIMTOH
 70
     1
  9
$DIMSE1
 70
     0
  9
$DIMSE2
 70
     0
  9
$DIMTAD
 70
     1
  9
$DIMZIN
 70
     0
  9
$DIMBLK
  1

  9
$DIMASO
 70
     1
  9
$DIMSHO
 70
     1
  9
$DIMPOST
  1

  9
$DIMAPOST
  1

  9
$DIMALT
 70
     0
  9
$DIMALTD
 70
     3
  9
$DIMALTF
 40
0.0393700787
  9
$DIMLFAC
 40
1.0
  9
$DIMTOFL
 70
     1
  9
$DIMTVP
 40
0.0
  9
$DIMTIX
 70
     0
  9
$DIMSOXD
 70
     0
  9
$DIMSAH
 70
     0
  9
$DIMBLK1
  1

  9
$DIMBLK2
  1

  9
$DIMSTYLE
  2
ISO-25
  9
$DIMCLRD
 70
     0
  9
$DIMCLRE
 70
     0
  9
$DIMCLRT
 70
     0
  9
$DIMTFAC
 40
1.0
  9
$DIMGAP
 40
1.524
  9
$DIMJUST
 70
     0
  9
$DIMSD1
 70
     0
  9
$DIMSD2
 70
     0
  9
$DIMTOLJ
 70
     0
  9
$DIMTZIN
 70
     0
  9
$DIMALTZ
 70
     0
  9
$DIMALTTZ
 70
     0
  9
$DIMUPT
 70
     0
  9
$DIMDEC
 70
     1
  9
$DIMTDEC
 70
     1
  9
$DIMALTU
 70
     2
  9
$DIMALTTD
 70
     3
  9
$DIMTXSTY
  7
Standard
  9
$DIMAUNIT
 70
     0
  9
$DIMADEC
 70
     1
  9
$DIMALTRND
 40
0.0
  9
$DIMAZIN
 70
     0
  9
$DIMDSEP
 70
    44
  9
$DIMATFIT
 70
     3
  9
$DIMFRAC
 70
     0
  9
$DIMLDRBLK
  1

  9
$DIMLUNIT
 70
     2
  9
$DIMLWD
 70
    -2
  9
$DIMLWE
 70
    -2
  9
$DIMTMOVE
 70
     0
  9
$LUNITS
 70
     2
  9
$LUPREC
 70
     1
  9
$SKETCHINC
 40
1.0
  9
$FILLETRAD
 40
10.0
  9
$AUNITS
 70
     0
  9
$AUPREC
 70
     1
  9
$MENU
  1
.
  9
$ELEVATION
 40
0.0
  9
$PELEVATION
 40
0.0
  9
$THICKNESS
 40
0.0
  9
$LIMCHECK
 70
     0
  9
$CHAMFERA
 40
10.0
  9
$CHAMFERB
 40
10.0
  9
$CHAMFERC
 40
20.0
  9
$CHAMFERD
 40
0.0
  9
$SKPOLY
 70
     0
  9
$TDCREATE
 40
2457423.412420579
  9
$TDUCREATE
 40
2457423.412420579
  9
$TDUPDATE
 40
2457423.412421482
  9
$TDUUPDATE
 40
2457423.412421482
  9
$TDINDWG
 40
0.0000000116
  9
$TDUSRTIMER
 40
0.0000000116
  9
$USRTIMER
 70
     1
  9
$ANGBASE
 50
0.0
  9
$ANGDIR
 70
     0
  9
$PDMODE
 70
     0
  9
$PDSIZE
 40
-1.0
  9
$PLINEWID
 40
0.0
  9
$SPLFRAME
 70
     0
  9
$SPLINETYPE
 70
     6
  9
$SPLINESEGS
 70
     8
  9
$HANDSEED
  5
247
  9
$SURFTAB1
 70
     6
  9
$SURFTAB2
 70
     6
  9
$SURFTYPE
 70
     6
  9
$SURFU
 70
     6
  9
$SURFV
 70
     6
  9
$UCSBASE
  2

  9
$UCSNAME
  2

  9
$UCSORG
 10
0.0
 20
0.0
 30
0.0
  9
$UCSXDIR
 10
1.0
 20
0.0
 30
0.0
  9
$UCSYDIR
 10
0.0
 20
1.0
 30
0.0
  9
$UCSORTHOREF
  2

  9
$UCSORTHOVIEW
 70
     0
  9
$UCSORGTOP
 10
0.0
 20
0.0
 30
0.0
  9
$UCSORGBOTTOM
 10
0.0
 20
0.0
 30
0.0
  9
$UCSORGLEFT
 10
0.0
 20
0.0
 30
0.0
  9
$UCSORGRIGHT
 10
0.0
 20
0.0
 30
0.0
  9
$UCSORGFRONT
 10
0.0
 20
0.0
 30
0.0
  9
$UCSORGBACK
 10
0.0
 20
0.0
 30
0.0
  9
$PUCSBASE
  2

  9
$PUCSNAME
  2

  9
$PUCSORG
 10
0.0
 20
0.0
 30
0.0
  9
$PUCSXDIR
 10
1.0
 20
0.0
 30
0.0
  9
$PUCSYDIR
 10
0.0
 20
1.0
 30
0.0
  9
$PUCSORTHOREF
  2

  9
$PUCSORTHOVIEW
 70
     0
  9
$PUCSORGTOP
 10
0.0
 20
0.0
 30
0.0
  9
$PUCSORGBOTTOM
 10
0.0
 20
0.0
 30
0.0
  9
$PUCSORGLEFT
 10
0.0
 20
0.0
 30
0.0
  9
$PUCSORGRIGHT
 10
0.0
 20
0.0
 30
0.0
  9
$PUCSORGFRONT
 10
0.0
 20
0.0
 30
0.0
  9
$PUCSORGBACK
 10
0.0
 20
0.0
 30
0.0
  9
$USERI1
 70
     0
  9
$USERI2
 70
     0
  9
$USERI3
 70
     0
  9
$USERI4
 70
     0
  9
$USERI5
 70
     0
  9
$USERR1
 40
0.0
  9
$USERR2
 40
0.0
  9
$USERR3
 40
0.0
  9
$USERR4
 40
0.0
  9
$USERR5
 40
0.0
  9
$WORLDVIEW
 70
     1
  9
$SHADEDGE
 70
     3
  9
$SHADEDIF
 70
    70
  9
$TILEMODE
 70
     1
  9
$MAXACTVP
 70
    64
  9
$PINSBASE
 10
0.0
 20
0.0
 30
0.0
  9
$PLIMCHECK
 70
     0
  9
$PEXTMIN
 10
1.0000000000E+20
 20
1.0000000000E+20
 30
1.0000000000E+20
  9
$PEXTMAX
 10
-1.0000000000E+20
 20
-1.0000000000E+20
 30
-1.0000000000E+20
  9
$PLIMMIN
 10
0.0
 20
0.0
  9
$PLIMMAX
 10
420.0
 20
297.0
  9
$UNITMODE
 70
     0
  9
$VISRETAIN
 70
     1
  9
$PLINEGEN
 70
     0
  9
$PSLTSCALE
 70
     1
  9
$TREEDEPTH
 70
  3020
  9
$CMLSTYLE
  2
Standard
  9
$CMLJUST
 70
     0
  9
$CMLSCALE
 40
20.0
  9
$PROXYGRAPHICS
 70
     1
  9
$MEASUREMENT
 70
     1
  9
$CELWEIGHT
370
    -1
  9
$ENDCAPS
280
     0
  9
$JOINSTYLE
280
     0
  9
$LWDISPLAY
290
     1
  9
$INSUNITS
 70
     4
  9
$HYPERLINKBASE
  1

  9
$STYLESHEET
  1

  9
$XEDIT
290
     1
  9
$CEPSNTYPE
380
     0
  9
$PSTYLEMODE
290
     1
  9
$FINGERPRINTGUID
  2
{CBB6CC79-318F-4227-AF6C-2A3C7F3DBD0A}
  9
$VERSIONGUID
  2
{FAEB1C32-E019-11D5-929B-00C0DF256EC4}
  9
$EXTNAMES
290
     1
  9
$PSVPSCALE
 40
0.0
  9
$OLESTARTUP
290
     0
  0
ENDSEC
  0
SECTION
  2
CLASSES
  0
CLASS
  1
ACDBDICTIONARYWDFLT
  2
AcDbDictionaryWithDefault
  3
ObjectDBX Classes
 90
        0
280
     0
281
     0
  0
CLASS
  1
VISUALSTYLE
  2
AcDbVisualStyle
  3
ObjectDBX Classes
 90
     4095
280
     0
281
     0
  0
CLASS
  1
MATERIAL
  2
AcDbMaterial
  3
ObjectDBX Classes
 90
     1153
280
     0
281
     0
  0
CLASS
  1
ACDBPLACEHOLDER
  2
AcDbPlaceHolder
  3
ObjectDBX Classes
 90
        0
280
     0
281
     0
  0
CLASS
  1
LAYOUT
  2
AcDbLayout
  3
ObjectDBX Classes
 90
        0
280
     0
281
     0
  0
ENDSEC
  0
SECTION
  2
TABLES
  0
TABLE
  2
VPORT
  5
8
330
0
100
AcDbSymbolTable
 70
     1
  0
VPORT
  5
29
330
8
100
AcDbSymbolTableRecord
100
AcDbViewportTableRecord
  2
*Active
 70
     0
 10
0.0
 20
0.0
 11
1.0
 21
1.0
 12
550.0
 22
750.0
 13
0.0
 23
0.0
 14
10.0
 24
10.0
 15
10.0
 25
10.0
 16
0.0
 26
0.0
 36
1.0
 17
0.0
 27
0.0
 37
0.0
 40
1500.0
 41
0.7333333333
 42
50.0
 43
0.0
 44
0.0
 50
0.0
 51
0.0
 71
     0
 72
  2000
 73
     1
 74
     3
 75
     0
 76
     0
 77
     0
 78
     0
281
     0
 65
     1
110
0.0
120
0.0
130
0.0
111
1.0
121
0.0
131
0.0
112
0.0
122
1.0
132
0.0
 79
     0
146
0.0
  0
ENDTAB
  0
TABLE
  2
LTYPE
  5
5
330
0
100
AcDbSymbolTable
 70
     6
  0
LTYPE
  5
14
330
5
100
AcDbSymbolTableRecord
100
AcDbLinetypeTableRecord
  2
ByBlock
 70
     0
  3

 72
    65
 73
     0
 40
0.0
  0
LTYPE
  5
15
330
5
100
AcDbSymbolTableRecord
100
AcDbLinetypeTableRecord
  2
ByLayer
 70
     0
  3

 72
    65
 73
     0
 40
0.0
  0
LTYPE
  5
16
330
5
100
AcDbSymbolTableRecord
100
AcDbLinetypeTableRecord
  2
Continuous
 70
     0
  3
Solid line
 72
    65
 73
     0
 40
0.0
  0
LTYPE
  5
3F
330
5
100
AcDbSymbolTableRecord
100
AcDbLinetypeTableRecord
  2
HIDDEN
 70
     0
  3
Hidden __ __ __ __ __ __ __ __ __ __ __ __ __ __
 72
    65
 73
     2
 40
1.905
 49
1.27
 74
     0
 49
-0.635
 74
     0
  0
LTYPE
  5
40
330
5
100
AcDbSymbolTableRecord
100
AcDbLinetypeTableRecord
  2
PHANTOM
 70
     0
  3
Phantom ______  __  __  ______  __  __  ______
 72
    65
 73
     6
 40
12.7
 49
6.35
 74
     0
 49
-1.27
 74
     0
 49
1.27
 74
     0
 49
-1.27
 74
     0
 49
1.27
 74
     0
 49
-1.27
 74
     0
  0
LTYPE
  5
41
330
5
100
AcDbSymbolTableRecord
100
AcDbLinetypeTableRecord
  2
CENTER
 70
     0
  3
Center ____ _ ____ _ ____ _ ____ _ ____ _ ____
 72
    65
 73
     4
 40
10.16
 49
6.35
 74
     0
 49
-1.27
 74
     0
 49
1.27
 74
     0
 49
-1.27
 74
     0
  0
LTYPE
  5
42
330
5
100
AcDbSymbolTableRecord
100
AcDbLinetypeTableRecord
  2
CENTERX2
 70
     0
  3
Center (2x) ________  __  ________  __  _____
 72
    65
 73
     4
 40
20.32
 49
12.7
 74
     0
 49
-2.54
 74
     0
 49
2.54
 74
     0
 49
-2.54
 74
     0
  0
LTYPE
  5
43
330
5
100
AcDbSymbolTableRecord
100
AcDbLinetypeTableRecord
  2
DOT2
 70
     0
  3
Dot (.5x) ........................................
 72
    65
 73
     2
 40
0.635
 49
0.0
 74
     0
 49
-0.635
 74
     0
  0
ENDTAB
  0
TABLE
  2
LAYER
  5
2
330
0
100
AcDbSymbolTable
 70
     4
  0
LAYER
  5
10
330
2
100
AcDbSymbolTableRecord
100
AcDbLayerTableRecord
  2
0
 70
     0
 62
     7
  6
Continuous
370
    -3
390
F
  0
LAYER
  5
44
330
2
100
AcDbSymbolTableRecord
100
AcDbLayerTableRecord
  2
FORMAT
 70
     0
 62
     7
  6
Continuous
370
    -3
390
F
  0
LAYER
  5
45
330
2
100
AcDbSymbolTableRecord
100
AcDbLayerTableRecord
  2
SLD-0
 70
     0
 62
     1
  6
Continuous
370
    -3
390
F
  0
LAYER
  5
46
330
2
100
AcDbSymbolTableRecord
100
AcDbLayerTableRecord
  2
WATERMARK
 70
     0
 62
     1
  6
Continuous
370
    -3
390
F
  0
ENDTAB
  0
TABLE
  2
STYLE
  5
3
330
0
100
AcDbSymbolTable
 70
     1
  0
STYLE
  5
11
330
3
100
AcDbSymbolTableRecord
100
AcDbTextStyleTableRecord
  2
Standard
 70
     0
 40
0.0
 41
1.0
 50
0.0
 71
     0
 42
3.5
  3
txt
  4

  0
ENDTAB
  0
TABLE
  2
VIEW
  5
6
330
0
100
AcDbSymbolTable
 70
     0
  0
ENDTAB
  0
TABLE
  2
UCS
  5
7
330
0
100
AcDbSymbolTable
 70
     0
  0
ENDTAB
  0
TABLE
  2
APPID
  5
9
330
0
100
AcDbSymbolTable
 70
     1
  0
APPID
  5
12
330
9
100
AcDbSymbolTableRecord
100
AcDbRegAppTableRecord
  2
ACAD
 70
     0
  0
ENDTAB
  0
TABLE
  2
DIMSTYLE
  5
A
330
0
100
AcDbSymbolTable
 70
     1
100
AcDbDimStyleTable
  0
DIMSTYLE
105
27
330
A
100
AcDbSymbolTableRecord
100
AcDbDimStyleTableRecord
  2
ISO-25
 70
     0
 41
2.5
 42
0.625
 43
3.75
 44
1.25
 73
     0
 74
     0
 77
     1
 78
     8
140
2.5
141
2.5
143
0.0393700787
147
0.625
171
     3
172
     1
178
     0
271
     2
272
     2
274
     3
278
    44
283
     0
284
     8
340
11
  0
ENDTAB
  0
TABLE
  2
BLOCK_RECORD
  5
1
330
0
100
AcDbSymbolTable
 70
     1
  0
BLOCK_RECORD
  5
1F
330
1
100
AcDbSymbolTableRecord
100
AcDbBlockTableRecord
  2
*Model_Space
340
22
  0
BLOCK_RECORD
  5
1B
330
1
100
AcDbSymbolTableRecord
100
AcDbBlockTableRecord
  2
*Paper_Space
340
1E
  0
BLOCK_RECORD
  5
23
330
1
100
AcDbSymbolTableRecord
100
AcDbBlockTableRecord
  2
*Paper_Space0
340
26
  0
ENDTAB
  0
ENDSEC
  0
SECTION
  2
BLOCKS
  0
BLOCK
  5
20
330
1F
100
AcDbEntity
  8
0
100
AcDbBlockBegin
  2
*Model_Space
 70
     0
 10
0.0
 20
0.0
 30
0.0
  3
*Model_Space
  1

  0
ENDBLK
  5
21
330
1F
100
AcDbEntity
  8
0
100
AcDbBlockEnd
  0
BLOCK
  5
1C
330
1B
100
AcDbEntity
 67
     1
  8
0
100
AcDbBlockBegin
  2
*Paper_Space
 70
     0
 10
0.0
 20
0.0
 30
0.0
  3
*Paper_Space
  1

  0
ENDBLK
  5
1D
330
1B
100
AcDbEntity
 67
     1
  8
0
100
AcDbBlockEnd
  0
BLOCK
  5
24
330
23
100
AcDbEntity
  8
0
100
AcDbBlockBegin
  2
*Paper_Space0
 70
     0
 10
0.0
 20
0.0
 30
0.0
  3
*Paper_Space0
  1

  0
ENDBLK
  5
25
330
23
100
AcDbEntity
  8
0
100
AcDbBlockEnd
  0
ENDSEC
  0
SECTION
  2
ENTITIES
  0
LINE
  5
47
330
1F
100
AcDbEntity
  8
0
  6
Continuous
 62
     7
370
    15
100
AcDbLine
 10
449.025862069
 20
221.1697044335
 30
0.0
 11
449.025862069
 21
225.1697044335
 31
0.0
  0
LINE
  5
48
330
1F
100
AcDbEntity
  8
0
  6
Continuous
 62
     7
370
    15
100
AcDbLine
 10
392.025862069
 20
225.1697044335
 30
0.0
 11
392.025862069
 21
221.1697044335
 31
0.0
  0
ARC
  5
49
330
1F
100
AcDbEntity
  8
0
  6
Continuous
 62
     7
370
    15
100
AcDbCircle
 10
447.025862069
 20
221.1697044335
 30
0.0
 40
2.0
100
AcDbArc
 50
270.0
 51
0.0
  0
ARC
  5
4A
330
1F
100
AcDbEntity
  8
0
  6
Continuous
 62
     7
370
    15
100
AcDbCircle
 10
394.025862069
 20
221.1697044335
 30
0.0
 40
2.0
100
AcDbArc
 50
180.0
 51
270.0
  0
ARC
  5
4B
330
1F
100
AcDbEntity
  8
0
  6
Continuous
 62
     7
370
    15
100
AcDbCircle
 10
721.025862069
 20
221.1697044335
 30
0.0
 40
2.0
100
AcDbArc
 50
270.0
 51
0.0
  0
ARC
  5
4C
330
1F
100
AcDbEntity
  8
0
  6
Continuous
 62
     7
370
    15
100
AcDbCircle
 10
668.025862069
 20
221.1697044335
 30
0.0
 40
2.0
100
AcDbArc
 50
180.0
 51
270.0
  0
LINE
  5
4D
330
1F
100
AcDbEntity
  8
0
  6
Continuous
 62
     7
370
    15
100
AcDbLine
 10
723.025862069
 20
221.1697044335
 30
0.0
 11
723.025862069
 21
225.1697044335
 31
0.0
  0
LINE
  5
4E
330
1F
100
AcDbEntity
  8
0
  6
Continuous
 62
     7
370
    15
100
AcDbLine
 10
666.025862069
 20
225.1697044335
 30
0.0
 11
666.025862069
 21
221.1697044335
 31
0.0
  0
LINE
  5
4F
330
1F
100
AcDbEntity
  8
0
  6
Continuous
 62
     7
370
    15
100
AcDbLine
 10
722.825862069
 20
225.1697044335
 30
0.0
 11
722.825862069
 21
293.1697044335
 31
0.0
  0
LINE
  5
50
330
1F
100
AcDbEntity
  8
0
  6
Continuous
 62
     7
370
    15
100
AcDbLine
 10
666.225862069
 20
293.1697044335
 30
0.0
 11
666.225862069
 21
225.1697044335
 31
0.0
  0
LINE
  5
51
330
1F
100
AcDbEntity
  8
0
  6
Continuous
 62
     7
370
    15
100
AcDbLine
 10
448.825862069
 20
225.1697044335
 30
0.0
 11
448.825862069
 21
293.1697044335
 31
0.0
  0
LINE
  5
52
330
1F
100
AcDbEntity
  8
0
  6
Continuous
 62
     7
370
    15
100
AcDbLine
 10
392.225862069
 20
293.1697044335
 30
0.0
 11
392.225862069
 21
225.1697044335
 31
0.0
  0
ARC
  5
53
330
1F
100
AcDbEntity
  8
0
  6
Continuous
 62
     7
370
    15
100
AcDbCircle
 10
727.925862069
 20
385.6697044335
 30
0.0
 40
1.5
100
AcDbArc
 50
90.0
 51
180.0
  0
ARC
  5
54
330
1F
100
AcDbEntity
  8
0
  6
Continuous
 62
     7
370
    15
100
AcDbCircle
 10
661.125862069
 20
385.6697044335
 30
0.0
 40
1.500000000000114
100
AcDbArc
 50
0.0
 51
90.0
  0
ARC
  5
55
330
1F
100
AcDbEntity
  8
0
  6
Continuous
 62
     7
370
    15
100
AcDbCircle
 10
721.725862069
 20
299.2022703792
 30
0.0
 40
4.700000000000045
100
AcDbArc
 50
350.5402980318
 51
0.0
  0
ARC
  5
56
330
1F
100
AcDbEntity
  8
0
  6
Continuous
 62
     7
370
    15
100
AcDbCircle
 10
667.325862069
 20
299.2022703792
 30
0.0
 40
4.7
100
AcDbArc
 50
180.0
 51
189.4597019682
  0
LINE
  5
57
330
1F
100
AcDbEntity
  8
0
  6
Continuous
 62
     7
370
    15
100
AcDbLine
 10
726.425862069
 20
299.2022703792
 30
0.0
 11
726.425862069
 21
385.6697044335
 31
0.0
  0
LINE
  5
58
330
1F
100
AcDbEntity
  8
0
  6
Continuous
 62
     7
370
    15
100
AcDbLine
 10
662.625862069
 20
385.6697044335
 30
0.0
 11
662.625862069
 21
299.2022703792
 31
0.0
  0
LINE
  5
59
330
1F
100
AcDbEntity
  8
0
  6
Continuous
 62
     7
370
    15
100
AcDbLine
 10
662.689775296
 20
298.4298071547
 30
0.0
 11
663.5662118486
 21
293.1697044335
 31
0.0
  0
LINE
  5
5A
330
1F
100
AcDbEntity
  8
0
  6
Continuous
 62
     7
370
    15
100
AcDbLine
 10
725.4855122893
 20
293.1697044335
 30
0.0
 11
726.361948842
 21
298.4298071547
 31
0.0
  0
ARC
  5
5B
330
1F
100
AcDbEntity
  8
0
  6
Continuous
 62
     7
370
    15
100
AcDbCircle
 10
453.925862069
 20
385.6697044335
 30
0.0
 40
1.5
100
AcDbArc
 50
90.0
 51
180.0
  0
ARC
  5
5C
330
1F
100
AcDbEntity
  8
0
  6
Continuous
 62
     7
370
    15
100
AcDbCircle
 10
387.125862069
 20
385.6697044335
 30
0.0
 40
1.5
100
AcDbArc
 50
0.0
 51
90.0
  0
ARC
  5
5D
330
1F
100
AcDbEntity
  8
0
  6
Continuous
 62
     7
370
    15
100
AcDbCircle
 10
447.725862069
 20
299.2022703792
 30
0.0
 40
4.699999999999989
100
AcDbArc
 50
350.5402980318
 51
0.0
  0
ARC
  5
5E
330
1F
100
AcDbEntity
  8
0
  6
Continuous
 62
     7
370
    15
100
AcDbCircle
 10
393.325862069
 20
299.2022703792
 30
0.0
 40
4.700000000000057
100
AcDbArc
 50
180.0
 51
189.4597019682
  0
LINE
  5
5F
330
1F
100
AcDbEntity
  8
0
  6
Continuous
 62
     7
370
    15
100
AcDbLine
 10
452.425862069
 20
299.2022703792
 30
0.0
 11
452.425862069
 21
385.6697044335
 31
0.0
  0
LINE
  5
60
330
1F
100
AcDbEntity
  8
0
  6
Continuous
 62
     7
370
    15
100
AcDbLine
 10
388.625862069
 20
385.6697044335
 30
0.0
 11
388.625862069
 21
299.2022703792
 31
0.0
  0
LINE
  5
61
330
1F
100
AcDbEntity
  8
0
  6
Continuous
 62
     7
370
    15
100
AcDbLine
 10
388.689775296
 20
298.4298071547
 30
0.0
 11
389.5662118486
 21
293.1697044335
 31
0.0
  0
LINE
  5
62
330
1F
100
AcDbEntity
  8
0
  6
Continuous
 62
     7
370
    15
100
AcDbLine
 10
451.4855122893
 20
293.1697044335
 30
0.0
 11
452.361948842
 21
298.4298071547
 31
0.0
  0
LINE
  5
63
330
1F
100
AcDbEntity
  8
0
  6
Continuous
 62
     7
370
    15
100
AcDbLine
 10
757.025862069
 20
1136.4697044335
 30
0.0
 11
757.025862069
 21
1145.9697044335
 31
0.0
  0
LINE
  5
64
330
1F
100
AcDbEntity
  8
0
  6
Continuous
 62
     7
370
    15
100
AcDbLine
 10
738.025862069
 20
1145.9697044335
 30
0.0
 11
738.025862069
 21
1136.4697044335
 31
0.0
  0
ARC
  5
65
330
1F
100
AcDbEntity
  8
0
  6
Continuous
 62
     7
370
    15
100
AcDbCircle
 10
740.025862069
 20
1145.9697044335
 30
0.0
 40
2.0
100
AcDbArc
 50
90.0
 51
180.0
  0
ARC
  5
66
330
1F
100
AcDbEntity
  8
0
  6
Continuous
 62
     7
370
    15
100
AcDbCircle
 10
755.025862069
 20
1145.9697044335
 30
0.0
 40
2.0
100
AcDbArc
 50
0.0
 51
90.0
  0
LINE
  5
67
330
1F
100
AcDbEntity
  8
0
  6
Continuous
 62
     7
370
    15
100
AcDbLine
 10
377.025862069
 20
1136.4697044335
 30
0.0
 11
377.025862069
 21
1145.9697044335
 31
0.0
  0
LINE
  5
68
330
1F
100
AcDbEntity
  8
0
  6
Continuous
 62
     7
370
    15
100
AcDbLine
 10
358.025862069
 20
1145.9697044335
 30
0.0
 11
358.025862069
 21
1136.4697044335
 31
0.0
  0
ARC
  5
69
330
1F
100
AcDbEntity
  8
0
  6
Continuous
 62
     7
370
    15
100
AcDbCircle
 10
360.025862069
 20
1145.9697044335
 30
0.0
 40
2.0
100
AcDbArc
 50
90.0
 51
180.0
  0
ARC
  5
6A
330
1F
100
AcDbEntity
  8
0
  6
Continuous
 62
     7
370
    15
100
AcDbCircle
 10
375.025862069
 20
1145.9697044335
 30
0.0
 40
2.0
100
AcDbArc
 50
0.0
 51
90.0
  0
LINE
  5
6B
330
1F
100
AcDbEntity
  8
0
  6
Continuous
 62
     7
370
    15
100
AcDbLine
 10
513.1107010811
 20
992.9614424662
 30
0.0
 11
512.2946827347
 21
993.7062095416
 31
0.0
  0
LINE
  5
6C
330
1F
100
AcDbEntity
  8
0
  6
Continuous
 62
     7
370
    15
100
AcDbLine
 10
502.8572531632
 20
993.7062095416
 30
0.0
 11
502.0412348168
 21
992.9614424662
 31
0.0
  0
LINE
  5
6D
330
1F
100
AcDbEntity
  8
0
  6
Continuous
 62
     7
370
    15
100
AcDbLine
 10
568.325862069
 20
1004.9866625649
 30
0.0
 11
546.725862069
 21
1004.9866625649
 31
0.0
  0
ARC
  5
6E
330
1F
100
AcDbEntity
  8
0
  6
Continuous
 62
     7
370
    15
100
AcDbCircle
 10
546.725862069
 20
1004.4866625649
 30
0.0
 40
0.5000000000002274
100
AcDbArc
 50
90.0
 51
180.0
  0
ARC
  5
6F
330
1F
100
AcDbEntity
  8
0
  6
Continuous
 62
     7
370
    15
100
AcDbCircle
 10
568.325862069
 20
1004.4866625649
 30
0.0
 40
0.5000000000002274
100
AcDbArc
 50
0.0
 51
90.0
  0
LINE
  5
70
330
1F
100
AcDbEntity
  8
0
  6
Continuous
 62
     7
370
    15
100
AcDbLine
 10
571.275862069
 20
1006.4346189065
 30
0.0
 11
543.775862069
 21
1006.4346189065
 31
0.0
  0
ARC
  5
71
330
1F
100
AcDbEntity
  8
0
  6
Continuous
 62
     7
370
    15
100
AcDbCircle
 10
571.275862069
 20
1005.4346189065
 30
0.0
 40
1.0
100
AcDbArc
 50
0.0
 51
90.0
  0
ARC
  5
72
330
1F
100
AcDbEntity
  8
0
  6
Continuous
 62
     7
370
    15
100
AcDbCircle
 10
543.775862069
 20
1005.4346189065
 30
0.0
 40
1.0
100
AcDbArc
 50
90.0
 51
180.0
  0
LINE
  5
73
330
1F
100
AcDbEntity
  8
0
  6
Continuous
 62
     7
370
    15
100
AcDbLine
 10
612.9605952011
 20
992.9614424662
 30
0.0
 11
612.1445768547
 21
993.7062095416
 31
0.0
  0
LINE
  5
74
330
1F
100
AcDbEntity
  8
0
  6
Continuous
 62
     7
370
    15
100
AcDbLine
 10
602.7071472832
 20
993.7062095416
 30
0.0
 11
601.8911289368
 21
992.9614424662
 31
0.0
  0
SPLINE
  5
75
330
1F
100
AcDbEntity
  8
0
  6
Continuous
 62
     7
370
    15
100
AcDbSpline
210
0.0
220
0.0
230
1.0
 70
     8
 71
     3
 72
    11
 73
     7
 74
     0
 42
0.00000001
 43
0.00000001
 12
1.0
 22
0.0
 32
0.0
 13
1.0
 23
0.0
 33
0.0
 40
0.0
 40
0.0
 40
0.0
 40
0.0
 40
0.1533548501926022
 40
0.4664682046963149
 40
0.789650750340786
 40
1.0
 40
1.0
 40
1.0
 40
1.0
 10
670.5258620694932
 20
1300.964566734885
 30
0.0
 10
670.6318671538071
 20
1300.96099108369
 30
0.0
 10
670.9543088718648
 20
1300.950114821271
 30
0.0
 10
671.4702377350986
 20
1300.82325299991
 30
0.0
 10
671.9315461929729
 20
1300.592679706436
 30
0.0
 10
672.0871387129769
 20
1300.435199375564
 30
0.0
 10
672.1484823294652
 20
1300.373111474287
 30
0.0
  0
LINE
  5
76
330
1F
100
AcDbEntity
  8
0
  6
Continuous
 62
     7
370
    15
100
AcDbLine
 10
444.5258620695
 20
1300.9645667349
 30
0.0
 11
670.5258620695
 21
1300.9645667349
 31
0.0
  0
SPLINE
  5
77
330
1F
100
AcDbEntity
  8
0
  6
Continuous
 62
     7
370
    15
100
AcDbSpline
210
0.0
220
0.0
230
1.0
 70
     8
 71
     3
 72
    11
 73
     7
 74
     0
 42
0.00000001
 43
0.00000001
 12
1.0
 22
0.0
 32
0.0
 13
1.0
 23
0.0
 33
0.0
 40
0.0
 40
0.0
 40
0.0
 40
0.0
 40
0.0917452789242698
 40
0.4196457766063734
 40
0.7260210778585006
 40
1.0
 40
1.0
 40
1.0
 40
1.0
 10
442.8956090100949
 20
1300.370363801185
 30
0.0
 10
442.916593626693
 20
1300.396144673471
 30
0.0
 10
443.0125779196438
 20
1300.514067190021
 30
0.0
 10
443.3774025772672
 20
1300.734622046194
 30
0.0
 10
443.9286992297695
 20
1300.92883884262
 30
0.0
 10
444.3343559433109
 20
1300.953109038946
 30
0.0
 10
444.5258620694931
 20
1300.964566734886
 30
0.0
  0
SPLINE
  5
78
330
1F
100
AcDbEntity
  8
0
  6
Continuous
 62
     7
370
    15
100
AcDbSpline
210
0.0
220
0.0
230
1.0
 70
     8
 71
     3
 72
    11
 73
     7
 74
     0
 42
0.00000001
 43
0.00000001
 12
1.0
 22
0.0
 32
0.0
 13
1.0
 23
0.0
 33
0.0
 40
0.0
 40
0.0
 40
0.0
 40
0.0
 40
0.1533548501926024
 40
0.4664682046963115
 40
0.78965075034079
 40
1.0
 40
1.0
 40
1.0
 40
1.0
 10
659.5258620694931
 20
1289.939941484852
 30
0.0
 10
659.631867153807
 20
1289.936365833656
 30
0.0
 10
659.9543088718647
 20
1289.925489571238
 30
0.0
 10
660.4702377350986
 20
1289.798627749876
 30
0.0
 10
660.9315461929727
 20
1289.568054456402
 30
0.0
 10
661.0871387129769
 20
1289.410574125531
 30
0.0
 10
661.1484823294652
 20
1289.348486224254
 30
0.0
  0
LINE
  5
79
330
1F
100
AcDbEntity
  8
0
  6
Continuous
 62
     7
370
    15
100
AcDbLine
 10
455.5258620695
 20
1289.9399414849
 30
0.0
 11
659.5258620695
 21
1289.9399414849
 31
0.0
  0
SPLINE
  5
7A
330
1F
100
AcDbEntity
  8
0
  6
Continuous
 62
     7
370
    15
100
AcDbSpline
210
0.0
220
0.0
230
1.0
 70
     8
 71
     3
 72
    11
 73
     7
 74
     0
 42
0.00000001
 43
0.00000001
 12
1.0
 22
0.0
 32
0.0
 13
1.0
 23
0.0
 33
0.0
 40
0.0
 40
0.0
 40
0.0
 40
0.0
 40
0.0917452789242559
 40
0.4196457766063554
 40
0.726021077858486
 40
1.0
 40
1.0
 40
1.0
 40
1.0
 10
453.8956090100948
 20
1289.345738551151
 30
0.0
 10
453.916593626693
 20
1289.371519423438
 30
0.0
 10
454.0125779196438
 20
1289.489441939987
 30
0.0
 10
454.3774025772672
 20
1289.70999679616
 30
0.0
 10
454.9286992297694
 20
1289.904213592586
 30
0.0
 10
455.3343559433109
 20
1289.928483788912
 30
0.0
 10
455.5258620694931
 20
1289.939941484852
 30
0.0
  0
LINE
  5
7B
330
1F
100
AcDbEntity
  8
0
  6
Continuous
 62
     7
370
    15
100
AcDbLine
 10
461.418636851
 20
1280.6114124271
 30
0.0
 11
648.5258620695
 21
1280.6114124271
 31
0.0
  0
SPLINE
  5
7C
330
1F
100
AcDbEntity
  8
0
  6
Continuous
 62
     7
370
    15
100
AcDbSpline
210
0.0
220
0.0
230
1.0
 70
     8
 71
     3
 72
    11
 73
     7
 74
     0
 42
0.00000001
 43
0.00000001
 12
1.0
 22
0.0
 32
0.0
 13
1.0
 23
0.0
 33
0.0
 40
0.0
 40
0.0
 40
0.0
 40
0.0
 40
0.2609906426653311
 40
0.5164204719042246
 40
0.7638700357027307
 40
1.0
 40
1.0
 40
1.0
 40
1.0
 10
459.3674238863543
 20
1281.457623185346
 30
0.0
 10
459.519986851848
 20
1281.32639744128
 30
0.0
 10
459.8218621904838
 20
1281.066741922657
 30
0.0
 10
460.3552029919617
 20
1280.804857717588
 30
0.0
 10
460.9017110566005
 20
1280.639548057617
 30
0.0
 10
461.2603661627555
 20
1280.622888542531
 30
0.0
 10
461.4354960276298
 20
1280.614753767434
 30
0.0
  0
SPLINE
  5
7D
330
1F
100
AcDbEntity
  8
0
  6
Continuous
 62
     7
370
    15
100
AcDbSpline
210
0.0
220
0.0
230
1.0
 70
     8
 71
     3
 72
    11
 73
     7
 74
     0
 42
0.00000001
 43
0.00000001
 12
1.0
 22
0.0
 32
0.0
 13
1.0
 23
0.0
 33
0.0
 40
0.0
 40
0.0
 40
0.0
 40
0.0
 40
0.1533548501925976
 40
0.4664682046963008
 40
0.78965075034077
 40
1.0
 40
1.0
 40
1.0
 40
1.0
 10
648.5258620694931
 20
1280.611412427131
 30
0.0
 10
648.631867153807
 20
1280.607836775936
 30
0.0
 10
648.9543088718647
 20
1280.596960513517
 30
0.0
 10
649.4702377350985
 20
1280.470098692156
 30
0.0
 10
649.9315461929729
 20
1280.239525398681
 30
0.0
 10
650.0871387129769
 20
1280.08204506781
 30
0.0
 10
650.1484823294652
 20
1280.019957166533
 30
0.0
  0
SPLINE
  5
7E
330
1F
100
AcDbEntity
  8
0
  6
Continuous
 62
     7
370
    15
100
AcDbSpline
210
0.0
220
0.0
230
1.0
 70
     8
 71
     3
 72
    12
 73
     8
 74
     0
 42
0.00000001
 43
0.00000001
 12
1.0
 22
0.0
 32
0.0
 13
1.0
 23
0.0
 33
0.0
 40
0.0
 40
0.0
 40
0.0
 40
0.0
 40
0.1615150173526732
 40
0.4255437596828636
 40
0.6909733850002717
 40
0.9566723086786387
 40
1.0
 40
1.0
 40
1.0
 40
1.0
 10
648.5258620694931
 20
1271.28288336941
 30
0.0
 10
648.8559877865627
 20
1271.293944552465
 30
0.0
 10
649.7257703065561
 20
1271.323087461283
 30
0.0
 10
651.1183962397249
 20
1271.614540082486
 30
0.0
 10
652.5974062508529
 20
1272.23983168578
 30
0.0
 10
653.6095363008515
 20
1272.831851212757
 30
0.0
 10
654.0350716086867
 20
1273.26952165254
 30
0.0
 10
654.094734633065
 20
1273.330886107234
 30
0.0
  0
SPLINE
  5
7F
330
1F
100
AcDbEntity
  8
0
  6
Continuous
 62
     7
370
    15
100
AcDbSpline
210
0.0
220
0.0
230
1.0
 70
     8
 71
     3
 72
    12
 73
     8
 74
     0
 42
0.00000001
 43
0.00000001
 12
1.0
 22
0.0
 32
0.0
 13
1.0
 23
0.0
 33
0.0
 40
0.0
 40
0.0
 40
0.0
 40
0.0
 40
0.1206885369589901
 40
0.385041607726264
 40
0.6527228340612231
 40
0.923166166457474
 40
1.0
 40
1.0
 40
1.0
 40
1.0
 10
450.1289251737373
 20
1273.203379941117
 30
0.0
 10
450.3021612766975
 20
1273.050548966755
 30
0.0
 10
450.8548492890034
 20
1272.562960952503
 30
0.0
 10
451.993941412623
 20
1271.976140713663
 30
0.0
 10
453.4817792284896
 20
1271.4700171106
 30
0.0
 10
454.6902785870262
 20
1271.296250661488
 30
0.0
 10
455.3744840522257
 20
1271.285305047452
 30
0.0
 10
455.525862069493
 20
1271.282883369411
 30
0.0
  0
LINE
  5
80
330
1F
100
AcDbEntity
  8
0
  6
Continuous
 62
     7
370
    15
100
AcDbLine
 10
455.5258620695
 20
1271.2828833694
 30
0.0
 11
648.5258620695
 21
1271.2828833694
 31
0.0
  0
SPLINE
  5
81
330
1F
100
AcDbEntity
  8
0
  6
Continuous
 62
     7
370
    15
100
AcDbSpline
210
0.0
220
0.0
230
1.0
 70
     8
 71
     3
 72
    12
 73
     8
 74
     0
 42
0.00000001
 43
0.00000001
 12
1.0
 22
0.0
 32
0.0
 13
1.0
 23
0.0
 33
0.0
 40
0.0
 40
0.0
 40
0.0
 40
0.0
 40
0.1615150173526733
 40
0.4255437596828637
 40
0.6909733850002726
 40
0.9566723086786393
 40
1.0
 40
1.0
 40
1.0
 40
1.0
 10
659.5258620694931
 20
1261.95435431169
 30
0.0
 10
659.8559877865627
 20
1261.965415494744
 30
0.0
 10
660.7257703065561
 20
1261.994558403562
 30
0.0
 10
662.1183962397249
 20
1262.286011024765
 30
0.0
 10
663.5974062508529
 20
1262.911302628059
 30
0.0
 10
664.6095363008515
 20
1263.503322155036
 30
0.0
 10
665.0350716086868
 20
1263.940992594819
 30
0.0
 10
665.094734633065
 20
1264.002357049513
 30
0.0
  0
LINE
  5
82
330
1F
100
AcDbEntity
  8
0
  6
Continuous
 62
     7
370
    15
100
AcDbLine
 10
444.5258620695
 20
1261.9543543117
 30
0.0
 11
659.5258620695
 21
1261.9543543117
 31
0.0
  0
SPLINE
  5
83
330
1F
100
AcDbEntity
  8
0
  6
Continuous
 62
     7
370
    15
100
AcDbSpline
210
0.0
220
0.0
230
1.0
 70
     8
 71
     3
 72
    11
 73
     7
 74
     0
 42
0.00000001
 43
0.00000001
 12
1.0
 22
0.0
 32
0.0
 13
1.0
 23
0.0
 33
0.0
 40
0.0
 40
0.0
 40
0.0
 40
0.0
 40
0.0917452789242435
 40
0.4196457766063555
 40
0.7260210778584827
 40
1.0
 40
1.0
 40
1.0
 40
1.0
 10
442.8956090100949
 20
1261.360151377989
 30
0.0
 10
442.916593626693
 20
1261.385932250276
 30
0.0
 10
443.0125779196438
 20
1261.503854766825
 30
0.0
 10
443.3774025772672
 20
1261.724409622998
 30
0.0
 10
443.9286992297695
 20
1261.918626419425
 30
0.0
 10
444.3343559433109
 20
1261.94289661575
 30
0.0
 10
444.5258620694931
 20
1261.95435431169
 30
0.0
  0
LINE
  5
84
330
1F
100
AcDbEntity
  8
0
  6
Continuous
 62
     7
370
    15
100
AcDbLine
 10
439.5258620695
 20
1253.1314901798
 30
0.0
 11
675.5258620695
 21
1253.1314901798
 31
0.0
  0
ARC
  5
85
330
1F
100
AcDbEntity
  8
0
  6
Continuous
 62
     7
370
    15
100
AcDbCircle
 10
675.5258620695
 20
1255.1314901798
 30
0.0
 40
2.0
100
AcDbArc
 50
270.0
 51
0.0
  0
ARC
  5
86
330
1F
100
AcDbEntity
  8
0
  6
Continuous
 62
     7
370
    15
100
AcDbCircle
 10
439.5258620695
 20
1255.1314901798
 30
0.0
 40
2.0
100
AcDbArc
 50
180.0
 51
270.0
  0
LINE
  5
87
330
1F
100
AcDbEntity
  8
0
  6
Continuous
 62
     7
370
    15
100
AcDbLine
 10
440.2938112614
 20
1347.7697044335
 30
0.0
 11
440.2938112614
 21
1347.8697044335
 31
0.0
  0
LINE
  5
88
330
1F
100
AcDbEntity
  8
0
  6
Continuous
 62
     7
370
    15
100
AcDbLine
 10
409.7579128765
 20
1347.8697044335
 30
0.0
 11
409.7579128765
 21
1347.7697044335
 31
0.0
  0
LINE
  5
89
330
1F
100
AcDbEntity
  8
0
  6
Continuous
 62
     7
370
    15
100
AcDbLine
 10
708.2675318198
 20
1028.3109589
 30
0.0
 11
708.2675318198
 21
1028.2686970738
 31
0.0
  0
LINE
  5
8A
330
1F
100
AcDbEntity
  8
0
  6
Continuous
 62
     7
370
    15
100
AcDbLine
 10
756.7841923182
 20
1028.2686970738
 30
0.0
 11
756.7841923182
 21
1028.3109589
 31
0.0
  0
LINE
  5
8B
330
1F
100
AcDbEntity
  8
0
  6
Continuous
 62
     7
370
    15
100
AcDbLine
 10
731.7841923182
 20
1028.2686970738
 30
0.0
 11
731.7841923182
 21
1028.3109589
 31
0.0
  0
LINE
  5
8C
330
1F
100
AcDbEntity
  8
0
  6
Continuous
 62
     7
370
    15
100
AcDbLine
 10
733.2675318198
 20
1028.3109589
 30
0.0
 11
733.2675318198
 21
1028.2686970738
 31
0.0
  0
SPLINE
  5
8D
330
1F
100
AcDbEntity
  8
0
  6
Continuous
 62
     7
370
    15
100
AcDbSpline
210
0.0
220
0.0
230
1.0
 70
     8
 71
     3
 72
    13
 73
     9
 74
     0
 42
0.00000001
 43
0.00000001
 12
1.0
 22
0.0
 32
0.0
 13
1.0
 23
0.0
 33
0.0
 40
0.0
 40
0.0
 40
0.0
 40
0.0
 40
0.1537005146063715
 40
0.4677837651271995
 40
0.6522647620204388
 40
0.8142558356578968
 40
0.9817880838884064
 40
1.0
 40
1.0
 40
1.0
 40
1.0
 10
504.8638088106351
 20
376.0673184962148
 30
0.0
 10
504.8708875282616
 20
376.06768243635
 30
0.0
 10
504.8924314326011
 20
376.0687900792692
 30
0.0
 10
504.933019060792
 20
376.046522950582
 30
0.0
 10
504.981122480084
 20
375.9843855069458
 30
0.0
 10
505.0087340116251
 20
375.9129153734956
 30
0.0
 10
505.0199045721806
 20
375.8542040607102
 30
0.0
 10
505.0180257229516
 20
375.8230596118053
 30
0.0
 10
505.0178415048112
 20
375.8200059487585
 30
0.0
  0
ARC
  5
8E
330
1F
100
AcDbEntity
  8
0
  6
Continuous
 62
     7
370
    15
100
AcDbCircle
 10
505.2684799644
 20
370.7197044335
 30
0.0
 40
0.2500000000001137
100
AcDbArc
 50
180.0
 51
270.0
  0
LINE
  5
8F
330
1F
100
AcDbEntity
  8
0
  6
Continuous
 62
     7
370
    15
100
AcDbLine
 10
505.0184799644
 20
375.8197044335
 30
0.0
 11
505.0184799644
 21
370.7197044335
 31
0.0
  0
ARC
  5
90
330
1F
100
AcDbEntity
  8
0
  6
Continuous
 62
     7
370
    15
100
AcDbCircle
 10
509.706301179
 20
370.7197044335
 30
0.0
 40
0.2499999999999432
100
AcDbArc
 50
270.0
 51
0.0
  0
LINE
  5
91
330
1F
100
AcDbEntity
  8
0
  6
Continuous
 62
     7
370
    15
100
AcDbLine
 10
509.956301179
 20
370.7197044335
 30
0.0
 11
509.956301179
 21
375.8197044335
 31
0.0
  0
ARC
  5
92
330
1F
100
AcDbEntity
  8
0
  6
Continuous
 62
     7
370
    15
100
AcDbCircle
 10
508.975862069
 20
377.0197044335
 30
0.0
 40
0.25
100
AcDbArc
 50
31.0756875732
 51
90.0
  0
LINE
  5
93
330
1F
100
AcDbEntity
  8
0
  6
Continuous
 62
     7
370
    15
100
AcDbLine
 10
491.0954229589
 20
375.8197044335
 30
0.0
 11
491.0954229589
 21
370.7197044335
 31
0.0
  0
ARC
  5
94
330
1F
100
AcDbEntity
  8
0
  6
Continuous
 62
     7
370
    15
100
AcDbCircle
 10
491.3454229589
 20
370.7197044335
 30
0.0
 40
0.25
100
AcDbArc
 50
180.0
 51
270.0
  0
SPLINE
  5
95
330
1F
100
AcDbEntity
  8
0
  6
Continuous
 62
     7
370
    15
100
AcDbSpline
210
0.0
220
0.0
230
1.0
 70
     8
 71
     3
 72
    13
 73
     9
 74
     0
 42
0.00000001
 43
0.00000001
 12
1.0
 22
0.0
 32
0.0
 13
1.0
 23
0.0
 33
0.0
 40
0.0
 40
0.0
 40
0.0
 40
0.0
 40
0.1560186113419026
 40
0.4086735129025661
 40
0.5953335874196103
 40
0.7561090603032845
 40
0.9249103809536205
 40
1.0
 40
1.0
 40
1.0
 40
1.0
 10
496.9698154124394
 20
376.070750487603
 30
0.0
 10
496.9675971434388
 20
376.0704940467843
 30
0.0
 10
496.9617866329025
 20
376.0698223283956
 30
0.0
 10
496.9387361212446
 20
376.0801811710029
 30
0.0
 10
496.8989796176809
 20
376.1259016481219
 30
0.0
 10
496.8684420171963
 20
376.1936761264885
 30
0.0
 10
496.851844868203
 20
376.2625314871386
 30
0.0
 10
496.8529911738047
 20
376.3062454087651
 30
0.0
 10
496.8533441006131
 20
376.319704136367
 30
0.0
  0
ARC
  5
96
330
1F
100
AcDbEntity
  8
0
  6
Continuous
 62
     7
370
    15
100
AcDbCircle
 10
496.601452733
 20
381.4197044335
 30
0.0
 40
0.2500000000001137
100
AcDbArc
 50
0.0
 51
90.0
  0
LINE
  5
97
330
1F
100
AcDbEntity
  8
0
  6
Continuous
 62
     7
370
    15
100
AcDbLine
 10
496.851452733
 20
376.3197044335
 30
0.0
 11
496.851452733
 21
381.4197044335
 31
0.0
  0
ARC
  5
98
330
1F
100
AcDbEntity
  8
0
  6
Continuous
 62
     7
370
    15
100
AcDbCircle
 10
491.7752857609
 20
381.4197044335
 30
0.0
 40
0.2500000000000568
100
AcDbArc
 50
90.0
 51
180.0
  0
LINE
  5
99
330
1F
100
AcDbEntity
  8
0
  6
Continuous
 62
     7
370
    15
100
AcDbLine
 10
491.5252857609
 20
381.4197044335
 30
0.0
 11
491.5252857609
 21
376.3197044335
 31
0.0
  0
ARC
  5
9A
330
1F
100
AcDbEntity
  8
0
  6
Continuous
 62
     7
370
    15
100
AcDbCircle
 10
492.075862069
 20
375.1197044335
 30
0.0
 40
0.25
100
AcDbArc
 50
180.0
 51
270.0
  0
LINE
  5
9B
330
1F
100
AcDbEntity
  8
0
  6
Continuous
 62
     7
370
    15
100
AcDbLine
 10
491.825862069
 20
375.3829248462
 30
0.0
 11
491.825862069
 21
375.1197044335
 31
0.0
  0
ARC
  5
9C
330
1F
100
AcDbEntity
  8
0
  6
Continuous
 62
     7
370
    15
100
AcDbCircle
 10
509.276438377
 20
381.4197044335
 30
0.0
 40
0.2500000000001137
100
AcDbArc
 50
0.0
 51
90.0
  0
LINE
  5
9D
330
1F
100
AcDbEntity
  8
0
  6
Continuous
 62
     7
370
    15
100
AcDbLine
 10
509.526438377
 20
376.8912254504
 30
0.0
 11
509.526438377
 21
381.4197044335
 31
0.0
  0
LINE
  5
9E
330
1F
100
AcDbEntity
  8
0
  6
Continuous
 62
     7
370
    15
100
AcDbLine
 10
505.6786395451
 20
382.3814983165
 30
0.0
 11
505.525862069
 21
382.4697044335
 31
0.0
  0
LINE
  5
9F
330
1F
100
AcDbEntity
  8
0
  6
Continuous
 62
     7
370
    15
100
AcDbLine
 10
505.525862069
 20
377.2697044335
 30
0.0
 11
505.6786395451
 21
377.3579105505
 31
0.0
  0
LINE
  5
A0
330
1F
100
AcDbEntity
  8
0
  6
Continuous
 62
     7
370
    15
100
AcDbLine
 10
505.8659622549
 20
387.7233474996
 30
0.0
 11
505.525862069
 21
387.9197044335
 31
0.0
  0
LINE
  5
A1
330
1F
100
AcDbEntity
  8
0
  6
Continuous
 62
     7
370
    15
100
AcDbLine
 10
505.525862069
 20
382.7197044335
 30
0.0
 11
505.8659622549
 21
382.9160613674
 31
0.0
  0
LINE
  5
A2
330
1F
100
AcDbEntity
  8
0
  6
Continuous
 62
     7
370
    15
100
AcDbLine
 10
495.525862069
 20
387.9197044335
 30
0.0
 11
495.2235909759
 21
387.7451881366
 31
0.0
  0
LINE
  5
A3
330
1F
100
AcDbEntity
  8
0
  6
Continuous
 62
     7
370
    15
100
AcDbLine
 10
495.185761883
 20
382.9160613674
 30
0.0
 11
495.525862069
 21
382.7197044335
 31
0.0
  0
LINE
  5
A4
330
1F
100
AcDbEntity
  8
0
  6
Continuous
 62
     7
370
    15
100
AcDbLine
 10
506.625862069
 20
387.9197044335
 30
0.0
 11
506.625862069
 21
388.4697044335
 31
0.0
  0
LINE
  5
A5
330
1F
100
AcDbEntity
  8
0
  6
Continuous
 62
     7
370
    15
100
AcDbLine
 10
494.425862069
 20
388.4697044335
 30
0.0
 11
494.425862069
 21
387.9197044335
 31
0.0
  0
LINE
  5
A6
330
1F
100
AcDbEntity
  8
0
  6
Continuous
 62
     7
370
    15
100
AcDbLine
 10
497.525862069
 20
382.7197044335
 30
0.0
 11
497.525862069
 21
382.4697044335
 31
0.0
  0
LINE
  5
A7
330
1F
100
AcDbEntity
  8
0
  6
Continuous
 62
     7
370
    15
100
AcDbLine
 10
503.525862069
 20
382.4697044335
 30
0.0
 11
503.525862069
 21
382.7197044335
 31
0.0
  0
LINE
  5
A8
330
1F
100
AcDbEntity
  8
0
  6
Continuous
 62
     7
370
    15
100
AcDbLine
 10
449.025862069
 20
225.1697044335
 30
0.0
 11
392.025862069
 21
225.1697044335
 31
0.0
  0
LINE
  5
A9
330
1F
100
AcDbEntity
  8
0
  6
Continuous
 62
     7
370
    15
100
AcDbLine
 10
447.025862069
 20
219.1697044335
 30
0.0
 11
394.025862069
 21
219.1697044335
 31
0.0
  0
LINE
  5
AA
330
1F
100
AcDbEntity
  8
0
  6
Continuous
 62
     7
370
    15
100
AcDbLine
 10
721.025862069
 20
219.1697044335
 30
0.0
 11
668.025862069
 21
219.1697044335
 31
0.0
  0
LINE
  5
AB
330
1F
100
AcDbEntity
  8
0
  6
Continuous
 62
     7
370
    15
100
AcDbLine
 10
723.025862069
 20
225.1697044335
 30
0.0
 11
666.025862069
 21
225.1697044335
 31
0.0
  0
LINE
  5
AC
330
1F
100
AcDbEntity
  8
0
  6
Continuous
 62
     7
370
    15
100
AcDbLine
 10
659.525862069
 20
387.1697044335
 30
0.0
 11
729.525862069
 21
387.1697044335
 31
0.0
  0
LINE
  5
AD
330
1F
100
AcDbEntity
  8
0
  6
Continuous
 62
     7
370
    15
100
AcDbLine
 10
659.525862069
 20
387.1697044335
 30
0.0
 11
659.525862069
 21
388.4697044335
 31
0.0
  0
LINE
  5
AE
330
1F
100
AcDbEntity
  8
0
  6
Continuous
 62
     7
370
    15
100
AcDbLine
 10
729.525862069
 20
387.1697044335
 30
0.0
 11
729.525862069
 21
388.4697044335
 31
0.0
  0
LINE
  5
AF
330
1F
100
AcDbEntity
  8
0
  6
Continuous
 62
     7
370
    15
100
AcDbLine
 10
725.4855122893
 20
293.1697044335
 30
0.0
 11
663.5662118486
 21
293.1697044335
 31
0.0
  0
LINE
  5
B0
330
1F
100
AcDbEntity
  8
0
  6
Continuous
 62
     7
370
    15
100
AcDbLine
 10
385.525862069
 20
387.1697044335
 30
0.0
 11
385.525862069
 21
388.4697044335
 31
0.0
  0
LINE
  5
B1
330
1F
100
AcDbEntity
  8
0
  6
Continuous
 62
     7
370
    15
100
AcDbLine
 10
385.525862069
 20
387.1697044335
 30
0.0
 11
455.525862069
 21
387.1697044335
 31
0.0
  0
LINE
  5
B2
330
1F
100
AcDbEntity
  8
0
  6
Continuous
 62
     7
370
    15
100
AcDbLine
 10
455.525862069
 20
387.1697044335
 30
0.0
 11
455.525862069
 21
388.4697044335
 31
0.0
  0
LINE
  5
B3
330
1F
100
AcDbEntity
  8
0
  6
Continuous
 62
     7
370
    15
100
AcDbLine
 10
451.4855122893
 20
293.1697044335
 30
0.0
 11
389.5662118486
 21
293.1697044335
 31
0.0
  0
LINE
  5
B4
330
1F
100
AcDbEntity
  8
0
  6
Continuous
 62
     7
370
    15
100
AcDbLine
 10
390.025862069
 20
868.4626333657
 30
0.0
 11
392.325862069
 21
868.4626333657
 31
0.0
  0
LINE
  5
B5
330
1F
100
AcDbEntity
  8
0
  6
Continuous
 62
     7
370
    15
100
AcDbLine
 10
392.325862069
 20
418.6697044335
 30
0.0
 11
392.325862069
 21
868.4626333657
 31
0.0
  0
LINE
  5
B6
330
1F
100
AcDbEntity
  8
0
  6
Continuous
 62
     7
370
    15
100
AcDbLine
 10
392.325862069
 20
418.6697044335
 30
0.0
 11
390.025862069
 21
418.6697044335
 31
0.0
  0
LINE
  5
B7
330
1F
100
AcDbEntity
  8
0
  6
Continuous
 62
     7
370
    15
100
AcDbLine
 10
391.525862069
 20
390.4697044335
 30
0.0
 11
391.525862069
 21
418.4197044335
 31
0.0
  0
ARC
  5
B8
330
1F
100
AcDbEntity
  8
0
  6
Continuous
 62
     7
370
    15
100
AcDbCircle
 10
389.525862069
 20
390.4697044335
 30
0.0
 40
2.000000000000044
100
AcDbArc
 50
274.819402202
 51
0.0
  0
LINE
  5
B9
330
1F
100
AcDbEntity
  8
0
  6
Continuous
 62
     7
370
    15
100
AcDbLine
 10
360.325862069
 20
388.4767755013
 30
0.0
 11
389.6938926354
 21
388.4767755013
 31
0.0
  0
LINE
  5
BA
330
1F
100
AcDbEntity
  8
0
  6
Continuous
 62
     7
370
    15
100
AcDbLine
 10
360.325862069
 20
868.4626333657
 30
0.0
 11
390.025862069
 21
868.4626333657
 31
0.0
  0
LINE
  5
BB
330
1F
100
AcDbEntity
  8
0
  6
Continuous
 62
     7
370
    15
100
AcDbLine
 10
390.025862069
 20
418.4197044335
 30
0.0
 11
391.525862069
 21
418.4197044335
 31
0.0
  0
CIRCLE
  5
BC
330
1F
100
AcDbEntity
  8
0
  6
Continuous
 62
     7
370
    15
100
AcDbCircle
 10
385.025862069
 20
396.4697044335
 30
0.0
 40
2.750000000000057
  0
ARC
  5
BD
330
1F
100
AcDbEntity
  8
0
  6
Continuous
 62
     7
370
    15
100
AcDbCircle
 10
390.025862069
 20
418.5447044335
 30
0.0
 40
0.1250000000000568
100
AcDbArc
 50
90.0000000001
 51
270.0
  0
SPLINE
  5
BE
330
1F
100
AcDbEntity
  8
0
  6
Continuous
 62
     7
370
    15
100
AcDbSpline
210
0.0
220
0.0
230
1.0
 70
     8
 71
     3
 72
    17
 73
    13
 74
     0
 42
0.00000001
 43
0.00000001
 12
1.0
 22
0.0
 32
0.0
 13
1.0
 23
0.0
 33
0.0
 40
0.0
 40
0.0
 40
0.0
 40
0.0
 40
0.1035984107084034
 40
0.2096300057675048
 40
0.3241995137044949
 40
0.4420903889795761
 40
0.5566717778555628
 40
0.6745756090648196
 40
0.7891568249000575
 40
0.9070604758598529
 40
0.9534246172613897
 40
1.0
 40
1.0
 40
1.0
 40
1.0
 10
358.0258620689571
 20
866.9697044334996
 30
0.0
 10
358.0317467913674
 20
867.0212549002449
 30
0.0
 10
358.0436544488729
 20
867.1255665838627
 30
0.0
 10
358.1426553749541
 20
867.2868793844412
 30
0.0
 10
358.308219879347
 20
867.4553597870666
 30
0.0
 10
358.546213863207
 20
867.6280881304774
 30
0.0
 10
358.8454335847242
 20
867.8024689888629
 30
0.0
 10
359.1911157392692
 20
867.9752197075625
 30
0.0
 10
359.5777311602009
 20
868.1495821359089
 30
0.0
 10
359.9056939278886
 20
868.2884472984974
 30
0.0
 10
360.1579855445038
 20
868.3932590764509
 30
0.0
 10
360.269818499462
 20
868.4394735891038
 30
0.0
 10
360.3258620689571
 20
868.4626333656878
 30
0.0
  0
SPLINE
  5
BF
330
1F
100
AcDbEntity
  8
0
  6
Continuous
 62
     7
370
    15
100
AcDbSpline
210
0.0
220
0.0
230
1.0
 70
     8
 71
     3
 72
    17
 73
    13
 74
     0
 42
0.00000001
 43
0.00000001
 12
1.0
 22
0.0
 32
0.0
 13
1.0
 23
0.0
 33
0.0
 40
0.0
 40
0.0
 40
0.0
 40
0.0
 40
0.1035984107083876
 40
0.2096300057675019
 40
0.3241995137044758
 40
0.4420903889795534
 40
0.5566717778555316
 40
0.6745756090647793
 40
0.7891568249000325
 40
0.9070604758598191
 40
0.9534246172613547
 40
0.9999999999999999
 40
0.9999999999999999
 40
0.9999999999999999
 40
0.9999999999999999
 10
360.3258620689571
 20
388.4767755013114
 30
0.0
 10
360.201115285585
 20
388.5283259680565
 30
0.0
 10
359.9486918290964
 20
388.6326376516741
 30
0.0
 10
359.5687348732497
 20
388.7939504522536
 30
0.0
 10
359.1948395773924
 20
388.9624308548779
 30
0.0
 10
358.8487881032956
 20
389.1351591982896
 30
0.0
 10
358.5489080574524
 20
389.3095400566748
 30
0.0
 10
358.3105949953833
 20
389.4822907753743
 30
0.0
 10
358.1372323941175
 20
389.6566532037206
 30
0.0
 10
358.0580682764532
 20
389.7955183663098
 30
0.0
 10
358.0294234387558
 20
389.9003301442625
 30
0.0
 10
358.0270509896621
 20
389.9465446569156
 30
0.0
 10
358.0258620689571
 20
389.9697044334997
 30
0.0
  0
LINE
  5
C0
330
1F
100
AcDbEntity
  8
0
  6
Continuous
 62
     7
370
    15
100
AcDbLine
 10
358.025862069
 20
389.9697044335
 30
0.0
 11
358.025862069
 21
866.9697044335
 31
0.0
  0
SPLINE
  5
C1
330
1F
100
AcDbEntity
  8
0
  6
Continuous
 62
     7
370
    15
100
AcDbSpline
210
0.0
220
0.0
230
1.0
 70
     8
 71
     3
 72
    17
 73
    13
 74
     0
 42
0.00000001
 43
0.00000001
 12
1.0
 22
0.0
 32
0.0
 13
1.0
 23
0.0
 33
0.0
 40
0.0
 40
0.0
 40
0.0
 40
0.0
 40
0.1035984107084097
 40
0.2096300057674968
 40
0.3241995137045016
 40
0.442090388979568
 40
0.5566717778555648
 40
0.6745756090648228
 40
0.789156824900046
 40
0.9070604758598311
 40
0.9534246172613716
 40
1.0
 40
1.0
 40
1.0
 40
1.0
 10
358.0258620689571
 20
389.9697044334997
 30
0.0
 10
358.0317467913674
 20
389.8449576501275
 30
0.0
 10
358.0436544488729
 20
389.5925341936387
 30
0.0
 10
358.1426553749542
 20
389.2125772377922
 30
0.0
 10
358.3082198793469
 20
388.8386819419349
 30
0.0
 10
358.5462138632071
 20
388.492630467838
 30
0.0
 10
358.8454335847242
 20
388.1927504219948
 30
0.0
 10
359.1911157392692
 20
387.9544373599257
 30
0.0
 10
359.5777311602009
 20
387.7810747586601
 30
0.0
 10
359.9056939278886
 20
387.701910640996
 30
0.0
 10
360.1579855445037
 20
387.6732658032981
 30
0.0
 10
360.2698184994621
 20
387.6708933542046
 30
0.0
 10
360.3258620689571
 20
387.6697044334996
 30
0.0
  0
SPLINE
  5
C2
330
1F
100
AcDbEntity
  8
0
  6
Continuous
 62
     7
370
    15
100
AcDbSpline
210
0.0
220
0.0
230
1.0
 70
     8
 71
     3
 72
    12
 73
     8
 74
     0
 42
0.00000001
 43
0.00000001
 12
1.0
 22
0.0
 32
0.0
 13
1.0
 23
0.0
 33
0.0
 40
0.0
 40
0.0
 40
0.0
 40
0.0
 40
0.0555430258298154
 40
0.2968510832022137
 40
0.5451548989408038
 40
0.7697745811889699
 40
1.0
 40
1.0
 40
1.0
 40
1.0
 10
359.2365443049664
 20
388.946293422565
 30
0.0
 10
359.2508248249241
 20
388.9286877595767
 30
0.0
 10
359.3271474190715
 20
388.8345938557868
 30
0.0
 10
359.5103999702694
 20
388.7022789667473
 30
0.0
 10
359.7684549559721
 20
388.5669818786454
 30
0.0
 10
360.0462649973374
 20
388.4850431434654
 30
0.0
 10
360.231900424068
 20
388.4748591742504
 30
0.0
 10
360.3258620689571
 20
388.4697044334996
 30
0.0
  0
LINE
  5
C3
330
1F
100
AcDbEntity
  8
0
  6
Continuous
 62
     7
370
    15
100
AcDbLine
 10
360.325862069
 20
387.6697044335
 30
0.0
 11
360.325862069
 21
388.4697044335
 31
0.0
  0
SPLINE
  5
C4
330
1F
100
AcDbEntity
  8
0
  6
Continuous
 62
     7
370
    15
100
AcDbSpline
210
0.0
220
0.0
230
1.0
 70
     8
 71
     3
 72
    10
 73
     6
 74
     0
 42
0.00000001
 43
0.00000001
 12
1.0
 22
0.0
 32
0.0
 13
1.0
 23
0.0
 33
0.0
 40
0.0
 40
0.0
 40
0.0
 40
0.0
 40
0.4887487871698197
 40
0.9779284014157882
 40
1.0
 40
1.0
 40
1.0
 40
1.0
 10
360.325862068957
 20
868.4697044334995
 30
0.0
 10
360.1303347806493
 20
868.443464931465
 30
0.0
 10
359.7391078487212
 20
868.3909627975419
 30
0.0
 10
359.3516680505971
 20
868.1758749331804
 30
0.0
 10
359.2406586283006
 20
868.0003237561125
 30
0.0
 10
359.2358661596541
 20
867.9927449083484
 30
0.0
  0
SPLINE
  5
C5
330
1F
100
AcDbEntity
  8
0
  6
Continuous
 62
     7
370
    15
100
AcDbSpline
210
0.0
220
0.0
230
1.0
 70
     8
 71
     3
 72
    10
 73
     6
 74
     0
 42
0.00000001
 43
0.00000001
 12
1.0
 22
0.0
 32
0.0
 13
1.0
 23
0.0
 33
0.0
 40
0.0
 40
0.0
 40
0.0
 40
0.0
 40
0.2941441853561025
 40
0.7979798610929004
 40
1.0
 40
1.0
 40
1.0
 40
1.0
 10
358.6316264109342
 20
868.4697044334961
 30
0.0
 10
358.5199917748235
 20
868.3500883496849
 30
0.0
 10
358.2171396504172
 20
868.0255834616196
 30
0.0
 10
358.0503370811236
 20
867.4701087090483
 30
0.0
 10
358.0313082373881
 20
867.0810541623482
 30
0.0
 10
358.0258620689571
 20
866.9697044334996
 30
0.0
  0
LINE
  5
C6
330
1F
100
AcDbEntity
  8
0
  6
Continuous
 62
     7
370
    15
100
AcDbLine
 10
373.825862069
 20
388.4697044335
 30
0.0
 11
371.9938926354
 21
388.4697044335
 31
0.0
  0
LINE
  5
C7
330
1F
100
AcDbEntity
  8
0
  6
Continuous
 62
     7
370
    15
100
AcDbLine
 10
373.825862069
 20
387.6697044335
 30
0.0
 11
373.825862069
 21
388.4697044335
 31
0.0
  0
LINE
  5
C8
330
1F
100
AcDbEntity
  8
0
  6
Continuous
 62
     7
370
    15
100
AcDbLine
 10
373.825862069
 20
387.6697044335
 30
0.0
 11
371.9938926354
 21
387.6697044335
 31
0.0
  0
LINE
  5
C9
330
1F
100
AcDbEntity
  8
0
  6
Continuous
 62
     7
370
    15
100
AcDbLine
 10
371.9938926354
 20
387.6697044335
 30
0.0
 11
371.9938926354
 21
388.4697044335
 31
0.0
  0
LINE
  5
CA
330
1F
100
AcDbEntity
  8
0
  6
Continuous
 62
     7
370
    15
100
AcDbLine
 10
360.325862069
 20
388.4697044335
 30
0.0
 11
371.9938926354
 21
388.4697044335
 31
0.0
  0
LINE
  5
CB
330
1F
100
AcDbEntity
  8
0
  6
Continuous
 62
     7
370
    15
100
AcDbLine
 10
371.9938926354
 20
387.6697044335
 30
0.0
 11
360.325862069
 21
387.6697044335
 31
0.0
  0
LINE
  5
CC
330
1F
100
AcDbEntity
  8
0
  6
Continuous
 62
     7
370
    15
100
AcDbLine
 10
358.025862069
 20
866.9697044335
 30
0.0
 11
358.025862069
 21
868.4697044335
 31
0.0
  0
LINE
  5
CD
330
1F
100
AcDbEntity
  8
0
  6
Continuous
 62
     7
370
    15
100
AcDbLine
 10
725.025862069
 20
418.6697044335
 30
0.0
 11
722.725862069
 21
418.6697044335
 31
0.0
  0
LINE
  5
CE
330
1F
100
AcDbEntity
  8
0
  6
Continuous
 62
     7
370
    15
100
AcDbLine
 10
722.725862069
 20
418.6697044335
 30
0.0
 11
722.725862069
 21
868.4626333657
 31
0.0
  0
LINE
  5
CF
330
1F
100
AcDbEntity
  8
0
  6
Continuous
 62
     7
370
    15
100
AcDbLine
 10
722.725862069
 20
868.4626333657
 30
0.0
 11
725.025862069
 21
868.4626333657
 31
0.0
  0
LINE
  5
D0
330
1F
100
AcDbEntity
  8
0
  6
Continuous
 62
     7
370
    15
100
AcDbLine
 10
725.3578315026
 20
388.4767755013
 30
0.0
 11
754.725862069
 21
388.4767755013
 31
0.0
  0
LINE
  5
D1
330
1F
100
AcDbEntity
  8
0
  6
Continuous
 62
     7
370
    15
100
AcDbLine
 10
723.525862069
 20
390.4697044335
 30
0.0
 11
723.525862069
 21
418.4197044335
 31
0.0
  0
LINE
  5
D2
330
1F
100
AcDbEntity
  8
0
  6
Continuous
 62
     7
370
    15
100
AcDbLine
 10
725.025862069
 20
418.4197044335
 30
0.0
 11
723.525862069
 21
418.4197044335
 31
0.0
  0
ARC
  5
D3
330
1F
100
AcDbEntity
  8
0
  6
Continuous
 62
     7
370
    15
100
AcDbCircle
 10
725.025862069
 20
418.5447044335
 30
0.0
 40
0.125
100
AcDbArc
 50
270.0
 51
90.0
  0
CIRCLE
  5
D4
330
1F
100
AcDbEntity
  8
0
  6
Continuous
 62
     7
370
    15
100
AcDbCircle
 10
730.025862069
 20
396.4697044335
 30
0.0
 40
2.75
  0
ARC
  5
D5
330
1F
100
AcDbEntity
  8
0
  6
Continuous
 62
     7
370
    15
100
AcDbCircle
 10
725.525862069
 20
390.4697044335
 30
0.0
 40
2.0
100
AcDbArc
 50
180.0
 51
265.180597798
  0
LINE
  5
D6
330
1F
100
AcDbEntity
  8
0
  6
Continuous
 62
     7
370
    15
100
AcDbLine
 10
725.025862069
 20
868.4626333657
 30
0.0
 11
754.725862069
 21
868.4626333657
 31
0.0
  0
SPLINE
  5
D7
330
1F
100
AcDbEntity
  8
0
  6
Continuous
 62
     7
370
    15
100
AcDbSpline
210
0.0
220
0.0
230
1.0
 70
     8
 71
     3
 72
    12
 73
     8
 74
     0
 42
0.00000001
 43
0.00000001
 12
1.0
 22
0.0
 32
0.0
 13
1.0
 23
0.0
 33
0.0
 40
0.0
 40
0.0
 40
0.0
 40
0.0
 40
0.2096821001528668
 40
0.4420453733185939
 40
0.674433296668127
 40
0.9068208701180662
 40
1.0
 40
1.0
 40
1.0
 40
1.0
 10
757.0258620689614
 20
389.9697044334968
 30
0.0
 10
757.0015220987926
 20
389.8654192255694
 30
0.0
 10
756.950209320106
 20
389.6455683482827
 30
0.0
 10
756.5292787331772
 20
389.3096002183993
 30
0.0
 10
755.8774892552817
 20
388.9626949499828
 30
0.0
 10
755.2280482161792
 20
388.6843182877495
 30
0.0
 10
754.8376082990727
 20
388.5229578265282
 30
0.0
 10
754.7258620689614
 20
388.4767755013086
 30
0.0
  0
SPLINE
  5
D8
330
1F
100
AcDbEntity
  8
0
  6
Continuous
 62
     7
370
    15
100
AcDbSpline
210
0.0
220
0.0
230
1.0
 70
     8
 71
     3
 72
    12
 73
     8
 74
     0
 42
0.00000001
 43
0.00000001
 12
1.0
 22
0.0
 32
0.0
 13
1.0
 23
0.0
 33
0.0
 40
0.0
 40
0.0
 40
0.0
 40
0.0
 40
0.2096821001528745
 40
0.4420453733186125
 40
0.6744332966681191
 40
0.9068208701180471
 40
1.0
 40
1.0
 40
1.0
 40
1.0
 10
754.7258620689614
 20
868.4626333656848
 30
0.0
 10
754.9781930269365
 20
868.3583481577574
 30
0.0
 10
755.5101494144237
 20
868.1384972804707
 30
0.0
 10
756.2315308442389
 20
867.8025291505875
 30
0.0
 10
756.7748897782251
 20
867.4556238821709
 30
0.0
 10
757.0035116183684
 20
867.1772472199382
 30
0.0
 10
757.0208886569928
 20
867.0158867587163
 30
0.0
 10
757.0258620689614
 20
866.9697044334968
 30
0.0
  0
LINE
  5
D9
330
1F
100
AcDbEntity
  8
0
  6
Continuous
 62
     7
370
    15
100
AcDbLine
 10
757.025862069
 20
866.9697044335
 30
0.0
 11
757.025862069
 21
389.9697044335
 31
0.0
  0
SPLINE
  5
DA
330
1F
100
AcDbEntity
  8
0
  6
Continuous
 62
     7
370
    15
100
AcDbSpline
210
0.0
220
0.0
230
1.0
 70
     8
 71
     3
 72
    10
 73
     6
 74
     0
 42
0.00000001
 43
0.00000001
 12
1.0
 22
0.0
 32
0.0
 13
1.0
 23
0.0
 33
0.0
 40
0.0
 40
0.0
 40
0.0
 40
0.0
 40
0.4615922525951802
 40
0.9731146314857921
 40
1.0
 40
1.0
 40
1.0
 40
1.0
 10
757.0258620689614
 20
866.9697044334968
 30
0.0
 10
756.9978417866336
 20
867.217898167102
 30
0.0
 10
756.9387702867151
 20
867.7411325850468
 30
0.0
 10
756.697709135316
 20
868.2747355917905
 30
0.0
 10
756.4707608930598
 20
868.4604317057547
 30
0.0
 10
756.4594282420048
 20
868.4697044334961
 30
0.0
  0
SPLINE
  5
DB
330
1F
100
AcDbEntity
  8
0
  6
Continuous
 62
     7
370
    15
100
AcDbSpline
210
0.0
220
0.0
230
1.0
 70
     8
 71
     3
 72
    10
 73
     6
 74
     0
 42
0.00000001
 43
0.00000001
 12
1.0
 22
0.0
 32
0.0
 13
1.0
 23
0.0
 33
0.0
 40
0.0
 40
0.0
 40
0.0
 40
0.0
 40
0.0579711264843504
 40
0.5462093631996221
 40
1.0
 40
1.0
 40
1.0
 40
1.0
 10
755.8114360677755
 20
867.9867478005339
 30
0.0
 10
755.7984695650701
 20
868.0064912665053
 30
0.0
 10
755.6762979666372
 20
868.1925160452108
 30
0.0
 10
755.2868913084163
 20
868.4002144511468
 30
0.0
 10
754.9082565791069
 20
868.4471127566295
 30
0.0
 10
754.7258620689613
 20
868.4697044334966
 30
0.0
  0
LINE
  5
DC
330
1F
100
AcDbEntity
  8
0
  6
Continuous
 62
     7
370
    15
100
AcDbLine
 10
754.725862069
 20
387.6697044335
 30
0.0
 11
754.725862069
 21
388.4697044335
 31
0.0
  0
SPLINE
  5
DD
330
1F
100
AcDbEntity
  8
0
  6
Continuous
 62
     7
370
    15
100
AcDbSpline
210
0.0
220
0.0
230
1.0
 70
     8
 71
     3
 72
    10
 73
     6
 74
     0
 42
0.00000001
 43
0.00000001
 12
1.0
 22
0.0
 32
0.0
 13
1.0
 23
0.0
 33
0.0
 40
0.0
 40
0.0
 40
0.0
 40
0.0
 40
0.488413862221701
 40
0.9772582562865731
 40
0.9999999999999999
 40
0.9999999999999999
 40
0.9999999999999999
 40
0.9999999999999999
 10
754.7258620689614
 20
388.4697044334967
 30
0.0
 10
754.9213994495927
 20
388.4959363332526
 30
0.0
 10
755.3126465750643
 20
388.5484232559168
 30
0.0
 10
755.7002486841983
 20
388.7637364820006
 30
0.0
 10
755.8113699901934
 20
388.9395510063441
 30
0.0
 10
755.8163097101652
 20
388.947366559891
 30
0.0
  0
SPLINE
  5
DE
330
1F
100
AcDbEntity
  8
0
  6
Continuous
 62
     7
370
    15
100
AcDbSpline
210
0.0
220
0.0
230
1.0
 70
     8
 71
     3
 72
    12
 73
     8
 74
     0
 42
0.00000001
 43
0.00000001
 12
1.0
 22
0.0
 32
0.0
 13
1.0
 23
0.0
 33
0.0
 40
0.0
 40
0.0
 40
0.0
 40
0.0
 40
0.2096821001528813
 40
0.4420453733186088
 40
0.6744332966681302
 40
0.9068208701180763
 40
1.0
 40
1.0
 40
1.0
 40
1.0
 10
754.7258620689614
 20
387.6697044334967
 30
0.0
 10
754.9781930269367
 20
387.6940444036653
 30
0.0
 10
755.5101494144237
 20
387.7453571823523
 30
0.0
 10
756.2315308442388
 20
388.166287769281
 30
0.0
 10
756.7748897782251
 20
388.8180772471761
 30
0.0
 10
757.0035116183684
 20
389.4675182862788
 30
0.0
 10
757.0208886569927
 20
389.8579582033853
 30
0.0
 10
757.0258620689614
 20
389.9697044334966
 30
0.0
  0
LINE
  5
DF
330
1F
100
AcDbEntity
  8
0
  6
Continuous
 62
     7
370
    15
100
AcDbLine
 10
743.0578315026
 20
388.4697044335
 30
0.0
 11
743.0578315026
 21
387.6697044335
 31
0.0
  0
LINE
  5
E0
330
1F
100
AcDbEntity
  8
0
  6
Continuous
 62
     7
370
    15
100
AcDbLine
 10
754.725862069
 20
388.4697044335
 30
0.0
 11
743.0578315026
 21
388.4697044335
 31
0.0
  0
LINE
  5
E1
330
1F
100
AcDbEntity
  8
0
  6
Continuous
 62
     7
370
    15
100
AcDbLine
 10
743.0578315026
 20
387.6697044335
 30
0.0
 11
754.725862069
 21
387.6697044335
 31
0.0
  0
LINE
  5
E2
330
1F
100
AcDbEntity
  8
0
  6
Continuous
 62
     7
370
    15
100
AcDbLine
 10
741.225862069
 20
387.6697044335
 30
0.0
 11
743.0578315026
 21
387.6697044335
 31
0.0
  0
LINE
  5
E3
330
1F
100
AcDbEntity
  8
0
  6
Continuous
 62
     7
370
    15
100
AcDbLine
 10
741.225862069
 20
387.6697044335
 30
0.0
 11
741.225862069
 21
388.4697044335
 31
0.0
  0
LINE
  5
E4
330
1F
100
AcDbEntity
  8
0
  6
Continuous
 62
     7
370
    15
100
AcDbLine
 10
741.225862069
 20
388.4697044335
 30
0.0
 11
743.0578315026
 21
388.4697044335
 31
0.0
  0
LINE
  5
E5
330
1F
100
AcDbEntity
  8
0
  6
Continuous
 62
     7
370
    15
100
AcDbLine
 10
757.025862069
 20
866.9697044335
 30
0.0
 11
757.025862069
 21
868.4697044335
 31
0.0
  0
LINE
  5
E6
330
1F
100
AcDbEntity
  8
0
  6
Continuous
 62
     7
370
    15
100
AcDbLine
 10
392.325862069
 20
867.6697044335
 30
0.0
 11
473.1466729168
 21
867.6697044335
 31
0.0
  0
LINE
  5
E7
330
1F
100
AcDbEntity
  8
0
  6
Continuous
 62
     7
370
    15
100
AcDbLine
 10
473.1466729168
 20
867.6697044335
 30
0.0
 11
474.9225107472
 21
867.6697044335
 31
0.0
  0
LINE
  5
E8
330
1F
100
AcDbEntity
  8
0
  6
Continuous
 62
     7
370
    15
100
AcDbLine
 10
490.9050512211
 20
867.6697044335
 30
0.0
 11
623.1466729168
 21
867.6697044335
 31
0.0
  0
LINE
  5
E9
330
1F
100
AcDbEntity
  8
0
  6
Continuous
 62
     7
370
    15
100
AcDbLine
 10
489.1292133907
 20
867.6697044335
 30
0.0
 11
490.9050512211
 21
867.6697044335
 31
0.0
  0
LINE
  5
EA
330
1F
100
AcDbEntity
  8
0
  6
Continuous
 62
     7
370
    15
100
AcDbLine
 10
640.9050512211
 20
867.6697044335
 30
0.0
 11
722.725862069
 21
867.6697044335
 31
0.0
  0
LINE
  5
EB
330
1F
100
AcDbEntity
  8
0
  6
Continuous
 62
     7
370
    15
100
AcDbLine
 10
623.1466729168
 20
867.6697044335
 30
0.0
 11
624.9225107472
 21
867.6697044335
 31
0.0
  0
LINE
  5
EC
330
1F
100
AcDbEntity
  8
0
  6
Continuous
 62
     7
370
    15
100
AcDbLine
 10
754.725862069
 20
868.4697044335
 30
0.0
 11
754.725862069
 21
868.4626333657
 31
0.0
  0
LINE
  5
ED
330
1F
100
AcDbEntity
  8
0
  6
Continuous
 62
     7
370
    15
100
AcDbLine
 10
639.1292133907
 20
867.6697044335
 30
0.0
 11
640.9050512211
 21
867.6697044335
 31
0.0
  0
LINE
  5
EE
330
1F
100
AcDbEntity
  8
0
  6
Continuous
 62
     7
370
    15
100
AcDbLine
 10
474.9225107472
 20
867.6697044335
 30
0.0
 11
489.1292133907
 21
867.6697044335
 31
0.0
  0
LINE
  5
EF
330
1F
100
AcDbEntity
  8
0
  6
Continuous
 62
     7
370
    15
100
AcDbLine
 10
624.9225107472
 20
867.6697044335
 30
0.0
 11
639.1292133907
 21
867.6697044335
 31
0.0
  0
CIRCLE
  5
F0
330
1F
100
AcDbEntity
  8
0
  6
Continuous
 62
     7
370
    15
100
AcDbCircle
 10
730.025862069
 20
396.4697044335
 30
0.0
 40
2.099999999999966
  0
CIRCLE
  5
F1
330
1F
100
AcDbEntity
  8
0
  6
Continuous
 62
     7
370
    15
100
AcDbCircle
 10
385.025862069
 20
396.4697044335
 30
0.0
 40
2.099999999999966
  0
LINE
  5
F2
330
1F
100
AcDbEntity
  8
0
  6
Continuous
 62
     7
370
    15
100
AcDbLine
 10
373.825862069
 20
388.4697044335
 30
0.0
 11
741.225862069
 21
388.4697044335
 31
0.0
  0
LINE
  5
F3
330
1F
100
AcDbEntity
  8
0
  6
Continuous
 62
     7
370
    15
100
AcDbLine
 10
359.8329331368
 20
388.4697044335
 30
0.0
 11
359.8329331368
 21
388.6735421356
 31
0.0
  0
LINE
  5
F4
330
1F
100
AcDbEntity
  8
0
  6
Continuous
 62
     7
370
    15
100
AcDbLine
 10
755.2187910011
 20
388.6659634777
 30
0.0
 11
755.2187910011
 21
388.4697044335
 31
0.0
  0
LINE
  5
F5
330
1F
100
AcDbEntity
  8
0
  6
Continuous
 62
     7
370
    15
100
AcDbLine
 10
389.925862069
 20
418.4697044335
 30
0.0
 11
725.125862069
 21
418.4697044335
 31
0.0
  0
LINE
  5
F6
330
1F
100
AcDbEntity
  8
0
  6
Continuous
 62
     7
370
    15
100
AcDbLine
 10
724.325862069
 20
418.6697044335
 30
0.0
 11
724.325862069
 21
418.4697044335
 31
0.0
  0
LINE
  5
F7
330
1F
100
AcDbEntity
  8
0
  6
Continuous
 62
     7
370
    15
100
AcDbLine
 10
723.525862069
 20
418.4697044335
 30
0.0
 11
723.525862069
 21
418.6697044335
 31
0.0
  0
LINE
  5
F8
330
1F
100
AcDbEntity
  8
0
  6
Continuous
 62
     7
370
    15
100
AcDbLine
 10
390.725862069
 20
418.4697044335
 30
0.0
 11
390.725862069
 21
418.6697044335
 31
0.0
  0
LINE
  5
F9
330
1F
100
AcDbEntity
  8
0
  6
Continuous
 62
     7
370
    15
100
AcDbLine
 10
391.525862069
 20
418.6697044335
 30
0.0
 11
391.525862069
 21
418.4697044335
 31
0.0
  0
LINE
  5
FA
330
1F
100
AcDbEntity
  8
0
  6
Continuous
 62
     7
370
    15
100
AcDbLine
 10
357.525862069
 20
1118.4697044335
 30
0.0
 11
757.525862069
 21
1118.4697044335
 31
0.0
  0
LINE
  5
FB
330
1F
100
AcDbEntity
  8
0
  6
Continuous
 62
     7
370
    15
100
AcDbLine
 10
757.525862069
 20
1118.4697044335
 30
0.0
 11
757.525862069
 21
1101.3982852926
 31
0.0
  0
LINE
  5
FC
330
1F
100
AcDbEntity
  8
0
  6
Continuous
 62
     7
370
    15
100
AcDbLine
 10
357.525862069
 20
1118.4697044335
 30
0.0
 11
357.525862069
 21
1101.3982852926
 31
0.0
  0
LINE
  5
FD
330
1F
100
AcDbEntity
  8
0
  6
Continuous
 62
     7
370
    15
100
AcDbLine
 10
357.525862069
 20
1101.3982852926
 30
0.0
 11
357.525862069
 21
1070.402558976
 31
0.0
  0
LINE
  5
FE
330
1F
100
AcDbEntity
  8
0
  6
Continuous
 62
     7
370
    15
100
AcDbLine
 10
757.525862069
 20
1101.3982852926
 30
0.0
 11
757.525862069
 21
1070.402558976
 31
0.0
  0
LINE
  5
FF
330
1F
100
AcDbEntity
  8
0
  6
Continuous
 62
     7
370
    15
100
AcDbLine
 10
357.525862069
 20
1070.402558976
 30
0.0
 11
357.525862069
 21
1064.5982846724
 31
0.0
  0
LINE
  5
100
330
1F
100
AcDbEntity
  8
0
  6
Continuous
 62
     7
370
    15
100
AcDbLine
 10
757.525862069
 20
1070.402558976
 30
0.0
 11
757.525862069
 21
1064.5982846724
 31
0.0
  0
LWPOLYLINE
  5
101
330
1F
100
AcDbEntity
  8
0
  6
Continuous
 62
     7
370
    15
100
AcDbPolyline
 90
        9
 70
   128
 43
0.0
 10
755.525862069
 20
1055.5542538712
 10
755.916042713
 20
1055.5704948539
 10
756.2912289337
 20
1055.6185936705
 10
756.637002535
 20
1055.6967019102
 10
756.9400756313
 20
1055.8018179172
 10
757.1888012936
 20
1055.9299021423
 10
757.373621134
 20
1056.0760323807
 10
757.4874326298
 20
1056.2345929291
 10
757.525862069
 20
1056.3994903946
  0
LINE
  5
102
330
1F
100
AcDbEntity
  8
0
  6
Continuous
 62
     7
370
    15
100
AcDbLine
 10
359.525862069
 20
1055.5542538712
 30
0.0
 11
755.525862069
 21
1055.5542538712
 31
0.0
  0
LWPOLYLINE
  5
103
330
1F
100
AcDbEntity
  8
0
  6
Continuous
 62
     7
370
    15
100
AcDbPolyline
 90
        9
 70
   128
 43
0.0
 10
357.525862069
 20
1056.3994903946
 10
357.5642915082
 20
1056.2345929291
 10
357.6781030039
 20
1056.0760323807
 10
357.8629228444
 20
1055.9299021423
 10
358.1116485066
 20
1055.8018179172
 10
358.4147216029
 20
1055.6967019102
 10
358.7604952042
 20
1055.6185936705
 10
359.1356814249
 20
1055.5704948539
 10
359.525862069
 20
1055.5542538712
  0
LINE
  5
104
330
1F
100
AcDbEntity
  8
0
  6
Continuous
 62
     7
370
    15
100
AcDbLine
 10
757.525862069
 20
1064.5982846724
 30
0.0
 11
757.525862069
 21
1056.3994903946
 31
0.0
  0
LINE
  5
105
330
1F
100
AcDbEntity
  8
0
  6
Continuous
 62
     7
370
    15
100
AcDbLine
 10
357.525862069
 20
1064.5982846724
 30
0.0
 11
357.525862069
 21
1056.3994903946
 31
0.0
  0
LINE
  5
106
330
1F
100
AcDbEntity
  8
0
  6
Continuous
 62
     7
370
    15
100
AcDbLine
 10
757.525862069
 20
1120.7197044335
 30
0.0
 11
757.525862069
 21
1118.4697044335
 31
0.0
  0
LINE
  5
107
330
1F
100
AcDbEntity
  8
0
  6
Continuous
 62
     7
370
    15
100
AcDbLine
 10
357.525862069
 20
1120.7197044335
 30
0.0
 11
357.525862069
 21
1118.4697044335
 31
0.0
  0
LINE
  5
108
330
1F
100
AcDbEntity
  8
0
  6
Continuous
 62
     7
370
    15
100
AcDbLine
 10
357.525862069
 20
1136.4697044335
 30
0.0
 11
357.525862069
 21
1132.2197044335
 31
0.0
  0
LINE
  5
109
330
1F
100
AcDbEntity
  8
0
  6
Continuous
 62
     7
370
    15
100
AcDbLine
 10
357.525862069
 20
1136.4697044335
 30
0.0
 11
757.525862069
 21
1136.4697044335
 31
0.0
  0
LINE
  5
10A
330
1F
100
AcDbEntity
  8
0
  6
Continuous
 62
     7
370
    15
100
AcDbLine
 10
757.525862069
 20
1136.4697044335
 30
0.0
 11
757.525862069
 21
1132.2197044335
 31
0.0
  0
LINE
  5
10B
330
1F
100
AcDbEntity
  8
0
  6
Continuous
 62
     7
370
    15
100
AcDbLine
 10
757.525862069
 20
1132.2197044335
 30
0.0
 11
757.525862069
 21
1120.7197044335
 31
0.0
  0
LINE
  5
10C
330
1F
100
AcDbEntity
  8
0
  6
Continuous
 62
     7
370
    15
100
AcDbLine
 10
357.525862069
 20
1132.2197044335
 30
0.0
 11
357.525862069
 21
1120.7197044335
 31
0.0
  0
LINE
  5
10D
330
1F
100
AcDbEntity
  8
0
  6
Continuous
 62
     7
370
    15
100
AcDbLine
 10
747.525862069
 20
1147.9697044335
 30
0.0
 11
755.025862069
 21
1147.9697044335
 31
0.0
  0
LINE
  5
10E
330
1F
100
AcDbEntity
  8
0
  6
Continuous
 62
     7
370
    15
100
AcDbLine
 10
740.025862069
 20
1147.9697044335
 30
0.0
 11
747.525862069
 21
1147.9697044335
 31
0.0
  0
LINE
  5
10F
330
1F
100
AcDbEntity
  8
0
  6
Continuous
 62
     7
370
    15
100
AcDbLine
 10
372.2332172163
 20
1147.9697044335
 30
0.0
 11
375.025862069
 21
1147.9697044335
 31
0.0
  0
LINE
  5
110
330
1F
100
AcDbEntity
  8
0
  6
Continuous
 62
     7
370
    15
100
AcDbLine
 10
360.025862069
 20
1147.9697044335
 30
0.0
 11
372.2332172163
 21
1147.9697044335
 31
0.0
  0
LINE
  5
111
330
1F
100
AcDbEntity
  8
0
  6
Continuous
 62
     7
370
    15
100
AcDbLine
 10
357.525862069
 20
918.9054272067
 30
0.0
 11
357.525862069
 21
928.0339816603
 31
0.0
  0
LINE
  5
112
330
1F
100
AcDbEntity
  8
0
  6
Continuous
 62
     7
370
    15
100
AcDbLine
 10
757.525862069
 20
918.9054272067
 30
0.0
 11
757.525862069
 21
928.0339816603
 31
0.0
  0
LINE
  5
113
330
1F
100
AcDbEntity
  8
0
  6
Continuous
 62
     7
370
    15
100
AcDbLine
 10
357.525862069
 20
874.7054272067
 30
0.0
 11
357.525862069
 21
918.9054272067
 31
0.0
  0
LINE
  5
114
330
1F
100
AcDbEntity
  8
0
  6
Continuous
 62
     7
370
    15
100
AcDbLine
 10
757.525862069
 20
874.7054272067
 30
0.0
 11
757.525862069
 21
918.9054272067
 31
0.0
  0
LINE
  5
115
330
1F
100
AcDbEntity
  8
0
  6
Continuous
 62
     7
370
    15
100
AcDbLine
 10
357.525862069
 20
928.0339816603
 30
0.0
 11
357.525862069
 21
1047.9266504776
 31
0.0
  0
LINE
  5
116
330
1F
100
AcDbEntity
  8
0
  6
Continuous
 62
     7
370
    15
100
AcDbLine
 10
757.525862069
 20
928.0339816603
 30
0.0
 11
757.525862069
 21
1026.1752635887
 31
0.0
  0
LINE
  5
117
330
1F
100
AcDbEntity
  8
0
  6
Continuous
 62
     7
370
    15
100
AcDbLine
 10
757.525862069
 20
868.4697044335
 30
0.0
 11
757.525862069
 21
874.7054272067
 31
0.0
  0
LINE
  5
118
330
1F
100
AcDbEntity
  8
0
  6
Continuous
 62
     7
370
    15
100
AcDbLine
 10
757.525862069
 20
868.4697044335
 30
0.0
 11
357.525862069
 21
868.4697044335
 31
0.0
  0
LINE
  5
119
330
1F
100
AcDbEntity
  8
0
  6
Continuous
 62
     7
370
    15
100
AcDbLine
 10
357.525862069
 20
868.4697044335
 30
0.0
 11
357.525862069
 21
874.7054272067
 31
0.0
  0
LINE
  5
11A
330
1F
100
AcDbEntity
  8
0
  6
Continuous
 62
     7
370
    15
100
AcDbLine
 10
375.275862069
 20
1055.5542538712
 30
0.0
 11
375.275862069
 21
1055.4833327898
 31
0.0
  0
LINE
  5
11B
330
1F
100
AcDbEntity
  8
0
  6
Continuous
 62
     7
370
    15
100
AcDbLine
 10
375.275862069
 20
1055.4833327898
 30
0.0
 11
375.2688092845
 21
1055.5542538712
 31
0.0
  0
ARC
  5
11C
330
1F
100
AcDbEntity
  8
0
  6
Continuous
 62
     7
370
    15
100
AcDbCircle
 10
756.9372326527
 20
1055.4134245331
 30
0.0
 40
0.5927661883127227
100
AcDbArc
 50
6.7729771323
 51
62.9635145997
  0
LINE
  5
11D
330
1F
100
AcDbEntity
  8
0
  6
Continuous
 62
     7
370
    15
100
AcDbLine
 10
757.525862069
 20
1049.5878080385
 30
0.0
 11
757.525862069
 21
1055.4833327898
 31
0.0
  0
LINE
  5
11E
330
1F
100
AcDbEntity
  8
0
  6
Continuous
 62
     7
370
    15
100
AcDbLine
 10
357.525862069
 20
1049.5878080385
 30
0.0
 11
357.525862069
 21
1055.4833327898
 31
0.0
  0
ARC
  5
11F
330
1F
100
AcDbEntity
  8
0
  6
Continuous
 62
     7
370
    15
100
AcDbCircle
 10
358.1144914792
 20
1055.4134245352
 30
0.0
 40
0.5927661821315957
100
AcDbArc
 50
117.0364863718
 51
173.2270230046
  0
LINE
  5
120
330
1F
100
AcDbEntity
  8
0
  6
Continuous
 62
     7
370
    15
100
AcDbLine
 10
375.275862069
 20
1055.4028094674
 30
0.0
 11
375.275862069
 21
1055.4833327898
 31
0.0
  0
LWPOLYLINE
  5
121
330
1F
100
AcDbEntity
  8
0
  6
Continuous
 62
     7
370
    15
100
AcDbPolyline
 90
        9
 70
   128
 43
0.0
 10
375.525862069
 20
1055.4028094674
 10
375.5163470105
 20
1055.3825933416
 10
375.4892504166
 20
1055.3654549376
 10
375.448697498
 20
1055.3540034222
 10
375.400862069
 20
1055.3499821847
 10
375.3530266399
 20
1055.3540034222
 10
375.3124737213
 20
1055.3654549376
 10
375.2853771274
 20
1055.3825933416
 10
375.275862069
 20
1055.4028094674
  0
LINE
  5
122
330
1F
100
AcDbEntity
  8
0
  6
Continuous
 62
     7
370
    15
100
AcDbLine
 10
375.525862069
 20
1055.5542538712
 30
0.0
 11
375.525862069
 21
1055.4028094674
 31
0.0
  0
LINE
  5
123
330
1F
100
AcDbEntity
  8
0
  6
Continuous
 62
     7
370
    15
100
AcDbLine
 10
739.525862069
 20
1055.4028094674
 30
0.0
 11
739.525862069
 21
1055.5542538712
 31
0.0
  0
LWPOLYLINE
  5
124
330
1F
100
AcDbEntity
  8
0
  6
Continuous
 62
     7
370
    15
100
AcDbPolyline
 90
        9
 70
   128
 43
0.0
 10
739.775862069
 20
1055.4028094674
 10
739.7663470105
 20
1055.3825933416
 10
739.7392504166
 20
1055.3654549376
 10
739.698697498
 20
1055.3540034222
 10
739.650862069
 20
1055.3499821847
 10
739.6030266399
 20
1055.3540034222
 10
739.5624737213
 20
1055.3654549376
 10
739.5353771274
 20
1055.3825933416
 10
739.525862069
 20
1055.4028094674
  0
LINE
  5
125
330
1F
100
AcDbEntity
  8
0
  6
Continuous
 62
     7
370
    15
100
AcDbLine
 10
739.775862069
 20
1055.4833327898
 30
0.0
 11
739.775862069
 21
1055.4028094674
 31
0.0
  0
LINE
  5
126
330
1F
100
AcDbEntity
  8
0
  6
Continuous
 62
     7
370
    15
100
AcDbLine
 10
739.7829148534
 20
1055.5542538712
 30
0.0
 11
739.775862069
 21
1055.4833327898
 31
0.0
  0
LWPOLYLINE
  5
127
330
1F
100
AcDbEntity
  8
0
  6
Continuous
 62
     7
370
    15
100
AcDbPolyline
 90
       19
 70
   128
 43
0.0
 10
746.525862069
 20
1055.1452381804
 10
745.4313976103
 20
1055.0636797811
 10
744.468941718
 20
1054.8288417299
 10
743.7545807769
 20
1054.4690489616
 10
743.3744772593
 20
1054.027697794
 10
743.3744772593
 20
1053.5580216916
 10
743.7545807769
 20
1053.1166705241
 10
744.468941718
 20
1052.7568777558
 10
745.4313976103
 20
1052.5220397046
 10
746.525862069
 20
1052.4404813053
 10
747.6203265276
 20
1052.5220397046
 10
748.58278242
 20
1052.7568777558
 10
749.2971433611
 20
1053.1166705241
 10
749.6772468786
 20
1053.5580216916
 10
749.6772468786
 20
1054.027697794
 10
749.2971433611
 20
1054.4690489616
 10
748.58278242
 20
1054.8288417299
 10
747.6203265276
 20
1055.0636797811
 10
746.525862069
 20
1055.1452381804
  0
LWPOLYLINE
  5
128
330
1F
100
AcDbEntity
  8
0
  6
Continuous
 62
     7
370
    15
100
AcDbPolyline
 90
       19
 70
   128
 43
0.0
 10
368.525862069
 20
1052.4404813053
 10
369.6203265276
 20
1052.5220397046
 10
370.58278242
 20
1052.7568777558
 10
371.2971433611
 20
1053.1166705241
 10
371.6772468786
 20
1053.5580216916
 10
371.6772468786
 20
1054.027697794
 10
371.2971433611
 20
1054.4690489616
 10
370.58278242
 20
1054.8288417299
 10
369.6203265276
 20
1055.0636797811
 10
368.525862069
 20
1055.1452381804
 10
367.4313976103
 20
1055.0636797811
 10
366.468941718
 20
1054.8288417299
 10
365.7545807769
 20
1054.4690489616
 10
365.3744772593
 20
1054.027697794
 10
365.3744772593
 20
1053.5580216916
 10
365.7545807769
 20
1053.1166705241
 10
366.468941718
 20
1052.7568777558
 10
367.4313976103
 20
1052.5220397046
 10
368.525862069
 20
1052.4404813053
  0
LINE
  5
129
330
1F
100
AcDbEntity
  8
0
  6
Continuous
 62
     7
370
    15
100
AcDbLine
 10
739.775862069
 20
1055.4833327898
 30
0.0
 11
739.775862069
 21
1055.5542538712
 31
0.0
  0
LINE
  5
12A
330
1F
100
AcDbEntity
  8
0
  6
Continuous
 62
     7
370
    15
100
AcDbLine
 10
757.5130400933
 20
1056.3039351481
 30
0.0
 11
757.525862069
 21
1056.2083790194
 31
0.0
  0
LINE
  5
12B
330
1F
100
AcDbEntity
  8
0
  6
Continuous
 62
     7
370
    15
100
AcDbLine
 10
757.525862069
 20
1056.2083790194
 30
0.0
 11
757.525862069
 21
1055.4833327898
 31
0.0
  0
LINE
  5
12C
330
1F
100
AcDbEntity
  8
0
  6
Continuous
 62
     7
370
    15
100
AcDbLine
 10
357.525862069
 20
1055.4833327898
 30
0.0
 11
357.525862069
 21
1056.2083790194
 31
0.0
  0
LINE
  5
12D
330
1F
100
AcDbEntity
  8
0
  6
Continuous
 62
     7
370
    15
100
AcDbLine
 10
357.525862069
 20
1056.2083790194
 30
0.0
 11
357.5386839261
 21
1056.3039347078
 31
0.0
  0
ARC
  5
12E
330
1F
100
AcDbEntity
  8
0
  6
Continuous
 62
     7
370
    15
100
AcDbCircle
 10
368.9901985111
 20
1057.0150785354
 30
0.0
 40
3.877454221161772
100
AcDbArc
 50
263.1221572318
 51
312.479511455
  0
ARC
  5
12F
330
1F
100
AcDbEntity
  8
0
  6
Continuous
 62
     7
370
    15
100
AcDbCircle
 10
368.0615256268
 20
1057.0150785354
 30
0.0
 40
3.877454221161348
100
AcDbArc
 50
227.520488545
 51
276.8778427682
  0
ARC
  5
130
330
1F
100
AcDbEntity
  8
0
  6
Continuous
 62
     7
370
    15
100
AcDbCircle
 10
746.525862069
 20
1057.9762186039
 30
0.0
 40
4.909476571937015
100
AcDbArc
 50
231.1012868393
 51
308.8987131607
  0
LINE
  5
131
330
1F
100
AcDbEntity
  8
0
  6
Continuous
 62
     7
370
    15
100
AcDbLine
 10
357.525862069
 20
1047.9266504776
 30
0.0
 11
357.525862069
 21
1049.5878080385
 31
0.0
  0
LINE
  5
132
330
1F
100
AcDbEntity
  8
0
  6
Continuous
 62
     7
370
    15
100
AcDbLine
 10
757.525862069
 20
1047.9689123037
 30
0.0
 11
757.525862069
 21
1049.5878080385
 31
0.0
  0
LWPOLYLINE
  5
133
330
1F
100
AcDbEntity
  8
0
  6
Continuous
 62
     7
370
    15
100
AcDbPolyline
 90
       28
 70
   128
 43
0.0
 10
501.0985824254
 20
990.8237597533
 10
500.9260313906
 20
989.4331538072
 10
501.111980157
 20
988.0439671121
 10
501.6464041784
 20
986.7310910824
 10
502.5004925175
 20
985.5653032045
 10
503.6282010508
 20
984.6094514049
 10
504.9687347195
 20
983.9150659013
 10
506.4498250064
 20
983.5195811961
 10
507.9916259508
 20
983.4443179721
 10
509.5110186648
 20
983.693333689
 10
510.9260922938
 20
984.2532038453
 10
512.1605598522
 20
985.0937456958
 10
513.1478708745
 20
986.1696454119
 10
513.8347991678
 20
987.4229009613
 10
514.18431225
 20
988.7859490129
 10
514.1775677805
 20
990.1853072936
 10
513.8149293553
 20
991.5455360362
 10
513.1159469058
 20
992.793304957
 10
512.1183027567
 20
993.8613465106
 10
510.8757801625
 20
994.6920823005
 10
509.4553638377
 20
995.240727145
 10
507.933628794
 20
995.4777034587
 10
506.3926121616
 20
995.3902357871
 10
504.9153905461
 20
994.9830395351
 10
503.5816013469
 20
994.278066758
 10
502.4631494852
 20
993.3133227207
 10
501.6203309903
 20
992.1408170239
 10
501.0985824254
 20
990.8237597533
  0
LWPOLYLINE
  5
134
330
1F
100
AcDbEntity
  8
0
  6
Continuous
 62
     7
370
    15
100
AcDbPolyline
 90
       21
 70
   128
 43
0.0
 10
499.9784330491
 20
989.5805239175
 10
499.7765000734
 20
988.0628889032
 10
499.939261547
 20
986.5413928749
 10
500.4591069244
 20
985.0871792959
 10
501.3117288135
 20
983.7682455768
 10
502.4572595624
 20
982.6462635926
 10
503.8421354264
 20
981.7736959737
 10
505.4016011493
 20
981.1913430123
 10
507.0627378471
 20
980.9264348856
 10
508.747872614
 20
980.9913584032
 10
510.3782104213
 20
981.3830778135
 10
511.8775184851
 20
982.0832767523
 10
513.1756908266
 20
983.0592146954
 10
514.21202635
 20
984.2652578693
 10
514.938067158
 20
985.6450130356
 10
515.3198643894
 20
987.1339643762
 10
515.33956563
 20
988.6624901813
 10
514.9962496716
 20
990.159118283
 10
514.3059695869
 20
991.5538680147
 10
513.3010021055
 20
992.7815224291
 10
513.1107010811
 20
992.9614424662
  0
ARC
  5
135
330
1F
100
AcDbEntity
  8
0
  6
Continuous
 62
     7
370
    15
100
AcDbCircle
 10
506.6925165118
 20
987.8038048201
 30
0.0
 40
6.945188801997352
100
AcDbArc
 50
132.0449008384
 51
165.1778129098
  0
LINE
  5
136
330
1F
100
AcDbEntity
  8
0
  6
Continuous
 62
     7
370
    15
100
AcDbLine
 10
546.225862069
 20
981.2851832167
 30
0.0
 11
546.225862069
 21
1004.4866625649
 31
0.0
  0
LINE
  5
137
330
1F
100
AcDbEntity
  8
0
  6
Continuous
 62
     7
370
    15
100
AcDbLine
 10
568.825862069
 20
1004.4866625649
 30
0.0
 11
568.825862069
 21
981.2851832167
 31
0.0
  0
LINE
  5
138
330
1F
100
AcDbEntity
  8
0
  6
Continuous
 62
     7
370
    15
100
AcDbLine
 10
546.225862069
 20
978.1155462537
 30
0.0
 11
546.225862069
 21
981.2851832167
 31
0.0
  0
LWPOLYLINE
  5
139
330
1F
100
AcDbEntity
  8
0
  6
Continuous
 62
     7
370
    15
100
AcDbPolyline
 90
        3
 70
   128
 43
0.0
 10
546.2459879318
 20
977.9882727168
 10
546.2354694288
 20
978.0271403147
 10
546.225862069
 20
978.1155462537
  0
LINE
  5
13A
330
1F
100
AcDbEntity
  8
0
  6
Continuous
 62
     7
370
    15
100
AcDbLine
 10
568.825862069
 20
981.2851832167
 30
0.0
 11
568.825862069
 21
978.1155462537
 31
0.0
  0
LWPOLYLINE
  5
13B
330
1F
100
AcDbEntity
  8
0
  6
Continuous
 62
     7
370
    15
100
AcDbPolyline
 90
        3
 70
   128
 43
0.0
 10
568.825862069
 20
978.1155462537
 10
568.8162547092
 20
978.0271403147
 10
568.8057362062
 20
977.9882727168
  0
LINE
  5
13C
330
1F
100
AcDbEntity
  8
0
  6
Continuous
 62
     7
370
    15
100
AcDbLine
 10
572.275862069
 20
1005.4346189065
 30
0.0
 11
572.275862069
 21
974.1670002537
 31
0.0
  0
LINE
  5
13D
330
1F
100
AcDbEntity
  8
0
  6
Continuous
 62
     7
370
    15
100
AcDbLine
 10
542.775862069
 20
974.1670002537
 30
0.0
 11
542.775862069
 21
1005.4346189065
 31
0.0
  0
LINE
  5
13E
330
1F
100
AcDbEntity
  8
0
  6
Continuous
 62
     7
370
    15
100
AcDbLine
 10
569.025862069
 20
977.9882727168
 30
0.0
 11
569.025862069
 21
1002.4585829668
 31
0.0
  0
LINE
  5
13F
330
1F
100
AcDbEntity
  8
0
  6
Continuous
 62
     7
370
    15
100
AcDbLine
 10
569.025862069
 20
1002.4585829668
 30
0.0
 11
568.825862069
 21
1002.4585829668
 31
0.0
  0
LINE
  5
140
330
1F
100
AcDbEntity
  8
0
  6
Continuous
 62
     7
370
    15
100
AcDbLine
 10
546.225862069
 20
1002.4585829668
 30
0.0
 11
546.025862069
 21
1002.4585829668
 31
0.0
  0
LINE
  5
141
330
1F
100
AcDbEntity
  8
0
  6
Continuous
 62
     7
370
    15
100
AcDbLine
 10
546.025862069
 20
1002.4585829668
 30
0.0
 11
546.025862069
 21
977.9882727168
 31
0.0
  0
LINE
  5
142
330
1F
100
AcDbEntity
  8
0
  6
Continuous
 62
     7
370
    15
100
AcDbLine
 10
546.025862069
 20
977.9882727168
 30
0.0
 11
569.025862069
 21
977.9882727168
 31
0.0
  0
LINE
  5
143
330
1F
100
AcDbEntity
  8
0
  6
Continuous
 62
     7
370
    15
100
AcDbLine
 10
572.275862069
 20
974.1670002537
 30
0.0
 11
572.275862069
 21
972.4765272068
 31
0.0
  0
ARC
  5
144
330
1F
100
AcDbEntity
  8
0
  6
Continuous
 62
     7
370
    15
100
AcDbCircle
 10
571.3205136178
 20
972.5257947397
 30
0.0
 40
0.9566179765382112
100
AcDbArc
 50
267.3246632995
 51
357.0478590626
  0
LINE
  5
145
330
1F
100
AcDbEntity
  8
0
  6
Continuous
 62
     7
370
    15
100
AcDbLine
 10
543.775862069
 20
971.5702194197
 30
0.0
 11
571.275862069
 21
971.5702194197
 31
0.0
  0
LINE
  5
146
330
1F
100
AcDbEntity
  8
0
  6
Continuous
 62
     7
370
    15
100
AcDbLine
 10
542.775862069
 20
972.4765272068
 30
0.0
 11
542.775862069
 21
974.1670002537
 31
0.0
  0
ARC
  5
147
330
1F
100
AcDbEntity
  8
0
  6
Continuous
 62
     7
370
    15
100
AcDbCircle
 10
543.7312105202
 20
972.5257947397
 30
0.0
 40
0.9566179765387525
100
AcDbArc
 50
182.9521409374
 51
272.6753367005
  0
LINE
  5
148
330
1F
100
AcDbEntity
  8
0
  6
Continuous
 62
     7
370
    15
100
AcDbLine
 10
546.025862069
 20
1001.9514410527
 30
0.0
 11
546.225862069
 21
1001.9514410527
 31
0.0
  0
LINE
  5
149
330
1F
100
AcDbEntity
  8
0
  6
Continuous
 62
     7
370
    15
100
AcDbLine
 10
568.825862069
 20
1001.9514410527
 30
0.0
 11
569.025862069
 21
1001.9514410527
 31
0.0
  0
LWPOLYLINE
  5
14A
330
1F
100
AcDbEntity
  8
0
  6
Continuous
 62
     7
370
    15
100
AcDbPolyline
 90
       13
 70
   128
 43
0.0
 10
601.6483310417
 20
983.298761703
 10
602.893841413
 20
982.2825810317
 10
604.3512640332
 20
981.5328201182
 10
605.9524514404
 20
981.0845369494
 10
607.6225338909
 20
980.958692748
 10
609.2834201857
 20
981.1611718492
 10
610.8574491274
 20
981.6825065551
 10
612.2710208723
 20
982.4983198343
 10
613.4580383765
 20
983.5704651646
 10
614.3629980208
 20
984.848810222
 10
614.9435848981
 20
986.2735810123
 10
615.1726514113
 20
987.778156837
 10
615.175862069
 20
987.9803160682
  0
ARC
  5
14B
330
1F
100
AcDbEntity
  8
0
  6
Continuous
 62
     7
370
    15
100
AcDbCircle
 10
606.3193967431
 20
988.0231166932
 30
0.0
 40
6.643672543130467
100
AcDbArc
 50
180.3691199591
 51
225.3249688015
  0
LWPOLYLINE
  5
14C
330
1F
100
AcDbEntity
  8
0
  6
Continuous
 62
     7
370
    15
100
AcDbPolyline
 90
       16
 70
   128
 43
0.0
 10
499.825967949
 20
987.9803160682
 10
499.9139388307
 20
986.9250181185
 10
500.3433827724
 20
985.4569019852
 10
501.1110143585
 20
984.1067778899
 10
502.1809399892
 20
982.9377761347
 10
503.5031311312
 20
982.0045579424
 10
505.0157635961
 20
981.3507595584
 10
506.6481083711
 20
981.0069518687
 10
508.3238388288
 20
980.9892109386
 10
509.9645996753
 20
981.2983663143
 10
511.493670757
 20
981.919962234
 10
512.8395544097
 20
982.8249335634
 10
513.9393186095
 20
983.9709648489
 10
514.7415396047
 20
985.3044689414
 10
515.2087064334
 20
986.7630926716
 10
515.325967949
 20
987.9803160682
  0
LWPOLYLINE
  5
14D
330
1F
100
AcDbEntity
  8
0
  6
Continuous
 62
     7
370
    15
100
AcDbPolyline
 90
       28
 70
   128
 43
0.0
 10
611.8582146743
 20
984.9664642368
 10
612.8820169159
 20
986.0139754638
 10
613.6116764375
 20
987.2472347314
 10
614.0078571053
 20
988.5997567131
 10
614.0492007171
 20
989.9986265989
 10
613.7334784279
 20
991.3684309512
 10
613.0777109081
 20
992.6353232627
 10
612.1172507545
 20
993.7310050411
 10
610.9038766226
 20
994.596407798
 10
609.5030018258
 20
995.1848774468
 10
607.990147887
 20
995.4646894365
 10
606.4468731538
 20
995.4207590302
 10
604.9563759664
 20
995.0554545275
 10
603.5990094139
 20
994.3884695887
 10
602.4479494787
 20
993.4557615446
 10
601.5652500997
 20
992.3076129271
 10
600.9984978289
 20
991.0059207255
 10
600.7782464279
 20
989.6208595032
 10
600.9163697068
 20
988.2270982693
 10
601.4054214039
 20
986.8997750526
 10
602.2190366156
 20
985.7104461914
 10
603.3133531352
 20
984.7232287124
 10
604.6293760759
 20
983.9913437653
 10
606.0961583003
 20
983.5542474572
 10
607.6346251991
 20
983.4355037631
 10
609.1618376235
 20
983.6415141864
 10
610.5954631564
 20
984.1611726518
 10
611.8582146743
 20
984.9664642368
  0
ARC
  5
14E
330
1F
100
AcDbEntity
  8
0
  6
Continuous
 62
     7
370
    15
100
AcDbCircle
 10
608.5584834877
 20
987.9746122742
 30
0.0
 40
6.65184657831676
100
AcDbArc
 50
307.683065035
 51
48.5636272805
  0
LWPOLYLINE
  5
14F
330
1F
100
AcDbEntity
  8
0
  6
Continuous
 62
     7
370
    15
100
AcDbPolyline
 90
       16
 70
   128
 43
0.0
 10
601.8911289368
 20
992.9614424662
 10
601.6287972216
 20
992.7099958717
 10
600.642479422
 20
991.4699800133
 10
599.9733450558
 20
990.0667913474
 10
599.6526821023
 20
988.5660414163
 10
599.6954844047
 20
987.0379036189
 10
600.099750575
 20
985.5538319803
 10
600.8465775764
 20
984.1832200408
 10
601.9010446083
 20
982.9901560913
 10
603.2138459642
 20
982.0304264762
 10
604.7235965119
 20
981.3489070856
 10
606.3597019937
 20
980.9774650087
 10
608.0456599357
 20
980.9334684643
 10
609.7026368183
 20
981.2189746818
 10
611.253154244
 20
981.8206337079
 10
612.6247117414
 20
982.7103126351
  0
LINE
  5
150
330
1F
100
AcDbEntity
  8
0
  6
Continuous
 62
     7
370
    15
100
AcDbLine
 10
712.0281858646
 20
989.8859465041
 30
0.0
 11
748.0275073207
 21
989.8859465041
 31
0.0
  0
SPLINE
  5
151
330
1F
100
AcDbEntity
  8
0
  6
Continuous
 62
     7
370
    15
100
AcDbSpline
210
0.0
220
0.0
230
1.0
 70
     8
 71
     3
 72
    11
 73
     7
 74
     0
 42
0.00000001
 43
0.00000001
 12
1.0
 22
0.0
 32
0.0
 13
1.0
 23
0.0
 33
0.0
 40
0.0
 40
0.0
 40
0.0
 40
0.0
 40
0.2833048031626345
 40
0.5580362635661587
 40
0.7754301448953487
 40
1.0
 40
1.0
 40
1.0
 40
1.0
 10
748.0275073207267
 20
989.885946504053
 30
0.0
 10
748.3246266046857
 20
989.8506486994968
 30
0.0
 10
748.9098737773527
 20
989.781121269158
 30
0.0
 10
749.5590096127369
 20
989.2966711276505
 30
0.0
 10
749.9541546116193
 20
988.7062984228753
 30
0.0
 10
750.0017022464012
 20
988.2873437580721
 30
0.0
 10
750.0258620689689
 20
988.0744652329483
 30
0.0
  0
LINE
  5
152
330
1F
100
AcDbEntity
  8
0
  6
Continuous
 62
     7
370
    15
100
AcDbLine
 10
750.025862069
 20
988.0744652329
 30
0.0
 11
750.025862069
 21
937.3186037514
 31
0.0
  0
SPLINE
  5
153
330
1F
100
AcDbEntity
  8
0
  6
Continuous
 62
     7
370
    15
100
AcDbSpline
210
0.0
220
0.0
230
1.0
 70
     8
 71
     3
 72
    11
 73
     7
 74
     0
 42
0.00000001
 43
0.00000001
 12
1.0
 22
0.0
 32
0.0
 13
1.0
 23
0.0
 33
0.0
 40
0.0
 40
0.0
 40
0.0
 40
0.0
 40
0.2833229682743014
 40
0.5580462786215572
 40
0.7754268978867176
 40
1.0
 40
1.0
 40
1.0
 40
1.0
 10
750.0258620689689
 20
937.3186037514477
 30
0.0
 10
749.9869368075699
 20
937.0493272981608
 30
0.0
 10
749.9102677771683
 20
936.5189476978326
 30
0.0
 10
749.3759088120337
 20
935.930596069585
 30
0.0
 10
748.724595950347
 20
935.572459378377
 30
0.0
 10
748.2623776222423
 20
935.5293730471722
 30
0.0
 10
748.0275073207267
 20
935.5074792818542
 30
0.0
  0
LINE
  5
154
330
1F
100
AcDbEntity
  8
0
  6
Continuous
 62
     7
370
    15
100
AcDbLine
 10
748.0275073207
 20
935.5074792819
 30
0.0
 11
712.0281858646
 21
935.5074792819
 31
0.0
  0
SPLINE
  5
155
330
1F
100
AcDbEntity
  8
0
  6
Continuous
 62
     7
370
    15
100
AcDbSpline
210
0.0
220
0.0
230
1.0
 70
     8
 71
     3
 72
    11
 73
     7
 74
     0
 42
0.00000001
 43
0.00000001
 12
1.0
 22
0.0
 32
0.0
 13
1.0
 23
0.0
 33
0.0
 40
0.0
 40
0.0
 40
0.0
 40
0.0
 40
0.2832771686238258
 40
0.5580022489005106
 40
0.775402242853924
 40
1.0
 40
1.0
 40
1.0
 40
1.0
 10
712.0281858645825
 20
935.5074792818542
 30
0.0
 10
711.7310702525845
 20
935.5421762170737
 30
0.0
 10
711.1458088971289
 20
935.610522593086
 30
0.0
 10
710.495619911214
 20
936.0935290562039
 30
0.0
 10
710.0990819508631
 20
936.6830137818989
 30
0.0
 10
710.0505322340817
 20
937.1018257971425
 30
0.0
 10
710.0258620689689
 20
937.3146419009702
 30
0.0
  0
LINE
  5
156
330
1F
100
AcDbEntity
  8
0
  6
Continuous
 62
     7
370
    15
100
AcDbLine
 10
710.025862069
 20
937.314641901
 30
0.0
 11
710.025862069
 21
988.0784263014
 31
0.0
  0
SPLINE
  5
157
330
1F
100
AcDbEntity
  8
0
  6
Continuous
 62
     7
370
    15
100
AcDbSpline
210
0.0
220
0.0
230
1.0
 70
     8
 71
     3
 72
    11
 73
     7
 74
     0
 42
0.00000001
 43
0.00000001
 12
1.0
 22
0.0
 32
0.0
 13
1.0
 23
0.0
 33
0.0
 40
0.0
 40
0.0
 40
0.0
 40
0.0
 40
0.2833534124411146
 40
0.5581116990962618
 40
0.7754835424211795
 40
1.0
 40
1.0
 40
1.0
 40
1.0
 10
710.0258620689689
 20
988.0784263013633
 30
0.0
 10
710.0654401910033
 20
988.3476437378384
 30
0.0
 10
710.1433958886083
 20
988.8779122798799
 30
0.0
 10
710.6790621089796
 20
989.4652992116545
 30
0.0
 10
711.3310880851523
 20
989.8222987449448
 30
0.0
 10
711.7933287120313
 20
989.8645031256468
 30
0.0
 10
712.0281858645825
 20
989.885946504053
 30
0.0
  0
SPLINE
  5
158
330
1F
100
AcDbEntity
  8
0
  6
Continuous
 62
     7
370
    15
100
AcDbSpline
210
0.0
220
0.0
230
1.0
 70
     8
 71
     3
 72
    11
 73
     7
 74
     0
 42
0.00000001
 43
0.00000001
 12
1.0
 22
0.0
 32
0.0
 13
1.0
 23
0.0
 33
0.0
 40
0.0
 40
0.0
 40
0.0
 40
0.0
 40
0.2832771686238281
 40
0.5580022489005116
 40
0.7754022428539239
 40
1.0
 40
1.0
 40
1.0
 40
1.0
 10
712.0281858645825
 20
934.8312900630691
 30
0.0
 10
711.7310702525845
 20
934.8659869982885
 30
0.0
 10
711.1458088971289
 20
934.9343333743008
 30
0.0
 10
710.4956199112139
 20
935.4173398374189
 30
0.0
 10
710.0990819508631
 20
936.0068245631137
 30
0.0
 10
710.0505322340817
 20
936.4256365783574
 30
0.0
 10
710.0258620689689
 20
936.6384526821851
 30
0.0
  0
SPLINE
  5
159
330
1F
100
AcDbEntity
  8
0
  6
Continuous
 62
     7
370
    15
100
AcDbSpline
210
0.0
220
0.0
230
1.0
 70
     8
 71
     3
 72
    11
 73
     7
 74
     0
 42
0.00000001
 43
0.00000001
 12
1.0
 22
0.0
 32
0.0
 13
1.0
 23
0.0
 33
0.0
 40
0.0
 40
0.0
 40
0.0
 40
0.0
 40
0.283322968274309
 40
0.5580462786215568
 40
0.7754268978867266
 40
1.0
 40
1.0
 40
1.0
 40
1.0
 10
750.0258620689689
 20
936.6424145326627
 30
0.0
 10
749.9869368075699
 20
936.3731380793758
 30
0.0
 10
749.9102677771683
 20
935.8427584790477
 30
0.0
 10
749.3759088120337
 20
935.2544068508
 30
0.0
 10
748.7245959503471
 20
934.8962701595917
 30
0.0
 10
748.2623776222423
 20
934.8531838283872
 30
0.0
 10
748.0275073207267
 20
934.831290063069
 30
0.0
  0
LINE
  5
15A
330
1F
100
AcDbEntity
  8
0
  6
Continuous
 62
     7
370
    15
100
AcDbLine
 10
750.025862069
 20
936.6424145327
 30
0.0
 11
750.025862069
 21
937.3186037514
 31
0.0
  0
LINE
  5
15B
330
1F
100
AcDbEntity
  8
0
  6
Continuous
 62
     7
370
    15
100
AcDbLine
 10
748.0275073207
 20
934.8312900631
 30
0.0
 11
712.0281858646
 21
934.8312900631
 31
0.0
  0
SPLINE
  5
15C
330
1F
100
AcDbEntity
  8
0
  6
Continuous
 62
     7
370
    15
100
AcDbSpline
210
0.0
220
0.0
230
1.0
 70
     8
 71
     3
 72
    13
 73
     9
 74
     0
 42
0.00000001
 43
0.00000001
 12
1.0
 22
0.0
 32
0.0
 13
1.0
 23
0.0
 33
0.0
 40
0.0
 40
0.0
 40
0.0
 40
0.0
 40
0.1275872441294501
 40
0.2546759233236778
 40
0.5000487292309191
 40
0.7453982611490112
 40
0.8725397565424708
 40
1.0
 40
1.0
 40
1.0
 40
1.0
 10
710.0258620689689
 20
937.3146419009702
 30
0.0
 10
710.0337072404523
 20
937.1939475321931
 30
0.0
 10
710.0493669273181
 20
936.953030424703
 30
0.0
 10
710.2119532725088
 20
936.5001086972053
 30
0.0
 10
710.5799289602534
 20
936.0039927555921
 30
0.0
 10
711.1289279543959
 20
935.6725081664113
 30
0.0
 10
711.6293153378704
 20
935.5272629739646
 30
0.0
 10
711.8951180986259
 20
935.514079347628
 30
0.0
 10
712.0281858645825
 20
935.5074792818543
 30
0.0
  0
SPLINE
  5
15D
330
1F
100
AcDbEntity
  8
0
  6
Continuous
 62
     7
370
    15
100
AcDbSpline
210
0.0
220
0.0
230
1.0
 70
     8
 71
     3
 72
    13
 73
     9
 74
     0
 42
0.00000001
 43
0.00000001
 12
1.0
 22
0.0
 32
0.0
 13
1.0
 23
0.0
 33
0.0
 40
0.0
 40
0.0
 40
0.0
 40
0.0
 40
0.127574481359098
 40
0.2546483440425887
 40
0.5000017710082009
 40
0.7453551979738116
 40
0.8725131741728166
 40
1.0
 40
1.0
 40
1.0
 40
1.0
 10
748.0275073207266
 20
935.5074792818543
 30
0.0
 10
748.1606970686963
 20
935.5143257687331
 30
0.0
 10
748.4265539109316
 20
935.5279918759958
 30
0.0
 10
748.9266587387781
 20
935.6743628541486
 30
0.0
 10
749.474884313851
 20
936.0068245681266
 30
0.0
 10
749.8418220141136
 20
936.5037528995417
 30
0.0
 10
750.0031639148274
 20
936.9570427431402
 30
0.0
 10
750.018289506499
 20
937.1979796995971
 30
0.0
 10
750.0258620689688
 20
937.3186037514478
 30
0.0
  0
SPLINE
  5
15E
330
1F
100
AcDbEntity
  8
0
  6
Continuous
 62
     7
370
    15
100
AcDbSpline
210
0.0
220
0.0
230
1.0
 70
     8
 71
     3
 72
    13
 73
     9
 74
     0
 42
0.00000001
 43
0.00000001
 12
1.0
 22
0.0
 32
0.0
 13
1.0
 23
0.0
 33
0.0
 40
0.0
 40
0.0
 40
0.0
 40
0.0
 40
0.1275360740474332
 40
0.2545887198592366
 40
0.4999418984797925
 40
0.7453299828649719
 40
0.8725055605771019
 40
1.0
 40
1.0
 40
1.0
 40
1.0
 10
712.0281858645825
 20
989.885946504053
 30
0.0
 10
711.8950233411733
 20
989.8793601443422
 30
0.0
 10
711.6292030497683
 20
989.866212390659
 30
0.0
 10
711.1288468711427
 20
989.7207580343428
 30
0.0
 10
710.5799270067912
 20
989.3892493109176
 30
0.0
 10
710.2118637763011
 20
988.8929778332771
 30
0.0
 10
710.0494336092629
 20
988.4399626194087
 30
0.0
 10
710.0337258047625
 20
988.1990389575359
 30
0.0
 10
710.0258620689689
 20
988.0784263013633
 30
0.0
  0
SPLINE
  5
15F
330
1F
100
AcDbEntity
  8
0
  6
Continuous
 62
     7
370
    15
100
AcDbSpline
210
0.0
220
0.0
230
1.0
 70
     8
 71
     3
 72
    13
 73
     9
 74
     0
 42
0.00000001
 43
0.00000001
 12
1.0
 22
0.0
 32
0.0
 13
1.0
 23
0.0
 33
0.0
 40
0.0
 40
0.0
 40
0.0
 40
0.0
 40
0.1275693177285197
 40
0.2546459829165777
 40
0.5000146894810287
 40
0.7453717616663784
 40
0.8725249485133857
 40
1.0
 40
1.0
 40
1.0
 40
1.0
 10
750.0258620689688
 20
988.0744652329485
 30
0.0
 10
750.0183072797275
 20
988.1951812930295
 30
0.0
 10
750.0032268766467
 20
988.4361472268487
 30
0.0
 10
749.8417200161371
 20
988.8894483203882
 30
0.0
 10
749.4749084429964
 20
989.3863977661182
 30
0.0
 10
748.926613631943
 20
989.719076818915
 30
0.0
 10
748.426450057554
 20
989.8653655876564
 30
0.0
 10
748.1606002494508
 20
989.8790804198103
 30
0.0
 10
748.0275073207267
 20
989.885946504053
 30
0.0
  0
LINE
  5
160
330
1F
100
AcDbEntity
  8
0
  6
Continuous
 62
     7
370
    15
100
AcDbLine
 10
629.4774393338
 20
868.1947044335
 30
0.0
 11
629.4774393338
 21
868.2697044335
 31
0.0
  0
LINE
  5
161
330
1F
100
AcDbEntity
  8
0
  6
Continuous
 62
     7
370
    15
100
AcDbLine
 10
469.4774393338
 20
868.2697044335
 30
0.0
 11
629.4774393338
 21
868.2697044335
 31
0.0
  0
LINE
  5
162
330
1F
100
AcDbEntity
  8
0
  6
Continuous
 62
     7
370
    15
100
AcDbLine
 10
469.4774393338
 20
868.1947044335
 30
0.0
 11
469.4774393338
 21
868.2697044335
 31
0.0
  0
LINE
  5
163
330
1F
100
AcDbEntity
  8
0
  6
Continuous
 62
     7
370
    15
100
AcDbLine
 10
469.4774393338
 20
868.1947044335
 30
0.0
 11
629.4774393338
 21
868.1947044335
 31
0.0
  0
LINE
  5
164
330
1F
100
AcDbEntity
  8
0
  6
Continuous
 62
     7
370
    15
100
AcDbLine
 10
474.4774393338
 20
868.2697044335
 30
0.0
 11
474.4774393338
 21
868.4697044335
 31
0.0
  0
LINE
  5
165
330
1F
100
AcDbEntity
  8
0
  6
Continuous
 62
     7
370
    15
100
AcDbLine
 10
624.4774393338
 20
868.2697044335
 30
0.0
 11
624.4774393338
 21
868.4697044335
 31
0.0
  0
LINE
  5
166
330
1F
100
AcDbEntity
  8
0
  6
Continuous
 62
     7
370
    15
100
AcDbLine
 10
677.5258620695
 20
1303.4702316607
 30
0.0
 11
677.5258620695
 21
1255.1314901798
 31
0.0
  0
LINE
  5
167
330
1F
100
AcDbEntity
  8
0
  6
Continuous
 62
     7
370
    15
100
AcDbLine
 10
437.5258620695
 20
1255.1314901798
 30
0.0
 11
437.5258620695
 21
1303.4702316607
 31
0.0
  0
LINE
  5
168
330
1F
100
AcDbEntity
  8
0
  6
Continuous
 62
     7
370
    15
100
AcDbLine
 10
677.5258620695
 20
1306.5628637292
 30
0.0
 11
677.5258620695
 21
1303.4702316607
 31
0.0
  0
LINE
  5
169
330
1F
100
AcDbEntity
  8
0
  6
Continuous
 62
     7
370
    15
100
AcDbLine
 10
437.5258620695
 20
1303.4702316607
 30
0.0
 11
437.5258620695
 21
1306.5628637292
 31
0.0
  0
LINE
  5
16A
330
1F
100
AcDbEntity
  8
0
  6
Continuous
 62
     7
370
    15
100
AcDbLine
 10
508.025862069
 20
1236.4697044335
 30
0.0
 11
508.025862069
 21
1136.4697044335
 31
0.0
  0
LINE
  5
16B
330
1F
100
AcDbEntity
  8
0
  6
Continuous
 62
     7
370
    15
100
AcDbLine
 10
607.025862069
 20
1136.4697044335
 30
0.0
 11
607.025862069
 21
1236.4697044335
 31
0.0
  0
LINE
  5
16C
330
1F
100
AcDbEntity
  8
0
  6
Continuous
 62
     7
370
    15
100
AcDbLine
 10
407.525862069
 20
1347.7697044335
 30
0.0
 11
442.525862069
 21
1347.7697044335
 31
0.0
  0
LINE
  5
16D
330
1F
100
AcDbEntity
  8
0
  6
Continuous
 62
     7
370
    15
100
AcDbLine
 10
442.525862069
 20
1347.7697044335
 30
0.0
 11
442.525862069
 21
1347.6697044335
 31
0.0
  0
LINE
  5
16E
330
1F
100
AcDbEntity
  8
0
  6
Continuous
 62
     7
370
    15
100
AcDbLine
 10
407.525862069
 20
1347.7697044335
 30
0.0
 11
407.525862069
 21
1347.6697044335
 31
0.0
  0
LINE
  5
16F
330
1F
100
AcDbEntity
  8
0
  6
Continuous
 62
     7
370
    15
100
AcDbLine
 10
439.2938112614
 20
1347.8697044335
 30
0.0
 11
440.2938112614
 21
1347.8697044335
 31
0.0
  0
LINE
  5
170
330
1F
100
AcDbEntity
  8
0
  6
Continuous
 62
     7
370
    15
100
AcDbLine
 10
410.7579128765
 20
1347.8697044335
 30
0.0
 11
439.2938112614
 21
1347.8697044335
 31
0.0
  0
LINE
  5
171
330
1F
100
AcDbEntity
  8
0
  6
Continuous
 62
     7
370
    15
100
AcDbLine
 10
409.7579128765
 20
1347.8697044335
 30
0.0
 11
410.7579128765
 21
1347.8697044335
 31
0.0
  0
LINE
  5
172
330
1F
100
AcDbEntity
  8
0
  6
Continuous
 62
     7
370
    15
100
AcDbLine
 10
709.0258620695
 20
1346.8506733874
 30
0.0
 11
707.5258620695
 21
1346.8506733874
 31
0.0
  0
LINE
  5
173
330
1F
100
AcDbEntity
  8
0
  6
Continuous
 62
     7
370
    15
100
AcDbLine
 10
709.0258620695
 20
1328.6386948887
 30
0.0
 11
709.0258620695
 21
1346.8506733874
 31
0.0
  0
LINE
  5
174
330
1F
100
AcDbEntity
  8
0
  6
Continuous
 62
     7
370
    15
100
AcDbLine
 10
709.0258620695
 20
1237.9722551278
 30
0.0
 11
709.0258620695
 21
1328.6386948887
 31
0.0
  0
LINE
  5
175
330
1F
100
AcDbEntity
  8
0
  6
Continuous
 62
     7
370
    15
100
AcDbLine
 10
709.0258620695
 20
1237.2484780191
 30
0.0
 11
707.5258620695
 21
1237.2484780191
 31
0.0
  0
LINE
  5
176
330
1F
100
AcDbEntity
  8
0
  6
Continuous
 62
     7
370
    15
100
AcDbLine
 10
709.0258620695
 20
1237.2484780191
 30
0.0
 11
709.0258620695
 21
1237.9722551278
 31
0.0
  0
LINE
  5
177
330
1F
100
AcDbEntity
  8
0
  6
Continuous
 62
     7
370
    15
100
AcDbLine
 10
406.0258620695
 20
1346.8506733874
 30
0.0
 11
407.5258620695
 21
1346.8506733874
 31
0.0
  0
LINE
  5
178
330
1F
100
AcDbEntity
  8
0
  6
Continuous
 62
     7
370
    15
100
AcDbLine
 10
406.0258620695
 20
1328.6386948887
 30
0.0
 11
406.0258620695
 21
1346.8506733874
 31
0.0
  0
LINE
  5
179
330
1F
100
AcDbEntity
  8
0
  6
Continuous
 62
     7
370
    15
100
AcDbLine
 10
406.0258620695
 20
1237.9722551278
 30
0.0
 11
406.0258620695
 21
1328.6386948887
 31
0.0
  0
LINE
  5
17A
330
1F
100
AcDbEntity
  8
0
  6
Continuous
 62
     7
370
    15
100
AcDbLine
 10
406.0258620695
 20
1237.2484780191
 30
0.0
 11
407.5258620695
 21
1237.2484780191
 31
0.0
  0
LINE
  5
17B
330
1F
100
AcDbEntity
  8
0
  6
Continuous
 62
     7
370
    15
100
AcDbLine
 10
406.0258620695
 20
1237.2484780191
 30
0.0
 11
406.0258620695
 21
1237.9722551278
 31
0.0
  0
LINE
  5
17C
330
1F
100
AcDbEntity
  8
0
  6
Continuous
 62
     7
370
    15
100
AcDbLine
 10
707.5258620695
 20
1347.6697044335
 30
0.0
 11
407.5258620695
 21
1347.6697044335
 31
0.0
  0
LINE
  5
17D
330
1F
100
AcDbEntity
  8
0
  6
Continuous
 62
     7
370
    15
100
AcDbLine
 10
707.5258620695
 20
1328.245935761
 30
0.0
 11
707.5258620695
 21
1347.6697044335
 31
0.0
  0
LINE
  5
17E
330
1F
100
AcDbEntity
  8
0
  6
Continuous
 62
     7
370
    15
100
AcDbLine
 10
407.5258620695
 20
1328.245935761
 30
0.0
 11
407.5258620695
 21
1347.6697044335
 31
0.0
  0
LINE
  5
17F
330
1F
100
AcDbEntity
  8
0
  6
Continuous
 62
     7
370
    15
100
AcDbLine
 10
707.5258620695
 20
1237.5794960002
 30
0.0
 11
707.5258620695
 21
1328.245935761
 31
0.0
  0
LINE
  5
180
330
1F
100
AcDbEntity
  8
0
  6
Continuous
 62
     7
370
    15
100
AcDbLine
 10
407.5258620695
 20
1237.5794960002
 30
0.0
 11
407.5258620695
 21
1328.245935761
 31
0.0
  0
LWPOLYLINE
  5
181
330
1F
100
AcDbEntity
  8
0
  6
Continuous
 62
     7
370
    15
100
AcDbPolyline
 90
        9
 70
   128
 43
0.0
 10
672.5258620695
 20
1307.709276493
 10
674.4767652897
 20
1307.5448572641
 10
676.3526963932
 20
1307.0579181163
 10
678.0815643997
 20
1306.2671718478
 10
679.5969298814
 20
1305.2030063944
 10
680.8405581926
 20
1303.9063170375
 10
681.7646573946
 20
1302.4269348221
 10
682.3337148736
 20
1300.821711577
 10
682.5258620695
 20
1299.1523351313
  0
LINE
  5
182
330
1F
100
AcDbEntity
  8
0
  6
Continuous
 62
     7
370
    15
100
AcDbLine
 10
672.5258620695
 20
1307.709276493
 30
0.0
 11
442.5258620695
 21
1307.709276493
 31
0.0
  0
LWPOLYLINE
  5
183
330
1F
100
AcDbEntity
  8
0
  6
Continuous
 62
     7
370
    15
100
AcDbPolyline
 90
        9
 70
   128
 43
0.0
 10
432.5258620695
 20
1299.1523351313
 10
432.7180092655
 20
1300.821711577
 10
433.2870667444
 20
1302.4269348221
 10
434.2111659465
 20
1303.9063170375
 10
435.4547942577
 20
1305.2030063944
 10
436.9701597393
 20
1306.2671718478
 10
438.6990277459
 20
1307.0579181163
 10
440.5749588494
 20
1307.5448572641
 10
442.5258620695
 20
1307.709276493
  0
LINE
  5
184
330
1F
100
AcDbEntity
  8
0
  6
Continuous
 62
     7
370
    15
100
AcDbLine
 10
432.5258620695
 20
1299.1523351313
 30
0.0
 11
432.5258620695
 21
1256.3676283229
 31
0.0
  0
LWPOLYLINE
  5
185
330
1F
100
AcDbEntity
  8
0
  6
Continuous
 62
     7
370
    15
100
AcDbPolyline
 90
        9
 70
   128
 43
0.0
 10
442.5258620695
 20
1247.8106869612
 10
440.5749588494
 20
1247.9751061901
 10
438.6990277459
 20
1248.4620453379
 10
436.9701597393
 20
1249.2527916064
 10
435.4547942577
 20
1250.3169570598
 10
434.2111659465
 20
1251.6136464166
 10
433.2870667444
 20
1253.093028632
 10
432.7180092655
 20
1254.6982518772
 10
432.5258620695
 20
1256.3676283229
  0
LINE
  5
186
330
1F
100
AcDbEntity
  8
0
  6
Continuous
 62
     7
370
    15
100
AcDbLine
 10
442.5258620695
 20
1247.8106869612
 30
0.0
 11
672.5258620695
 21
1247.8106869612
 31
0.0
  0
LWPOLYLINE
  5
187
330
1F
100
AcDbEntity
  8
0
  6
Continuous
 62
     7
370
    15
100
AcDbPolyline
 90
        9
 70
   128
 43
0.0
 10
682.5258620695
 20
1256.3676283229
 10
682.3337148736
 20
1254.6982518772
 10
681.7646573946
 20
1253.093028632
 10
680.8405581926
 20
1251.6136464166
 10
679.5969298814
 20
1250.3169570598
 10
678.0815643997
 20
1249.2527916064
 10
676.3526963932
 20
1248.4620453379
 10
674.4767652897
 20
1247.9751061901
 10
672.5258620695
 20
1247.8106869612
  0
LINE
  5
188
330
1F
100
AcDbEntity
  8
0
  6
Continuous
 62
     7
370
    15
100
AcDbLine
 10
682.5258620695
 20
1256.3676283229
 30
0.0
 11
682.5258620695
 21
1299.1523351313
 31
0.0
  0
LWPOLYLINE
  5
189
330
1F
100
AcDbEntity
  8
0
  6
Continuous
 62
     7
370
    15
100
AcDbPolyline
 90
        9
 70
   128
 43
0.0
 10
672.5258620695
 20
1248.2246725032
 10
674.4767652897
 20
1248.3890917321
 10
676.3526963932
 20
1248.87603088
 10
678.0815643997
 20
1249.6667771484
 10
679.5969298814
 20
1250.7309426018
 10
680.8405581926
 20
1252.0276319587
 10
681.7646573946
 20
1253.5070141741
 10
682.3337148736
 20
1255.1122374192
 10
682.5258620695
 20
1256.7816138649
  0
LWPOLYLINE
  5
18A
330
1F
100
AcDbEntity
  8
0
  6
Continuous
 62
     7
370
    15
100
AcDbPolyline
 90
        9
 70
   128
 43
0.0
 10
432.5258620695
 20
1256.7816138649
 10
432.7180092655
 20
1255.1122374192
 10
433.2870667444
 20
1253.5070141741
 10
434.2111659465
 20
1252.0276319587
 10
435.4547942577
 20
1250.7309426018
 10
436.9701597393
 20
1249.6667771484
 10
438.6990277459
 20
1248.87603088
 10
440.5749588494
 20
1248.3890917321
 10
442.5258620695
 20
1248.2246725032
  0
LINE
  5
18B
330
1F
100
AcDbEntity
  8
0
  6
Continuous
 62
     7
370
    15
100
AcDbLine
 10
442.5258620695
 20
1248.2246725032
 30
0.0
 11
672.5258620695
 21
1248.2246725032
 31
0.0
  0
LINE
  5
18C
330
1F
100
AcDbEntity
  8
0
  6
Continuous
 62
     7
370
    15
100
AcDbLine
 10
707.5258620695
 20
1236.4697044335
 30
0.0
 11
407.5258620695
 21
1236.4697044335
 31
0.0
  0
LINE
  5
18D
330
1F
100
AcDbEntity
  8
0
  6
Continuous
 62
     7
370
    15
100
AcDbLine
 10
407.5258620695
 20
1236.4697044335
 30
0.0
 11
407.5258620695
 21
1237.5794960002
 31
0.0
  0
LINE
  5
18E
330
1F
100
AcDbEntity
  8
0
  6
Continuous
 62
     7
370
    15
100
AcDbLine
 10
707.5258620695
 20
1236.4697044335
 30
0.0
 11
707.5258620695
 21
1237.5794960002
 31
0.0
  0
LINE
  5
18F
330
1F
100
AcDbEntity
  8
0
  6
Continuous
 62
     7
370
    15
100
AcDbLine
 10
746.525862069
 20
1053.4586882809
 30
0.0
 11
749.375862069
 21
1054.1540847674
 31
0.0
  0
LINE
  5
190
330
1F
100
AcDbEntity
  8
0
  6
Continuous
 62
     7
370
    15
100
AcDbLine
 10
749.375862069
 20
1054.1540847674
 30
0.0
 11
749.375862069
 21
1054.4078382939
 31
0.0
  0
LINE
  5
191
330
1F
100
AcDbEntity
  8
0
  6
Continuous
 62
     7
370
    15
100
AcDbLine
 10
743.675862069
 20
1054.4078382939
 30
0.0
 11
743.675862069
 21
1054.1540847674
 31
0.0
  0
LINE
  5
192
330
1F
100
AcDbEntity
  8
0
  6
Continuous
 62
     7
370
    15
100
AcDbLine
 10
743.675862069
 20
1054.1540847674
 30
0.0
 11
746.525862069
 21
1053.4586882809
 31
0.0
  0
LINE
  5
193
330
1F
100
AcDbEntity
  8
0
  6
Continuous
 62
     7
370
    15
100
AcDbLine
 10
746.7396882255
 20
1055.1422156162
 30
0.0
 11
746.525862069
 21
1055.0900422976
 31
0.0
  0
LINE
  5
194
330
1F
100
AcDbEntity
  8
0
  6
Continuous
 62
     7
370
    15
100
AcDbLine
 10
746.525862069
 20
1055.0900422976
 30
0.0
 11
746.3120359124
 21
1055.1422156162
 31
0.0
  0
LINE
  5
195
330
1F
100
AcDbEntity
  8
0
  6
Continuous
 62
     7
370
    15
100
AcDbLine
 10
746.525862069
 20
1055.0900422976
 30
0.0
 11
746.525862069
 21
1053.4586882809
 31
0.0
  0
LINE
  5
196
330
1F
100
AcDbEntity
  8
0
  6
Continuous
 62
     7
370
    15
100
AcDbLine
 10
365.5363801156
 20
1054.2752739348
 30
0.0
 11
368.525862069
 21
1053.5458440237
 31
0.0
  0
LINE
  5
197
330
1F
100
AcDbEntity
  8
0
  6
Continuous
 62
     7
370
    15
100
AcDbLine
 10
368.525862069
 20
1053.5458440237
 30
0.0
 11
371.5153440224
 21
1054.2752739348
 31
0.0
  0
LINE
  5
198
330
1F
100
AcDbEntity
  8
0
  6
Continuous
 62
     7
370
    15
100
AcDbLine
 10
368.525862069
 20
1053.5458440237
 30
0.0
 11
368.525862069
 21
1054.6334133681
 31
0.0
  0
LINE
  5
199
330
1F
100
AcDbEntity
  8
0
  6
Continuous
 62
     7
370
    15
100
AcDbLine
 10
367.051524697
 20
1054.9931498693
 30
0.0
 11
368.525862069
 21
1054.6334133681
 31
0.0
  0
LINE
  5
19A
330
1F
100
AcDbEntity
  8
0
  6
Continuous
 62
     7
370
    15
100
AcDbLine
 10
368.525862069
 20
1054.6334133681
 30
0.0
 11
370.0001994409
 21
1054.9931498693
 31
0.0
  0
ARC
  5
19B
330
1F
100
AcDbEntity
  8
0
  6
Continuous
 62
     7
370
    15
100
AcDbCircle
 10
733.7452060454
 20
1028.2933308403
 30
0.0
 40
0.4783089882688376
100
AcDbArc
 50
182.9521409373
 51
272.6753367006
  0
LINE
  5
19C
330
1F
100
AcDbEntity
  8
0
  6
Continuous
 62
     7
370
    15
100
AcDbLine
 10
733.7675318198
 20
1027.8155431803
 30
0.0
 11
756.2841923182
 21
1027.8155431803
 31
0.0
  0
ARC
  5
19D
330
1F
100
AcDbEntity
  8
0
  6
Continuous
 62
     7
370
    15
100
AcDbCircle
 10
756.3065180926
 20
1028.2933308403
 30
0.0
 40
0.4783089882701473
100
AcDbArc
 50
267.3246632996
 51
357.0478590625
  0
ARC
  5
19E
330
1F
100
AcDbEntity
  8
0
  6
Continuous
 62
     7
370
    15
100
AcDbCircle
 10
708.7452060454
 20
1028.2933308403
 30
0.0
 40
0.4783089882690588
100
AcDbArc
 50
182.9521409373
 51
272.6753367006
  0
LINE
  5
19F
330
1F
100
AcDbEntity
  8
0
  6
Continuous
 62
     7
370
    15
100
AcDbLine
 10
708.7675318198
 20
1027.8155431803
 30
0.0
 11
731.2841923182
 21
1027.8155431803
 31
0.0
  0
ARC
  5
1A0
330
1F
100
AcDbEntity
  8
0
  6
Continuous
 62
     7
370
    15
100
AcDbCircle
 10
731.3065180926
 20
1028.2933308403
 30
0.0
 40
0.4783089882697143
100
AcDbArc
 50
267.3246632995
 51
357.0478590626
  0
LINE
  5
1A1
330
1F
100
AcDbEntity
  8
0
  6
Continuous
 62
     7
370
    15
100
AcDbLine
 10
707.525862069
 20
1026.2175254149
 30
0.0
 11
757.525862069
 21
1026.2175254149
 31
0.0
  0
LINE
  5
1A2
330
1F
100
AcDbEntity
  8
0
  6
Continuous
 62
     7
370
    15
100
AcDbLine
 10
707.525862069
 20
1047.9689123037
 30
0.0
 11
707.525862069
 21
1026.2175254149
 31
0.0
  0
LINE
  5
1A3
330
1F
100
AcDbEntity
  8
0
  6
Continuous
 62
     7
370
    15
100
AcDbLine
 10
757.525862069
 20
1047.9689123037
 30
0.0
 11
707.525862069
 21
1047.9689123037
 31
0.0
  0
LINE
  5
1A4
330
1F
100
AcDbEntity
  8
0
  6
Continuous
 62
     7
370
    15
100
AcDbLine
 10
757.525862069
 20
1026.2175254149
 30
0.0
 11
757.525862069
 21
1047.9689123037
 31
0.0
  0
LINE
  5
1A5
330
1F
100
AcDbEntity
  8
0
  6
Continuous
 62
     7
370
    15
100
AcDbLine
 10
707.525862069
 20
1026.1752635887
 30
0.0
 11
757.525862069
 21
1026.1752635887
 31
0.0
  0
LINE
  5
1A6
330
1F
100
AcDbEntity
  8
0
  6
Continuous
 62
     7
370
    15
100
AcDbLine
 10
707.525862069
 20
1026.2175254149
 30
0.0
 11
707.525862069
 21
1026.1752635887
 31
0.0
  0
LINE
  5
1A7
330
1F
100
AcDbEntity
  8
0
  6
Continuous
 62
     7
370
    15
100
AcDbLine
 10
757.525862069
 20
1026.2175254149
 30
0.0
 11
757.525862069
 21
1026.1752635887
 31
0.0
  0
ARC
  5
1A8
330
1F
100
AcDbEntity
  8
0
  6
Continuous
 62
     7
370
    15
100
AcDbCircle
 10
708.7305893489
 20
1028.3120589996
 30
0.0
 40
0.4557537015286076
100
AcDbArc
 50
150.3477891457
 51
274.6493805962
  0
LINE
  5
1A9
330
1F
100
AcDbEntity
  8
0
  6
Continuous
 62
     7
370
    15
100
AcDbLine
 10
733.7675318198
 20
1027.8578050065
 30
0.0
 11
756.2841923182
 21
1027.8578050065
 31
0.0
  0
ARC
  5
1AA
330
1F
100
AcDbEntity
  8
0
  6
Continuous
 62
     7
370
    15
100
AcDbCircle
 10
756.3211347891
 20
1028.3120589996
 30
0.0
 40
0.4557537015284178
100
AcDbArc
 50
265.3506194037
 51
29.6522108543
  0
LINE
  5
1AB
330
1F
100
AcDbEntity
  8
0
  6
Continuous
 62
     7
370
    15
100
AcDbLine
 10
720.025862069
 20
1043.2650373861
 30
0.0
 11
711.3656080311
 21
1029.6704205806
 31
0.0
  0
LINE
  5
1AC
330
1F
100
AcDbEntity
  8
0
  6
Continuous
 62
     7
370
    15
100
AcDbLine
 10
711.3656080311
 20
1029.6704205806
 30
0.0
 11
728.6861161068
 21
1029.6704205806
 31
0.0
  0
LINE
  5
1AD
330
1F
100
AcDbEntity
  8
0
  6
Continuous
 62
     7
370
    15
100
AcDbLine
 10
728.6861161068
 20
1029.6704205806
 30
0.0
 11
720.025862069
 21
1043.2650373861
 31
0.0
  0
LINE
  5
1AE
330
1F
100
AcDbEntity
  8
0
  6
Continuous
 62
     7
370
    15
100
AcDbLine
 10
731.7172050201
 20
1028.5375358468
 30
0.0
 11
720.4588747709
 21
1046.210537694
 31
0.0
  0
ARC
  5
1AF
330
1F
100
AcDbEntity
  8
0
  6
Continuous
 62
     7
370
    15
100
AcDbCircle
 10
731.3211347891
 20
1028.3120589996
 30
0.0
 40
0.4557537015285191
100
AcDbArc
 50
265.3506194037
 51
29.6522108544
  0
LINE
  5
1B0
330
1F
100
AcDbEntity
  8
0
  6
Continuous
 62
     7
370
    15
100
AcDbLine
 10
708.7675318198
 20
1027.8578050065
 30
0.0
 11
731.2841923182
 21
1027.8578050065
 31
0.0
  0
LINE
  5
1B1
330
1F
100
AcDbEntity
  8
0
  6
Continuous
 62
     7
370
    15
100
AcDbLine
 10
719.5928493671
 20
1046.210537694
 30
0.0
 11
708.3345191179
 21
1028.5375358468
 31
0.0
  0
ARC
  5
1B2
330
1F
100
AcDbEntity
  8
0
  6
Continuous
 62
     7
370
    15
100
AcDbCircle
 10
720.025862069
 20
1045.9144598463
 30
0.0
 40
0.5245589498644493
100
AcDbArc
 50
34.3628564095
 51
145.6371435905
  0
LINE
  5
1B3
330
1F
100
AcDbEntity
  8
0
  6
Continuous
 62
     7
370
    15
100
AcDbLine
 10
736.3656080311
 20
1029.6704205806
 30
0.0
 11
753.6861161068
 21
1029.6704205806
 31
0.0
  0
LINE
  5
1B4
330
1F
100
AcDbEntity
  8
0
  6
Continuous
 62
     7
370
    15
100
AcDbLine
 10
753.6861161068
 20
1029.6704205806
 30
0.0
 11
745.025862069
 21
1043.2650373861
 31
0.0
  0
LINE
  5
1B5
330
1F
100
AcDbEntity
  8
0
  6
Continuous
 62
     7
370
    15
100
AcDbLine
 10
745.025862069
 20
1043.2650373861
 30
0.0
 11
736.3656080311
 21
1029.6704205806
 31
0.0
  0
ARC
  5
1B6
330
1F
100
AcDbEntity
  8
0
  6
Continuous
 62
     7
370
    15
100
AcDbCircle
 10
733.7305893489
 20
1028.3120589996
 30
0.0
 40
0.4557537015284203
100
AcDbArc
 50
150.3477891456
 51
274.6493805963
  0
LINE
  5
1B7
330
1F
100
AcDbEntity
  8
0
  6
Continuous
 62
     7
370
    15
100
AcDbLine
 10
744.5928493671
 20
1046.210537694
 30
0.0
 11
733.3345191179
 21
1028.5375358468
 31
0.0
  0
ARC
  5
1B8
330
1F
100
AcDbEntity
  8
0
  6
Continuous
 62
     7
370
    15
100
AcDbCircle
 10
745.025862069
 20
1045.9144598463
 30
0.0
 40
0.5245589498640988
100
AcDbArc
 50
34.3628564095
 51
145.6371435905
  0
LINE
  5
1B9
330
1F
100
AcDbEntity
  8
0
  6
Continuous
 62
     7
370
    15
100
AcDbLine
 10
756.7172050201
 20
1028.5375358468
 30
0.0
 11
745.4588747709
 21
1046.210537694
 31
0.0
  0
LINE
  5
1BA
330
1F
100
AcDbEntity
  8
0
  6
Continuous
 62
     7
370
    15
100
AcDbLine
 10
745.025862069
 20
1043.2650373861
 30
0.0
 11
745.025862069
 21
1043.2227755599
 31
0.0
  0
LINE
  5
1BB
330
1F
100
AcDbEntity
  8
0
  6
Continuous
 62
     7
370
    15
100
AcDbLine
 10
753.6591938216
 20
1029.6704205806
 30
0.0
 11
745.025862069
 21
1043.2227755599
 31
0.0
  0
LINE
  5
1BC
330
1F
100
AcDbEntity
  8
0
  6
Continuous
 62
     7
370
    15
100
AcDbLine
 10
720.025862069
 20
1043.2650373861
 30
0.0
 11
720.025862069
 21
1043.2227755599
 31
0.0
  0
LINE
  5
1BD
330
1F
100
AcDbEntity
  8
0
  6
Continuous
 62
     7
370
    15
100
AcDbLine
 10
720.025862069
 20
1043.2227755599
 30
0.0
 11
711.3925303163
 21
1029.6704205806
 31
0.0
  0
LINE
  5
1BE
330
1F
100
AcDbEntity
  8
0
  6
Continuous
 62
     7
370
    15
100
AcDbLine
 10
728.6591938216
 20
1029.6704205806
 30
0.0
 11
720.025862069
 21
1043.2227755599
 31
0.0
  0
LINE
  5
1BF
330
1F
100
AcDbEntity
  8
0
  6
Continuous
 62
     7
370
    15
100
AcDbLine
 10
745.025862069
 20
1043.2227755599
 30
0.0
 11
736.3925303163
 21
1029.6704205806
 31
0.0
  0
LINE
  5
1C0
330
1F
100
AcDbEntity
  8
0
  6
Continuous
 62
     7
370
    15
100
AcDbLine
 10
743.8336078092
 20
1032.3004808719
 30
0.0
 11
744.3784518092
 21
1030.7367528234
 31
0.0
  0
LINE
  5
1C1
330
1F
100
AcDbEntity
  8
0
  6
Continuous
 62
     7
370
    15
100
AcDbLine
 10
744.3784518092
 20
1030.7367528234
 30
0.0
 11
745.8783268092
 21
1031.6539245218
 31
0.0
  0
LINE
  5
1C2
330
1F
100
AcDbEntity
  8
0
  6
Continuous
 62
     7
370
    15
100
AcDbLine
 10
745.2034019159
 20
1031.7031044467
 30
0.0
 11
747.2956968092
 21
1037.1547714173
 31
0.0
  0
LINE
  5
1C3
330
1F
100
AcDbEntity
  8
0
  6
Continuous
 62
     7
370
    15
100
AcDbLine
 10
744.4029498844
 20
1035.548316353
 30
0.0
 11
746.2128738092
 21
1039.8534587381
 31
0.0
  0
LINE
  5
1C4
330
1F
100
AcDbEntity
  8
0
  6
Continuous
 62
     7
370
    15
100
AcDbLine
 10
741.3403168092
 20
1032.9840444878
 30
0.0
 11
745.3446771914
 21
1034.4490861858
 31
0.0
  0
LINE
  5
1C5
330
1F
100
AcDbEntity
  8
0
  6
Continuous
 62
     7
370
    15
100
AcDbLine
 10
719.2596992362
 20
1031.7018513403
 30
0.0
 11
720.5231433155
 21
1031.7018513403
 31
0.0
  0
LINE
  5
1C6
330
1F
100
AcDbEntity
  8
0
  6
Continuous
 62
     7
370
    15
100
AcDbLine
 10
719.2596992362
 20
1033.9919897555
 30
0.0
 11
720.5231433155
 21
1033.9919897555
 31
0.0
  0
LINE
  5
1C7
330
1F
100
AcDbEntity
  8
0
  6
Continuous
 62
     7
370
    15
100
AcDbLine
 10
745.1300878092
 20
1039.8957205643
 30
0.0
 11
744.1923688092
 21
1040.3864055696
 31
0.0
  0
LINE
  5
1C8
330
1F
100
AcDbEntity
  8
0
  6
Continuous
 62
     7
370
    15
100
AcDbLine
 10
746.2128738092
 20
1039.8957205643
 30
0.0
 11
745.1300878092
 21
1039.8957205643
 31
0.0
  0
LINE
  5
1C9
330
1F
100
AcDbEntity
  8
0
  6
Continuous
 62
     7
370
    15
100
AcDbLine
 10
744.3795838092
 20
1035.5349988926
 30
0.0
 11
746.2128738092
 21
1039.8957205643
 31
0.0
  0
LINE
  5
1CA
330
1F
100
AcDbEntity
  8
0
  6
Continuous
 62
     7
370
    15
100
AcDbLine
 10
747.2956968092
 20
1037.1970332434
 30
0.0
 11
744.3795838092
 21
1035.5349988926
 31
0.0
  0
LINE
  5
1CB
330
1F
100
AcDbEntity
  8
0
  6
Continuous
 62
     7
370
    15
100
AcDbLine
 10
745.1872458092
 20
1031.7032700497
 30
0.0
 11
747.2956968092
 21
1037.1970332434
 31
0.0
  0
LINE
  5
1CC
330
1F
100
AcDbEntity
  8
0
  6
Continuous
 62
     7
370
    15
100
AcDbLine
 10
745.8783268092
 20
1031.696186348
 30
0.0
 11
745.1872458092
 21
1031.7032700497
 31
0.0
  0
LINE
  5
1CD
330
1F
100
AcDbEntity
  8
0
  6
Continuous
 62
     7
370
    15
100
AcDbLine
 10
744.3784518092
 20
1030.7790146495
 30
0.0
 11
745.8783268092
 21
1031.696186348
 31
0.0
  0
LINE
  5
1CE
330
1F
100
AcDbEntity
  8
0
  6
Continuous
 62
     7
370
    15
100
AcDbLine
 10
743.8336078092
 20
1032.342742698
 30
0.0
 11
744.3784518092
 21
1030.7790146495
 31
0.0
  0
LINE
  5
1CF
330
1F
100
AcDbEntity
  8
0
  6
Continuous
 62
     7
370
    15
100
AcDbLine
 10
744.3795838092
 20
1031.9586258939
 30
0.0
 11
743.8336078092
 21
1032.342742698
 31
0.0
  0
LINE
  5
1D0
330
1F
100
AcDbEntity
  8
0
  6
Continuous
 62
     7
370
    15
100
AcDbLine
 10
745.3637598092
 20
1034.498329609
 30
0.0
 11
744.3795838092
 21
1031.9586258939
 31
0.0
  0
LINE
  5
1D1
330
1F
100
AcDbEntity
  8
0
  6
Continuous
 62
     7
370
    15
100
AcDbLine
 10
741.3403168092
 20
1033.026306314
 30
0.0
 11
745.3637598092
 21
1034.498329609
 31
0.0
  0
LINE
  5
1D2
330
1F
100
AcDbEntity
  8
0
  6
Continuous
 62
     7
370
    15
100
AcDbLine
 10
744.1923688092
 20
1040.3864055696
 30
0.0
 11
741.3403168092
 21
1033.026306314
 31
0.0
  0
LINE
  5
1D3
330
1F
100
AcDbEntity
  8
0
  6
Continuous
 62
     7
370
    15
100
AcDbLine
 10
744.3784518092
 20
1030.7790146495
 30
0.0
 11
744.3784518092
 21
1030.7367528234
 31
0.0
  0
LINE
  5
1D4
330
1F
100
AcDbEntity
  8
0
  6
Continuous
 62
     7
370
    15
100
AcDbLine
 10
745.8783268092
 20
1031.696186348
 30
0.0
 11
745.8783268092
 21
1031.6539245218
 31
0.0
  0
LINE
  5
1D5
330
1F
100
AcDbEntity
  8
0
  6
Continuous
 62
     7
370
    15
100
AcDbLine
 10
743.8336078092
 20
1032.342742698
 30
0.0
 11
743.8336078092
 21
1032.3004808719
 31
0.0
  0
LINE
  5
1D6
330
1F
100
AcDbEntity
  8
0
  6
Continuous
 62
     7
370
    15
100
AcDbLine
 10
747.2956968092
 20
1037.1970332434
 30
0.0
 11
747.2956968092
 21
1037.1547714173
 31
0.0
  0
LINE
  5
1D7
330
1F
100
AcDbEntity
  8
0
  6
Continuous
 62
     7
370
    15
100
AcDbLine
 10
719.2596992362
 20
1031.7441131665
 30
0.0
 11
720.5231433155
 21
1031.7441131665
 31
0.0
  0
LINE
  5
1D8
330
1F
100
AcDbEntity
  8
0
  6
Continuous
 62
     7
370
    15
100
AcDbLine
 10
719.2596992362
 20
1032.6029150722
 30
0.0
 11
719.2596992362
 21
1031.7441131665
 31
0.0
  0
LINE
  5
1D9
330
1F
100
AcDbEntity
  8
0
  6
Continuous
 62
     7
370
    15
100
AcDbLine
 10
720.5231433155
 20
1032.6029150722
 30
0.0
 11
719.2596992362
 21
1032.6029150722
 31
0.0
  0
LINE
  5
1DA
330
1F
100
AcDbEntity
  8
0
  6
Continuous
 62
     7
370
    15
100
AcDbLine
 10
720.5231433155
 20
1031.7441131665
 30
0.0
 11
720.5231433155
 21
1032.6029150722
 31
0.0
  0
LINE
  5
1DB
330
1F
100
AcDbEntity
  8
0
  6
Continuous
 62
     7
370
    15
100
AcDbLine
 10
720.5231433155
 20
1031.7441131665
 30
0.0
 11
720.5231433155
 21
1031.7018513403
 31
0.0
  0
LINE
  5
1DC
330
1F
100
AcDbEntity
  8
0
  6
Continuous
 62
     7
370
    15
100
AcDbLine
 10
719.2596992362
 20
1031.7441131665
 30
0.0
 11
719.2596992362
 21
1031.7018513403
 31
0.0
  0
LINE
  5
1DD
330
1F
100
AcDbEntity
  8
0
  6
Continuous
 62
     7
370
    15
100
AcDbLine
 10
741.3403168092
 20
1033.026306314
 30
0.0
 11
741.3403168092
 21
1032.9840444878
 31
0.0
  0
LINE
  5
1DE
330
1F
100
AcDbEntity
  8
0
  6
Continuous
 62
     7
370
    15
100
AcDbLine
 10
719.2596992362
 20
1034.0342515816
 30
0.0
 11
720.5231433155
 21
1034.0342515816
 31
0.0
  0
LINE
  5
1DF
330
1F
100
AcDbEntity
  8
0
  6
Continuous
 62
     7
370
    15
100
AcDbLine
 10
720.5231433155
 20
1034.0342515816
 30
0.0
 11
720.5231433155
 21
1033.9919897555
 31
0.0
  0
LINE
  5
1E0
330
1F
100
AcDbEntity
  8
0
  6
Continuous
 62
     7
370
    15
100
AcDbLine
 10
719.2596992362
 20
1034.0342515816
 30
0.0
 11
719.2596992362
 21
1033.9919897555
 31
0.0
  0
LINE
  5
1E1
330
1F
100
AcDbEntity
  8
0
  6
Continuous
 62
     7
370
    15
100
AcDbLine
 10
720.5231433155
 20
1040.2367097893
 30
0.0
 11
719.2596992362
 21
1040.2367097893
 31
0.0
  0
LINE
  5
1E2
330
1F
100
AcDbEntity
  8
0
  6
Continuous
 62
     7
370
    15
100
AcDbLine
 10
720.5231433155
 20
1034.0342515816
 30
0.0
 11
720.5231433155
 21
1040.2367097893
 31
0.0
  0
LINE
  5
1E3
330
1F
100
AcDbEntity
  8
0
  6
Continuous
 62
     7
370
    15
100
AcDbLine
 10
719.2596992362
 20
1040.2367097893
 30
0.0
 11
719.2596992362
 21
1034.0342515816
 31
0.0
  0
LINE
  5
1E4
330
1F
100
AcDbEntity
  8
0
  6
Continuous
 62
     7
370
    15
100
AcDbLine
 10
746.2128738092
 20
1039.8957205643
 30
0.0
 11
746.2128738092
 21
1039.8534587381
 31
0.0
  0
SPLINE
  5
1E5
330
1F
100
AcDbEntity
  8
0
  6
Continuous
 62
     7
370
    15
100
AcDbSpline
210
0.0
220
0.0
230
1.0
 70
     8
 71
     3
 72
    13
 73
     9
 74
     0
 42
0.00000001
 43
0.00000001
 12
1.0
 22
0.0
 32
0.0
 13
1.0
 23
0.0
 33
0.0
 40
0.0
 40
0.0
 40
0.0
 40
0.0
 40
0.0075462231146298
 40
0.2722763788515191
 40
0.4815195415729535
 40
0.6613541616924821
 40
0.8304588949395845
 40
1.0
 40
1.0
 40
1.0
 40
1.0
 10
504.6191828983466
 20
376.0697044334974
 30
0.0
 10
504.6190759490774
 20
376.0697076175399
 30
0.0
 10
504.6152170968661
 20
376.069822501443
 30
0.0
 10
504.6082019438062
 20
376.0814081610557
 30
0.0
 10
504.5993326769756
 20
376.1241269403271
 30
0.0
 10
504.5930484671116
 20
376.1797985434316
 30
0.0
 10
504.588828818841
 20
376.2459343368123
 30
0.0
 10
504.5882693390964
 20
376.2950932862106
 30
0.0
 10
504.5879892387572
 20
376.3197044334972
 30
0.0
  0
LINE
  5
1E6
330
1F
100
AcDbEntity
  8
0
  6
Continuous
 62
     7
370
    15
100
AcDbLine
 10
504.6191828983
 20
376.0697044335
 30
0.0
 11
497.1291240503
 21
376.0697044335
 31
0.0
  0
SPLINE
  5
1E7
330
1F
100
AcDbEntity
  8
0
  6
Continuous
 62
     7
370
    15
100
AcDbSpline
210
0.0
220
0.0
230
1.0
 70
     8
 71
     3
 72
    13
 73
     9
 74
     0
 42
0.00000001
 43
0.00000001
 12
1.0
 22
0.0
 32
0.0
 13
1.0
 23
0.0
 33
0.0
 40
0.0
 40
0.0
 40
0.0
 40
0.0
 40
0.1695411050603005
 40
0.3386458383074571
 40
0.5184804584266297
 40
0.7277236211486844
 40
0.9924537768858193
 40
1.0
 40
1.0
 40
1.0
 40
1.0
 10
504.5879892387571
 20
377.0197044334972
 30
0.0
 10
504.5882693390964
 20
377.044315580784
 30
0.0
 10
504.588828818841
 20
377.093474530182
 30
0.0
 10
504.5930484671115
 20
377.1596103235632
 30
0.0
 10
504.5993326769755
 20
377.2152819266669
 30
0.0
 10
504.6082019438062
 20
377.2580007059394
 30
0.0
 10
504.6152170968659
 20
377.2695863655522
 30
0.0
 10
504.6190759490774
 20
377.2697012494548
 30
0.0
 10
504.6191828983467
 20
377.2697044334974
 30
0.0
  0
LINE
  5
1E8
330
1F
100
AcDbEntity
  8
0
  6
Continuous
 62
     7
370
    15
100
AcDbLine
 10
496.851452733
 20
377.2697044335
 30
0.0
 11
504.6191828983
 21
377.2697044335
 31
0.0
  0
LINE
  5
1E9
330
1F
100
AcDbEntity
  8
0
  6
Continuous
 62
     7
370
    15
100
AcDbLine
 10
504.5879892388
 20
376.3197044335
 30
0.0
 11
504.5879892388
 21
377.0197044335
 31
0.0
  0
SPLINE
  5
1EA
330
1F
100
AcDbEntity
  8
0
  6
Continuous
 62
     7
370
    15
100
AcDbSpline
210
0.0
220
0.0
230
1.0
 70
     8
 71
     3
 72
    12
 73
     8
 74
     0
 42
0.00000001
 43
0.00000001
 12
1.0
 22
0.0
 32
0.0
 13
1.0
 23
0.0
 33
0.0
 40
0.0
 40
0.0
 40
0.0
 40
0.0
 40
0.2289440738516391
 40
0.4594214300241822
 40
0.6825355698157379
 40
0.8947175231628333
 40
1.0
 40
1.0
 40
1.0
 40
1.0
 10
504.8635761251252
 20
377.2697044334972
 30
0.0
 10
504.9924557014533
 20
377.2523699489197
 30
0.0
 10
505.2510779853211
 20
377.2175848874007
 30
0.0
 10
505.5936888388153
 20
376.943715041588
 30
0.0
 10
505.8407491457592
 20
376.546678507105
 30
0.0
 10
505.9518335015116
 20
376.1458025177523
 30
0.0
 10
505.9612819888637
 20
375.9009171246653
 30
0.0
 10
505.9644154427445
 20
375.8197044334971
 30
0.0
  0
SPLINE
  5
1EB
330
1F
100
AcDbEntity
  8
0
  6
Continuous
 62
     7
370
    15
100
AcDbSpline
210
0.0
220
0.0
230
1.0
 70
     8
 71
     3
 72
    12
 73
     8
 74
     0
 42
0.00000001
 43
0.00000001
 12
1.0
 22
0.0
 32
0.0
 13
1.0
 23
0.0
 33
0.0
 40
0.0
 40
0.0
 40
0.0
 40
0.0
 40
0.2028202020467332
 40
0.4049472449426534
 40
0.6098312030740362
 40
0.8226939241827584
 40
1.0
 40
1.0
 40
1.0
 40
1.0
 10
509.9369654782475
 20
375.819704433497
 30
0.0
 10
509.9247424590593
 20
375.9768452740322
 30
0.0
 10
509.9003381941233
 20
376.2905899099246
 30
0.0
 10
509.7106869877923
 20
376.7109861603949
 30
0.0
 10
509.4285568320226
 20
377.0380646958338
 30
0.0
 10
509.0889113694948
 20
377.2362739621001
 30
0.0
 10
508.8481637218192
 20
377.2592591680223
 30
0.0
 10
508.7387597381897
 20
377.2697044334971
 30
0.0
  0
LINE
  5
1EC
330
1F
100
AcDbEntity
  8
0
  6
Continuous
 62
     7
370
    15
100
AcDbLine
 10
504.8635761251
 20
377.2697044335
 30
0.0
 11
508.7387597382
 21
377.2697044335
 31
0.0
  0
LINE
  5
1ED
330
1F
100
AcDbEntity
  8
0
  6
Continuous
 62
     7
370
    15
100
AcDbLine
 10
509.706301179
 20
370.4697044335
 30
0.0
 11
505.8311175659
 21
370.4697044335
 31
0.0
  0
LINE
  5
1EE
330
1F
100
AcDbEntity
  8
0
  6
Continuous
 62
     7
370
    15
100
AcDbLine
 10
505.8311175659
 20
370.4697044335
 30
0.0
 11
505.2684799644
 21
370.4697044335
 31
0.0
  0
LINE
  5
1EF
330
1F
100
AcDbEntity
  8
0
  6
Continuous
 62
     7
370
    15
100
AcDbLine
 10
504.8635761251
 20
376.0697044335
 30
0.0
 11
504.6191828983
 21
376.0697044335
 31
0.0
  0
LINE
  5
1F0
330
1F
100
AcDbEntity
  8
0
  6
Continuous
 62
     7
370
    15
100
AcDbLine
 10
504.6191828983
 20
377.2697044335
 30
0.0
 11
504.8635761251
 21
377.2697044335
 31
0.0
  0
LINE
  5
1F1
330
1F
100
AcDbEntity
  8
0
  6
Continuous
 62
     7
370
    15
100
AcDbLine
 10
509.956301179
 20
375.8197044335
 30
0.0
 11
509.9369654782
 21
375.8197044335
 31
0.0
  0
LINE
  5
1F2
330
1F
100
AcDbEntity
  8
0
  6
Continuous
 62
     7
370
    15
100
AcDbLine
 10
508.7387597382
 20
377.2697044335
 30
0.0
 11
508.975862069
 21
377.2697044335
 31
0.0
  0
SPLINE
  5
1F3
330
1F
100
AcDbEntity
  8
0
  6
Continuous
 62
     7
370
    15
100
AcDbSpline
210
0.0
220
0.0
230
1.0
 70
     8
 71
     3
 72
    10
 73
     6
 74
     0
 42
0.00000001
 43
0.00000001
 12
1.0
 22
0.0
 32
0.0
 13
1.0
 23
0.0
 33
0.0
 40
0.0
 40
0.0
 40
0.0
 40
0.0
 40
0.3816828359345883
 40
0.7620612310505149
 40
1.0
 40
1.0
 40
1.0
 40
1.0
 10
491.1147586596585
 20
375.8197044334976
 30
0.0
 10
491.1276150399776
 20
375.9759554061433
 30
0.0
 10
491.153283862598
 20
376.2879233474723
 30
0.0
 10
491.3102588971463
 20
376.6658741971093
 30
0.0
 10
491.4655335007332
 20
376.8286042202915
 30
0.0
 10
491.5252857608576
 20
376.8912254503614
 30
0.0
  0
LINE
  5
1F4
330
1F
100
AcDbEntity
  8
0
  6
Continuous
 62
     7
370
    15
100
AcDbLine
 10
491.9080605605
 20
370.4697044335
 30
0.0
 11
491.3454229589
 21
370.4697044335
 31
0.0
  0
LINE
  5
1F5
330
1F
100
AcDbEntity
  8
0
  6
Continuous
 62
     7
370
    15
100
AcDbLine
 10
495.2091561167
 20
370.4697044335
 30
0.0
 11
491.9080605605
 21
370.4697044335
 31
0.0
  0
SPLINE
  5
1F6
330
1F
100
AcDbEntity
  8
0
  6
Continuous
 62
     7
370
    15
100
AcDbSpline
210
0.0
220
0.0
230
1.0
 70
     8
 71
     3
 72
    13
 73
     9
 74
     0
 42
0.00000001
 43
0.00000001
 12
1.0
 22
0.0
 32
0.0
 13
1.0
 23
0.0
 33
0.0
 40
0.0
 40
0.0
 40
0.0
 40
0.0
 40
0.0075462231145896
 40
0.272276378851406
 40
0.4815195415729847
 40
0.6613541616925146
 40
0.8304588949396009
 40
1.0
 40
1.0
 40
1.0
 40
1.0
 10
497.1925464121459
 20
376.0697044334971
 30
0.0
 10
497.1927613471411
 20
376.0697012494545
 30
0.0
 10
497.2005164481068
 20
376.0695863655502
 30
0.0
 10
497.2144661035796
 20
376.0580007059397
 30
0.0
 10
497.2318198308143
 20
376.0152819266667
 30
0.0
 10
497.2439852077011
 20
375.9596103235631
 30
0.0
 10
497.2520931234703
 20
375.8934745301822
 30
0.0
 10
497.2531641156345
 20
375.8443155807839
 30
0.0
 10
497.2537003017454
 20
375.8197044334972
 30
0.0
  0
LINE
  5
1F7
330
1F
100
AcDbEntity
  8
0
  6
Continuous
 62
     7
370
    15
100
AcDbLine
 10
497.1925464121
 20
376.0697044335
 30
0.0
 11
504.6191828983
 21
376.0697044335
 31
0.0
  0
SPLINE
  5
1F8
330
1F
100
AcDbEntity
  8
0
  6
Continuous
 62
     7
370
    15
100
AcDbSpline
210
0.0
220
0.0
230
1.0
 70
     8
 71
     3
 72
    13
 73
     9
 74
     0
 42
0.00000001
 43
0.00000001
 12
1.0
 22
0.0
 32
0.0
 13
1.0
 23
0.0
 33
0.0
 40
0.0
 40
0.0
 40
0.0
 40
0.0
 40
0.1695411050603176
 40
0.3386458383075122
 40
0.5184804584267012
 40
0.7277236211486628
 40
0.9924537768858012
 40
1.0
 40
1.0
 40
1.0
 40
1.0
 10
497.2537003017454
 20
375.1197044334972
 30
0.0
 10
497.2531641156345
 20
375.0950932862105
 30
0.0
 10
497.2520931234702
 20
375.0459343368122
 30
0.0
 10
497.2439852077012
 20
374.9797985434317
 30
0.0
 10
497.2318198308146
 20
374.9241269403274
 30
0.0
 10
497.2144661035795
 20
374.8814081610536
 30
0.0
 10
497.2005164481074
 20
374.8698225014472
 30
0.0
 10
497.1927613471411
 20
374.8697076175395
 30
0.0
 10
497.1925464121459
 20
374.869704433497
 30
0.0
  0
LINE
  5
1F9
330
1F
100
AcDbEntity
  8
0
  6
Continuous
 62
     7
370
    15
100
AcDbLine
 10
505.0184799644
 20
374.8697044335
 30
0.0
 11
497.1925464121
 21
374.8697044335
 31
0.0
  0
LINE
  5
1FA
330
1F
100
AcDbEntity
  8
0
  6
Continuous
 62
     7
370
    15
100
AcDbLine
 10
497.2537003017
 20
375.8197044335
 30
0.0
 11
497.2537003017
 21
375.1197044335
 31
0.0
  0
SPLINE
  5
1FB
330
1F
100
AcDbEntity
  8
0
  6
Continuous
 62
     7
370
    15
100
AcDbSpline
210
0.0
220
0.0
230
1.0
 70
     8
 71
     3
 72
    12
 73
     8
 74
     0
 42
0.00000001
 43
0.00000001
 12
1.0
 22
0.0
 32
0.0
 13
1.0
 23
0.0
 33
0.0
 40
0.0
 40
0.0
 40
0.0
 40
0.0
 40
0.2289440738516393
 40
0.4594214300241855
 40
0.682535569815737
 40
0.8947175231628325
 40
1.0
 40
1.0
 40
1.0
 40
1.0
 10
496.9700607439691
 20
374.8697044334972
 30
0.0
 10
496.854012585295
 20
374.8870389180748
 30
0.0
 10
496.6211390711969
 20
374.9218239795939
 30
0.0
 10
496.3122508838145
 20
375.1956938254066
 30
0.0
 10
496.0893817620631
 20
375.5927303598892
 30
0.0
 10
495.9891324869981
 20
375.9936063492418
 30
0.0
 10
495.9806055038924
 20
376.2384917423289
 30
0.0
 10
495.9777776535382
 20
376.3197044334973
 30
0.0
  0
SPLINE
  5
1FC
330
1F
100
AcDbEntity
  8
0
  6
Continuous
 62
     7
370
    15
100
AcDbSpline
210
0.0
220
0.0
230
1.0
 70
     8
 71
     3
 72
    12
 73
     8
 74
     0
 42
0.00000001
 43
0.00000001
 12
1.0
 22
0.0
 32
0.0
 13
1.0
 23
0.0
 33
0.0
 40
0.0
 40
0.0
 40
0.0
 40
0.0
 40
0.2028202020467324
 40
0.4049472449426539
 40
0.6098312030740407
 40
0.8226939241827531
 40
1.0
 40
1.0
 40
1.0
 40
1.0
 10
491.5554220345233
 20
376.3197044334976
 30
0.0
 10
491.5666382770558
 20
376.1625635929622
 30
0.0
 10
491.5890324294446
 20
375.8488189570695
 30
0.0
 10
491.7630930972176
 20
375.4284227066003
 30
0.0
 10
492.0221375605026
 20
375.1013441711603
 30
0.0
 10
492.3341483420584
 20
374.9031349048946
 30
0.0
 10
492.5555044092903
 20
374.8801496989723
 30
0.0
 10
492.6560961940473
 20
374.8697044334975
 30
0.0
  0
LINE
  5
1FD
330
1F
100
AcDbEntity
  8
0
  6
Continuous
 62
     7
370
    15
100
AcDbLine
 10
496.970060744
 20
374.8697044335
 30
0.0
 11
492.656096194
 21
374.8697044335
 31
0.0
  0
LINE
  5
1FE
330
1F
100
AcDbEntity
  8
0
  6
Continuous
 62
     7
370
    15
100
AcDbLine
 10
491.7752857609
 20
381.6697044335
 30
0.0
 11
496.0892503108
 21
381.6697044335
 31
0.0
  0
LINE
  5
1FF
330
1F
100
AcDbEntity
  8
0
  6
Continuous
 62
     7
370
    15
100
AcDbLine
 10
496.0892503108
 20
381.6697044335
 30
0.0
 11
496.601452733
 21
381.6697044335
 31
0.0
  0
LINE
  5
200
330
1F
100
AcDbEntity
  8
0
  6
Continuous
 62
     7
370
    15
100
AcDbLine
 10
496.970060744
 20
376.0697044335
 30
0.0
 11
497.1925464121
 21
376.0697044335
 31
0.0
  0
LINE
  5
201
330
1F
100
AcDbEntity
  8
0
  6
Continuous
 62
     7
370
    15
100
AcDbLine
 10
497.1925464121
 20
374.8697044335
 30
0.0
 11
496.970060744
 21
374.8697044335
 31
0.0
  0
LINE
  5
202
330
1F
100
AcDbEntity
  8
0
  6
Continuous
 62
     7
370
    15
100
AcDbLine
 10
491.5252857609
 20
376.3197044335
 30
0.0
 11
491.5554220345
 21
376.3197044335
 31
0.0
  0
LINE
  5
203
330
1F
100
AcDbEntity
  8
0
  6
Continuous
 62
     7
370
    15
100
AcDbLine
 10
492.656096194
 20
374.8697044335
 30
0.0
 11
492.075862069
 21
374.8697044335
 31
0.0
  0
LINE
  5
204
330
1F
100
AcDbEntity
  8
0
  6
Continuous
 62
     7
370
    15
100
AcDbLine
 10
508.7642359548
 20
381.6697044335
 30
0.0
 11
509.276438377
 21
381.6697044335
 31
0.0
  0
LINE
  5
205
330
1F
100
AcDbEntity
  8
0
  6
Continuous
 62
     7
370
    15
100
AcDbLine
 10
506.0271803771
 20
381.6697044335
 30
0.0
 11
508.7642359548
 21
381.6697044335
 31
0.0
  0
SPLINE
  5
206
330
1F
100
AcDbEntity
  8
0
  6
Continuous
 62
     7
370
    15
100
AcDbSpline
210
0.0
220
0.0
230
1.0
 70
     8
 71
     3
 72
     9
 73
     5
 74
     0
 42
0.00000001
 43
0.00000001
 12
1.0
 22
0.0
 32
0.0
 13
1.0
 23
0.0
 33
0.0
 40
0.0
 40
0.0
 40
0.0
 40
0.0
 40
0.4954579634769946
 40
1.0
 40
1.0
 40
1.0
 40
1.0
 10
495.9182840255646
 20
374.4231224461121
 30
0.0
 10
496.350012235653
 20
374.5479412251634
 30
0.0
 10
497.2213842629761
 20
374.7998672981149
 30
0.0
 10
498.1221585224024
 20
374.846284834938
 30
0.0
 10
498.5766370017009
 20
374.8697044334973
 30
0.0
  0
SPLINE
  5
207
330
1F
100
AcDbEntity
  8
0
  6
Continuous
 62
     7
370
    15
100
AcDbSpline
210
0.0
220
0.0
230
1.0
 70
     8
 71
     3
 72
    10
 73
     6
 74
     0
 42
0.00000001
 43
0.00000001
 12
1.0
 22
0.0
 32
0.0
 13
1.0
 23
0.0
 33
0.0
 40
0.0
 40
0.0
 40
0.0
 40
0.0
 40
0.0700627427124546
 40
0.5307703520768493
 40
1.0
 40
1.0
 40
1.0
 40
1.0
 10
498.5766370017009
 20
374.8697044334973
 30
0.0
 10
498.6396240022131
 20
374.8691716160532
 30
0.0
 10
499.1167910548272
 20
374.8651351811161
 30
0.0
 10
500.0164903933776
 20
374.7676073217049
 30
0.0
 10
500.8263495726922
 20
374.5386501335431
 30
0.0
 10
501.234989977837
 20
374.423122446112
 30
0.0
  0
LINE
  5
208
330
1F
100
AcDbEntity
  8
0
  6
Continuous
 62
     7
370
    15
100
AcDbLine
 10
501.2349899778
 20
374.4231224461
 30
0.0
 11
501.2349899778
 21
370.1162864209
 31
0.0
  0
SPLINE
  5
209
330
1F
100
AcDbEntity
  8
0
  6
Continuous
 62
     7
370
    15
100
AcDbSpline
210
0.0
220
0.0
230
1.0
 70
     8
 71
     3
 72
     9
 73
     5
 74
     0
 42
0.00000001
 43
0.00000001
 12
1.0
 22
0.0
 32
0.0
 13
1.0
 23
0.0
 33
0.0
 40
0.0
 40
0.0
 40
0.0
 40
0.0
 40
0.0702005767034411
 40
1.0
 40
1.0
 40
1.0
 40
1.0
 10
498.5766370017008
 20
369.6697044334973
 30
0.0
 10
498.6396556965449
 20
369.6701505497649
 30
0.0
 10
499.5373505276049
 20
369.6765054301461
 30
0.0
 10
500.4170478835779
 20
369.9043949120412
 30
0.0
 10
501.234989977837
 20
370.1162864208825
 30
0.0
  0
LINE
  5
20A
330
1F
100
AcDbEntity
  8
0
  6
Continuous
 62
     7
370
    15
100
AcDbLine
 10
495.9182840256
 20
370.1162864209
 30
0.0
 11
498.5766370017
 21
369.6697044335
 31
0.0
  0
LINE
  5
20B
330
1F
100
AcDbEntity
  8
0
  6
Continuous
 62
     7
370
    15
100
AcDbLine
 10
495.9182840256
 20
374.4231224461
 30
0.0
 11
495.9182840256
 21
370.1162864209
 31
0.0
  0
SPLINE
  5
20C
330
1F
100
AcDbEntity
  8
0
  6
Continuous
 62
     7
370
    15
100
AcDbSpline
210
0.0
220
0.0
230
1.0
 70
     8
 71
     3
 72
    10
 73
     6
 74
     0
 42
0.00000001
 43
0.00000001
 12
1.0
 22
0.0
 32
0.0
 13
1.0
 23
0.0
 33
0.0
 40
0.0
 40
0.0
 40
0.0
 40
0.0
 40
0.2572432618847906
 40
0.6263798857723123
 40
1.0
 40
1.0
 40
1.0
 40
1.0
 10
501.234989977837
 20
374.4231224461121
 30
0.0
 10
501.4284519797781
 20
374.4889324372996
 30
0.0
 10
501.8995263464662
 20
374.6491778581543
 30
0.0
 10
502.668385784205
 20
374.8285474336263
 30
0.0
 10
503.2474827299509
 20
374.8559303365506
 30
0.0
 10
503.5387789995311
 20
374.8697044334973
 30
0.0
  0
SPLINE
  5
20D
330
1F
100
AcDbEntity
  8
0
  6
Continuous
 62
     7
370
    15
100
AcDbSpline
210
0.0
220
0.0
230
1.0
 70
     8
 71
     3
 72
     9
 73
     5
 74
     0
 42
0.00000001
 43
0.00000001
 12
1.0
 22
0.0
 32
0.0
 13
1.0
 23
0.0
 33
0.0
 40
0.0
 40
0.0
 40
0.0
 40
0.0
 40
0.2575513451038174
 40
1.0
 40
1.0
 40
1.0
 40
1.0
 10
501.234989977837
 20
370.1162864208825
 30
0.0
 10
501.4283970688745
 20
370.0488711981078
 30
0.0
 10
502.1793428306195
 20
369.7871167011637
 30
0.0
 10
502.9595300488148
 20
369.7197332133712
 30
0.0
 10
503.5387789995311
 20
369.6697044334973
 30
0.0
  0
LINE
  5
20E
330
1F
100
AcDbEntity
  8
0
  6
Continuous
 62
     7
370
    15
100
AcDbLine
 10
503.5387789995
 20
369.6697044335
 30
0.0
 11
498.5766370017
 21
369.6697044335
 31
0.0
  0
SPLINE
  5
20F
330
1F
100
AcDbEntity
  8
0
  6
Continuous
 62
     7
370
    15
100
AcDbSpline
210
0.0
220
0.0
230
1.0
 70
     8
 71
     3
 72
    10
 73
     6
 74
     0
 42
0.00000001
 43
0.00000001
 12
1.0
 22
0.0
 32
0.0
 13
1.0
 23
0.0
 33
0.0
 40
0.0
 40
0.0
 40
0.0
 40
0.0
 40
0.4213209865287917
 40
0.9926433857549448
 40
0.9999999999999999
 40
0.9999999999999999
 40
0.9999999999999999
 40
0.9999999999999999
 10
503.5387789995311
 20
374.8697044334973
 30
0.0
 10
503.747782446674
 20
374.8613244761266
 30
0.0
 10
504.24020009507
 20
374.8415810749609
 30
0.0
 10
504.7359471575018
 20
374.7642329575768
 30
0.0
 10
505.0149332774711
 20
374.6780986017364
 30
0.0
 10
505.0184799643502
 20
374.6770035953261
 30
0.0
  0
LINE
  5
210
330
1F
100
AcDbEntity
  8
0
  6
Continuous
 62
     7
370
    15
100
AcDbLine
 10
505.8425680212
 20
370.4697044335
 30
0.0
 11
505.8425680212
 21
370.1162864209
 31
0.0
  0
SPLINE
  5
211
330
1F
100
AcDbEntity
  8
0
  6
Continuous
 62
     7
370
    15
100
AcDbSpline
210
0.0
220
0.0
230
1.0
 70
     8
 71
     3
 72
     9
 73
     5
 74
     0
 42
0.00000001
 43
0.00000001
 12
1.0
 22
0.0
 32
0.0
 13
1.0
 23
0.0
 33
0.0
 40
0.0
 40
0.0
 40
0.0
 40
0.0
 40
0.2686336050555728
 40
1.0
 40
1.0
 40
1.0
 40
1.0
 10
503.5387789995311
 20
369.6697044334973
 30
0.0
 10
503.7482578858579
 20
369.6763333860818
 30
0.0
 10
504.5280519339008
 20
369.7010099435179
 30
0.0
 10
505.2872881597873
 20
369.940864707118
 30
0.0
 10
505.8425680212252
 20
370.1162864208825
 30
0.0
  0
SPLINE
  5
212
330
1F
100
AcDbEntity
  8
0
  6
Continuous
 62
     7
370
    15
100
AcDbSpline
210
0.0
220
0.0
230
1.0
 70
     8
 71
     3
 72
    10
 73
     6
 74
     0
 42
0.00000001
 43
0.00000001
 12
1.0
 22
0.0
 32
0.0
 13
1.0
 23
0.0
 33
0.0
 40
0.0
 40
0.0
 40
0.0
 40
0.0
 40
0.0700627427124783
 40
0.5307703520768442
 40
1.0
 40
1.0
 40
1.0
 40
1.0
 10
495.5637200711225
 20
374.8697044334973
 30
0.0
 10
495.5721211074712
 20
374.8691716160532
 30
0.0
 10
495.6357643627586
 20
374.8651351811163
 30
0.0
 10
495.7557638354204
 20
374.7676073217045
 30
0.0
 10
495.863780669805
 20
374.5386501335433
 30
0.0
 10
495.9182840255647
 20
374.4231224461122
 30
0.0
  0
SPLINE
  5
213
330
1F
100
AcDbEntity
  8
0
  6
Continuous
 62
     7
370
    15
100
AcDbSpline
210
0.0
220
0.0
230
1.0
 70
     8
 71
     3
 72
     9
 73
     5
 74
     0
 42
0.00000001
 43
0.00000001
 12
1.0
 22
0.0
 32
0.0
 13
1.0
 23
0.0
 33
0.0
 40
0.0
 40
0.0
 40
0.0
 40
0.0
 40
0.0702005767034291
 40
1.0
 40
1.0
 40
1.0
 40
1.0
 10
495.5637200711225
 20
369.6697044334973
 30
0.0
 10
495.5721253347758
 20
369.6701505497649
 30
0.0
 10
495.6918574516314
 20
369.6765054301446
 30
0.0
 10
495.8091891137719
 20
369.9043949120403
 30
0.0
 10
495.9182840255646
 20
370.1162864208824
 30
0.0
  0
LINE
  5
214
330
1F
100
AcDbEntity
  8
0
  6
Continuous
 62
     7
370
    15
100
AcDbLine
 10
498.5766370017
 20
369.6697044335
 30
0.0
 11
495.5637200711
 21
369.6697044335
 31
0.0
  0
LINE
  5
215
330
1F
100
AcDbEntity
  8
0
  6
Continuous
 62
     7
370
    15
100
AcDbLine
 10
505.8425680212
 20
370.1162864209
 30
0.0
 11
505.4880040668
 21
369.6697044335
 31
0.0
  0
LINE
  5
216
330
1F
100
AcDbEntity
  8
0
  6
Continuous
 62
     7
370
    15
100
AcDbLine
 10
503.5387789995
 20
369.6697044335
 30
0.0
 11
505.5257113626
 21
369.6697044335
 31
0.0
  0
LINE
  5
217
330
1F
100
AcDbEntity
  8
0
  6
Continuous
 62
     7
370
    15
100
AcDbLine
 10
495.2091561167
 20
374.4231224461
 30
0.0
 11
495.5637200711
 21
374.8697044335
 31
0.0
  0
LINE
  5
218
330
1F
100
AcDbEntity
  8
0
  6
Continuous
 62
     7
370
    15
100
AcDbLine
 10
495.2091561167
 20
370.1162864209
 30
0.0
 11
495.5637200711
 21
369.6697044335
 31
0.0
  0
LINE
  5
219
330
1F
100
AcDbEntity
  8
0
  6
Continuous
 62
     7
370
    15
100
AcDbLine
 10
495.2091561167
 20
374.4231224461
 30
0.0
 11
495.2091561167
 21
370.1162864209
 31
0.0
  0
SPLINE
  5
21A
330
1F
100
AcDbEntity
  8
0
  6
Continuous
 62
     7
370
    15
100
AcDbSpline
210
0.0
220
0.0
230
1.0
 70
     8
 71
     3
 72
     9
 73
     5
 74
     0
 42
0.00000001
 43
0.00000001
 12
1.0
 22
0.0
 32
0.0
 13
1.0
 23
0.0
 33
0.0
 40
0.0
 40
0.0
 40
0.0
 40
0.0
 40
0.4954579634769923
 40
0.9999999999999999
 40
0.9999999999999999
 40
0.9999999999999999
 40
0.9999999999999999
 10
495.0245437607825
 20
382.0231224461122
 30
0.0
 10
495.3710959945463
 20
382.1479412251635
 30
0.0
 10
496.0705543932605
 20
382.3998672981152
 30
0.0
 10
496.7936142360659
 20
382.4462848349384
 30
0.0
 10
497.1584283216829
 20
382.4697044334973
 30
0.0
  0
SPLINE
  5
21B
330
1F
100
AcDbEntity
  8
0
  6
Continuous
 62
     7
370
    15
100
AcDbSpline
210
0.0
220
0.0
230
1.0
 70
     8
 71
     3
 72
    10
 73
     6
 74
     0
 42
0.00000001
 43
0.00000001
 12
1.0
 22
0.0
 32
0.0
 13
1.0
 23
0.0
 33
0.0
 40
0.0
 40
0.0
 40
0.0
 40
0.0
 40
0.0700627427124544
 40
0.5307703520768471
 40
1.0
 40
1.0
 40
1.0
 40
1.0
 10
497.1584283216829
 20
382.4697044334973
 30
0.0
 10
497.2089885705051
 20
382.4691716160531
 30
0.0
 10
497.5920149841094
 20
382.4651351811157
 30
0.0
 10
498.3142119779695
 20
382.3676073217048
 30
0.0
 10
498.964293443733
 20
382.1386501335433
 30
0.0
 10
499.2923128825834
 20
382.023122446112
 30
0.0
  0
LINE
  5
21C
330
1F
100
AcDbEntity
  8
0
  6
Continuous
 62
     7
370
    15
100
AcDbLine
 10
499.2923128826
 20
382.0231224461
 30
0.0
 11
499.2923128826
 21
377.7162864209
 31
0.0
  0
SPLINE
  5
21D
330
1F
100
AcDbEntity
  8
0
  6
Continuous
 62
     7
370
    15
100
AcDbSpline
210
0.0
220
0.0
230
1.0
 70
     8
 71
     3
 72
     9
 73
     5
 74
     0
 42
0.00000001
 43
0.00000001
 12
1.0
 22
0.0
 32
0.0
 13
1.0
 23
0.0
 33
0.0
 40
0.0
 40
0.0
 40
0.0
 40
0.0
 40
0.0702005767034403
 40
1.0
 40
1.0
 40
1.0
 40
1.0
 10
497.1584283216829
 20
377.2697044334973
 30
0.0
 10
497.2090140118389
 20
377.2701505497649
 30
0.0
 10
497.9296019689668
 20
377.2765054301443
 30
0.0
 10
498.635743186114
 20
377.5043949120404
 30
0.0
 10
499.2923128825834
 20
377.7162864208825
 30
0.0
  0
LINE
  5
21E
330
1F
100
AcDbEntity
  8
0
  6
Continuous
 62
     7
370
    15
100
AcDbLine
 10
496.851452733
 20
377.3339486625
 30
0.0
 11
497.1584283217
 21
377.2697044335
 31
0.0
  0
LINE
  5
21F
330
1F
100
AcDbEntity
  8
0
  6
Continuous
 62
     7
370
    15
100
AcDbLine
 10
495.0245437608
 20
382.0231224461
 30
0.0
 11
495.0245437608
 21
381.6697044335
 31
0.0
  0
SPLINE
  5
220
330
1F
100
AcDbEntity
  8
0
  6
Continuous
 62
     7
370
    15
100
AcDbSpline
210
0.0
220
0.0
230
1.0
 70
     8
 71
     3
 72
    10
 73
     6
 74
     0
 42
0.00000001
 43
0.00000001
 12
1.0
 22
0.0
 32
0.0
 13
1.0
 23
0.0
 33
0.0
 40
0.0
 40
0.0
 40
0.0
 40
0.0
 40
0.2572432618847877
 40
0.6263798857723117
 40
0.9999999999999999
 40
0.9999999999999999
 40
0.9999999999999999
 40
0.9999999999999999
 10
499.2923128825834
 20
382.023122446112
 30
0.0
 10
499.5233010597107
 20
382.0889324372997
 30
0.0
 10
500.0857505751757
 20
382.2491778581544
 30
0.0
 10
501.003747071689
 20
382.4285474336259
 30
0.0
 10
501.6951725016736
 20
382.4559303365506
 30
0.0
 10
502.0429720366685
 20
382.4697044334972
 30
0.0
  0
LINE
  5
221
330
1F
100
AcDbEntity
  8
0
  6
Continuous
 62
     7
370
    15
100
AcDbLine
 10
497.1584283217
 20
382.4697044335
 30
0.0
 11
502.0429720367
 21
382.4697044335
 31
0.0
  0
SPLINE
  5
222
330
1F
100
AcDbEntity
  8
0
  6
Continuous
 62
     7
370
    15
100
AcDbSpline
210
0.0
220
0.0
230
1.0
 70
     8
 71
     3
 72
     9
 73
     5
 74
     0
 42
0.00000001
 43
0.00000001
 12
1.0
 22
0.0
 32
0.0
 13
1.0
 23
0.0
 33
0.0
 40
0.0
 40
0.0
 40
0.0
 40
0.0
 40
0.2575513451038159
 40
1.0
 40
1.0
 40
1.0
 40
1.0
 10
499.2923128825834
 20
377.7162864208825
 30
0.0
 10
499.5232354976395
 20
377.6488711981077
 30
0.0
 10
500.4198435699562
 20
377.3871167011636
 30
0.0
 10
501.3513651170339
 20
377.3197332133712
 30
0.0
 10
502.0429720366686
 20
377.2697044334973
 30
0.0
  0
SPLINE
  5
223
330
1F
100
AcDbEntity
  8
0
  6
Continuous
 62
     7
370
    15
100
AcDbSpline
210
0.0
220
0.0
230
1.0
 70
     8
 71
     3
 72
    10
 73
     6
 74
     0
 42
0.00000001
 43
0.00000001
 12
1.0
 22
0.0
 32
0.0
 13
1.0
 23
0.0
 33
0.0
 40
0.0
 40
0.0
 40
0.0
 40
0.0
 40
0.2684065359322168
 40
0.6323728964503049
 40
1.0
 40
1.0
 40
1.0
 40
1.0
 10
502.0429720366685
 20
382.4697044334973
 30
0.0
 10
502.2927723016695
 20
382.4624486792674
 30
0.0
 10
502.8813083317779
 20
382.4453539304295
 30
0.0
 10
503.8046450016943
 20
382.2985239032516
 30
0.0
 10
504.4628712515337
 20
382.1152286557154
 30
0.0
 10
504.7936311907537
 20
382.023122446112
 30
0.0
  0
LINE
  5
224
330
1F
100
AcDbEntity
  8
0
  6
Continuous
 62
     7
370
    15
100
AcDbLine
 10
504.7936311908
 20
382.0231224461
 30
0.0
 11
504.7936311908
 21
377.7162864209
 31
0.0
  0
SPLINE
  5
225
330
1F
100
AcDbEntity
  8
0
  6
Continuous
 62
     7
370
    15
100
AcDbSpline
210
0.0
220
0.0
230
1.0
 70
     8
 71
     3
 72
     9
 73
     5
 74
     0
 42
0.00000001
 43
0.00000001
 12
1.0
 22
0.0
 32
0.0
 13
1.0
 23
0.0
 33
0.0
 40
0.0
 40
0.0
 40
0.0
 40
0.0
 40
0.2686336050555739
 40
1.0
 40
1.0
 40
1.0
 40
1.0
 10
502.0429720366686
 20
377.2697044334973
 30
0.0
 10
502.2930839222779
 20
377.2763333860818
 30
0.0
 10
503.2241360352764
 20
377.3010099435179
 30
0.0
 10
504.1306426880913
 20
377.540864707118
 30
0.0
 10
504.7936311907537
 20
377.7162864208825
 30
0.0
  0
LINE
  5
226
330
1F
100
AcDbEntity
  8
0
  6
Continuous
 62
     7
370
    15
100
AcDbLine
 10
504.7936311908
 20
382.0231224461
 30
0.0
 11
505.4104057839
 21
382.4697044335
 31
0.0
  0
LINE
  5
227
330
1F
100
AcDbEntity
  8
0
  6
Continuous
 62
     7
370
    15
100
AcDbLine
 10
502.0429720367
 20
382.4697044335
 30
0.0
 11
505.4104057839
 21
382.4697044335
 31
0.0
  0
LINE
  5
228
330
1F
100
AcDbEntity
  8
0
  6
Continuous
 62
     7
370
    15
100
AcDbLine
 10
504.7936311908
 20
377.7162864209
 30
0.0
 11
505.4104057839
 21
377.2697044335
 31
0.0
  0
SPLINE
  5
229
330
1F
100
AcDbEntity
  8
0
  6
Continuous
 62
     7
370
    15
100
AcDbSpline
210
0.0
220
0.0
230
1.0
 70
     8
 71
     3
 72
    10
 73
     6
 74
     0
 42
0.00000001
 43
0.00000001
 12
1.0
 22
0.0
 32
0.0
 13
1.0
 23
0.0
 33
0.0
 40
0.0
 40
0.0
 40
0.0
 40
0.0
 40
0.0700627427124739
 40
0.5307703520768459
 40
1.0
 40
1.0
 40
1.0
 40
1.0
 10
495.6413183539672
 20
382.4697044334973
 30
0.0
 10
495.6267045002143
 20
382.4691716160531
 30
0.0
 10
495.5159951559702
 20
382.4651351811161
 30
0.0
 10
495.3072524876699
 20
382.3676073217052
 30
0.0
 10
495.1193539766961
 20
382.1386501335433
 30
0.0
 10
495.0245437607825
 20
382.0231224461122
 30
0.0
  0
LINE
  5
22A
330
1F
100
AcDbEntity
  8
0
  6
Continuous
 62
     7
370
    15
100
AcDbLine
 10
497.1584283217
 20
382.4697044335
 30
0.0
 11
495.531262659
 21
382.4697044335
 31
0.0
  0
SPLINE
  5
22B
330
1F
100
AcDbEntity
  8
0
  6
Continuous
 62
     7
370
    15
100
AcDbSpline
210
0.0
220
0.0
230
1.0
 70
     8
 71
     3
 72
     9
 73
     5
 74
     0
 42
0.00000001
 43
0.00000001
 12
1.0
 22
0.0
 32
0.0
 13
1.0
 23
0.0
 33
0.0
 40
0.0
 40
0.0
 40
0.0
 40
0.0
 40
0.070200576703423
 40
1.0
 40
1.0
 40
1.0
 40
1.0
 10
505.4104057839385
 20
382.4697044334973
 30
0.0
 10
505.4250269912139
 20
382.4692583172297
 30
0.0
 10
505.6333045861012
 20
382.46290343685
 30
0.0
 10
505.837406518285
 20
382.2350139549542
 30
0.0
 10
506.0271803771232
 20
382.023122446112
 30
0.0
  0
LINE
  5
22C
330
1F
100
AcDbEntity
  8
0
  6
Continuous
 62
     7
370
    15
100
AcDbLine
 10
506.0271803771
 20
382.0231224461
 30
0.0
 11
506.0271803771
 21
377.7162864209
 31
0.0
  0
LINE
  5
22D
330
1F
100
AcDbEntity
  8
0
  6
Continuous
 62
     7
370
    15
100
AcDbLine
 10
505.6434708514
 20
377.4188245148
 30
0.0
 11
506.0271803771
 21
377.7162864209
 31
0.0
  0
LINE
  5
22E
330
1F
100
AcDbEntity
  8
0
  6
Continuous
 62
     7
370
    15
100
AcDbLine
 10
505.4104057839
 20
382.4697044335
 30
0.0
 11
505.525862069
 21
382.4697044335
 31
0.0
  0
LINE
  5
22F
330
1F
100
AcDbEntity
  8
0
  6
Continuous
 62
     7
370
    15
100
AcDbLine
 10
502.4296947578
 20
387.4731224461
 30
0.0
 11
504.3139042608
 21
387.9197044335
 31
0.0
  0
SPLINE
  5
230
330
1F
100
AcDbEntity
  8
0
  6
Continuous
 62
     7
370
    15
100
AcDbSpline
210
0.0
220
0.0
230
1.0
 70
     8
 71
     3
 72
     9
 73
     5
 74
     0
 42
0.00000001
 43
0.00000001
 12
1.0
 22
0.0
 32
0.0
 13
1.0
 23
0.0
 33
0.0
 40
0.0
 40
0.0
 40
0.0
 40
0.0
 40
0.0702005767034239
 40
1.0
 40
1.0
 40
1.0
 40
1.0
 10
504.3139042607709
 20
387.9197044334973
 30
0.0
 10
504.3585711747416
 20
387.9192583172298
 30
0.0
 10
504.9948467734355
 20
387.912903436849
 30
0.0
 10
505.6183659722487
 20
387.6850139549537
 30
0.0
 10
506.1981137637196
 20
387.4731224461121
 30
0.0
  0
LINE
  5
231
330
1F
100
AcDbEntity
  8
0
  6
Continuous
 62
     7
370
    15
100
AcDbLine
 10
506.1981137637
 20
387.4731224461
 30
0.0
 11
506.1981137637
 21
383.1662864209
 31
0.0
  0
SPLINE
  5
232
330
1F
100
AcDbEntity
  8
0
  6
Continuous
 62
     7
370
    15
100
AcDbSpline
210
0.0
220
0.0
230
1.0
 70
     8
 71
     3
 72
     9
 73
     5
 74
     0
 42
0.00000001
 43
0.00000001
 12
1.0
 22
0.0
 32
0.0
 13
1.0
 23
0.0
 33
0.0
 40
0.0
 40
0.0
 40
0.0
 40
0.0
 40
0.0702005767034111
 40
0.9999999999999999
 40
0.9999999999999999
 40
0.9999999999999999
 40
0.9999999999999999
 10
504.3139042607709
 20
382.7197044334973
 30
0.0
 10
504.3585711747416
 20
382.720150549765
 30
0.0
 10
504.9948467734355
 20
382.7265054301444
 30
0.0
 10
505.6183659722487
 20
382.9543949120403
 30
0.0
 10
506.1981137637196
 20
383.1662864208826
 30
0.0
  0
LINE
  5
233
330
1F
100
AcDbEntity
  8
0
  6
Continuous
 62
     7
370
    15
100
AcDbLine
 10
502.4296947578
 20
383.1662864209
 30
0.0
 11
504.3139042608
 21
382.7197044335
 31
0.0
  0
LINE
  5
234
330
1F
100
AcDbEntity
  8
0
  6
Continuous
 62
     7
370
    15
100
AcDbLine
 10
502.4296947578
 20
387.4731224461
 30
0.0
 11
502.4296947578
 21
383.1662864209
 31
0.0
  0
SPLINE
  5
235
330
1F
100
AcDbEntity
  8
0
  6
Continuous
 62
     7
370
    15
100
AcDbSpline
210
0.0
220
0.0
230
1.0
 70
     8
 71
     3
 72
     9
 73
     5
 74
     0
 42
0.00000001
 43
0.00000001
 12
1.0
 22
0.0
 32
0.0
 13
1.0
 23
0.0
 33
0.0
 40
0.0
 40
0.0
 40
0.0
 40
0.0
 40
0.2686336050555695
 40
1.0
 40
1.0
 40
1.0
 40
1.0
 10
499.5935689104389
 20
382.7197044334973
 30
0.0
 10
499.8514521099844
 20
382.7263333860819
 30
0.0
 10
500.811433269051
 20
382.7510099435177
 30
0.0
 10
501.7461063073499
 20
382.9908647071181
 30
0.0
 10
502.4296947578223
 20
383.1662864208826
 30
0.0
  0
LINE
  5
236
330
1F
100
AcDbEntity
  8
0
  6
Continuous
 62
     7
370
    15
100
AcDbLine
 10
504.3139042608
 20
382.7197044335
 30
0.0
 11
499.5935689104
 21
382.7197044335
 31
0.0
  0
SPLINE
  5
237
330
1F
100
AcDbEntity
  8
0
  6
Continuous
 62
     7
370
    15
100
AcDbSpline
210
0.0
220
0.0
230
1.0
 70
     8
 71
     3
 72
    10
 73
     6
 74
     0
 42
0.00000001
 43
0.00000001
 12
1.0
 22
0.0
 32
0.0
 13
1.0
 23
0.0
 33
0.0
 40
0.0
 40
0.0
 40
0.0
 40
0.0
 40
0.2684065359322149
 40
0.6323728964503049
 40
1.0
 40
1.0
 40
1.0
 40
1.0
 10
499.5935689104388
 20
387.9197044334973
 30
0.0
 10
499.8511308069029
 20
387.9124486792674
 30
0.0
 10
500.4579534459886
 20
387.8953539304293
 30
0.0
 10
501.4099794327407
 20
387.7485239032517
 30
0.0
 10
502.0886576607658
 20
387.5652286557158
 30
0.0
 10
502.4296947578223
 20
387.4731224461121
 30
0.0
  0
SPLINE
  5
238
330
1F
100
AcDbEntity
  8
0
  6
Continuous
 62
     7
370
    15
100
AcDbSpline
210
0.0
220
0.0
230
1.0
 70
     8
 71
     3
 72
    10
 73
     6
 74
     0
 42
0.00000001
 43
0.00000001
 12
1.0
 22
0.0
 32
0.0
 13
1.0
 23
0.0
 33
0.0
 40
0.0
 40
0.0
 40
0.0
 40
0.0
 40
0.2572432618847873
 40
0.6263798857723087
 40
0.9999999999999999
 40
0.9999999999999999
 40
0.9999999999999999
 40
0.9999999999999999
 10
496.7574430630555
 20
387.4731224461121
 30
0.0
 10
496.9956083546793
 20
387.5389324372996
 30
0.0
 10
497.575533935895
 20
387.6991778581542
 30
0.0
 10
498.5220538228472
 20
387.8785474336261
 30
0.0
 10
499.2349627743635
 20
387.9059303365507
 30
0.0
 10
499.5935689104388
 20
387.9197044334973
 30
0.0
  0
SPLINE
  5
239
330
1F
100
AcDbEntity
  8
0
  6
Continuous
 62
     7
370
    15
100
AcDbSpline
210
0.0
220
0.0
230
1.0
 70
     8
 71
     3
 72
     9
 73
     5
 74
     0
 42
0.00000001
 43
0.00000001
 12
1.0
 22
0.0
 32
0.0
 13
1.0
 23
0.0
 33
0.0
 40
0.0
 40
0.0
 40
0.0
 40
0.0
 40
0.2575513451038128
 40
1.0
 40
1.0
 40
1.0
 40
1.0
 10
496.7574430630555
 20
383.1662864208826
 30
0.0
 10
496.9955407555062
 20
383.0988711981078
 30
0.0
 10
497.9200076510477
 20
382.8371167011636
 30
0.0
 10
498.8804728301441
 20
382.769733213371
 30
0.0
 10
499.5935689104389
 20
382.7197044334972
 30
0.0
  0
LINE
  5
23A
330
1F
100
AcDbEntity
  8
0
  6
Continuous
 62
     7
370
    15
100
AcDbLine
 10
496.7574430631
 20
387.4731224461
 30
0.0
 11
496.7574430631
 21
383.1662864209
 31
0.0
  0
SPLINE
  5
23B
330
1F
100
AcDbEntity
  8
0
  6
Continuous
 62
     7
370
    15
100
AcDbSpline
210
0.0
220
0.0
230
1.0
 70
     8
 71
     3
 72
    10
 73
     6
 74
     0
 42
0.00000001
 43
0.00000001
 12
1.0
 22
0.0
 32
0.0
 13
1.0
 23
0.0
 33
0.0
 40
0.0
 40
0.0
 40
0.0
 40
0.0
 40
0.0700627427124518
 40
0.5307703520768509
 40
0.9999999999999999
 40
0.9999999999999999
 40
0.9999999999999999
 40
0.9999999999999999
 10
495.8055267186209
 20
387.9197044334973
 30
0.0
 10
495.8280814191489
 20
387.9191716160531
 30
0.0
 10
495.9989477865901
 20
387.9151351811162
 30
0.0
 10
496.3211166306568
 20
387.8176073217045
 30
0.0
 10
496.6111150606624
 20
387.588650133543
 30
0.0
 10
496.7574430630555
 20
387.473122446112
 30
0.0
  0
SPLINE
  5
23C
330
1F
100
AcDbEntity
  8
0
  6
Continuous
 62
     7
370
    15
100
AcDbSpline
210
0.0
220
0.0
230
1.0
 70
     8
 71
     3
 72
     9
 73
     5
 74
     0
 42
0.00000001
 43
0.00000001
 12
1.0
 22
0.0
 32
0.0
 13
1.0
 23
0.0
 33
0.0
 40
0.0
 40
0.0
 40
0.0
 40
0.0
 40
0.0702005767034343
 40
1.0
 40
1.0
 40
1.0
 40
1.0
 10
495.8055267186209
 20
382.7197044334973
 30
0.0
 10
495.8280927684139
 20
382.7201505497649
 30
0.0
 10
496.1495438284016
 20
382.7265054301452
 30
0.0
 10
496.4645502623944
 20
382.9543949120408
 30
0.0
 10
496.7574430630555
 20
383.1662864208826
 30
0.0
  0
LINE
  5
23D
330
1F
100
AcDbEntity
  8
0
  6
Continuous
 62
     7
370
    15
100
AcDbLine
 10
499.5935689104
 20
382.7197044335
 30
0.0
 11
495.8055267186
 21
382.7197044335
 31
0.0
  0
LINE
  5
23E
330
1F
100
AcDbEntity
  8
0
  6
Continuous
 62
     7
370
    15
100
AcDbLine
 10
494.8536103742
 20
387.4731224461
 30
0.0
 11
495.2297817674
 21
387.7344653712
 31
0.0
  0
LINE
  5
23F
330
1F
100
AcDbEntity
  8
0
  6
Continuous
 62
     7
370
    15
100
AcDbLine
 10
494.8536103742
 20
383.1662864209
 30
0.0
 11
495.8055267186
 21
382.7197044335
 31
0.0
  0
LINE
  5
240
330
1F
100
AcDbEntity
  8
0
  6
Continuous
 62
     7
370
    15
100
AcDbLine
 10
494.8536103742
 20
387.4731224461
 30
0.0
 11
494.8536103742
 21
383.1662864209
 31
0.0
  0
LINE
  5
241
330
1F
100
AcDbEntity
  8
0
  6
Continuous
 62
     7
370
    15
100
AcDbLine
 10
506.1981137637
 20
387.4731224461
 30
0.0
 11
505.8230765984
 21
387.6490673636
 31
0.0
  0
LINE
  5
242
330
1F
100
AcDbEntity
  8
0
  6
Continuous
 62
     7
370
    15
100
AcDbLine
 10
506.1981137637
 20
383.1662864209
 30
0.0
 11
505.8230765984
 21
382.9903415034
 31
0.0
  0
LINE
  5
243
330
1F
100
AcDbEntity
  8
0
  6
Continuous
 62
     7
370
    15
100
AcDbLine
 10
505.525862069
 20
382.7197044335
 30
0.0
 11
504.3139042608
 21
382.7197044335
 31
0.0
  0
LINE
  5
244
330
1F
100
AcDbEntity
  8
0
  6
Continuous
 62
     7
370
    15
100
AcDbLine
 10
495.8055267186
 20
382.7197044335
 30
0.0
 11
495.525862069
 21
382.7197044335
 31
0.0
  0
LINE
  5
245
330
1F
100
AcDbEntity
  8
0
  6
Continuous
 62
     7
370
    15
100
AcDbLine
 10
500.525862069
 20
387.9197044335
 30
0.0
 11
506.625862069
 21
387.9197044335
 31
0.0
  0
LINE
  5
246
330
1F
100
AcDbEntity
  8
0
  6
Continuous
 62
     7
370
    15
100
AcDbLine
 10
494.425862069
 20
387.9197044335
 30
0.0
 11
500.525862069
 21
387.9197044335
 31
0.0
  0
ENDSEC
  0
SECTION
  2
OBJECTS
  0
DICTIONARY
  5
C
330
0
100
AcDbDictionary
281
     1
  3
ACAD_GROUP
350
D
  3
ACAD_LAYOUT
350
1A
  3
ACAD_MLINESTYLE
350
17
  3
ACAD_PLOTSETTINGS
350
19
  3
ACAD_PLOTSTYLENAME
350
E
  0
DICTIONARY
  5
D
102
{ACAD_REACTORS
330
C
102
}
330
C
100
AcDbDictionary
281
     1
  0
DICTIONARY
  5
1A
102
{ACAD_REACTORS
330
C
102
}
330
C
100
AcDbDictionary
281
     1
  3
Layout1
350
1E
  3
Layout2
350
26
  3
Model
350
22
  0
DICTIONARY
  5
17
102
{ACAD_REACTORS
330
C
102
}
330
C
100
AcDbDictionary
281
     1
  3
Standard
350
18
  0
DICTIONARY
  5
19
102
{ACAD_REACTORS
330
C
102
}
330
C
100
AcDbDictionary
281
     1
  0
ACDBDICTIONARYWDFLT
  5
E
102
{ACAD_REACTORS
330
C
102
}
330
C
100
AcDbDictionary
281
     1
  3
Normal
350
F
100
AcDbDictionaryWithDefault
340
F
  0
LAYOUT
  5
1E
102
{ACAD_REACTORS
330
1A
102
}
330
1A
100
AcDbPlotSettings
  1

  2
none_device
  4

  6

 40
0.0
 41
0.0
 42
0.0
 43
0.0
 44
0.0
 45
0.0
 46
0.0
 47
0.0
 48
0.0
 49
0.0
140
0.0
141
0.0
142
1.0
143
1.0
 70
   688
 72
     0
 73
     0
 74
     5
  7

 75
    16
147
1.0
148
0.0
149
0.0
100
AcDbLayout
  1
Layout1
 70
     1
 71
     1
 10
0.0
 20
0.0
 11
420.0
 21
297.0
 12
0.0
 22
0.0
 32
0.0
 14
1.0000000000E+20
 24
1.0000000000E+20
 34
1.0000000000E+20
 15
-1.0000000000E+20
 25
-1.0000000000E+20
 35
-1.0000000000E+20
146
0.0
 13
0.0
 23
0.0
 33
0.0
 16
1.0
 26
0.0
 36
0.0
 17
0.0
 27
1.0
 37
0.0
 76
     0
330
1B
  0
LAYOUT
  5
26
102
{ACAD_REACTORS
330
1A
102
}
330
1A
100
AcDbPlotSettings
  1

  2
none_device
  4

  6

 40
0.0
 41
0.0
 42
0.0
 43
0.0
 44
0.0
 45
0.0
 46
0.0
 47
0.0
 48
0.0
 49
0.0
140
0.0
141
0.0
142
1.0
143
1.0
 70
   688
 72
     0
 73
     0
 74
     5
  7

 75
    16
147
1.0
148
0.0
149
0.0
100
AcDbLayout
  1
Layout2
 70
     1
 71
     2
 10
0.0
 20
0.0
 11
0.0
 21
0.0
 12
0.0
 22
0.0
 32
0.0
 14
0.0
 24
0.0
 34
0.0
 15
0.0
 25
0.0
 35
0.0
146
0.0
 13
0.0
 23
0.0
 33
0.0
 16
1.0
 26
0.0
 36
0.0
 17
0.0
 27
1.0
 37
0.0
 76
     0
330
23
  0
LAYOUT
  5
22
102
{ACAD_REACTORS
330
1A
102
}
330
1A
100
AcDbPlotSettings
  1

  2
none_device
  4

  6

 40
0.0
 41
0.0
 42
0.0
 43
0.0
 44
0.0
 45
0.0
 46
0.0
 47
0.0
 48
0.0
 49
0.0
140
0.0
141
0.0
142
1.0
143
1.0
 70
  1712
 72
     0
 73
     0
 74
     0
  7

 75
     0
147
1.0
148
0.0
149
0.0
100
AcDbLayout
  1
Model
 70
     1
 71
     0
 10
0.0
 20
0.0
 11
1100.0
 21
1500.0
 12
0.0
 22
0.0
 32
0.0
 14
0.0
 24
0.0
 34
0.0
 15
1100.0
 25
1500.0
 35
0.0
146
0.0
 13
0.0
 23
0.0
 33
0.0
 16
1.0
 26
0.0
 36
0.0
 17
0.0
 27
1.0
 37
0.0
 76
     0
330
1F
331
29
  0
MLINESTYLE
  5
18
102
{ACAD_REACTORS
330
17
102
}
330
17
100
AcDbMlineStyle
  2
Standard
 70
     0
  3

 62
   256
 51
90.0
 52
90.0
 71
     2
 49
0.5
 62
   256
  6
BYLAYER
 49
-0.5
 62
   256
  6
BYLAYER
  0
ACDBPLACEHOLDER
  5
F
102
{ACAD_REACTORS
330
E
102
}
330
E
  0
ENDSEC
  0
EOF
