  0
SECTION
  2
HEADER
  9
$ACADVER
  1
AC1015
  9
$ACADMAINTVER
 70
     6
  9
$DWGCODEPAGE
  3
ANSI_1252
  9
$INSBASE
 10
0.0
 20
0.0
 30
0.0
  9
$EXTMIN
 10
0.0
 20
0.0
 30
0.0
  9
$EXTMAX
 10
950.0
 20
1050.0
 30
0.0
  9
$LIMMIN
 10
0.0
 20
0.0
  9
$LIMMAX
 10
950.0
 20
1050.0
  9
$ORTHOMODE
 70
     0
  9
$REGENMODE
 70
     1
  9
$FILLMODE
 70
     1
  9
$QTEXTMODE
 70
     0
  9
$MIRRTEXT
 70
     1
  9
$LTSCALE
 40
1.0
  9
$ATTMODE
 70
     1
  9
$TEXTSIZE
 40
3.5
  9
$TRACEWID
 40
1.0
  9
$TEXTSTYLE
  7
Standard
  9
$CLAYER
  8
0
  9
$CELTYPE
  6
ByLayer
  9
$CECOLOR
 62
   256
  9
$CELTSCALE
 40
1.0
  9
$DISPSILH
 70
     0
  9
$DIMSCALE
 40
1.0
  9
$DIMASZ
 40
3.302
  9
$DIMEXO
 40
1.0
  9
$DIMDLI
 40
3.75
  9
$DIMRND
 40
0.0
  9
$DIMDLE
 40
0.0
  9
$DIMEXE
 40
1.0
  9
$DIMTP
 40
0.0
  9
$DIMTM
 40
0.0
  9
$DIMTXT
 40
3.5
  9
$DIMCEN
 40
2.5
  9
$DIMTSZ
 40
0.0
  9
$DIMTOL
 70
     0
  9
$DIMLIM
 70
     0
  9
$DIMTIH
 70
     1
  9
$DIMTOH
 70
     1
  9
$DIMSE1
 70
     0
  9
$DIMSE2
 70
     0
  9
$DIMTAD
 70
     1
  9
$DIMZIN
 70
     0
  9
$DIMBLK
  1

  9
$DIMASO
 70
     1
  9
$DIMSHO
 70
     1
  9
$DIMPOST
  1

  9
$DIMAPOST
  1

  9
$DIMALT
 70
     0
  9
$DIMALTD
 70
     3
  9
$DIMALTF
 40
0.0393700787
  9
$DIMLFAC
 40
1.0
  9
$DIMTOFL
 70
     1
  9
$DIMTVP
 40
0.0
  9
$DIMTIX
 70
     0
  9
$DIMSOXD
 70
     0
  9
$DIMSAH
 70
     0
  9
$DIMBLK1
  1

  9
$DIMBLK2
  1

  9
$DIMSTYLE
  2
ISO-25
  9
$DIMCLRD
 70
     0
  9
$DIMCLRE
 70
     0
  9
$DIMCLRT
 70
     0
  9
$DIMTFAC
 40
1.0
  9
$DIMGAP
 40
1.524
  9
$DIMJUST
 70
     0
  9
$DIMSD1
 70
     0
  9
$DIMSD2
 70
     0
  9
$DIMTOLJ
 70
     0
  9
$DIMTZIN
 70
     0
  9
$DIMALTZ
 70
     0
  9
$DIMALTTZ
 70
     0
  9
$DIMUPT
 70
     0
  9
$DIMDEC
 70
     3
  9
$DIMTDEC
 70
     3
  9
$DIMALTU
 70
     2
  9
$DIMALTTD
 70
     3
  9
$DIMTXSTY
  7
Standard
  9
$DIMAUNIT
 70
     0
  9
$DIMADEC
 70
     2
  9
$DIMALTRND
 40
0.0
  9
$DIMAZIN
 70
     0
  9
$DIMDSEP
 70
    44
  9
$DIMATFIT
 70
     3
  9
$DIMFRAC
 70
     0
  9
$DIMLDRBLK
  1

  9
$DIMLUNIT
 70
     2
  9
$DIMLWD
 70
    -2
  9
$DIMLWE
 70
    -2
  9
$DIMTMOVE
 70
     0
  9
$LUNITS
 70
     2
  9
$LUPREC
 70
     8
  9
$SKETCHINC
 40
1.0
  9
$FILLETRAD
 40
10.0
  9
$AUNITS
 70
     0
  9
$AUPREC
 70
     8
  9
$MENU
  1
.
  9
$ELEVATION
 40
0.0
  9
$PELEVATION
 40
0.0
  9
$THICKNESS
 40
0.0
  9
$LIMCHECK
 70
     0
  9
$CHAMFERA
 40
0.0
  9
$CHAMFERB
 40
0.0
  9
$CHAMFERC
 40
0.0
  9
$CHAMFERD
 40
0.0
  9
$SKPOLY
 70
     0
  9
$TDCREATE
 40
2458296.345360602
  9
$TDUCREATE
 40
2458296.303693935
  9
$TDUPDATE
 40
2458296.345364039
  9
$TDUUPDATE
 40
2458296.303697373
  9
$TDINDWG
 40
0.0000000116
  9
$TDUSRTIMER
 40
0.0000000116
  9
$USRTIMER
 70
     1
  9
$ANGBASE
 50
0.0
  9
$ANGDIR
 70
     0
  9
$PDMODE
 70
     0
  9
$PDSIZE
 40
-1.0
  9
$PLINEWID
 40
0.0
  9
$SPLFRAME
 70
     0
  9
$SPLINETYPE
 70
     6
  9
$SPLINESEGS
 70
     8
  9
$HANDSEED
  5
385
  9
$SURFTAB1
 70
     6
  9
$SURFTAB2
 70
     6
  9
$SURFTYPE
 70
     6
  9
$SURFU
 70
     6
  9
$SURFV
 70
     6
  9
$UCSBASE
  2

  9
$UCSNAME
  2

  9
$UCSORG
 10
0.0
 20
0.0
 30
0.0
  9
$UCSXDIR
 10
1.0
 20
0.0
 30
0.0
  9
$UCSYDIR
 10
0.0
 20
1.0
 30
0.0
  9
$UCSORTHOREF
  2

  9
$UCSORTHOVIEW
 70
     0
  9
$UCSORGTOP
 10
0.0
 20
0.0
 30
0.0
  9
$UCSORGBOTTOM
 10
0.0
 20
0.0
 30
0.0
  9
$UCSORGLEFT
 10
0.0
 20
0.0
 30
0.0
  9
$UCSORGRIGHT
 10
0.0
 20
0.0
 30
0.0
  9
$UCSORGFRONT
 10
0.0
 20
0.0
 30
0.0
  9
$UCSORGBACK
 10
0.0
 20
0.0
 30
0.0
  9
$PUCSBASE
  2

  9
$PUCSNAME
  2

  9
$PUCSORG
 10
0.0
 20
0.0
 30
0.0
  9
$PUCSXDIR
 10
1.0
 20
0.0
 30
0.0
  9
$PUCSYDIR
 10
0.0
 20
1.0
 30
0.0
  9
$PUCSORTHOREF
  2

  9
$PUCSORTHOVIEW
 70
     0
  9
$PUCSORGTOP
 10
0.0
 20
0.0
 30
0.0
  9
$PUCSORGBOTTOM
 10
0.0
 20
0.0
 30
0.0
  9
$PUCSORGLEFT
 10
0.0
 20
0.0
 30
0.0
  9
$PUCSORGRIGHT
 10
0.0
 20
0.0
 30
0.0
  9
$PUCSORGFRONT
 10
0.0
 20
0.0
 30
0.0
  9
$PUCSORGBACK
 10
0.0
 20
0.0
 30
0.0
  9
$USERI1
 70
     0
  9
$USERI2
 70
     0
  9
$USERI3
 70
     0
  9
$USERI4
 70
     0
  9
$USERI5
 70
     0
  9
$USERR1
 40
0.0
  9
$USERR2
 40
0.0
  9
$USERR3
 40
0.0
  9
$USERR4
 40
0.0
  9
$USERR5
 40
0.0
  9
$WORLDVIEW
 70
     1
  9
$SHADEDGE
 70
     3
  9
$SHADEDIF
 70
    70
  9
$TILEMODE
 70
     1
  9
$MAXACTVP
 70
    64
  9
$PINSBASE
 10
0.0
 20
0.0
 30
0.0
  9
$PLIMCHECK
 70
     0
  9
$PEXTMIN
 10
1.0000000000E+20
 20
1.0000000000E+20
 30
1.0000000000E+20
  9
$PEXTMAX
 10
-1.0000000000E+20
 20
-1.0000000000E+20
 30
-1.0000000000E+20
  9
$PLIMMIN
 10
0.0
 20
0.0
  9
$PLIMMAX
 10
420.0
 20
297.0
  9
$UNITMODE
 70
     0
  9
$VISRETAIN
 70
     1
  9
$PLINEGEN
 70
     0
  9
$PSLTSCALE
 70
     1
  9
$TREEDEPTH
 70
  3020
  9
$CMLSTYLE
  2
Standard
  9
$CMLJUST
 70
     0
  9
$CMLSCALE
 40
20.0
  9
$PROXYGRAPHICS
 70
     1
  9
$MEASUREMENT
 70
     1
  9
$CELWEIGHT
370
    -1
  9
$ENDCAPS
280
     0
  9
$JOINSTYLE
280
     0
  9
$LWDISPLAY
290
     1
  9
$INSUNITS
 70
     4
  9
$HYPERLINKBASE
  1

  9
$STYLESHEET
  1

  9
$XEDIT
290
     1
  9
$CEPSNTYPE
380
     0
  9
$PSTYLEMODE
290
     1
  9
$FINGERPRINTGUID
  2
{A63E46F6-5877-4A69-8146-42728329416B}
  9
$VERSIONGUID
  2
{FAEB1C32-E019-11D5-929B-00C0DF256EC4}
  9
$EXTNAMES
290
     1
  9
$PSVPSCALE
 40
0.0
  9
$OLESTARTUP
290
     0
  0
ENDSEC
  0
SECTION
  2
CLASSES
  0
CLASS
  1
ACDBDICTIONARYWDFLT
  2
AcDbDictionaryWithDefault
  3
ObjectDBX Classes
 90
        0
280
     0
281
     0
  0
CLASS
  1
VISUALSTYLE
  2
AcDbVisualStyle
  3
ObjectDBX Classes
 90
     4095
280
     0
281
     0
  0
CLASS
  1
MATERIAL
  2
AcDbMaterial
  3
ObjectDBX Classes
 90
     1153
280
     0
281
     0
  0
CLASS
  1
SCALE
  2
AcDbScale
  3
ObjectDBX Classes
 90
     1153
280
     0
281
     0
  0
CLASS
  1
TABLESTYLE
  2
AcDbTableStyle
  3
ObjectDBX Classes
 90
     4095
280
     0
281
     0
  0
CLASS
  1
MLEADERSTYLE
  2
AcDbMLeaderStyle
  3
ACDB_MLEADERSTYLE_CLASS
 90
     4095
280
     0
281
     0
  0
CLASS
  1
SUN
  2
AcDbSun
  3
SCENEOE
 90
     1153
280
     0
281
     0
  0
CLASS
  1
ACDBPLACEHOLDER
  2
AcDbPlaceHolder
  3
ObjectDBX Classes
 90
        0
280
     0
281
     0
  0
CLASS
  1
LAYOUT
  2
AcDbLayout
  3
ObjectDBX Classes
 90
        0
280
     0
281
     0
  0
ENDSEC
  0
SECTION
  2
TABLES
  0
TABLE
  2
VPORT
  5
8
330
0
100
AcDbSymbolTable
 70
     1
  0
VPORT
  5
29
330
8
100
AcDbSymbolTableRecord
100
AcDbViewportTableRecord
  2
*Active
 70
     0
 10
0.0
 20
0.0
 11
1.0
 21
1.0
 12
475.0
 22
525.0
 13
0.0
 23
0.0
 14
10.0
 24
10.0
 15
10.0
 25
10.0
 16
0.0
 26
0.0
 36
1.0
 17
0.0
 27
0.0
 37
0.0
 40
1050.0
 41
0.9047619048
 42
50.0
 43
0.0
 44
0.0
 50
0.0
 51
0.0
 71
     0
 72
  2000
 73
     1
 74
     3
 75
     0
 76
     0
 77
     0
 78
     0
281
     0
 65
     1
110
0.0
120
0.0
130
0.0
111
1.0
121
0.0
131
0.0
112
0.0
122
1.0
132
0.0
 79
     0
146
0.0
  0
ENDTAB
  0
TABLE
  2
LTYPE
  5
5
330
0
100
AcDbSymbolTable
 70
     6
  0
LTYPE
  5
14
330
5
100
AcDbSymbolTableRecord
100
AcDbLinetypeTableRecord
  2
ByBlock
 70
     0
  3

 72
    65
 73
     0
 40
0.0
  0
LTYPE
  5
15
330
5
100
AcDbSymbolTableRecord
100
AcDbLinetypeTableRecord
  2
ByLayer
 70
     0
  3

 72
    65
 73
     0
 40
0.0
  0
LTYPE
  5
16
330
5
100
AcDbSymbolTableRecord
100
AcDbLinetypeTableRecord
  2
Continuous
 70
     0
  3
Solid line
 72
    65
 73
     0
 40
0.0
  0
LTYPE
  5
6E
330
5
100
AcDbSymbolTableRecord
100
AcDbLinetypeTableRecord
  2
HIDDEN
 70
     0
  3
Hidden __ __ __ __ __ __ __ __ __ __ __ __ __ __
 72
    65
 73
     2
 40
1.905
 49
1.27
 74
     0
 49
-0.635
 74
     0
  0
LTYPE
  5
6F
330
5
100
AcDbSymbolTableRecord
100
AcDbLinetypeTableRecord
  2
PHANTOM
 70
     0
  3
Phantom ______  __  __  ______  __  __  ______
 72
    65
 73
     6
 40
12.7
 49
6.35
 74
     0
 49
-1.27
 74
     0
 49
1.27
 74
     0
 49
-1.27
 74
     0
 49
1.27
 74
     0
 49
-1.27
 74
     0
  0
LTYPE
  5
70
330
5
100
AcDbSymbolTableRecord
100
AcDbLinetypeTableRecord
  2
CENTER
 70
     0
  3
Center ____ _ ____ _ ____ _ ____ _ ____ _ ____
 72
    65
 73
     4
 40
10.16
 49
6.35
 74
     0
 49
-1.27
 74
     0
 49
1.27
 74
     0
 49
-1.27
 74
     0
  0
LTYPE
  5
71
330
5
100
AcDbSymbolTableRecord
100
AcDbLinetypeTableRecord
  2
CENTERX2
 70
     0
  3
Center (2x) ________  __  ________  __  _____
 72
    65
 73
     4
 40
20.32
 49
12.7
 74
     0
 49
-2.54
 74
     0
 49
2.54
 74
     0
 49
-2.54
 74
     0
  0
LTYPE
  5
72
330
5
100
AcDbSymbolTableRecord
100
AcDbLinetypeTableRecord
  2
DOT2
 70
     0
  3
Dot (.5x) ........................................
 72
    65
 73
     2
 40
0.635
 49
0.0
 74
     0
 49
-0.635
 74
     0
  0
ENDTAB
  0
TABLE
  2
LAYER
  5
2
330
0
100
AcDbSymbolTable
 70
     1
  0
LAYER
  5
10
330
2
100
AcDbSymbolTableRecord
100
AcDbLayerTableRecord
  2
0
 70
     0
 62
     7
  6
Continuous
370
    -3
390
F
  0
ENDTAB
  0
TABLE
  2
STYLE
  5
3
330
0
100
AcDbSymbolTable
 70
     1
  0
STYLE
  5
11
330
3
100
AcDbSymbolTableRecord
100
AcDbTextStyleTableRecord
  2
Standard
 70
     0
 40
0.0
 41
1.0
 50
0.0
 71
     0
 42
3.5
  3
txt
  4

  0
ENDTAB
  0
TABLE
  2
VIEW
  5
6
330
0
100
AcDbSymbolTable
 70
     0
  0
ENDTAB
  0
TABLE
  2
UCS
  5
7
330
0
100
AcDbSymbolTable
 70
     0
  0
ENDTAB
  0
TABLE
  2
APPID
  5
9
330
0
100
AcDbSymbolTable
 70
     1
  0
APPID
  5
12
330
9
100
AcDbSymbolTableRecord
100
AcDbRegAppTableRecord
  2
ACAD
 70
     0
  0
ENDTAB
  0
TABLE
  2
DIMSTYLE
  5
A
330
0
100
AcDbSymbolTable
 70
     1
100
AcDbDimStyleTable
  0
DIMSTYLE
105
27
330
A
100
AcDbSymbolTableRecord
100
AcDbDimStyleTableRecord
  2
ISO-25
 70
     0
 41
2.5
 42
0.625
 43
3.75
 44
1.25
 73
     0
 74
     0
 77
     1
 78
     8
140
2.5
141
2.5
143
0.0393700787
147
0.625
171
     3
172
     1
178
     0
271
     2
272
     2
274
     3
278
    44
283
     0
284
     8
340
11
  0
ENDTAB
  0
TABLE
  2
BLOCK_RECORD
  5
1
330
0
100
AcDbSymbolTable
 70
     1
  0
BLOCK_RECORD
  5
1F
330
1
100
AcDbSymbolTableRecord
100
AcDbBlockTableRecord
  2
*Model_Space
340
22
  0
BLOCK_RECORD
  5
1B
330
1
100
AcDbSymbolTableRecord
100
AcDbBlockTableRecord
  2
*Paper_Space
340
1E
  0
BLOCK_RECORD
  5
23
330
1
100
AcDbSymbolTableRecord
100
AcDbBlockTableRecord
  2
*Paper_Space0
340
26
  0
ENDTAB
  0
ENDSEC
  0
SECTION
  2
BLOCKS
  0
BLOCK
  5
20
330
1F
100
AcDbEntity
  8
0
100
AcDbBlockBegin
  2
*Model_Space
 70
     0
 10
0.0
 20
0.0
 30
0.0
  3
*Model_Space
  1

  0
ENDBLK
  5
21
330
1F
100
AcDbEntity
  8
0
100
AcDbBlockEnd
  0
BLOCK
  5
1C
330
1B
100
AcDbEntity
 67
     1
  8
0
100
AcDbBlockBegin
  2
*Paper_Space
 70
     0
 10
0.0
 20
0.0
 30
0.0
  3
*Paper_Space
  1

  0
ENDBLK
  5
1D
330
1B
100
AcDbEntity
 67
     1
  8
0
100
AcDbBlockEnd
  0
BLOCK
  5
24
330
23
100
AcDbEntity
  8
0
100
AcDbBlockBegin
  2
*Paper_Space0
 70
     0
 10
0.0
 20
0.0
 30
0.0
  3
*Paper_Space0
  1

  0
ENDBLK
  5
25
330
23
100
AcDbEntity
  8
0
100
AcDbBlockEnd
  0
ENDSEC
  0
SECTION
  2
ENTITIES
  0
ARC
  5
73
330
1F
100
AcDbEntity
  8
0
  6
Continuous
 62
     7
370
    25
100
AcDbCircle
 10
826.1810006275
 20
622.1834705859
 30
0.0
 40
0.2500000000000782
100
AcDbArc
 50
180.0
 51
322.629836736
  0
ARC
  5
74
330
1F
100
AcDbEntity
  8
0
  6
Continuous
 62
     7
370
    25
100
AcDbCircle
 10
826.1810006275
 20
633.6834705859
 30
0.0
 40
0.2500000000000092
100
AcDbArc
 50
37.370163264
 51
180.0
  0
ARC
  5
75
330
1F
100
AcDbEntity
  8
0
  6
Continuous
 62
     7
370
    25
100
AcDbCircle
 10
819.4765458405
 20
627.7384782982
 30
0.0
 40
8.956577612210591
100
AcDbArc
 50
320.4198331668
 51
326.3345247097
  0
ARC
  5
76
330
1F
100
AcDbEntity
  8
0
  6
Continuous
 62
     7
370
    25
100
AcDbCircle
 10
819.4765458405
 20
628.1284628736
 30
0.0
 40
8.956577612210445
100
AcDbArc
 50
33.6654752903
 51
39.5801668332
  0
ARC
  5
77
330
1F
100
AcDbEntity
  8
0
  6
Continuous
 62
     7
370
    25
100
AcDbCircle
 10
826.1810006275
 20
647.1834705859
 30
0.0
 40
0.2500000000000092
100
AcDbArc
 50
180.0
 51
322.629836736
  0
ARC
  5
78
330
1F
100
AcDbEntity
  8
0
  6
Continuous
 62
     7
370
    25
100
AcDbCircle
 10
826.1810006275
 20
658.6834705859
 30
0.0
 40
0.2500000000000782
100
AcDbArc
 50
37.370163264
 51
180.0
  0
ARC
  5
79
330
1F
100
AcDbEntity
  8
0
  6
Continuous
 62
     7
370
    25
100
AcDbCircle
 10
819.4765458405
 20
652.7384782982
 30
0.0
 40
8.956577612210664
100
AcDbArc
 50
320.4198331668
 51
326.3345247097
  0
ARC
  5
7A
330
1F
100
AcDbEntity
  8
0
  6
Continuous
 62
     7
370
    25
100
AcDbCircle
 10
819.4765458405
 20
653.1284628736
 30
0.0
 40
8.956577612210591
100
AcDbArc
 50
33.6654752903
 51
39.5801668332
  0
ARC
  5
7B
330
1F
100
AcDbEntity
  8
0
  6
Continuous
 62
     7
370
    25
100
AcDbCircle
 10
826.1810006275
 20
647.1434705859
 30
0.0
 40
0.2500000000001137
100
AcDbArc
 50
180.0
 51
322.629836736
  0
ARC
  5
7C
330
1F
100
AcDbEntity
  8
0
  6
Continuous
 62
     7
370
    25
100
AcDbCircle
 10
819.4765458405
 20
652.6984782982
 30
0.0
 40
8.956577612210664
100
AcDbArc
 50
320.4198331668
 51
333.136466153
  0
ARC
  5
7D
330
1F
100
AcDbEntity
  8
0
  6
Continuous
 62
     7
370
    25
100
AcDbCircle
 10
819.4765458405
 20
652.6984782982
 30
0.0
 40
8.95657761221061
100
AcDbArc
 50
344.2889005609
 51
355.6062707105
  0
ARC
  5
7E
330
1F
100
AcDbEntity
  8
0
  6
Continuous
 62
     7
370
    25
100
AcDbCircle
 10
819.4765458405
 20
653.0884628736
 30
0.0
 40
8.956577612210674
100
AcDbArc
 50
4.3760878339
 51
17.9079654596
  0
LWPOLYLINE
  5
7F
330
1F
100
AcDbEntity
  8
0
  6
Continuous
 62
     7
370
    25
100
AcDbPolyline
 90
        3
 70
   128
 43
0.0
 10
827.4734379541
 20
657.1220715615
 10
827.1715554529
 20
657.6718142226
 10
826.9310006275
 20
658.0534791226
  0
ARC
  5
80
330
1F
100
AcDbEntity
  8
0
  6
Continuous
 62
     7
370
    25
100
AcDbCircle
 10
826.1810006275
 20
622.1434705858
 30
0.0
 40
0.2500000000001137
100
AcDbArc
 50
180.0
 51
322.629836736
  0
ARC
  5
81
330
1F
100
AcDbEntity
  8
0
  6
Continuous
 62
     7
370
    25
100
AcDbCircle
 10
819.4765458405
 20
627.6984782981
 30
0.0
 40
8.956577612210664
100
AcDbArc
 50
320.4198331668
 51
333.1364661519
  0
ARC
  5
82
330
1F
100
AcDbEntity
  8
0
  6
Continuous
 62
     7
370
    25
100
AcDbCircle
 10
819.4765458405
 20
627.6984782981
 30
0.0
 40
8.956577612210628
100
AcDbArc
 50
344.2887791305
 51
355.3180232488
  0
ARC
  5
83
330
1F
100
AcDbEntity
  8
0
  6
Continuous
 62
     7
370
    25
100
AcDbCircle
 10
819.4765458405
 20
628.0884628735
 30
0.0
 40
8.956577612210696
100
AcDbArc
 50
4.6732992741
 51
17.908131915
  0
LWPOLYLINE
  5
84
330
1F
100
AcDbEntity
  8
0
  6
Continuous
 62
     7
370
    25
100
AcDbPolyline
 90
        3
 70
   128
 43
0.0
 10
827.4734379542
 20
632.1220715613
 10
827.1656051585
 20
632.6817894816
 10
826.9310006275
 20
633.0534791225
  0
ARC
  5
85
330
1F
100
AcDbEntity
  8
0
  6
Continuous
 62
     7
370
    25
100
AcDbCircle
 10
826.1810006275
 20
247.1434705859
 30
0.0
 40
0.2500000000001137
100
AcDbArc
 50
180.0
 51
322.6298367359
  0
ARC
  5
86
330
1F
100
AcDbEntity
  8
0
  6
Continuous
 62
     7
370
    25
100
AcDbCircle
 10
819.4765458405
 20
252.6984782982
 30
0.0
 40
8.956577612210666
100
AcDbArc
 50
320.4198331668
 51
326.3345247097
  0
ARC
  5
87
330
1F
100
AcDbEntity
  8
0
  6
Continuous
 62
     7
370
    25
100
AcDbCircle
 10
826.1810006275
 20
247.1834705859
 30
0.0
 40
0.2500000000001137
100
AcDbArc
 50
180.0
 51
322.629836736
  0
ARC
  5
88
330
1F
100
AcDbEntity
  8
0
  6
Continuous
 62
     7
370
    25
100
AcDbCircle
 10
826.1810006275
 20
258.6834705859
 30
0.0
 40
0.25
100
AcDbArc
 50
37.370163264
 51
180.0
  0
ARC
  5
89
330
1F
100
AcDbEntity
  8
0
  6
Continuous
 62
     7
370
    25
100
AcDbCircle
 10
819.4765458405
 20
252.7384782982
 30
0.0
 40
8.956577612210573
100
AcDbArc
 50
320.4198331668
 51
326.3345247097
  0
ARC
  5
8A
330
1F
100
AcDbEntity
  8
0
  6
Continuous
 62
     7
370
    25
100
AcDbCircle
 10
819.4765458405
 20
253.1284628736
 30
0.0
 40
8.956577612210586
100
AcDbArc
 50
33.6654752903
 51
39.5801668332
  0
ARC
  5
8B
330
1F
100
AcDbEntity
  8
0
  6
Continuous
 62
     7
370
    25
100
AcDbCircle
 10
826.1810006275
 20
222.1434705859
 30
0.0
 40
0.2500000000001137
100
AcDbArc
 50
180.0
 51
322.629836736
  0
ARC
  5
8C
330
1F
100
AcDbEntity
  8
0
  6
Continuous
 62
     7
370
    25
100
AcDbCircle
 10
819.4765458405
 20
227.6984782982
 30
0.0
 40
8.956577612210666
100
AcDbArc
 50
320.4198331668
 51
326.3345247097
  0
ARC
  5
8D
330
1F
100
AcDbEntity
  8
0
  6
Continuous
 62
     7
370
    25
100
AcDbCircle
 10
865.2438287868
 20
870.5599939435
 30
0.0
 40
0.2500000000000669
100
AcDbArc
 50
115.0
 51
257.6298367359
  0
ARC
  5
8E
330
1F
100
AcDbEntity
  8
0
  6
Continuous
 62
     7
370
    25
100
AcDbCircle
 10
875.6663683377
 20
875.4201039535
 30
0.0
 40
0.2500000000000747
100
AcDbArc
 50
332.370163264
 51
115.0
  0
ARC
  5
8F
330
1F
100
AcDbEntity
  8
0
  6
Continuous
 62
     7
370
    25
100
AcDbCircle
 10
867.4449505055
 20
878.983941228
 30
0.0
 40
8.95657761221064
100
AcDbArc
 50
255.4198331668
 51
289.3697069216
  0
ARC
  5
90
330
1F
100
AcDbEntity
  8
0
  6
Continuous
 62
     7
370
    25
100
AcDbCircle
 10
867.798396563
 20
879.1487558314
 30
0.0
 40
8.956577612210687
100
AcDbArc
 50
300.6124835607
 51
334.5801668332
  0
LINE
  5
91
330
1F
100
AcDbEntity
  8
0
  6
Continuous
 62
     7
370
    25
100
AcDbLine
 10
867.7028561022
 20
872.9767479929
 30
0.0
 11
867.7455799198
 21
872.8851264705
 31
0.0
  0
LINE
  5
92
330
1F
100
AcDbEntity
  8
0
  6
Continuous
 62
     7
370
    25
100
AcDbLine
 10
872.277118855
 20
874.9982177792
 30
0.0
 11
872.2343950374
 21
875.0898393017
 31
0.0
  0
ARC
  5
93
330
1F
100
AcDbEntity
  8
0
  6
Continuous
 62
     7
370
    25
100
AcDbCircle
 10
826.1810006275
 20
222.1834705859
 30
0.0
 40
0.25
100
AcDbArc
 50
180.0
 51
322.629836736
  0
ARC
  5
94
330
1F
100
AcDbEntity
  8
0
  6
Continuous
 62
     7
370
    25
100
AcDbCircle
 10
826.1810006275
 20
233.6834705859
 30
0.0
 40
0.2500000000000051
100
AcDbArc
 50
37.370163264
 51
180.0
  0
ARC
  5
95
330
1F
100
AcDbEntity
  8
0
  6
Continuous
 62
     7
370
    25
100
AcDbCircle
 10
819.4765458405
 20
227.7384782982
 30
0.0
 40
8.956577612210555
100
AcDbArc
 50
320.4198331668
 51
326.3345247097
  0
ARC
  5
96
330
1F
100
AcDbEntity
  8
0
  6
Continuous
 62
     7
370
    25
100
AcDbCircle
 10
819.4765458405
 20
228.1284628736
 30
0.0
 40
8.95657761221057
100
AcDbArc
 50
33.6654752903
 51
39.5801668332
  0
ARC
  5
97
330
1F
100
AcDbEntity
  8
0
  6
Continuous
 62
     7
370
    25
100
AcDbCircle
 10
839.8815787317
 20
687.6434705859
 30
0.0
 40
0.25
100
AcDbArc
 50
90.0
 51
232.629836736
  0
ARC
  5
98
330
1F
100
AcDbEntity
  8
0
  6
Continuous
 62
     7
370
    25
100
AcDbCircle
 10
851.3815787317
 20
687.6434705859
 30
0.0
 40
0.25
100
AcDbArc
 50
307.370163264
 51
90.0
  0
ARC
  5
99
330
1F
100
AcDbEntity
  8
0
  6
Continuous
 62
     7
370
    25
100
AcDbCircle
 10
845.436586444
 20
694.3479253728
 30
0.0
 40
8.956577612210678
100
AcDbArc
 50
230.4198331668
 51
263.3644488548
  0
ARC
  5
9A
330
1F
100
AcDbEntity
  8
0
  6
Continuous
 62
     7
370
    25
100
AcDbCircle
 10
845.8265710194
 20
694.3479253728
 30
0.0
 40
8.956577612210783
100
AcDbArc
 50
276.6032593519
 51
309.5801668332
  0
LINE
  5
9B
330
1F
100
AcDbEntity
  8
0
  6
Continuous
 62
     7
370
    25
100
AcDbLine
 10
843.1315787317
 20
688.7334705859
 30
0.0
 11
843.1315787317
 21
688.6934705859
 31
0.0
  0
LINE
  5
9C
330
1F
100
AcDbEntity
  8
0
  6
Continuous
 62
     7
370
    25
100
AcDbLine
 10
848.1315787317
 20
688.6934705859
 30
0.0
 11
848.1315787317
 21
688.7334705859
 31
0.0
  0
LINE
  5
9D
330
1F
100
AcDbEntity
  8
0
  6
Continuous
 62
     7
370
    25
100
AcDbLine
 10
915.1446194239
 20
787.1643858376
 30
0.0
 11
917.0386650485
 21
789.1814390021
 31
0.0
  0
LINE
  5
9E
330
1F
100
AcDbEntity
  8
0
  6
Continuous
 62
     7
370
    25
100
AcDbLine
 10
912.6744226642
 20
784.5337637838
 30
0.0
 11
913.4209615545
 21
785.3287861484
 31
0.0
  0
LINE
  5
9F
330
1F
100
AcDbEntity
  8
0
  6
Continuous
 62
     7
370
    25
100
AcDbLine
 10
909.6660602251
 20
781.3300252366
 30
0.0
 11
910.7697458225
 21
782.5053889649
 31
0.0
  0
LINE
  5
A0
330
1F
100
AcDbEntity
  8
0
  6
Continuous
 62
     7
370
    25
100
AcDbLine
 10
892.9494241292
 20
840.8409828632
 30
0.0
 11
882.1958732119
 21
840.2400313939
 31
0.0
  0
LINE
  5
A1
330
1F
100
AcDbEntity
  8
0
  6
Continuous
 62
     7
370
    25
100
AcDbLine
 10
893.4493787132
 20
840.8477218526
 30
0.0
 11
892.9494241292
 21
840.8409828632
 31
0.0
  0
LINE
  5
A2
330
1F
100
AcDbEntity
  8
0
  6
Continuous
 62
     7
370
    25
100
AcDbLine
 10
917.0386650485
 20
789.1814390021
 30
0.0
 11
930.9390011439
 21
805.3009076771
 31
0.0
  0
ARC
  5
A3
330
1F
100
AcDbEntity
  8
0
  6
Continuous
 62
     7
370
    25
100
AcDbCircle
 10
930.1816897599
 20
805.9539616318
 30
0.0
 40
1.000000000000052
100
AcDbArc
 50
319.227745318
 51
25.0
  0
LINE
  5
A4
330
1F
100
AcDbEntity
  8
0
  6
Continuous
 62
     7
370
    25
100
AcDbLine
 10
910.6997571187
 20
782.4162463098
 30
0.0
 11
912.7573010803
 21
784.6074161026
 31
0.0
  0
LINE
  5
A5
330
1F
100
AcDbEntity
  8
0
  6
Continuous
 62
     7
370
    25
100
AcDbLine
 10
913.4283382586
 20
785.3220333464
 30
0.0
 11
915.2025800285
 21
787.2115020742
 31
0.0
  0
LINE
  5
A6
330
1F
100
AcDbEntity
  8
0
  6
Continuous
 62
     7
370
    25
100
AcDbLine
 10
905.5617825031
 20
773.5682661331
 30
0.0
 11
908.2478487567
 21
776.0896840042
 31
0.0
  0
LINE
  5
A7
330
1F
100
AcDbEntity
  8
0
  6
Continuous
 62
     7
370
    25
100
AcDbLine
 10
902.6270258755
 20
788.1435775718
 30
0.0
 11
898.9689376199
 21
787.7066676108
 31
0.0
  0
ARC
  5
A8
330
1F
100
AcDbEntity
  8
0
  6
Continuous
 62
     7
370
    25
100
AcDbCircle
 10
884.9249576619
 20
832.0212893212
 30
0.0
 40
2.00000000000003
100
AcDbArc
 50
205.0
 51
292.0
  0
ARC
  5
A9
330
1F
100
AcDbEntity
  8
0
  6
Continuous
 62
     7
370
    25
100
AcDbCircle
 10
905.124360201
 20
788.7035307858
 30
0.0
 40
1.999999999999972
100
AcDbArc
 50
118.0
 51
205.0
  0
LINE
  5
AA
330
1F
100
AcDbEntity
  8
0
  6
Continuous
 62
     7
370
    25
100
AcDbLine
 10
904.1854170755
 20
790.4694259715
 30
0.0
 11
905.162123023
 21
790.9887497358
 31
0.0
  0
LINE
  5
AB
330
1F
100
AcDbEntity
  8
0
  6
Continuous
 62
     7
370
    25
100
AcDbLine
 10
886.6998104139
 20
830.5813068947
 30
0.0
 11
885.6741708487
 21
830.1669216121
 31
0.0
  0
LINE
  5
AC
330
1F
100
AcDbEntity
  8
0
  6
Continuous
 62
     7
370
    25
100
AcDbLine
 10
916.4822511738
 20
748.670369504
 30
0.0
 11
916.5927710866
 21
748.729133984
 31
0.0
  0
LINE
  5
AD
330
1F
100
AcDbEntity
  8
0
  6
Continuous
 62
     7
370
    25
100
AcDbLine
 10
856.9187490818
 20
570.0125532154
 30
0.0
 11
827.3043760737
 21
570.0125532154
 31
0.0
  0
LINE
  5
AE
330
1F
100
AcDbEntity
  8
0
  6
Continuous
 62
     7
370
    25
100
AcDbLine
 10
827.3043760737
 20
545.0125532154
 30
0.0
 11
856.9187490818
 21
545.0125532154
 31
0.0
  0
LINE
  5
AF
330
1F
100
AcDbEntity
  8
0
  6
Continuous
 62
     7
370
    25
100
AcDbLine
 10
866.3043760737
 20
547.0125532154
 30
0.0
 11
866.3043760737
 21
568.0125532154
 31
0.0
  0
ARC
  5
B0
330
1F
100
AcDbEntity
  8
0
  6
Continuous
 62
     7
370
    25
100
AcDbCircle
 10
864.3043760737
 20
568.0125532154
 30
0.0
 40
2.0
100
AcDbArc
 50
0.0
 51
89.9999999999
  0
ARC
  5
B1
330
1F
100
AcDbEntity
  8
0
  6
Continuous
 62
     7
370
    25
100
AcDbCircle
 10
864.3043760737
 20
547.0125532154
 30
0.0
 40
2.0
100
AcDbArc
 50
270.0
 51
0.0
  0
LINE
  5
B2
330
1F
100
AcDbEntity
  8
0
  6
Continuous
 62
     7
370
    25
100
AcDbLine
 10
40.367670908
 20
664.6334705859
 30
0.0
 11
40.367670908
 21
663.4897180839
 31
0.0
  0
LINE
  5
B3
330
1F
100
AcDbEntity
  8
0
  6
Continuous
 62
     7
370
    25
100
AcDbLine
 10
74.117670908
 20
663.4897180839
 30
0.0
 11
74.117670908
 21
664.6334705859
 31
0.0
  0
LINE
  5
B4
330
1F
100
AcDbEntity
  8
0
  6
Continuous
 62
     7
370
    25
100
AcDbLine
 10
40.367670908
 20
676.6334705859
 30
0.0
 11
40.367670908
 21
670.0334705859
 31
0.0
  0
LINE
  5
B5
330
1F
100
AcDbEntity
  8
0
  6
Continuous
 62
     7
370
    25
100
AcDbLine
 10
74.117670908
 20
670.0334705859
 30
0.0
 11
74.117670908
 21
676.6334705859
 31
0.0
  0
ARC
  5
B6
330
1F
100
AcDbEntity
  8
0
  6
Continuous
 62
     7
370
    25
100
AcDbCircle
 10
66.117670908
 20
663.4897180839
 30
0.0
 40
8.00000000000012
100
AcDbArc
 50
282.635625093
 51
0.0
  0
ARC
  5
B7
330
1F
100
AcDbEntity
  8
0
  6
Continuous
 62
     7
370
    25
100
AcDbCircle
 10
48.367670908
 20
663.4897180839
 30
0.0
 40
8.000000000000036
100
AcDbArc
 50
180.0
 51
257.364374907
  0
LINE
  5
B8
330
1F
100
AcDbEntity
  8
0
  6
Continuous
 62
     7
370
    25
100
AcDbLine
 10
41.392670908
 20
681.9834705859
 30
0.0
 11
41.392670908
 21
676.6334705859
 31
0.0
  0
LINE
  5
B9
330
1F
100
AcDbEntity
  8
0
  6
Continuous
 62
     7
370
    25
100
AcDbLine
 10
73.092670908
 20
676.6334705859
 30
0.0
 11
73.092670908
 21
681.9834705859
 31
0.0
  0
LINE
  5
BA
330
1F
100
AcDbEntity
  8
0
  6
Continuous
 62
     7
370
    25
100
AcDbLine
 10
42.317670908
 20
684.9334705859
 30
0.0
 11
42.317670908
 21
681.9834705859
 31
0.0
  0
LINE
  5
BB
330
1F
100
AcDbEntity
  8
0
  6
Continuous
 62
     7
370
    25
100
AcDbLine
 10
72.167670908
 20
681.9834705859
 30
0.0
 11
72.167670908
 21
684.9334705859
 31
0.0
  0
ARC
  5
BC
330
1F
100
AcDbEntity
  8
0
  6
Continuous
 62
     7
370
    25
100
AcDbCircle
 10
763.642670908
 20
41.9334705859
 30
0.0
 40
2.000000000000007
100
AcDbArc
 50
270.0
 51
0.0
  0
ARC
  5
BD
330
1F
100
AcDbEntity
  8
0
  6
Continuous
 62
     7
370
    25
100
AcDbCircle
 10
710.642670908
 20
41.9334705859
 30
0.0
 40
2.000000000000007
100
AcDbArc
 50
180.0
 51
270.0
  0
LINE
  5
BE
330
1F
100
AcDbEntity
  8
0
  6
Continuous
 62
     7
370
    25
100
AcDbLine
 10
765.642670908
 20
41.9334705859
 30
0.0
 11
765.642670908
 21
45.9334705859
 31
0.0
  0
LINE
  5
BF
330
1F
100
AcDbEntity
  8
0
  6
Continuous
 62
     7
370
    25
100
AcDbLine
 10
708.642670908
 20
45.9334705859
 30
0.0
 11
708.642670908
 21
41.9334705859
 31
0.0
  0
LINE
  5
C0
330
1F
100
AcDbEntity
  8
0
  6
Continuous
 62
     7
370
    25
100
AcDbLine
 10
186.642670908
 20
41.9334705859
 30
0.0
 11
186.642670908
 21
45.9334705859
 31
0.0
  0
LINE
  5
C1
330
1F
100
AcDbEntity
  8
0
  6
Continuous
 62
     7
370
    25
100
AcDbLine
 10
129.642670908
 20
45.9334705859
 30
0.0
 11
129.642670908
 21
41.9334705859
 31
0.0
  0
ARC
  5
C2
330
1F
100
AcDbEntity
  8
0
  6
Continuous
 62
     7
370
    25
100
AcDbCircle
 10
184.642670908
 20
41.9334705859
 30
0.0
 40
2.000000000000007
100
AcDbArc
 50
270.0
 51
0.0
  0
ARC
  5
C3
330
1F
100
AcDbEntity
  8
0
  6
Continuous
 62
     7
370
    25
100
AcDbCircle
 10
131.642670908
 20
41.9334705859
 30
0.0
 40
2.000000000000007
100
AcDbArc
 50
180.0
 51
270.0
  0
LINE
  5
C4
330
1F
100
AcDbEntity
  8
0
  6
Continuous
 62
     7
370
    25
100
AcDbLine
 10
186.442670908
 20
45.9334705859
 30
0.0
 11
186.442670908
 21
113.9334705859
 31
0.0
  0
LINE
  5
C5
330
1F
100
AcDbEntity
  8
0
  6
Continuous
 62
     7
370
    25
100
AcDbLine
 10
129.842670908
 20
113.9334705859
 30
0.0
 11
129.842670908
 21
45.9334705859
 31
0.0
  0
LINE
  5
C6
330
1F
100
AcDbEntity
  8
0
  6
Continuous
 62
     7
370
    25
100
AcDbLine
 10
765.442670908
 20
45.9334705859
 30
0.0
 11
765.442670908
 21
113.9334705859
 31
0.0
  0
LINE
  5
C7
330
1F
100
AcDbEntity
  8
0
  6
Continuous
 62
     7
370
    25
100
AcDbLine
 10
708.842670908
 20
113.9334705859
 30
0.0
 11
708.842670908
 21
45.9334705859
 31
0.0
  0
ARC
  5
C8
330
1F
100
AcDbEntity
  8
0
  6
Continuous
 62
     7
370
    25
100
AcDbCircle
 10
191.542670908
 20
206.4334705859
 30
0.0
 40
1.5
100
AcDbArc
 50
90.0
 51
180.0
  0
ARC
  5
C9
330
1F
100
AcDbEntity
  8
0
  6
Continuous
 62
     7
370
    25
100
AcDbCircle
 10
124.742670908
 20
206.4334705859
 30
0.0
 40
1.5
100
AcDbArc
 50
0.0
 51
90.0
  0
ARC
  5
CA
330
1F
100
AcDbEntity
  8
0
  6
Continuous
 62
     7
370
    25
100
AcDbCircle
 10
185.342670908
 20
119.9660365315
 30
0.0
 40
4.699999999999989
100
AcDbArc
 50
350.5402980318
 51
0.0
  0
ARC
  5
CB
330
1F
100
AcDbEntity
  8
0
  6
Continuous
 62
     7
370
    25
100
AcDbCircle
 10
130.942670908
 20
119.9660365315
 30
0.0
 40
4.699999999999998
100
AcDbArc
 50
180.0
 51
189.4597019682
  0
LINE
  5
CC
330
1F
100
AcDbEntity
  8
0
  6
Continuous
 62
     7
370
    25
100
AcDbLine
 10
190.042670908
 20
119.9660365315
 30
0.0
 11
190.042670908
 21
206.4334705859
 31
0.0
  0
LINE
  5
CD
330
1F
100
AcDbEntity
  8
0
  6
Continuous
 62
     7
370
    25
100
AcDbLine
 10
126.242670908
 20
206.4334705859
 30
0.0
 11
126.242670908
 21
119.9660365315
 31
0.0
  0
LINE
  5
CE
330
1F
100
AcDbEntity
  8
0
  6
Continuous
 62
     7
370
    25
100
AcDbLine
 10
126.306584135
 20
119.1935733071
 30
0.0
 11
127.1830206876
 21
113.9334705859
 31
0.0
  0
LINE
  5
CF
330
1F
100
AcDbEntity
  8
0
  6
Continuous
 62
     7
370
    25
100
AcDbLine
 10
189.1023211283
 20
113.9334705859
 30
0.0
 11
189.978757681
 21
119.1935733071
 31
0.0
  0
ARC
  5
D0
330
1F
100
AcDbEntity
  8
0
  6
Continuous
 62
     7
370
    25
100
AcDbCircle
 10
770.542670908
 20
206.4334705859
 30
0.0
 40
1.5
100
AcDbArc
 50
90.0
 51
180.0
  0
ARC
  5
D1
330
1F
100
AcDbEntity
  8
0
  6
Continuous
 62
     7
370
    25
100
AcDbCircle
 10
703.742670908
 20
206.4334705859
 30
0.0
 40
1.500000000000114
100
AcDbArc
 50
0.0
 51
90.0
  0
LINE
  5
D2
330
1F
100
AcDbEntity
  8
0
  6
Continuous
 62
     7
370
    25
100
AcDbLine
 10
769.042670908
 20
119.9660365315
 30
0.0
 11
769.042670908
 21
206.4334705859
 31
0.0
  0
LINE
  5
D3
330
1F
100
AcDbEntity
  8
0
  6
Continuous
 62
     7
370
    25
100
AcDbLine
 10
705.242670908
 20
206.4334705859
 30
0.0
 11
705.242670908
 21
119.9660365315
 31
0.0
  0
ARC
  5
D4
330
1F
100
AcDbEntity
  8
0
  6
Continuous
 62
     7
370
    25
100
AcDbCircle
 10
764.342670908
 20
119.9660365315
 30
0.0
 40
4.699999999999932
100
AcDbArc
 50
350.5402980318
 51
0.0
  0
ARC
  5
D5
330
1F
100
AcDbEntity
  8
0
  6
Continuous
 62
     7
370
    25
100
AcDbCircle
 10
709.942670908
 20
119.9660365315
 30
0.0
 40
4.6999999999999
100
AcDbArc
 50
180.0
 51
189.4597019682
  0
LINE
  5
D6
330
1F
100
AcDbEntity
  8
0
  6
Continuous
 62
     7
370
    25
100
AcDbLine
 10
705.306584135
 20
119.1935733071
 30
0.0
 11
706.1830206876
 21
113.9334705859
 31
0.0
  0
LINE
  5
D7
330
1F
100
AcDbEntity
  8
0
  6
Continuous
 62
     7
370
    25
100
AcDbLine
 10
768.1023211283
 20
113.9334705859
 30
0.0
 11
768.978757681
 21
119.1935733071
 31
0.0
  0
LINE
  5
D8
330
1F
100
AcDbEntity
  8
0
  6
Continuous
 62
     7
370
    25
100
AcDbLine
 10
904.9742092231
 20
773.3494451088
 30
0.0
 11
905.54065159
 21
773.6135815224
 31
0.0
  0
LINE
  5
D9
330
1F
100
AcDbEntity
  8
0
  6
Continuous
 62
     7
370
    25
100
AcDbLine
 10
898.990068533
 20
787.6613522215
 30
0.0
 11
898.4236261661
 21
787.3972158079
 31
0.0
  0
LINE
  5
DA
330
1F
100
AcDbEntity
  8
0
  6
Continuous
 62
     7
370
    25
100
AcDbLine
 10
879.6171135186
 20
827.727912331
 30
0.0
 11
880.1835558855
 21
827.9920487446
 31
0.0
  0
LINE
  5
DB
330
1F
100
AcDbEntity
  8
0
  6
Continuous
 62
     7
370
    25
100
AcDbLine
 10
873.6329728285
 20
842.0398194437
 30
0.0
 11
873.0665304616
 21
841.7756830301
 31
0.0
  0
LINE
  5
DC
330
1F
100
AcDbEntity
  8
0
  6
Continuous
 62
     7
370
    25
100
AcDbLine
 10
880.2046867986
 20
827.9467333553
 30
0.0
 11
882.8907530522
 21
830.4681512264
 31
0.0
  0
LINE
  5
DD
330
1F
100
AcDbEntity
  8
0
  6
Continuous
 62
     7
370
    25
100
AcDbLine
 10
877.2699301711
 20
842.522044794
 30
0.0
 11
873.6118419155
 21
842.085134833
 31
0.0
  0
SPLINE
  5
DE
330
1F
100
AcDbEntity
  8
0
  6
Continuous
 62
     7
370
    25
100
AcDbSpline
210
0.0
220
0.0
230
1.0
 70
     8
 71
     3
 72
    13
 73
     9
 74
     0
 42
0.000000001
 43
0.00000001
 40
0.0
 40
0.0
 40
0.0
 40
0.0
 40
0.0634888169694003
 40
0.2470479163438077
 40
0.4311284030629966
 40
0.6187780680160416
 40
0.8315552681844436
 40
1.0
 40
1.0
 40
1.0
 40
1.0
 10
86.93351434668884
 20
196.0835794761843
 30
0.0
 10
86.93304201485647
 20
196.0938055383377
 30
0.0
 10
86.9312040755063
 20
196.1335972287172
 30
0.0
 10
86.94454909244715
 20
196.2011566722072
 30
0.0
 10
86.97049703755566
 20
196.2712561857801
 30
0.0
 10
87.00246515121951
 20
196.3177243491679
 30
0.0
 10
87.02548043537622
 20
196.3337509747036
 30
0.0
 10
87.02473794460542
 20
196.3330503968548
 30
0.0
 10
87.02440987151144
 20
196.3327408431856
 30
0.0
  0
LINE
  5
DF
330
1F
100
AcDbEntity
  8
0
  6
Continuous
 62
     7
370
    25
100
AcDbLine
 10
86.9317190843
 20
190.9834705859
 30
0.0
 11
86.9317190843
 21
196.0834705859
 31
0.0
  0
ARC
  5
E0
330
1F
100
AcDbEntity
  8
0
  6
Continuous
 62
     7
370
    25
100
AcDbCircle
 10
86.6817190843
 20
190.9834705859
 30
0.0
 40
0.2500000000000284
100
AcDbArc
 50
270.0
 51
0.0
  0
ARC
  5
E1
330
1F
100
AcDbEntity
  8
0
  6
Continuous
 62
     7
370
    25
100
AcDbCircle
 10
81.6250249121
 20
190.9834705859
 30
0.0
 40
0.2500000000000284
100
AcDbArc
 50
180.0
 51
270.0
  0
LINE
  5
E2
330
1F
100
AcDbEntity
  8
0
  6
Continuous
 62
     7
370
    25
100
AcDbLine
 10
81.3750249121
 20
196.0834705859
 30
0.0
 11
81.3750249121
 21
190.9834705859
 31
0.0
  0
ARC
  5
E3
330
1F
100
AcDbEntity
  8
0
  6
Continuous
 62
     7
370
    25
100
AcDbCircle
 10
81.592670908
 20
196.5834705859
 30
0.0
 40
0.2499999999999987
100
AcDbArc
 50
180.0
 51
232.7089330724
  0
ARC
  5
E4
330
1F
100
AcDbEntity
  8
0
  6
Continuous
 62
     7
370
    25
100
AcDbCircle
 10
81.592670908
 20
197.2834705859
 30
0.0
 40
0.2500000000000284
100
AcDbArc
 50
90.0
 51
180.0
  0
LINE
  5
E5
330
1F
100
AcDbEntity
  8
0
  6
Continuous
 62
     7
370
    25
100
AcDbLine
 10
81.342670908
 20
197.2834705859
 30
0.0
 11
81.342670908
 21
196.5834705859
 31
0.0
  0
ARC
  5
E6
330
1F
100
AcDbEntity
  8
0
  6
Continuous
 62
     7
370
    25
100
AcDbCircle
 10
98.4603169038
 20
190.9834705859
 30
0.0
 40
0.2500000000000142
100
AcDbArc
 50
270.0
 51
0.0
  0
LINE
  5
E7
330
1F
100
AcDbEntity
  8
0
  6
Continuous
 62
     7
370
    25
100
AcDbLine
 10
98.7103169038
 20
190.9834705859
 30
0.0
 11
98.7103169038
 21
195.2604656247
 31
0.0
  0
ARC
  5
E8
330
1F
100
AcDbEntity
  8
0
  6
Continuous
 62
     7
370
    25
100
AcDbCircle
 10
81.592670908
 20
195.3834705859
 30
0.0
 40
0.2499999999999823
100
AcDbArc
 50
180.0
 51
209.473426788
  0
LINE
  5
E9
330
1F
100
AcDbEntity
  8
0
  6
Continuous
 62
     7
370
    25
100
AcDbLine
 10
81.342670908
 20
196.0834705859
 30
0.0
 11
81.342670908
 21
195.3834705859
 31
0.0
  0
SPLINE
  5
EA
330
1F
100
AcDbEntity
  8
0
  6
Continuous
 62
     7
370
    25
100
AcDbSpline
210
0.0
220
0.0
230
1.0
 70
     8
 71
     3
 72
    13
 73
     9
 74
     0
 42
0.000000001
 43
0.00000001
 40
0.0
 40
0.0
 40
0.0
 40
0.0
 40
0.0546880530910524
 40
0.2134688124181686
 40
0.3745771152283104
 40
0.5445034158398976
 40
0.7475374221074779
 40
1.0
 40
1.0
 40
1.0
 40
1.0
 10
93.9969458188546
 20
196.5833785207801
 30
0.0
 10
93.99743977674146
 20
196.5737947933642
 30
0.0
 10
93.99936788713376
 20
196.5363857653525
 30
0.0
 10
93.98533353901605
 20
196.4725400326842
 30
0.0
 10
93.95769279471794
 20
196.4051490137053
 30
0.0
 10
93.9207868191449
 20
196.3575529979989
 30
0.0
 10
93.88600991639545
 20
196.3346785055219
 30
0.0
 10
93.87417974390816
 20
196.3342245654835
 30
0.0
 10
93.86762277740857
 20
196.3339729656335
 30
0.0
  0
LINE
  5
EB
330
1F
100
AcDbEntity
  8
0
  6
Continuous
 62
     7
370
    25
100
AcDbLine
 10
93.9988206576
 20
201.6834705859
 30
0.0
 11
93.9988206576
 21
196.5834705859
 31
0.0
  0
ARC
  5
EC
330
1F
100
AcDbEntity
  8
0
  6
Continuous
 62
     7
370
    25
100
AcDbCircle
 10
94.2488206576
 20
201.6834705859
 30
0.0
 40
0.2499999999999716
100
AcDbArc
 50
90.0
 51
180.0
  0
ARC
  5
ED
330
1F
100
AcDbEntity
  8
0
  6
Continuous
 62
     7
370
    25
100
AcDbCircle
 10
98.9487910569
 20
201.6834705859
 30
0.0
 40
0.2500000000000284
100
AcDbArc
 50
0.0
 51
90.0
  0
LINE
  5
EE
330
1F
100
AcDbEntity
  8
0
  6
Continuous
 62
     7
370
    25
100
AcDbLine
 10
99.1987910569
 20
196.5834705859
 30
0.0
 11
99.1987910569
 21
201.6834705859
 31
0.0
  0
ARC
  5
EF
330
1F
100
AcDbEntity
  8
0
  6
Continuous
 62
     7
370
    25
100
AcDbCircle
 10
98.492670908
 20
195.3834705859
 30
0.0
 40
0.25
100
AcDbArc
 50
270.0
 51
0.0
  0
LINE
  5
F0
330
1F
100
AcDbEntity
  8
0
  6
Continuous
 62
     7
370
    25
100
AcDbLine
 10
80.886550759
 20
201.6834705859
 30
0.0
 11
80.886550759
 21
196.5834705859
 31
0.0
  0
ARC
  5
F1
330
1F
100
AcDbEntity
  8
0
  6
Continuous
 62
     7
370
    25
100
AcDbCircle
 10
81.136550759
 20
201.6834705859
 30
0.0
 40
0.2500000000000284
100
AcDbArc
 50
90.0
 51
180.0
  0
LINE
  5
F2
330
1F
100
AcDbEntity
  8
0
  6
Continuous
 62
     7
370
    25
100
AcDbLine
 10
84.9534197582
 20
203.0349997612
 30
0.0
 11
85.042670908
 21
202.9834705859
 31
0.0
  0
LINE
  5
F3
330
1F
100
AcDbEntity
  8
0
  6
Continuous
 62
     7
370
    25
100
AcDbLine
 10
95.042670908
 20
202.9834705859
 30
0.0
 11
95.1319220578
 21
203.0349997612
 31
0.0
  0
LINE
  5
F4
330
1F
100
AcDbEntity
  8
0
  6
Continuous
 62
     7
370
    25
100
AcDbLine
 10
95.2900519615
 20
202.590645068
 30
0.0
 11
95.042670908
 21
202.7334705859
 31
0.0
  0
LINE
  5
F5
330
1F
100
AcDbEntity
  8
0
  6
Continuous
 62
     7
370
    25
100
AcDbLine
 10
84.7952898545
 20
197.6762961037
 30
0.0
 11
85.042670908
 21
197.5334705859
 31
0.0
  0
LINE
  5
F6
330
1F
100
AcDbEntity
  8
0
  6
Continuous
 62
     7
370
    25
100
AcDbLine
 10
85.042670908
 20
202.7334705859
 30
0.0
 11
84.7952898545
 21
202.590645068
 31
0.0
  0
LINE
  5
F7
330
1F
100
AcDbEntity
  8
0
  6
Continuous
 62
     7
370
    25
100
AcDbLine
 10
84.5809795041
 20
190.2000282422
 30
0.0
 11
85.042670908
 21
189.9334705859
 31
0.0
  0
LINE
  5
F8
330
1F
100
AcDbEntity
  8
0
  6
Continuous
 62
     7
370
    25
100
AcDbLine
 10
95.5043623118
 20
194.8669129296
 30
0.0
 11
95.042670908
 21
195.1334705859
 31
0.0
  0
LINE
  5
F9
330
1F
100
AcDbEntity
  8
0
  6
Continuous
 62
     7
370
    25
100
AcDbLine
 10
95.042670908
 20
189.9334705859
 30
0.0
 11
95.5043623118
 21
190.2000282422
 31
0.0
  0
LINE
  5
FA
330
1F
100
AcDbEntity
  8
0
  6
Continuous
 62
     7
370
    25
100
AcDbLine
 10
87.042670908
 20
202.9834705859
 30
0.0
 11
87.042670908
 21
202.7334705859
 31
0.0
  0
LINE
  5
FB
330
1F
100
AcDbEntity
  8
0
  6
Continuous
 62
     7
370
    25
100
AcDbLine
 10
93.042670908
 20
202.7334705859
 30
0.0
 11
93.042670908
 21
202.9834705859
 31
0.0
  0
LINE
  5
FC
330
1F
100
AcDbEntity
  8
0
  6
Continuous
 62
     7
370
    25
100
AcDbLine
 10
826.3796833283
 20
622.0317300692
 30
0.0
 11
826.3796833283
 21
633.8352111025
 31
0.0
  0
SPLINE
  5
FD
330
1F
100
AcDbEntity
  8
0
  6
Continuous
 62
     7
370
    25
100
AcDbSpline
210
0.0
220
0.0
230
1.0
 70
     8
 71
     3
 72
    13
 73
     9
 74
     0
 42
0.000000001
 43
0.00000001
 40
0.0
 40
0.0
 40
0.0
 40
0.0
 40
0.0290808782031646
 40
0.3073267123765157
 40
0.4998323521859033
 40
0.5625086128157999
 40
0.8159099710727051
 40
1.0
 40
1.0
 40
1.0
 40
1.0
 10
826.9310006274719
 20
622.8178021936626
 30
0.0
 10
826.9875902580955
 20
622.9056457578233
 30
0.0
 10
827.5856294580328
 20
623.8339765182748
 30
0.0
 10
828.2654081921437
 20
625.5451344430516
 30
0.0
 10
828.4396472943206
 20
627.4676759403096
 30
0.0
 10
828.3893323314824
 20
629.2932259699137
 30
0.0
 10
828.0430225029845
 20
631.1020155381262
 30
0.0
 10
827.2603414570408
 20
632.4724711416727
 30
0.0
 10
826.9310006274624
 20
633.0491389780939
 30
0.0
  0
LINE
  5
FE
330
1F
100
AcDbEntity
  8
0
  6
Continuous
 62
     7
370
    25
100
AcDbLine
 10
826.9310006275
 20
622.7734620491
 30
0.0
 11
826.9310006275
 21
622.8178021937
 31
0.0
  0
LINE
  5
FF
330
1F
100
AcDbEntity
  8
0
  6
Continuous
 62
     7
370
    25
100
AcDbLine
 10
826.9310006275
 20
633.0491389781
 30
0.0
 11
826.9310006275
 21
633.0934791226
 31
0.0
  0
LINE
  5
100
330
1F
100
AcDbEntity
  8
0
  6
Continuous
 62
     7
370
    25
100
AcDbLine
 10
826.3796833283
 20
647.0317300692
 30
0.0
 11
826.3796833283
 21
658.8352111025
 31
0.0
  0
SPLINE
  5
101
330
1F
100
AcDbEntity
  8
0
  6
Continuous
 62
     7
370
    25
100
AcDbSpline
210
0.0
220
0.0
230
1.0
 70
     8
 71
     3
 72
    13
 73
     9
 74
     0
 42
0.000000001
 43
0.00000001
 40
0.0
 40
0.0
 40
0.0
 40
0.0
 40
0.0290808782031646
 40
0.3073267123765157
 40
0.4998323521859033
 40
0.5625086128157999
 40
0.8159099710727051
 40
1.0
 40
1.0
 40
1.0
 40
1.0
 10
826.9310006274719
 20
647.8178021936617
 30
0.0
 10
826.9875902580955
 20
647.9056457578225
 30
0.0
 10
827.5856294580328
 20
648.8339765182741
 30
0.0
 10
828.2654081921437
 20
650.5451344430506
 30
0.0
 10
828.4396472943206
 20
652.4676759403087
 30
0.0
 10
828.3893323314824
 20
654.2932259699128
 30
0.0
 10
828.0430225029845
 20
656.1020155381254
 30
0.0
 10
827.2603414570408
 20
657.4724711416717
 30
0.0
 10
826.9310006274624
 20
658.0491389780931
 30
0.0
  0
LINE
  5
102
330
1F
100
AcDbEntity
  8
0
  6
Continuous
 62
     7
370
    25
100
AcDbLine
 10
826.9310006275
 20
647.7734620491
 30
0.0
 11
826.9310006275
 21
647.8178021937
 31
0.0
  0
LINE
  5
103
330
1F
100
AcDbEntity
  8
0
  6
Continuous
 62
     7
370
    25
100
AcDbLine
 10
826.9310006275
 20
658.0491389781
 30
0.0
 11
826.9310006275
 21
658.0934791226
 31
0.0
  0
LINE
  5
104
330
1F
100
AcDbEntity
  8
0
  6
Continuous
 62
     7
370
    25
100
AcDbLine
 10
826.3796833283
 20
646.9917300692
 30
0.0
 11
826.3796833283
 21
647.0317300692
 31
0.0
  0
LINE
  5
105
330
1F
100
AcDbEntity
  8
0
  6
Continuous
 62
     7
370
    25
100
AcDbLine
 10
826.3796833283
 20
621.9917300692
 30
0.0
 11
826.3796833283
 21
622.0317300692
 31
0.0
  0
LINE
  5
106
330
1F
100
AcDbEntity
  8
0
  6
Continuous
 62
     7
370
    25
100
AcDbLine
 10
826.3796833283
 20
246.9917300692
 30
0.0
 11
826.3796833283
 21
247.0317300692
 31
0.0
  0
LINE
  5
107
330
1F
100
AcDbEntity
  8
0
  6
Continuous
 62
     7
370
    25
100
AcDbLine
 10
826.9310006275
 20
247.7334620491
 30
0.0
 11
826.9310006275
 21
247.7778021937
 31
0.0
  0
LINE
  5
108
330
1F
100
AcDbEntity
  8
0
  6
Continuous
 62
     7
370
    25
100
AcDbLine
 10
826.3796833283
 20
247.0317300692
 30
0.0
 11
826.3796833283
 21
258.8352111025
 31
0.0
  0
SPLINE
  5
109
330
1F
100
AcDbEntity
  8
0
  6
Continuous
 62
     7
370
    25
100
AcDbSpline
210
0.0
220
0.0
230
1.0
 70
     8
 71
     3
 72
    13
 73
     9
 74
     0
 42
0.000000001
 43
0.00000001
 40
0.0
 40
0.0
 40
0.0
 40
0.0
 40
0.0290808782031646
 40
0.3073267123765155
 40
0.4998323521859031
 40
0.5625086128157998
 40
0.815909971072705
 40
1.0
 40
1.0
 40
1.0
 40
1.0
 10
826.9310006274726
 20
247.8178021936614
 30
0.0
 10
826.9875902580961
 20
247.9056457578221
 30
0.0
 10
827.5856294580334
 20
248.8339765182738
 30
0.0
 10
828.2654081921444
 20
250.5451344430503
 30
0.0
 10
828.4396472943213
 20
252.4676759403083
 30
0.0
 10
828.3893323314833
 20
254.2932259699127
 30
0.0
 10
828.0430225029849
 20
256.1020155381249
 30
0.0
 10
827.2603414570414
 20
257.4724711416714
 30
0.0
 10
826.931000627463
 20
258.0491389780927
 30
0.0
  0
LINE
  5
10A
330
1F
100
AcDbEntity
  8
0
  6
Continuous
 62
     7
370
    25
100
AcDbLine
 10
826.9310006275
 20
247.7734620491
 30
0.0
 11
826.9310006275
 21
247.8178021937
 31
0.0
  0
LINE
  5
10B
330
1F
100
AcDbEntity
  8
0
  6
Continuous
 62
     7
370
    25
100
AcDbLine
 10
826.9310006275
 20
258.0491389781
 30
0.0
 11
826.9310006275
 21
258.0934791226
 31
0.0
  0
LINE
  5
10C
330
1F
100
AcDbEntity
  8
0
  6
Continuous
 62
     7
370
    25
100
AcDbLine
 10
826.3796833283
 20
221.9917300692
 30
0.0
 11
826.3796833283
 21
222.0317300692
 31
0.0
  0
LINE
  5
10D
330
1F
100
AcDbEntity
  8
0
  6
Continuous
 62
     7
370
    25
100
AcDbLine
 10
826.9310006275
 20
222.7334620491
 30
0.0
 11
826.9310006275
 21
222.7778021937
 31
0.0
  0
LINE
  5
10E
330
1F
100
AcDbEntity
  8
0
  6
Continuous
 62
     7
370
    25
100
AcDbLine
 10
865.1902721126
 20
870.3157979512
 30
0.0
 11
875.8878588872
 21
875.3041645879
 31
0.0
  0
SPLINE
  5
10F
330
1F
100
AcDbEntity
  8
0
  6
Continuous
 62
     7
370
    25
100
AcDbSpline
210
0.0
220
0.0
230
1.0
 70
     8
 71
     3
 72
    11
 73
     7
 74
     0
 42
0.000000001
 43
0.00000001
 40
0.0
 40
0.0
 40
0.0
 40
0.0
 40
0.0528241518587891
 40
0.5582456214500231
 40
0.9079237528985076
 40
1.0
 40
1.0
 40
1.0
 40
1.0
 10
874.7608432632838
 20
874.1703172374074
 30
0.0
 10
874.7228792591609
 20
874.0901626993615
 30
0.0
 10
874.3216756746526
 20
873.2430895646489
 30
0.0
 10
873.4009733979499
 20
872.0699773801985
 30
0.0
 10
872.1554963371127
 20
871.2849543028422
 30
0.0
 10
871.526012423219
 20
871.0283270585983
 30
0.0
 10
871.3948071217745
 20
870.9748374392506
 30
0.0
  0
LINE
  5
110
330
1F
100
AcDbEntity
  8
0
  6
Continuous
 62
     7
370
    25
100
AcDbLine
 10
873.9911143408
 20
873.8113867461
 30
0.0
 11
874.7608432633
 21
874.1703172374
 31
0.0
  0
SPLINE
  5
111
330
1F
100
AcDbEntity
  8
0
  6
Continuous
 62
     7
370
    25
100
AcDbSpline
210
0.0
220
0.0
230
1.0
 70
     8
 71
     3
 72
    11
 73
     7
 74
     0
 42
0.000000001
 43
0.00000001
 40
0.0
 40
0.0
 40
0.0
 40
0.0
 40
0.1335140869835081
 40
0.2420938744885051
 40
0.6810840975250076
 40
1.0
 40
1.0
 40
1.0
 40
1.0
 10
870.398919906651
 20
870.5850754210243
 30
0.0
 10
870.6084527739208
 20
870.6420091834866
 30
0.0
 10
870.9883873921777
 20
870.7452440964095
 30
0.0
 10
871.9561043281952
 20
871.2692899365449
 30
0.0
 10
873.0907118884304
 20
872.1604894217857
 30
0.0
 10
873.7244475627824
 20
873.322450416454
 30
0.0
 10
873.9911143407825
 20
873.8113867461417
 30
0.0
  0
LINE
  5
112
330
1F
100
AcDbEntity
  8
0
  6
Continuous
 62
     7
370
    25
100
AcDbLine
 10
826.3796833283
 20
222.0317300692
 30
0.0
 11
826.3796833283
 21
233.8352111025
 31
0.0
  0
SPLINE
  5
113
330
1F
100
AcDbEntity
  8
0
  6
Continuous
 62
     7
370
    25
100
AcDbSpline
210
0.0
220
0.0
230
1.0
 70
     8
 71
     3
 72
    13
 73
     9
 74
     0
 42
0.000000001
 43
0.00000001
 40
0.0
 40
0.0
 40
0.0
 40
0.0
 40
0.0290808782031646
 40
0.3073267123765155
 40
0.4998323521859031
 40
0.5625086128157997
 40
0.8159099710727048
 40
1.0
 40
1.0
 40
1.0
 40
1.0
 10
826.9310006274725
 20
222.8178021936624
 30
0.0
 10
826.9875902580959
 20
222.9056457578231
 30
0.0
 10
827.5856294580335
 20
223.8339765182748
 30
0.0
 10
828.2654081921442
 20
225.5451344430513
 30
0.0
 10
828.4396472943212
 20
227.4676759403092
 30
0.0
 10
828.389332331483
 20
229.2932259699136
 30
0.0
 10
828.0430225029849
 20
231.1020155381259
 30
0.0
 10
827.2603414570412
 20
232.4724711416724
 30
0.0
 10
826.9310006274629
 20
233.0491389780937
 30
0.0
  0
LINE
  5
114
330
1F
100
AcDbEntity
  8
0
  6
Continuous
 62
     7
370
    25
100
AcDbLine
 10
826.9310006275
 20
222.7734620491
 30
0.0
 11
826.9310006275
 21
222.8178021937
 31
0.0
  0
LINE
  5
115
330
1F
100
AcDbEntity
  8
0
  6
Continuous
 62
     7
370
    25
100
AcDbLine
 10
826.9310006275
 20
233.0491389781
 30
0.0
 11
826.9310006275
 21
233.0934791226
 31
0.0
  0
LINE
  5
116
330
1F
100
AcDbEntity
  8
0
  6
Continuous
 62
     7
370
    25
100
AcDbLine
 10
850.572333554
 20
687.444787885
 30
0.0
 11
851.5333192483
 21
687.444787885
 31
0.0
  0
LINE
  5
117
330
1F
100
AcDbEntity
  8
0
  6
Continuous
 62
     7
370
    25
100
AcDbLine
 10
839.7298382151
 20
687.444787885
 30
0.0
 11
850.572333554
 21
687.444787885
 31
0.0
  0
SPLINE
  5
118
330
1F
100
AcDbEntity
  8
0
  6
Continuous
 62
     7
370
    25
100
AcDbSpline
210
0.0
220
0.0
230
1.0
 70
     8
 71
     3
 72
    11
 73
     7
 74
     0
 42
0.000000001
 43
0.00000001
 40
0.0
 40
0.0
 40
0.0
 40
0.0
 40
0.1596619834015594
 40
0.264965164796271
 40
0.690708004685236
 40
1.0
 40
1.0
 40
1.0
 40
1.0
 10
844.4089515105288
 20
685.5069907866622
 30
0.0
 10
844.693063825965
 20
685.4604147429343
 30
0.0
 10
845.1645590740914
 20
685.383120017922
 30
0.0
 10
846.4015658154032
 20
685.4469520361541
 30
0.0
 10
847.9147885107262
 20
685.7784445316763
 30
0.0
 10
849.0622400167447
 20
686.563240026776
 30
0.0
 10
849.545070964104
 20
686.8934705858842
 30
0.0
  0
SPLINE
  5
119
330
1F
100
AcDbEntity
  8
0
  6
Continuous
 62
     7
370
    25
100
AcDbSpline
210
0.0
220
0.0
230
1.0
 70
     8
 71
     3
 72
    11
 73
     7
 74
     0
 42
0.000000001
 43
0.00000001
 40
0.0
 40
0.0
 40
0.0
 40
0.0
 40
0.0537786915246286
 40
0.568333196360505
 40
0.9243300595822582
 40
1.0
 40
1.0
 40
1.0
 40
1.0
 10
850.2834455512071
 20
686.8934705858746
 30
0.0
 10
850.2099058028452
 20
686.8368673561678
 30
0.0
 10
849.4327377635872
 20
686.2386844411195
 30
0.0
 10
848.0001197303175
 20
685.5660823514673
 30
0.0
 10
846.4565044757288
 20
685.3806283733456
 30
0.0
 10
845.754617487765
 20
685.4114918045386
 30
0.0
 10
845.6315787316888
 20
685.4169020746353
 30
0.0
  0
LINE
  5
11A
330
1F
100
AcDbEntity
  8
0
  6
Continuous
 62
     7
370
    25
100
AcDbLine
 10
849.5450709641
 20
686.8934705859
 30
0.0
 11
850.2834455512
 21
686.8934705859
 31
0.0
  0
LINE
  5
11B
330
1F
100
AcDbEntity
  8
0
  6
Continuous
 62
     7
370
    25
100
AcDbLine
 10
485.8488580477
 20
913.9334705859
 30
0.0
 11
484.5682332002
 21
913.9334705859
 31
0.0
  0
LINE
  5
11C
330
1F
100
AcDbEntity
  8
0
  6
Continuous
 62
     7
370
    25
100
AcDbLine
 10
85.1735835744
 20
989.4802403183
 30
0.0
 11
88.1085456239
 21
955.9334705859
 31
0.0
  0
LINE
  5
11D
330
1F
100
AcDbEntity
  8
0
  6
Continuous
 62
     7
370
    25
100
AcDbLine
 10
22.1085456239
 20
955.9334705859
 30
0.0
 11
26.2770062745
 21
1003.5791938443
 31
0.0
  0
ARC
  5
11E
330
1F
100
AcDbEntity
  8
0
  6
Continuous
 62
     7
370
    25
100
AcDbCircle
 10
83.1811941782
 20
989.3059288328
 30
0.0
 40
1.999999999999964
100
AcDbArc
 50
5.0
 51
75.6
  0
LINE
  5
11F
330
1F
100
AcDbEntity
  8
0
  6
Continuous
 62
     7
370
    25
100
AcDbLine
 10
28.766775445
 20
1005.3420486811
 30
0.0
 11
83.6785739526
 21
991.2430951551
 31
0.0
  0
ARC
  5
120
330
1F
100
AcDbEntity
  8
0
  6
Continuous
 62
     7
370
    25
100
AcDbCircle
 10
28.2693956707
 20
1003.4048823588
 30
0.0
 40
2.000000000000178
100
AcDbArc
 50
75.6
 51
175.0
  0
LINE
  5
121
330
1F
100
AcDbEntity
  8
0
  6
Continuous
 62
     7
370
    25
100
AcDbLine
 10
483.1085456239
 20
915.9334705859
 30
0.0
 11
487.3085456239
 21
915.9334705859
 31
0.0
  0
LINE
  5
122
330
1F
100
AcDbEntity
  8
0
  6
Continuous
 62
     7
370
    25
100
AcDbLine
 10
896.2264202133
 20
884.0620508248
 30
0.0
 11
878.6440491448
 21
875.863256547
 31
0.0
  0
LINE
  5
123
330
1F
100
AcDbEntity
  8
0
  6
Continuous
 62
     7
370
    25
100
AcDbLine
 10
895.3811836898
 20
885.8746663988
 30
0.0
 11
877.7988126213
 21
877.6758721211
 31
0.0
  0
ARC
  5
124
330
1F
100
AcDbEntity
  8
0
  6
Continuous
 62
     7
370
    25
100
AcDbCircle
 10
891.1550010724
 20
894.9377442692
 30
0.0
 40
10.00000000000003
100
AcDbArc
 50
295.0
 51
335.0
  0
ARC
  5
125
330
1F
100
AcDbEntity
  8
0
  6
Continuous
 62
     7
370
    25
100
AcDbCircle
 10
891.1550010724
 20
894.9377442692
 30
0.0
 40
12.00000000000011
100
AcDbArc
 50
295.0
 51
335.0
  0
LINE
  5
126
330
1F
100
AcDbEntity
  8
0
  6
Continuous
 62
     7
370
    25
100
AcDbLine
 10
92.6085456239
 20
951.6834705859
 30
0.0
 11
92.6085456239
 21
940.1834705859
 31
0.0
  0
LINE
  5
127
330
1F
100
AcDbEntity
  8
0
  6
Continuous
 62
     7
370
    25
100
AcDbLine
 10
90.6085456239
 20
951.6834705859
 30
0.0
 11
90.6085456239
 21
940.1834705859
 31
0.0
  0
LINE
  5
128
330
1F
100
AcDbEntity
  8
0
  6
Continuous
 62
     7
370
    25
100
AcDbLine
 10
32.6085456239
 20
937.9334705859
 30
0.0
 11
32.6085456239
 21
935.9334705859
 31
0.0
  0
LINE
  5
129
330
1F
100
AcDbEntity
  8
0
  6
Continuous
 62
     7
370
    25
100
AcDbLine
 10
32.6085456239
 20
935.9334705859
 30
0.0
 11
30.6085456239
 21
935.9334705859
 31
0.0
  0
LINE
  5
12A
330
1F
100
AcDbEntity
  8
0
  6
Continuous
 62
     7
370
    25
100
AcDbLine
 10
30.6085456239
 20
937.9334705859
 30
0.0
 11
32.6085456239
 21
937.9334705859
 31
0.0
  0
LINE
  5
12B
330
1F
100
AcDbEntity
  8
0
  6
Continuous
 62
     7
370
    25
100
AcDbLine
 10
876.8314335707
 20
875.0180200235
 30
0.0
 11
875.9861970472
 21
876.8306355976
 31
0.0
  0
LINE
  5
12C
330
1F
100
AcDbEntity
  8
0
  6
Continuous
 62
     7
370
    25
100
AcDbLine
 10
878.6440491448
 20
875.863256547
 30
0.0
 11
876.8314335707
 21
875.0180200235
 31
0.0
  0
LINE
  5
12D
330
1F
100
AcDbEntity
  8
0
  6
Continuous
 62
     7
370
    25
100
AcDbLine
 10
875.9861970472
 20
876.8306355976
 30
0.0
 11
877.7988126213
 21
877.6758721211
 31
0.0
  0
ARC
  5
12E
330
1F
100
AcDbEntity
  8
0
  6
Continuous
 62
     7
370
    25
100
AcDbCircle
 10
21.8585456239
 20
940.1834705859
 30
0.0
 40
4.25
100
AcDbArc
 50
180.0
 51
270.0
  0
ARC
  5
12F
330
1F
100
AcDbEntity
  8
0
  6
Continuous
 62
     7
370
    25
100
AcDbCircle
 10
21.8585456239
 20
940.1834705859
 30
0.0
 40
2.25
100
AcDbArc
 50
180.0
 51
270.0
  0
LINE
  5
130
330
1F
100
AcDbEntity
  8
0
  6
Continuous
 62
     7
370
    25
100
AcDbLine
 10
17.6085456239
 20
940.1834705859
 30
0.0
 11
17.6085456239
 21
951.6834705859
 31
0.0
  0
LINE
  5
131
330
1F
100
AcDbEntity
  8
0
  6
Continuous
 62
     7
370
    25
100
AcDbLine
 10
19.6085456239
 20
940.1834705859
 30
0.0
 11
19.6085456239
 21
951.6834705859
 31
0.0
  0
LINE
  5
132
330
1F
100
AcDbEntity
  8
0
  6
Continuous
 62
     7
370
    25
100
AcDbLine
 10
21.8585456239
 20
955.9334705859
 30
0.0
 11
88.3585456239
 21
955.9334705859
 31
0.0
  0
LINE
  5
133
330
1F
100
AcDbEntity
  8
0
  6
Continuous
 62
     7
370
    25
100
AcDbLine
 10
21.8585456239
 20
953.9334705859
 30
0.0
 11
88.3585456239
 21
953.9334705859
 31
0.0
  0
ARC
  5
134
330
1F
100
AcDbEntity
  8
0
  6
Continuous
 62
     7
370
    25
100
AcDbCircle
 10
88.3585456239
 20
951.6834705859
 30
0.0
 40
4.25
100
AcDbArc
 50
0.0
 51
90.0
  0
ARC
  5
135
330
1F
100
AcDbEntity
  8
0
  6
Continuous
 62
     7
370
    25
100
AcDbCircle
 10
88.3585456239
 20
951.6834705859
 30
0.0
 40
2.25
100
AcDbArc
 50
0.0
 51
90.0
  0
ARC
  5
136
330
1F
100
AcDbEntity
  8
0
  6
Continuous
 62
     7
370
    25
100
AcDbCircle
 10
21.8585456239
 20
951.6834705859
 30
0.0
 40
4.25
100
AcDbArc
 50
90.0
 51
180.0
  0
ARC
  5
137
330
1F
100
AcDbEntity
  8
0
  6
Continuous
 62
     7
370
    25
100
AcDbCircle
 10
21.8585456239
 20
951.6834705859
 30
0.0
 40
2.25
100
AcDbArc
 50
90.0
 51
180.0
  0
LINE
  5
138
330
1F
100
AcDbEntity
  8
0
  6
Continuous
 62
     7
370
    25
100
AcDbLine
 10
30.6085456239
 20
935.9334705859
 30
0.0
 11
21.8585456239
 21
935.9334705859
 31
0.0
  0
LINE
  5
139
330
1F
100
AcDbEntity
  8
0
  6
Continuous
 62
     7
370
    25
100
AcDbLine
 10
30.6085456239
 20
937.9334705859
 30
0.0
 11
21.8585456239
 21
937.9334705859
 31
0.0
  0
LINE
  5
13A
330
1F
100
AcDbEntity
  8
0
  6
Continuous
 62
     7
370
    25
100
AcDbLine
 10
914.6716234943
 20
921.7072879685
 30
0.0
 11
900.2180789428
 21
890.7115616518
 31
0.0
  0
LINE
  5
13B
330
1F
100
AcDbEntity
  8
0
  6
Continuous
 62
     7
370
    25
100
AcDbLine
 10
916.4842390684
 20
920.862051445
 30
0.0
 11
902.0306945168
 21
889.8663251283
 31
0.0
  0
ARC
  5
13C
330
1F
100
AcDbEntity
  8
0
  6
Continuous
 62
     7
370
    25
100
AcDbCircle
 10
94.8585456239
 20
940.1834705859
 30
0.0
 40
2.25
100
AcDbArc
 50
180.0
 51
270.0
  0
ARC
  5
13D
330
1F
100
AcDbEntity
  8
0
  6
Continuous
 62
     7
370
    25
100
AcDbCircle
 10
94.8585456239
 20
940.1834705859
 30
0.0
 40
4.25
100
AcDbArc
 50
180.0
 51
270.0
  0
ARC
  5
13E
330
1F
100
AcDbEntity
  8
0
  6
Continuous
 62
     7
370
    25
100
AcDbCircle
 10
905.6085456239
 20
925.9334705859
 30
0.0
 40
12.0
100
AcDbArc
 50
335.0
 51
90.0
  0
ARC
  5
13F
330
1F
100
AcDbEntity
  8
0
  6
Continuous
 62
     7
370
    25
100
AcDbCircle
 10
905.6085456239
 20
925.9334705859
 30
0.0
 40
10.0
100
AcDbArc
 50
335.0
 51
90.0
  0
LINE
  5
140
330
1F
100
AcDbEntity
  8
0
  6
Continuous
 62
     7
370
    25
100
AcDbLine
 10
94.8585456239
 20
937.9334705859
 30
0.0
 11
905.6085456239
 21
937.9334705859
 31
0.0
  0
LINE
  5
141
330
1F
100
AcDbEntity
  8
0
  6
Continuous
 62
     7
370
    25
100
AcDbLine
 10
94.8585456239
 20
935.9334705859
 30
0.0
 11
905.6085456239
 21
935.9334705859
 31
0.0
  0
LINE
  5
142
330
1F
100
AcDbEntity
  8
0
  6
Continuous
 62
     7
370
    25
100
AcDbLine
 10
861.5501828292
 20
866.4725702269
 30
0.0
 11
916.4905568555
 21
748.6525579121
 31
0.0
  0
LINE
  5
143
330
1F
100
AcDbEntity
  8
0
  6
Continuous
 62
     7
370
    25
100
AcDbLine
 10
916.4905568555
 20
748.6525579121
 30
0.0
 11
916.1506914353
 21
748.4940760639
 31
0.0
  0
LINE
  5
144
330
1F
100
AcDbEntity
  8
0
  6
Continuous
 62
     7
370
    25
100
AcDbLine
 10
861.5501828292
 20
866.4725702269
 30
0.0
 11
861.210317409
 21
866.3140883787
 31
0.0
  0
LINE
  5
145
330
1F
100
AcDbEntity
  8
0
  6
Continuous
 62
     7
370
    25
100
AcDbLine
 10
886.3833808903
 20
813.2199713279
 30
0.0
 11
886.3824745825
 21
813.2195487097
 31
0.0
  0
LINE
  5
146
330
1F
100
AcDbEntity
  8
0
  6
Continuous
 62
     7
370
    25
100
AcDbLine
 10
886.3833808903
 20
813.2199713279
 30
0.0
 11
886.7657075005
 21
812.4000692665
 31
0.0
  0
LINE
  5
147
330
1F
100
AcDbEntity
  8
0
  6
Continuous
 62
     7
370
    25
100
AcDbLine
 10
885.3217453575
 20
815.4966560751
 30
0.0
 11
885.3208390497
 21
815.4962334568
 31
0.0
  0
LINE
  5
148
330
1F
100
AcDbEntity
  8
0
  6
Continuous
 62
     7
370
    25
100
AcDbLine
 10
885.3217453575
 20
815.4966560751
 30
0.0
 11
886.3833808903
 21
813.2199713279
 31
0.0
  0
LINE
  5
149
330
1F
100
AcDbEntity
  8
0
  6
Continuous
 62
     7
370
    25
100
AcDbLine
 10
886.7683521896
 20
812.3943977123
 30
0.0
 11
886.7674458819
 21
812.3939750941
 31
0.0
  0
LINE
  5
14A
330
1F
100
AcDbEntity
  8
0
  6
Continuous
 62
     7
370
    25
100
AcDbLine
 10
890.3606074144
 20
804.6907815225
 30
0.0
 11
890.3597011067
 21
804.6903589043
 31
0.0
  0
LINE
  5
14B
330
1F
100
AcDbEntity
  8
0
  6
Continuous
 62
     7
370
    25
100
AcDbLine
 10
886.7683521896
 20
812.3943977123
 30
0.0
 11
890.3606074144
 21
804.6907815225
 31
0.0
  0
LINE
  5
14C
330
1F
100
AcDbEntity
  8
0
  6
Continuous
 62
     7
370
    25
100
AcDbLine
 10
904.9751155308
 20
773.3498677271
 30
0.0
 11
906.1373157506
 21
770.8575213128
 31
0.0
  0
LINE
  5
14D
330
1F
100
AcDbEntity
  8
0
  6
Continuous
 62
     7
370
    25
100
AcDbLine
 10
909.7295709754
 20
763.1539051229
 30
0.0
 11
909.7286646676
 21
763.1534825047
 31
0.0
  0
LINE
  5
14E
330
1F
100
AcDbEntity
  8
0
  6
Continuous
 62
     7
370
    25
100
AcDbLine
 10
906.1373157506
 20
770.8575213128
 30
0.0
 11
909.7295709754
 21
763.1539051229
 31
0.0
  0
LINE
  5
14F
330
1F
100
AcDbEntity
  8
0
  6
Continuous
 62
     7
370
    25
100
AcDbLine
 10
906.1373157506
 20
770.8575213128
 30
0.0
 11
906.1364094428
 21
770.8570986945
 31
0.0
  0
LINE
  5
150
330
1F
100
AcDbEntity
  8
0
  6
Continuous
 62
     7
370
    25
100
AcDbLine
 10
886.2350166448
 20
687.8184705859
 30
0.0
 11
886.2350166448
 21
687.8934705859
 31
0.0
  0
LINE
  5
151
330
1F
100
AcDbEntity
  8
0
  6
Continuous
 62
     7
370
    25
100
AcDbLine
 10
826.2350166448
 20
687.8184705859
 30
0.0
 11
839.703043021
 21
687.8184705859
 31
0.0
  0
LINE
  5
152
330
1F
100
AcDbEntity
  8
0
  6
Continuous
 62
     7
370
    25
100
AcDbLine
 10
851.5601144424
 20
687.8184705859
 30
0.0
 11
886.2350166448
 21
687.8184705859
 31
0.0
  0
LINE
  5
153
330
1F
100
AcDbEntity
  8
0
  6
Continuous
 62
     7
370
    25
100
AcDbLine
 10
826.2350166448
 20
687.8184705859
 30
0.0
 11
826.2350166448
 21
687.8934705859
 31
0.0
  0
LINE
  5
154
330
1F
100
AcDbEntity
  8
0
  6
Continuous
 62
     7
370
    25
100
AcDbLine
 10
909.6660602251
 20
781.3300252366
 30
0.0
 11
882.1958732119
 21
840.2400313939
 31
0.0
  0
LINE
  5
155
330
1F
100
AcDbEntity
  8
0
  6
Continuous
 62
     7
370
    25
100
AcDbLine
 10
894.9780854739
 20
836.4905045702
 30
0.0
 11
892.9494241292
 21
840.8409828632
 31
0.0
  0
LINE
  5
156
330
1F
100
AcDbEntity
  8
0
  6
Continuous
 62
     7
370
    25
100
AcDbLine
 10
917.0386650485
 20
789.1814390021
 30
0.0
 11
915.0100037038
 21
793.5319172951
 31
0.0
  0
SPLINE
  5
157
330
1F
100
AcDbEntity
  8
0
  6
Continuous
 62
     7
370
    25
100
AcDbSpline
210
0.0
220
0.0
230
1.0
 70
     8
 71
     3
 72
    11
 73
     7
 74
     0
 42
0.000000001
 43
0.00000001
 40
0.0
 40
0.0
 40
0.0
 40
0.0
 40
0.3317904084731305
 40
0.6632024950125066
 40
0.9943878970369664
 40
1.0
 40
1.0
 40
1.0
 40
1.0
 10
896.6779469388414
 20
820.8402298551069
 30
0.0
 10
896.6504552071261
 20
820.9107559756436
 30
0.0
 10
896.5955030909703
 20
821.0517277997496
 30
0.0
 10
896.5913296057407
 20
821.2685395002715
 30
0.0
 10
896.6201710675695
 20
821.4137321014582
 30
0.0
 10
896.6616874874888
 20
821.4713202603206
 30
0.0
 10
896.6623792812811
 20
821.4722798597004
 30
0.0
  0
SPLINE
  5
158
330
1F
100
AcDbEntity
  8
0
  6
Continuous
 62
     7
370
    25
100
AcDbSpline
210
0.0
220
0.0
230
1.0
 70
     8
 71
     3
 72
    12
 73
     8
 74
     0
 42
0.000000001
 43
0.00000001
 40
0.0
 40
0.0
 40
0.0
 40
0.0
 40
0.1252184458021067
 40
0.2503750359562192
 40
0.5001604898440398
 40
0.7499713793521114
 40
1.0
 40
1.0
 40
1.0
 40
1.0
 10
897.271446552937
 20
820.3342753218021
 30
0.0
 10
897.2390948800968
 20
820.3441544737151
 30
0.0
 10
897.1744075155574
 20
820.3639078974182
 30
0.0
 10
897.0504463367879
 20
820.4201854505627
 30
0.0
 10
896.9069737265132
 20
820.5143546578636
 30
0.0
 10
896.7686402879563
 20
820.6653757905857
 30
0.0
 10
896.708186833097
 20
820.7819282434357
 30
0.0
 10
896.6779469388414
 20
820.8402298551069
 30
0.0
  0
SPLINE
  5
159
330
1F
100
AcDbEntity
  8
0
  6
Continuous
 62
     7
370
    25
100
AcDbSpline
210
0.0
220
0.0
230
1.0
 70
     8
 71
     3
 72
     9
 73
     5
 74
     0
 42
0.000000001
 43
0.00000001
 40
0.0
 40
0.0
 40
0.0
 40
0.0
 40
0.5015873634573801
 40
1.0
 40
1.0
 40
1.0
 40
1.0
 10
898.297971317888
 20
820.4382081134258
 30
0.0
 10
898.1335858343609
 20
820.3867494819553
 30
0.0
 10
897.8058553221848
 20
820.2841579192099
 30
0.0
 10
897.4492053873038
 20
820.3176049159648
 30
0.0
 10
897.271446552937
 20
820.334275321802
 30
0.0
  0
SPLINE
  5
15A
330
1F
100
AcDbEntity
  8
0
  6
Continuous
 62
     7
370
    25
100
AcDbSpline
210
0.0
220
0.0
230
1.0
 70
     8
 71
     3
 72
    10
 73
     6
 74
     0
 42
0.000000001
 43
0.00000001
 40
0.0
 40
0.0
 40
0.0
 40
0.0
 40
0.2065375096033982
 40
0.602405675118313
 40
1.0
 40
1.0
 40
1.0
 40
1.0
 10
899.1715793692165
 20
821.0273963450481
 30
0.0
 10
899.1335189456832
 20
820.9649068147987
 30
0.0
 10
899.0225085283607
 20
820.7826442914925
 30
0.0
 10
898.7096056158005
 20
820.5825926774316
 30
0.0
 10
898.4353816065301
 20
820.4864060520235
 30
0.0
 10
898.297971317888
 20
820.4382081134258
 30
0.0
  0
SPLINE
  5
15B
330
1F
100
AcDbEntity
  8
0
  6
Continuous
 62
     7
370
    25
100
AcDbSpline
210
0.0
220
0.0
230
1.0
 70
     8
 71
     3
 72
    11
 73
     7
 74
     0
 42
0.000000001
 43
0.00000001
 40
0.0
 40
0.0
 40
0.0
 40
0.0
 40
0.250210328538208
 40
0.5001167610101394
 40
0.741500481267174
 40
1.0
 40
1.0
 40
1.0
 40
1.0
 10
897.5016497229816
 20
819.1214928015221
 30
0.0
 10
897.4739295360173
 20
819.1925749826582
 30
0.0
 10
897.4185228299865
 20
819.3346530111831
 30
0.0
 10
897.4076574064555
 20
819.5553169150517
 30
0.0
 10
897.4632169520409
 20
819.7660740869068
 30
0.0
 10
897.5500840756822
 20
819.8783789042557
 30
0.0
 10
897.5950047849669
 20
819.9364539485293
 30
0.0
  0
SPLINE
  5
15C
330
1F
100
AcDbEntity
  8
0
  6
Continuous
 62
     7
370
    25
100
AcDbSpline
210
0.0
220
0.0
230
1.0
 70
     8
 71
     3
 72
    12
 73
     8
 74
     0
 42
0.000000001
 43
0.00000001
 40
0.0
 40
0.0
 40
0.0
 40
0.0
 40
0.1252258433356409
 40
0.250382051637112
 40
0.5001869710755995
 40
0.7499829350851339
 40
1.0
 40
1.0
 40
1.0
 40
1.0
 10
898.0918329376477
 20
818.6175680666372
 30
0.0
 10
898.0599008787458
 20
818.6271213730872
 30
0.0
 10
897.9960545175802
 20
818.6462226736269
 30
0.0
 10
897.8728993882324
 20
818.7001470184728
 30
0.0
 10
897.7315018768039
 20
818.79489493261
 30
0.0
 10
897.592634476491
 20
818.9450148514096
 30
0.0
 10
897.5319869169824
 20
819.0626494722508
 30
0.0
 10
897.5016497229816
 20
819.1214928015221
 30
0.0
  0
SPLINE
  5
15D
330
1F
100
AcDbEntity
  8
0
  6
Continuous
 62
     7
370
    25
100
AcDbSpline
210
0.0
220
0.0
230
1.0
 70
     8
 71
     3
 72
     9
 73
     5
 74
     0
 42
0.000000001
 43
0.00000001
 40
0.0
 40
0.0
 40
0.0
 40
0.0
 40
0.5016062504515143
 40
1.0
 40
1.0
 40
1.0
 40
1.0
 10
899.1016970879282
 20
818.7395742523601
 30
0.0
 10
898.9403654720303
 20
818.6846300938433
 30
0.0
 10
898.6187354768845
 20
818.5750936626936
 30
0.0
 10
898.2670905641934
 20
818.6034402865075
 30
0.0
 10
898.0918329376477
 20
818.6175680666372
 30
0.0
  0
SPLINE
  5
15E
330
1F
100
AcDbEntity
  8
0
  6
Continuous
 62
     7
370
    25
100
AcDbSpline
210
0.0
220
0.0
230
1.0
 70
     8
 71
     3
 72
     9
 73
     5
 74
     0
 42
0.000000001
 43
0.00000001
 40
0.0
 40
0.0
 40
0.0
 40
0.0
 40
0.4989046076335242
 40
1.0
 40
1.0
 40
1.0
 40
1.0
 10
899.8352464878616
 20
819.1670557435868
 30
0.0
 10
899.7281037601011
 20
819.0736504084782
 30
0.0
 10
899.5133478205464
 20
818.8864295777234
 30
0.0
 10
899.2391142610328
 20
818.7885974705102
 30
0.0
 10
899.1016970879282
 20
818.7395742523601
 30
0.0
  0
LINE
  5
15F
330
1F
100
AcDbEntity
  8
0
  6
Continuous
 62
     7
370
    25
100
AcDbLine
 10
898.5327564322
 20
817.0267317831
 30
0.0
 11
898.2272486692
 21
817.6989780932
 31
0.0
  0
LINE
  5
160
330
1F
100
AcDbEntity
  8
0
  6
Continuous
 62
     7
370
    25
100
AcDbLine
 10
899.0586605199
 20
816.9199829597
 30
0.0
 11
898.5327564322
 21
817.0267317831
 31
0.0
  0
LINE
  5
161
330
1F
100
AcDbEntity
  8
0
  6
Continuous
 62
     7
370
    25
100
AcDbLine
 10
900.7200807112
 20
818.1184721624
 30
0.0
 11
898.8396136896
 21
817.4079075807
 31
0.0
  0
SPLINE
  5
162
330
1F
100
AcDbEntity
  8
0
  6
Continuous
 62
     7
370
    25
100
AcDbSpline
210
0.0
220
0.0
230
1.0
 70
     8
 71
     3
 72
    13
 73
     9
 74
     0
 42
0.000000001
 43
0.00000001
 40
0.0
 40
0.0
 40
0.0
 40
0.0
 40
0.1250946590098022
 40
0.2500183081421157
 40
0.3732637540954722
 40
0.4999580819930845
 40
0.7494782435957805
 40
1.0
 40
1.0
 40
1.0
 40
1.0
 10
907.0892019526589
 20
798.479032814896
 30
0.0
 10
907.0639606281284
 20
798.5432325276757
 30
0.0
 10
907.0135124850634
 20
798.6715441894166
 30
0.0
 10
906.9995151633256
 20
798.8963592319142
 30
0.0
 10
907.0468165854604
 20
799.1281096639373
 30
0.0
 10
907.1842608529765
 20
799.417120602126
 30
0.0
 10
907.4432972139898
 20
799.7199122169848
 30
0.0
 10
907.6808252506413
 20
799.9058018181288
 30
0.0
 10
907.79982715587
 20
799.9989327891508
 30
0.0
  0
SPLINE
  5
163
330
1F
100
AcDbEntity
  8
0
  6
Continuous
 62
     7
370
    25
100
AcDbSpline
210
0.0
220
0.0
230
1.0
 70
     8
 71
     3
 72
     9
 73
     5
 74
     0
 42
0.000000001
 43
0.00000001
 40
0.0
 40
0.0
 40
0.0
 40
0.0
 40
0.4996573194711349
 40
1.0
 40
1.0
 40
1.0
 40
1.0
 10
907.2989132975806
 20
798.22416628535
 30
0.0
 10
907.256045878845
 20
798.2576700207687
 30
0.0
 10
907.1702522417556
 20
798.3247234474138
 30
0.0
 10
907.1162310570297
 20
798.4275728627406
 30
0.0
 10
907.0892019526589
 20
798.479032814896
 30
0.0
  0
SPLINE
  5
164
330
1F
100
AcDbEntity
  8
0
  6
Continuous
 62
     7
370
    25
100
AcDbSpline
210
0.0
220
0.0
230
1.0
 70
     8
 71
     3
 72
    11
 73
     7
 74
     0
 42
0.000000001
 43
0.00000001
 40
0.0
 40
0.0
 40
0.0
 40
0.0
 40
0.3365906328104455
 40
0.6718966953831536
 40
0.8487117983889263
 40
1.0
 40
1.0
 40
1.0
 40
1.0
 10
907.79982715587
 20
799.9989327891508
 30
0.0
 10
907.9212740200996
 20
800.0861321573545
 30
0.0
 10
908.1637042566728
 20
800.2601981046046
 30
0.0
 10
908.4993448582964
 20
800.3988988841139
 30
0.0
 10
908.7671889746342
 20
800.4257087940107
 30
0.0
 10
908.8839556413106
 20
800.3821421584283
 30
0.0
 10
908.9377966686974
 20
800.3620536135867
 30
0.0
  0
LINE
  5
165
330
1F
100
AcDbEntity
  8
0
  6
Continuous
 62
     7
370
    25
100
AcDbLine
 10
907.9926729773
 20
796.7412525522
 30
0.0
 11
907.5633059505
 21
797.6563793405
 31
0.0
  0
SPLINE
  5
166
330
1F
100
AcDbEntity
  8
0
  6
Continuous
 62
     7
370
    25
100
AcDbSpline
210
0.0
220
0.0
230
1.0
 70
     8
 71
     3
 72
    10
 73
     6
 74
     0
 42
0.000000001
 43
0.00000001
 40
0.0
 40
0.0
 40
0.0
 40
0.0
 40
0.2500228055565695
 40
0.5002898346981925
 40
1.0
 40
1.0
 40
1.0
 40
1.0
 10
908.894549210278
 20
797.85258373086
 30
0.0
 10
908.9069951513816
 20
797.8313552359809
 30
0.0
 10
908.9318991908493
 20
797.7888775101179
 30
0.0
 10
909.0087857715765
 20
797.7340196074581
 30
0.0
 10
909.0793902577378
 20
797.7219235878416
 30
0.0
 10
909.126434060819
 20
797.7138640041544
 30
0.0
  0
SPLINE
  5
167
330
1F
100
AcDbEntity
  8
0
  6
Continuous
 62
     7
370
    25
100
AcDbSpline
210
0.0
220
0.0
230
1.0
 70
     8
 71
     3
 72
    11
 73
     7
 74
     0
 42
0.000000001
 43
0.00000001
 40
0.0
 40
0.0
 40
0.0
 40
0.0
 40
0.2503854304789939
 40
0.5003835892902564
 40
0.7501929379334331
 40
1.0
 40
1.0
 40
1.0
 40
1.0
 10
909.4783773360992
 20
797.8980213088918
 30
0.0
 10
909.4980472633172
 20
797.9329412176642
 30
0.0
 10
909.5373566942357
 20
798.0027270245134
 30
0.0
 10
909.5671626968085
 20
798.116851898096
 30
0.0
 10
909.5710810759874
 20
798.2294128450831
 30
0.0
 10
909.5483531033939
 20
798.2924508456971
 30
0.0
 10
909.5369891691062
 20
798.323969701752
 30
0.0
  0
LINE
  5
168
330
1F
100
AcDbEntity
  8
0
  6
Continuous
 62
     7
370
    25
100
AcDbLine
 10
909.653657881
 20
797.5118549273
 30
0.0
 11
909.4783773361
 21
797.8980213089
 31
0.0
  0
SPLINE
  5
169
330
1F
100
AcDbEntity
  8
0
  6
Continuous
 62
     7
370
    25
100
AcDbSpline
210
0.0
220
0.0
230
1.0
 70
     8
 71
     3
 72
    10
 73
     6
 74
     0
 42
0.000000001
 43
0.00000001
 40
0.0
 40
0.0
 40
0.0
 40
0.0
 40
0.3620682692842402
 40
0.7238597575248167
 40
1.0
 40
1.0
 40
1.0
 40
1.0
 10
908.8887232583551
 20
798.7254986089793
 30
0.0
 10
908.9819581580239
 20
798.7860002911221
 30
0.0
 10
909.1683566844688
 20
798.9069574052388
 30
0.0
 10
909.4529031792474
 20
798.9354447805883
 30
0.0
 10
909.5963973401691
 20
798.8628046668738
 30
0.0
 10
909.6585113728828
 20
798.8313610849845
 30
0.0
  0
SPLINE
  5
16A
330
1F
100
AcDbEntity
  8
0
  6
Continuous
 62
     7
370
    25
100
AcDbSpline
210
0.0
220
0.0
230
1.0
 70
     8
 71
     3
 72
    13
 73
     9
 74
     0
 42
0.000000001
 43
0.00000001
 40
0.0
 40
0.0
 40
0.0
 40
0.0
 40
0.2493130816150721
 40
0.3731822940571978
 40
0.4997797385837158
 40
0.6260349616047303
 40
0.7502793475927299
 40
1.0
 40
1.0
 40
1.0
 40
1.0
 10
908.5300916067717
 20
797.597967831002
 30
0.0
 10
908.4989468626952
 20
797.6879443541432
 30
0.0
 10
908.4523281013887
 20
797.8226249938415
 30
0.0
 10
908.4656098739218
 20
798.0349837632872
 30
0.0
 10
908.5038475136093
 20
798.1954430126582
 30
0.0
 10
908.5680421468368
 20
798.3513405282529
 30
0.0
 10
908.6854352297336
 20
798.5444701314204
 30
0.0
 10
908.8073277415385
 20
798.6530157058328
 30
0.0
 10
908.8887232583551
 20
798.7254986089793
 30
0.0
  0
LINE
  5
16B
330
1F
100
AcDbEntity
  8
0
  6
Continuous
 62
     7
370
    25
100
AcDbLine
 10
908.6079277673
 20
797.4874361416
 30
0.0
 11
908.5300916068
 21
797.597967831
 31
0.0
  0
LINE
  5
16C
330
1F
100
AcDbEntity
  8
0
  6
Continuous
 62
     7
370
    25
100
AcDbLine
 10
908.2112810127
 20
797.2866134129
 30
0.0
 11
908.6079277673
 21
797.4874361416
 31
0.0
  0
LINE
  5
16D
330
1F
100
AcDbEntity
  8
0
  6
Continuous
 62
     7
370
    25
100
AcDbLine
 10
907.5633059505
 20
797.6563793405
 30
0.0
 11
907.909288461
 21
797.9257720535
 31
0.0
  0
LINE
  5
16E
330
1F
100
AcDbEntity
  8
0
  6
Continuous
 62
     7
370
    25
100
AcDbLine
 10
908.6460074672
 20
795.3245651565
 30
0.0
 11
908.3994192515
 21
795.8544430214
 31
0.0
  0
LINE
  5
16F
330
1F
100
AcDbEntity
  8
0
  6
Continuous
 62
     7
370
    25
100
AcDbLine
 10
908.3994192515
 20
795.8544430214
 30
0.0
 11
910.3554419801
 21
797.4408890908
 31
0.0
  0
SPLINE
  5
170
330
1F
100
AcDbEntity
  8
0
  6
Continuous
 62
     7
370
    25
100
AcDbSpline
210
0.0
220
0.0
230
1.0
 70
     8
 71
     3
 72
     9
 73
     5
 74
     0
 42
0.000000001
 43
0.00000001
 40
0.0
 40
0.0
 40
0.0
 40
0.0
 40
0.9324844981138417
 40
1.0
 40
1.0
 40
1.0
 40
1.0
 10
889.81827789096
 20
835.5615359547462
 30
0.0
 10
889.7981251533125
 20
835.6030911401322
 30
0.0
 10
889.776513279133
 20
835.6476550824498
 30
0.0
 10
889.7887116496973
 20
835.6910954856199
 30
0.0
 10
889.7895352288081
 20
835.6940283862422
 30
0.0
  0
SPLINE
  5
171
330
1F
100
AcDbEntity
  8
0
  6
Continuous
 62
     7
370
    25
100
AcDbSpline
210
0.0
220
0.0
230
1.0
 70
     8
 71
     3
 72
    12
 73
     8
 74
     0
 42
0.000000001
 43
0.00000001
 40
0.0
 40
0.0
 40
0.0
 40
0.0
 40
0.1252224657523147
 40
0.2503785590382463
 40
0.500154687217045
 40
0.7499776771262225
 40
1.0
 40
1.0
 40
1.0
 40
1.0
 10
890.3316947649906
 20
835.2387698550159
 30
0.0
 10
890.3004385595505
 20
835.2463914249164
 30
0.0
 10
890.2379427155971
 20
835.2616305250082
 30
0.0
 10
890.120724077514
 20
835.3005585230828
 30
0.0
 10
889.9919766790553
 20
835.3633532645855
 30
0.0
 10
889.8781782496674
 20
835.457294539196
 30
0.0
 10
889.8382499848507
 20
835.5267795795991
 30
0.0
 10
889.81827789096
 20
835.5615359547462
 30
0.0
  0
SPLINE
  5
172
330
1F
100
AcDbEntity
  8
0
  6
Continuous
 62
     7
370
    25
100
AcDbSpline
210
0.0
220
0.0
230
1.0
 70
     8
 71
     3
 72
     9
 73
     5
 74
     0
 42
0.000000001
 43
0.00000001
 40
0.0
 40
0.0
 40
0.0
 40
0.0
 40
0.5016078361045693
 40
1.0
 40
1.0
 40
1.0
 40
1.0
 10
891.4021295169467
 20
835.2407803460749
 30
0.0
 10
891.2244205084714
 20
835.2201855211622
 30
0.0
 10
890.8701417359239
 20
835.1791278991909
 30
0.0
 10
890.5107919048801
 20
835.2189318685803
 30
0.0
 10
890.3316947649907
 20
835.238769855016
 30
0.0
  0
SPLINE
  5
173
330
1F
100
AcDbEntity
  8
0
  6
Continuous
 62
     7
370
    25
100
AcDbSpline
210
0.0
220
0.0
230
1.0
 70
     8
 71
     3
 72
    12
 73
     8
 74
     0
 42
0.000000001
 43
0.00000001
 40
0.0
 40
0.0
 40
0.0
 40
0.0
 40
0.1427780665840824
 40
0.2847602536314632
 40
0.4284265149143344
 40
0.7136062948432984
 40
0.9999999999999999
 40
0.9999999999999999
 40
0.9999999999999999
 40
0.9999999999999999
 10
892.5223498517812
 20
835.7670493966727
 30
0.0
 10
892.5182308324413
 20
835.7250952204973
 30
0.0
 10
892.5100157541734
 20
835.6414207308895
 30
0.0
 10
892.40642587689
 20
835.525985883372
 30
0.0
 10
892.1976982838203
 20
835.4019567521102
 30
0.0
 10
891.8513085584899
 20
835.3005518312253
 30
0.0
 10
891.5520677097463
 20
835.2607323643919
 30
0.0
 10
891.4021295169467
 20
835.2407803460749
 30
0.0
  0
LINE
  5
174
330
1F
100
AcDbEntity
  8
0
  6
Continuous
 62
     7
370
    25
100
AcDbLine
 10
891.7926270141
 20
834.2082582388
 30
0.0
 11
890.3328949207
 21
834.4268856847
 31
0.0
  0
SPLINE
  5
175
330
1F
100
AcDbEntity
  8
0
  6
Continuous
 62
     7
370
    25
100
AcDbSpline
210
0.0
220
0.0
230
1.0
 70
     8
 71
     3
 72
     9
 73
     5
 74
     0
 42
0.000000001
 43
0.00000001
 40
0.0
 40
0.0
 40
0.0
 40
0.0
 40
0.4985895329910668
 40
1.0
 40
1.0
 40
1.0
 40
1.0
 10
892.4510677185901
 20
834.1680951704079
 30
0.0
 10
892.340624025499
 20
834.1629721715008
 30
0.0
 10
892.1191117678533
 20
834.1526971886378
 30
0.0
 10
891.9016597379417
 20
834.1897030916944
 30
0.0
 10
891.7926270140717
 20
834.2082582388281
 30
0.0
  0
SPLINE
  5
176
330
1F
100
AcDbEntity
  8
0
  6
Continuous
 62
     7
370
    25
100
AcDbSpline
210
0.0
220
0.0
230
1.0
 70
     8
 71
     3
 72
    11
 73
     7
 74
     0
 42
0.000000001
 43
0.00000001
 40
0.0
 40
0.0
 40
0.0
 40
0.0
 40
0.1652370214539398
 40
0.3343176816366517
 40
0.667418868660583
 40
1.0
 40
1.0
 40
1.0
 40
1.0
 10
893.0480001877246
 20
834.5682229767385
 30
0.0
 10
893.0386655746545
 20
834.5371897687455
 30
0.0
 10
893.019779212669
 20
834.4744014779692
 30
0.0
 10
892.9258524394029
 20
834.3606944508517
 30
0.0
 10
892.7548559321855
 20
834.2325947553633
 30
0.0
 10
892.5522777025831
 20
834.1895838314839
 30
0.0
 10
892.4510677185901
 20
834.1680951704078
 30
0.0
  0
LINE
  5
177
330
1F
100
AcDbEntity
  8
0
  6
Continuous
 62
     7
370
    25
100
AcDbLine
 10
891.4131236995
 20
834.5519005672
 30
0.0
 11
891.3960558118
 21
834.6873662587
 31
0.0
  0
SPLINE
  5
178
330
1F
100
AcDbEntity
  8
0
  6
Continuous
 62
     7
370
    25
100
AcDbSpline
210
0.0
220
0.0
230
1.0
 70
     8
 71
     3
 72
    18
 73
    14
 74
     0
 42
0.000000001
 43
0.00000001
 40
0.0
 40
0.0
 40
0.0
 40
0.0
 40
0.0909091516512493
 40
0.1818181652277684
 40
0.2727270955153484
 40
0.3636361020248153
 40
0.4545452479551855
 40
0.5454544605413248
 40
0.6363636793653751
 40
0.727272892262286
 40
0.8181820421181566
 40
0.9090910598407695
 40
1.0
 40
1.0
 40
1.0
 40
1.0
 10
910.6823603054735
 20
786.6506507060258
 30
0.0
 10
910.724319080207
 20
786.7285862339489
 30
0.0
 10
910.8082365659465
 20
786.8844571714252
 30
0.0
 10
910.8359914445933
 20
787.0777872133111
 30
0.0
 10
910.781497187474
 20
787.2034309621296
 30
0.0
 10
910.6474382904264
 20
787.2418491351116
 30
0.0
 10
910.4564788357526
 20
787.1866681755864
 30
0.0
 10
910.2383151168827
 20
787.0453058403878
 30
0.0
 10
910.027141604284
 20
786.838806264022
 30
0.0
 10
909.8546035249257
 20
786.5980295212775
 30
0.0
 10
909.7480257281595
 20
786.3624005166572
 30
0.0
 10
909.7159530894864
 20
786.1606843608296
 30
0.0
 10
909.7635367988843
 20
786.0896097018164
 30
0.0
 10
909.7873286434337
 20
786.0540723874701
 30
0.0
  0
SPLINE
  5
179
330
1F
100
AcDbEntity
  8
0
  6
Continuous
 62
     7
370
    25
100
AcDbSpline
210
0.0
220
0.0
230
1.0
 70
     8
 71
     3
 72
    15
 73
    11
 74
     0
 42
0.000000001
 43
0.00000001
 40
0.0
 40
0.0
 40
0.0
 40
0.0
 40
0.1250001307475972
 40
0.2500002756065484
 40
0.375000415928839
 40
0.500000485829766
 40
0.6250003805289848
 40
0.7500001454011229
 40
0.8749999806423279
 40
1.0
 40
1.0
 40
1.0
 40
1.0
 10
901.1100385361468
 20
807.273823062558
 30
0.0
 10
901.0197905644538
 20
807.2803486018789
 30
0.0
 10
900.8392946108794
 20
807.2933996812575
 30
0.0
 10
900.5867315931789
 20
807.1675930735366
 30
0.0
 10
900.3971645104339
 20
806.9536712162092
 30
0.0
 10
900.2974163483591
 20
806.6741582674317
 30
0.0
 10
900.3023907429382
 20
806.3736017718654
 30
0.0
 10
900.4111852643346
 20
806.0997730274396
 30
0.0
 10
900.6054397349906
 20
805.8843519380666
 30
0.0
 10
900.7767692830054
 20
805.826952754624
 30
0.0
 10
900.8624341201017
 20
805.7982531417664
 30
0.0
  0
LINE
  5
17A
330
1F
100
AcDbEntity
  8
0
  6
Continuous
 62
     7
370
    25
100
AcDbLine
 10
891.916704982
 20
827.1748149077
 30
0.0
 11
891.9749360263
 21
827.3971329928
 31
0.0
  0
SPLINE
  5
17B
330
1F
100
AcDbEntity
  8
0
  6
Continuous
 62
     7
370
    25
100
AcDbSpline
210
0.0
220
0.0
230
1.0
 70
     8
 71
     3
 72
    16
 73
    12
 74
     0
 42
0.000000001
 43
0.00000001
 40
0.0
 40
0.0
 40
0.0
 40
0.0
 40
0.0205383528242519
 40
0.1513930325345736
 40
0.2822201239899731
 40
0.4131114934074155
 40
0.5439119152829273
 40
0.6747802833646314
 40
0.8056046193054378
 40
0.9364160484432875
 40
0.9999999999999999
 40
0.9999999999999999
 40
0.9999999999999999
 40
0.9999999999999999
 10
894.2141430943727
 20
819.1509885576355
 30
0.0
 10
894.1957020498508
 20
819.1304860695172
 30
0.0
 10
894.0597687704308
 20
818.979357404172
 30
0.0
 10
893.9947091978447
 20
818.5749410860468
 30
0.0
 10
894.0606951390139
 20
818.025431354685
 30
0.0
 10
894.357669534981
 20
817.5106385522326
 30
0.0
 10
894.8169819984535
 20
817.1275918660693
 30
0.0
 10
895.3777254607795
 20
816.9260660297637
 30
0.0
 10
895.9440488976506
 20
816.9538258772942
 30
0.0
 10
896.3838874541965
 20
817.1307413260456
 30
0.0
 10
896.5429485516391
 20
817.3447263340042
 30
0.0
 10
896.5949751639907
 20
817.4147177727477
 30
0.0
  0
SPLINE
  5
17C
330
1F
100
AcDbEntity
  8
0
  6
Continuous
 62
     7
370
    25
100
AcDbSpline
210
0.0
220
0.0
230
1.0
 70
     8
 71
     3
 72
    15
 73
    11
 74
     0
 42
0.000000001
 43
0.00000001
 40
0.0
 40
0.0
 40
0.0
 40
0.0
 40
0.0865498117609343
 40
0.2170811276862877
 40
0.3475577353592626
 40
0.4780522115084166
 40
0.6085575863574171
 40
0.739031537641217
 40
0.8695480467135248
 40
1.0
 40
1.0
 40
1.0
 40
1.0
 10
906.79175829782
 20
796.935019749846
 30
0.0
 10
906.7036770872438
 20
796.9842815979351
 30
0.0
 10
906.4827549600801
 20
797.1078383950853
 30
0.0
 10
906.0311893796508
 20
797.0652929618285
 30
0.0
 10
905.5461980149644
 20
796.8262961678765
 30
0.0
 10
905.1381577739361
 20
796.4024099971364
 30
0.0
 10
904.8763086091345
 20
795.8620466131708
 30
0.0
 10
904.7946614166888
 20
795.2941983672453
 30
0.0
 10
904.8945839456771
 20
794.7694176627589
 30
0.0
 10
905.0992569294576
 20
794.5451715819421
 30
0.0
 10
905.2015681063631
 20
794.4330762774176
 30
0.0
  0
LINE
  5
17D
330
1F
100
AcDbEntity
  8
0
  6
Continuous
 62
     7
370
    25
100
AcDbLine
 10
889.3358163107
 20
834.5013271148
 30
0.0
 11
889.3591839127
 21
834.6664399825
 31
0.0
  0
SPLINE
  5
17E
330
1F
100
AcDbEntity
  8
0
  6
Continuous
 62
     7
370
    25
100
AcDbSpline
210
0.0
220
0.0
230
1.0
 70
     8
 71
     3
 72
    13
 73
     9
 74
     0
 42
0.000000001
 43
0.00000001
 40
0.0
 40
0.0
 40
0.0
 40
0.0
 40
0.1250881265863667
 40
0.2500222122082197
 40
0.36998504682678
 40
0.4999192399464629
 40
0.7494622781911383
 40
1.0
 40
1.0
 40
1.0
 40
1.0
 10
913.285543487867
 20
785.2298301452579
 30
0.0
 10
913.2870360737676
 20
785.2366671078412
 30
0.0
 10
913.2900194075096
 20
785.2503326135651
 30
0.0
 10
913.344631459246
 20
785.3260428258504
 30
0.0
 10
913.4420015255384
 20
785.4460466411074
 30
0.0
 10
913.6176117783588
 20
785.6497871005581
 30
0.0
 10
913.881469144693
 20
785.9413686561422
 30
0.0
 10
914.0966391719459
 20
786.1712296056198
 30
0.0
 10
914.2044381770979
 20
786.2863886823433
 30
0.0
  0
SPLINE
  5
17F
330
1F
100
AcDbEntity
  8
0
  6
Continuous
 62
     7
370
    25
100
AcDbSpline
210
0.0
220
0.0
230
1.0
 70
     8
 71
     3
 72
    13
 73
     9
 74
     0
 42
0.000000001
 43
0.00000001
 40
0.0
 40
0.0
 40
0.0
 40
0.0
 40
0.2505452096016175
 40
0.5001483697844442
 40
0.6320756442264837
 40
0.7500338296881852
 40
0.8748918299079707
 40
1.0
 40
1.0
 40
1.0
 40
1.0
 10
914.2044381770979
 20
786.2863886823433
 30
0.0
 10
914.312047474634
 20
786.4005500453792
 30
0.0
 10
914.5268614589922
 20
786.6284435249855
 30
0.0
 10
914.798126398054
 20
786.9064599658823
 30
0.0
 10
914.987365908899
 20
787.0914921937077
 30
0.0
 10
915.0999756160312
 20
787.1951952389414
 30
0.0
 10
915.1649896157631
 20
787.2465861533757
 30
0.0
 10
915.1738320963964
 20
787.245445817132
 30
0.0
 10
915.178257761556
 20
787.2448750783773
 30
0.0
  0
SPLINE
  5
180
330
1F
100
AcDbEntity
  8
0
  6
Continuous
 62
     7
370
    25
100
AcDbSpline
210
0.0
220
0.0
230
1.0
 70
     8
 71
     3
 72
    15
 73
    11
 74
     0
 42
0.000000001
 43
0.00000001
 40
0.0
 40
0.0
 40
0.0
 40
0.0
 40
0.0074317265559574
 40
0.1716326864338862
 40
0.3357605672250705
 40
0.4999726485520684
 40
0.6641268095444954
 40
0.8282730055193188
 40
0.9925063449720261
 40
1.0
 40
1.0
 40
1.0
 40
1.0
 10
912.6742664567455
 20
784.5339104650518
 30
0.0
 10
912.6731884816004
 20
784.5326589259892
 30
0.0
 10
912.64829308634
 20
784.5037551430122
 30
0.0
 10
912.4534340986719
 20
784.3045643087706
 30
0.0
 10
912.1202486361846
 20
783.959581163358
 30
0.0
 10
911.7115137381276
 20
783.5297303537789
 30
0.0
 10
911.310667132535
 20
783.0973341239321
 30
0.0
 10
910.9797139287543
 20
782.7344126821584
 30
0.0
 10
910.8125954828903
 20
782.5500923690297
 30
0.0
 10
910.7714706353338
 20
782.5073208845384
 30
0.0
 10
910.7696760693624
 20
782.505454464231
 30
0.0
  0
SPLINE
  5
181
330
1F
100
AcDbEntity
  8
0
  6
Continuous
 62
     7
370
    25
100
AcDbSpline
210
0.0
220
0.0
230
1.0
 70
    11
 71
     3
 72
    23
 73
    19
 74
     0
 42
0.000000001
 43
0.00000001
 40
0.0
 40
0.0
 40
0.0
 40
0.0
 40
0.0623517778379372
 40
0.1250443094289823
 40
0.1876209276750826
 40
0.2501176953898069
 40
0.3126706421103262
 40
0.3751698536986717
 40
0.4377022347276106
 40
0.5002610842484829
 40
0.5627673169523274
 40
0.625356482053939
 40
0.6878437940749734
 40
0.7504054841785261
 40
0.8129209916998839
 40
0.87548312203331
 40
0.9382159222259661
 40
1.0
 40
1.0
 40
1.0
 40
1.0
 10
896.9232797980001
 20
818.1467463766226
 30
0.0
 10
896.9125876050966
 20
818.3324011071566
 30
0.0
 10
896.8911447862349
 20
818.7047251751599
 30
0.0
 10
896.5881615117048
 20
819.2187188211664
 30
0.0
 10
896.1231751330233
 20
819.5952571604255
 30
0.0
 10
895.5561431393672
 20
819.782786444709
 30
0.0
 10
894.9777541707988
 20
819.7576695587632
 30
0.0
 10
894.4774973014231
 20
819.5193968114664
 30
0.0
 10
894.1275111893519
 20
819.1098962442783
 30
0.0
 10
893.9860053105144
 20
818.5845925759659
 30
0.0
 10
894.06691084127
 20
818.0244445385367
 30
0.0
 10
894.3610283941977
 20
817.5125138057882
 30
0.0
 10
894.8229623110764
 20
817.1287254394961
 30
0.0
 10
895.3818571189988
 20
816.9299926787534
 30
0.0
 10
895.9570139329585
 20
816.9526154609199
 30
0.0
 10
896.4568849254626
 20
817.1920929352239
 30
0.0
 10
896.8191687492682
 20
817.611049113511
 30
0.0
 10
896.8887528407637
 20
817.9690899537889
 30
0.0
 10
896.9232797980001
 20
818.1467463766227
 30
0.0
  0
SPLINE
  5
182
330
1F
100
AcDbEntity
  8
0
  6
Continuous
 62
     7
370
    25
100
AcDbSpline
210
0.0
220
0.0
230
1.0
 70
    11
 71
     3
 72
    23
 73
    19
 74
     0
 42
0.000000001
 43
0.00000001
 40
0.0
 40
0.0
 40
0.0
 40
0.0
 40
0.0625056299826551
 40
0.1250148300657239
 40
0.1875221854309
 40
0.2500233690228124
 40
0.3125177100232204
 40
0.37500859932527
 40
0.4375014226430831
 40
0.5000003216242084
 40
0.5625058345008362
 40
0.6250147242160748
 40
0.6875218731413691
 40
0.7500231293482102
 40
0.812517670676726
 40
0.8750086019144453
 40
0.9375012508432587
 40
1.0
 40
1.0
 40
1.0
 40
1.0
 10
901.6635428467481
 20
806.4012539905515
 30
0.0
 10
901.670039641448
 20
806.499859448043
 30
0.0
 10
901.6830336019219
 20
806.6970759950208
 30
0.0
 10
901.5689138994969
 20
806.9738738148825
 30
0.0
 10
901.3733565900508
 20
807.1825450170745
 30
0.0
 10
901.1171757435642
 20
807.2931734010689
 30
0.0
 10
900.8424994749881
 20
807.2884129490398
 30
0.0
 10
900.5909683073311
 20
807.1691296486362
 30
0.0
 10
900.4011349408827
 20
806.9534541717873
 30
0.0
 10
900.3014700087921
 20
806.6742284254761
 30
0.0
 10
900.3065440737608
 20
806.3739521757955
 30
0.0
 10
900.415070607871
 20
806.0983444499179
 30
0.0
 10
900.6104898301431
 20
805.889364535313
 30
0.0
 10
900.8632488263719
 20
805.7788701325732
 30
0.0
 10
901.1361631807224
 20
805.7835417686218
 30
0.0
 10
901.3856863382343
 20
805.9031526756652
 30
0.0
 10
901.5832577352443
 20
806.1176200046441
 30
0.0
 10
901.6367802721877
 20
806.306706252453
 30
0.0
 10
901.6635428467481
 20
806.4012539905516
 30
0.0
  0
LINE
  5
183
330
1F
100
AcDbEntity
  8
0
  6
Continuous
 62
     7
370
    25
100
AcDbLine
 10
898.5355360916
 20
817.0295586363
 30
0.0
 11
898.2299332752
 21
817.7020087892
 31
0.0
  0
LINE
  5
184
330
1F
100
AcDbEntity
  8
0
  6
Continuous
 62
     7
370
    25
100
AcDbLine
 10
898.2299332752
 20
817.7020087892
 30
0.0
 11
900.5195455675
 21
818.5672124471
 31
0.0
  0
LINE
  5
185
330
1F
100
AcDbEntity
  8
0
  6
Continuous
 62
     7
370
    25
100
AcDbLine
 10
900.5195455675
 20
818.5672124471
 30
0.0
 11
900.722832314
 21
818.1213591832
 31
0.0
  0
LINE
  5
186
330
1F
100
AcDbEntity
  8
0
  6
Continuous
 62
     7
370
    25
100
AcDbLine
 10
900.722832314
 20
818.1213591832
 30
0.0
 11
898.8423620328
 21
817.4108015918
 31
0.0
  0
LINE
  5
187
330
1F
100
AcDbEntity
  8
0
  6
Continuous
 62
     7
370
    25
100
AcDbLine
 10
898.8423620328
 20
817.4108015918
 30
0.0
 11
899.0614781149
 21
816.92272846
 31
0.0
  0
LINE
  5
188
330
1F
100
AcDbEntity
  8
0
  6
Continuous
 62
     7
370
    25
100
AcDbLine
 10
899.0614781149
 20
816.92272846
 30
0.0
 11
898.5355360916
 21
817.0295586363
 31
0.0
  0
LINE
  5
189
330
1F
100
AcDbEntity
  8
0
  6
Continuous
 62
     7
370
    25
100
AcDbLine
 10
898.5355360916
 20
817.0295586363
 30
0.0
 11
898.5327564322
 21
817.0267317831
 31
0.0
  0
LINE
  5
18A
330
1F
100
AcDbEntity
  8
0
  6
Continuous
 62
     7
370
    25
100
AcDbLine
 10
899.0614781149
 20
816.92272846
 30
0.0
 11
899.0586605199
 21
816.9199829597
 31
0.0
  0
LINE
  5
18B
330
1F
100
AcDbEntity
  8
0
  6
Continuous
 62
     7
370
    25
100
AcDbLine
 10
898.2299332752
 20
817.7020087892
 30
0.0
 11
898.2272486692
 21
817.6989780932
 31
0.0
  0
LINE
  5
18C
330
1F
100
AcDbEntity
  8
0
  6
Continuous
 62
     7
370
    25
100
AcDbLine
 10
900.722832314
 20
818.1213591832
 30
0.0
 11
900.7200807112
 21
818.1184721624
 31
0.0
  0
SPLINE
  5
18D
330
1F
100
AcDbEntity
  8
0
  6
Continuous
 62
     7
370
    25
100
AcDbSpline
210
0.0
220
0.0
230
1.0
 70
     8
 71
     3
 72
    13
 73
     9
 74
     0
 42
0.000000001
 43
0.00000001
 40
0.0
 40
0.0
 40
0.0
 40
0.0
 40
0.1251109399680469
 40
0.250065121951953
 40
0.3707387855364842
 40
0.4999778519001931
 40
0.7494879858490117
 40
1.0
 40
1.0
 40
1.0
 40
1.0
 10
897.5041296609057
 20
819.124962409545
 30
0.0
 10
897.4764378241447
 20
819.1960312890716
 30
0.0
 10
897.4210888471603
 20
819.3380800022404
 30
0.0
 10
897.4096300659423
 20
819.5592948440421
 30
0.0
 10
897.4672819415238
 20
819.7682121643264
 30
0.0
 10
897.6297666392824
 20
820.0025799895884
 30
0.0
 10
897.9308419628989
 20
820.2121016745115
 30
0.0
 10
898.2039700628518
 20
820.3151782730416
 30
0.0
 10
898.3408077423436
 20
820.3668198381358
 30
0.0
  0
SPLINE
  5
18E
330
1F
100
AcDbEntity
  8
0
  6
Continuous
 62
     7
370
    25
100
AcDbSpline
210
0.0
220
0.0
230
1.0
 70
     8
 71
     3
 72
    13
 73
     9
 74
     0
 42
0.000000001
 43
0.00000001
 40
0.0
 40
0.0
 40
0.0
 40
0.0
 40
0.2505128141109346
 40
0.5000941149027656
 40
0.6317215230534979
 40
0.7499635860909047
 40
0.8748507676610442
 40
1.0
 40
1.0
 40
1.0
 40
1.0
 10
898.3408077423436
 20
820.3668198381358
 30
0.0
 10
898.4800309099779
 20
820.4117317429178
 30
0.0
 10
898.7579595542239
 20
820.5013885508948
 30
0.0
 10
899.1420157313929
 20
820.5306247968077
 30
0.0
 10
899.4453245869328
 20
820.4654409847294
 30
0.0
 10
899.6555865734364
 20
820.3553710795035
 30
0.0
 10
899.818692033507
 20
820.1877682579687
 30
0.0
 10
899.888937569793
 20
820.0518706251991
 30
0.0
 10
899.924097148368
 20
819.9838505950286
 30
0.0
  0
SPLINE
  5
18F
330
1F
100
AcDbEntity
  8
0
  6
Continuous
 62
     7
370
    25
100
AcDbSpline
210
0.0
220
0.0
230
1.0
 70
     8
 71
     3
 72
    13
 73
     9
 74
     0
 42
0.000000001
 43
0.00000001
 40
0.0
 40
0.0
 40
0.0
 40
0.0
 40
0.1251507043609158
 40
0.25009362808809
 40
0.3701074616710744
 40
0.4999949947391171
 40
0.7494526575597077
 40
1.0
 40
1.0
 40
1.0
 40
1.0
 10
899.924097148368
 20
819.9838505950286
 30
0.0
 10
899.9517720548678
 20
819.9137022751534
 30
0.0
 10
900.0070759207856
 20
819.7735220986892
 30
0.0
 10
900.0224190465136
 20
819.5533876721571
 30
0.0
 10
899.964642247869
 20
819.3445314686503
 30
0.0
 10
899.807075154949
 20
819.1073738693461
 30
0.0
 10
899.5094842980523
 20
818.895347401411
 30
0.0
 10
899.239554520862
 20
818.793716160419
 30
0.0
 10
899.1042954982345
 20
818.7427897955394
 30
0.0
  0
SPLINE
  5
190
330
1F
100
AcDbEntity
  8
0
  6
Continuous
 62
     7
370
    25
100
AcDbSpline
210
0.0
220
0.0
230
1.0
 70
     8
 71
     3
 72
     9
 73
     5
 74
     0
 42
0.000000001
 43
0.00000001
 40
0.0
 40
0.0
 40
0.0
 40
0.0
 40
0.501597092650227
 40
1.0
 40
1.0
 40
1.0
 40
1.0
 10
899.1042954982345
 20
818.7427897955394
 30
0.0
 10
898.9429615564459
 20
818.6878473367244
 30
0.0
 10
898.6213210522392
 20
818.5783122943169
 30
0.0
 10
898.2696661263452
 20
818.6067011352998
 30
0.0
 10
898.0944002888957
 20
818.620850216182
 30
0.0
  0
SPLINE
  5
191
330
1F
100
AcDbEntity
  8
0
  6
Continuous
 62
     7
370
    25
100
AcDbSpline
210
0.0
220
0.0
230
1.0
 70
     8
 71
     3
 72
    12
 73
     8
 74
     0
 42
0.000000001
 43
0.00000001
 40
0.0
 40
0.0
 40
0.0
 40
0.0
 40
0.2499765339087177
 40
0.4997794214609895
 40
0.7495889956695894
 40
0.8747639455525271
 40
1.0
 40
1.0
 40
1.0
 40
1.0
 10
898.0943963383571
 20
818.6208514013055
 30
0.0
 10
898.030756556485
 20
818.6415403862163
 30
0.0
 10
897.9035212001554
 20
818.6829039844216
 30
0.0
 10
897.7336392561468
 20
818.7985450564225
 30
0.0
 10
897.6196467804583
 20
818.9238829397132
 30
0.0
 10
897.54717417729
 20
819.0358991191814
 30
0.0
 10
897.5184801669769
 20
819.0952698169355
 30
0.0
 10
897.5041296609057
 20
819.124962409545
 30
0.0
  0
SPLINE
  5
192
330
1F
100
AcDbEntity
  8
0
  6
Continuous
 62
     7
370
    25
100
AcDbSpline
210
0.0
220
0.0
230
1.0
 70
     8
 71
     3
 72
    11
 73
     7
 74
     0
 42
0.000000001
 43
0.00000001
 40
0.0
 40
0.0
 40
0.0
 40
0.0
 40
0.2499508199442382
 40
0.4997814623156134
 40
0.7497504918582933
 40
1.0
 40
1.0
 40
1.0
 40
1.0
 10
899.5167579382362
 20
819.8399804649249
 30
0.0
 10
899.5028865434118
 20
819.8658421516303
 30
0.0
 10
899.4751504231975
 20
819.9175530906159
 30
0.0
 10
899.407262235576
 20
819.978241994085
 30
0.0
 10
899.3273307194585
 20
820.0200876857584
 30
0.0
 10
899.2700122990634
 20
820.0336063625683
 30
0.0
 10
899.2413370192994
 20
820.0403694910162
 30
0.0
  0
SPLINE
  5
193
330
1F
100
AcDbEntity
  8
0
  6
Continuous
 62
     7
370
    25
100
AcDbSpline
210
0.0
220
0.0
230
1.0
 70
     8
 71
     3
 72
     9
 73
     5
 74
     0
 42
0.000000001
 43
0.00000001
 40
0.0
 40
0.0
 40
0.0
 40
0.0
 40
0.4986107364193818
 40
1.0
 40
1.0
 40
1.0
 40
1.0
 10
899.2413370192994
 20
820.0403694910162
 30
0.0
 10
899.1208773141708
 20
820.0422722855817
 30
0.0
 10
898.8792866376574
 20
820.0460884781072
 30
0.0
 10
898.6587781375704
 20
819.9699169953009
 30
0.0
 10
898.5482175430984
 20
819.9317254316309
 30
0.0
  0
SPLINE
  5
194
330
1F
100
AcDbEntity
  8
0
  6
Continuous
 62
     7
370
    25
100
AcDbSpline
210
0.0
220
0.0
230
1.0
 70
     8
 71
     3
 72
    13
 73
     9
 74
     0
 42
0.000000001
 43
0.00000001
 40
0.0
 40
0.0
 40
0.0
 40
0.0
 40
0.5002107466123934
 40
0.6311126833658122
 40
0.7502707260275555
 40
0.8748546018029979
 40
0.9374062529239805
 40
1.0
 40
1.0
 40
1.0
 40
1.0
 10
898.5482175430984
 20
819.9317254316309
 30
0.0
 10
898.3851255394908
 20
819.872606630483
 30
0.0
 10
898.1793534069859
 20
819.7980168191235
 30
0.0
 10
897.9838948024633
 20
819.6371434457673
 30
0.0
 10
897.9127176586179
 20
819.533479167977
 30
0.0
 10
897.8842696983028
 20
819.4317917810051
 30
0.0
 10
897.892469310271
 20
819.3444816363033
 30
0.0
 10
897.9087815209939
 20
819.3027642646204
 30
0.0
 10
897.9169403698763
 20
819.2818985624099
 30
0.0
  0
SPLINE
  5
195
330
1F
100
AcDbEntity
  8
0
  6
Continuous
 62
     7
370
    25
100
AcDbSpline
210
0.0
220
0.0
230
1.0
 70
     8
 71
     3
 72
    13
 73
     9
 74
     0
 42
0.000000001
 43
0.00000001
 40
0.0
 40
0.0
 40
0.0
 40
0.0
 40
0.1245132687762216
 40
0.1872570917195003
 40
0.2496681308381555
 40
0.360592964524282
 40
0.4997584796810152
 40
1.0
 40
1.0
 40
1.0
 40
1.0
 10
897.9169403698763
 20
819.2818985624099
 30
0.0
 10
897.9407767708556
 20
819.2409418822356
 30
0.0
 10
897.9766246380611
 20
819.1793466089666
 30
0.0
 10
898.0530416894663
 20
819.1202681164395
 30
0.0
 10
898.1330521478627
 20
819.078219703896
 30
0.0
 10
898.2496982768654
 20
819.0543440608997
 30
0.0
 10
898.5263444888252
 20
819.0604208331928
 30
0.0
 10
898.74431311582
 20
819.1340045957431
 30
0.0
 10
898.9148413572999
 20
819.1915730164934
 30
0.0
  0
SPLINE
  5
196
330
1F
100
AcDbEntity
  8
0
  6
Continuous
 62
     7
370
    25
100
AcDbSpline
210
0.0
220
0.0
230
1.0
 70
     8
 71
     3
 72
    12
 73
     8
 74
     0
 42
0.000000001
 43
0.00000001
 40
0.0
 40
0.0
 40
0.0
 40
0.0
 40
0.5003945545406485
 40
0.6255971936946336
 40
0.7506992559572216
 40
0.8753826722134526
 40
1.0
 40
1.0
 40
1.0
 40
1.0
 10
898.9148413572999
 20
819.1915730164934
 30
0.0
 10
899.0741536816303
 20
819.2500776981985
 30
0.0
 10
899.2733271980437
 20
819.3232207097694
 30
0.0
 10
899.4622165604259
 20
819.4849143369739
 30
0.0
 10
899.5274101543773
 20
819.5897243730487
 30
0.0
 10
899.5581618328528
 20
819.7146576247845
 30
0.0
 10
899.5305567971195
 20
819.7982135683092
 30
0.0
 10
899.5167579382362
 20
819.839980464925
 30
0.0
  0
LINE
  5
197
330
1F
100
AcDbEntity
  8
0
  6
Continuous
 62
     7
370
    25
100
AcDbLine
 10
897.5041296609
 20
819.1249624095
 30
0.0
 11
897.501649723
 21
819.1214928015
 31
0.0
  0
LINE
  5
198
330
1F
100
AcDbEntity
  8
0
  6
Continuous
 62
     7
370
    25
100
AcDbLine
 10
898.0944002889
 20
818.6208502162
 30
0.0
 11
898.0918329376
 21
818.6175680666
 31
0.0
  0
LINE
  5
199
330
1F
100
AcDbEntity
  8
0
  6
Continuous
 62
     7
370
    25
100
AcDbLine
 10
899.1042954982
 20
818.7427897955
 30
0.0
 11
899.1016970879
 21
818.7395742524
 31
0.0
  0
SPLINE
  5
19A
330
1F
100
AcDbEntity
  8
0
  6
Continuous
 62
     7
370
    25
100
AcDbSpline
210
0.0
220
0.0
230
1.0
 70
     8
 71
     3
 72
     9
 73
     5
 74
     0
 42
0.000000001
 43
0.00000001
 40
0.0
 40
0.0
 40
0.0
 40
0.0
 40
0.7925909218628958
 40
0.9999999999999999
 40
0.9999999999999999
 40
0.9999999999999999
 40
0.9999999999999999
 10
898.5457907050826
 20
819.9281419504875
 30
0.0
 10
898.3802608162374
 20
819.8711785207603
 30
0.0
 10
898.1714142545635
 20
819.799308621477
 30
0.0
 10
898.0155556228906
 20
819.6564343067756
 30
0.0
 10
897.9832291277755
 20
819.6268008768739
 30
0.0
  0
SPLINE
  5
19B
330
1F
100
AcDbEntity
  8
0
  6
Continuous
 62
     7
370
    25
100
AcDbSpline
210
0.0
220
0.0
230
1.0
 70
     8
 71
     3
 72
     9
 73
     5
 74
     0
 42
0.000000001
 43
0.00000001
 40
0.0
 40
0.0
 40
0.0
 40
0.0
 40
0.498604259714831
 40
0.9999999999999999
 40
0.9999999999999999
 40
0.9999999999999999
 40
0.9999999999999999
 10
899.2388930420319
 20
820.0368227651162
 30
0.0
 10
899.1184382195004
 20
820.0387133020712
 30
0.0
 10
898.876854197333
 20
820.0425049603213
 30
0.0
 10
898.6563503798734
 20
819.9663338305086
 30
0.0
 10
898.5457907050825
 20
819.9281419504874
 30
0.0
  0
SPLINE
  5
19C
330
1F
100
AcDbEntity
  8
0
  6
Continuous
 62
     7
370
    25
100
AcDbSpline
210
0.0
220
0.0
230
1.0
 70
     8
 71
     3
 72
    11
 73
     7
 74
     0
 42
0.000000001
 43
0.00000001
 40
0.0
 40
0.0
 40
0.0
 40
0.0
 40
0.2499273471645315
 40
0.4997464442852813
 40
0.7497241171374371
 40
1.0
 40
1.0
 40
1.0
 40
1.0
 10
899.5142766110603
 20
819.836513836162
 30
0.0
 10
899.5004088916152
 20
819.8623674398175
 30
0.0
 10
899.4726794591957
 20
819.9140634492594
 30
0.0
 10
899.4047999672397
 20
819.9747299881714
 30
0.0
 10
899.3248771981038
 20
820.0165556164424
 30
0.0
 10
899.2675658154994
 20
820.0300643646235
 30
0.0
 10
899.2388930420319
 20
820.0368227651162
 30
0.0
  0
SPLINE
  5
19D
330
1F
100
AcDbEntity
  8
0
  6
Continuous
 62
     7
370
    25
100
AcDbSpline
210
0.0
220
0.0
230
1.0
 70
     8
 71
     3
 72
     9
 73
     5
 74
     0
 42
0.000000001
 43
0.00000001
 40
0.0
 40
0.0
 40
0.0
 40
0.0
 40
0.5001561431357494
 40
1.0
 40
1.0
 40
1.0
 40
1.0
 10
899.5192238355445
 20
819.5898361907123
 30
0.0
 10
899.5318482419977
 20
819.6300256845344
 30
0.0
 10
899.557089172508
 20
819.7103795787609
 30
0.0
 10
899.5285444935057
 20
819.7944778379388
 30
0.0
 10
899.5142766110603
 20
819.836513836162
 30
0.0
  0
LINE
  5
19E
330
1F
100
AcDbEntity
  8
0
  6
Continuous
 62
     7
370
    25
100
AcDbLine
 10
898.5457907051
 20
819.9281419505
 30
0.0
 11
898.5482175431
 21
819.9317254316
 31
0.0
  0
SPLINE
  5
19F
330
1F
100
AcDbEntity
  8
0
  6
Continuous
 62
     7
370
    25
100
AcDbSpline
210
0.0
220
0.0
230
1.0
 70
     8
 71
     3
 72
    13
 73
     9
 74
     0
 42
0.000000001
 43
0.00000001
 40
0.0
 40
0.0
 40
0.0
 40
0.0
 40
0.1251065401394996
 40
0.250065642443233
 40
0.374929184125082
 40
0.4999756507712227
 40
0.7494853163767156
 40
1.0
 40
1.0
 40
1.0
 40
1.0
 10
896.68018215813
 20
820.8442242639371
 30
0.0
 10
896.6530249992654
 20
820.9145603978162
 30
0.0
 10
896.5987426861996
 20
821.0551497745646
 30
0.0
 10
896.5893847917588
 20
821.2751664780134
 30
0.0
 10
896.6518554360608
 20
821.4792925919464
 30
0.0
 10
896.8202861037324
 20
821.7061368290226
 30
0.0
 10
897.1263608693706
 20
821.9061304408531
 30
0.0
 10
897.4048632179372
 20
822.0030894199731
 30
0.0
 10
897.5443942784689
 20
822.0516663503091
 30
0.0
  0
SPLINE
  5
1A0
330
1F
100
AcDbEntity
  8
0
  6
Continuous
 62
     7
370
    25
100
AcDbSpline
210
0.0
220
0.0
230
1.0
 70
     8
 71
     3
 72
    13
 73
     9
 74
     0
 42
0.000000001
 43
0.00000001
 40
0.0
 40
0.0
 40
0.0
 40
0.0
 40
0.25051773208769
 40
0.5000965304089804
 40
0.6251669124330731
 40
0.749976804475244
 40
0.8748591777859679
 40
1.0
 40
1.0
 40
1.0
 40
1.0
 10
897.5443942784689
 20
822.0516663503091
 30
0.0
 10
897.6862570812677
 20
822.0938658819877
 30
0.0
 10
897.969450988871
 20
822.1781067826275
 30
0.0
 10
898.3559125888776
 20
822.2003636812672
 30
0.0
 10
898.6629125022698
 20
822.133547947353
 30
0.0
 10
898.876211794207
 20
822.0233679873251
 30
0.0
 10
899.0431242959019
 20
821.8534427508001
 30
0.0
 10
899.1128184163119
 20
821.7185742724834
 30
0.0
 10
899.147701497913
 20
821.6510703265722
 30
0.0
  0
SPLINE
  5
1A1
330
1F
100
AcDbEntity
  8
0
  6
Continuous
 62
     7
370
    25
100
AcDbSpline
210
0.0
220
0.0
230
1.0
 70
     8
 71
     3
 72
    13
 73
     9
 74
     0
 42
0.000000001
 43
0.00000001
 40
0.0
 40
0.0
 40
0.0
 40
0.0
 40
0.1251724877760876
 40
0.2501422104930704
 40
0.3698980960112564
 40
0.5000535804360962
 40
0.7494858259702907
 40
1.0
 40
1.0
 40
1.0
 40
1.0
 10
899.147701497913
 20
821.6510703265722
 30
0.0
 10
899.1751018337842
 20
821.581570335581
 30
0.0
 10
899.2298581201284
 20
821.4426829356046
 30
0.0
 10
899.2422706555085
 20
821.2257392183895
 30
0.0
 10
899.1816703294313
 20
821.0207266332371
 30
0.0
 10
899.0187326134804
 20
820.7895494820673
 30
0.0
 10
898.7138856389938
 20
820.5853552787102
 30
0.0
 10
898.4383767087073
 20
820.489820902682
 30
0.0
 10
898.3003241306556
 20
820.4419503422267
 30
0.0
  0
SPLINE
  5
1A2
330
1F
100
AcDbEntity
  8
0
  6
Continuous
 62
     7
370
    25
100
AcDbSpline
210
0.0
220
0.0
230
1.0
 70
     8
 71
     3
 72
     9
 73
     5
 74
     0
 42
0.000000001
 43
0.00000001
 40
0.0
 40
0.0
 40
0.0
 40
0.0
 40
0.5015782158014518
 40
1.0
 40
1.0
 40
1.0
 40
1.0
 10
898.3003241306556
 20
820.4419503422267
 30
0.0
 10
898.1359362915056
 20
820.3904934525707
 30
0.0
 10
897.808195105842
 20
820.2879034914539
 30
0.0
 10
897.4515354544541
 20
820.3213922060211
 30
0.0
 10
897.2737685146577
 20
820.3380837108864
 30
0.0
  0
SPLINE
  5
1A3
330
1F
100
AcDbEntity
  8
0
  6
Continuous
 62
     7
370
    25
100
AcDbSpline
210
0.0
220
0.0
230
1.0
 70
     8
 71
     3
 72
    12
 73
     8
 74
     0
 42
0.000000001
 43
0.00000001
 40
0.0
 40
0.0
 40
0.0
 40
0.0
 40
0.2499424037923433
 40
0.4997392185311261
 40
0.7495774643528615
 40
0.8747587609800229
 40
1.0
 40
1.0
 40
1.0
 40
1.0
 10
897.2737647219144
 20
820.3380848718766
 30
0.0
 10
897.2094931586292
 20
820.3597925897585
 30
0.0
 10
897.0809874696278
 20
820.4031953809847
 30
0.0
 10
896.9089231727938
 20
820.5186381314007
 30
0.0
 10
896.7953385926374
 20
820.64460631936
 30
0.0
 10
896.7230399032376
 20
820.7559659740958
 30
0.0
 10
896.6944703526826
 20
820.8148001397097
 30
0.0
 10
896.68018215813
 20
820.8442242639371
 30
0.0
  0
SPLINE
  5
1A4
330
1F
100
AcDbEntity
  8
0
  6
Continuous
 62
     7
370
    25
100
AcDbSpline
210
0.0
220
0.0
230
1.0
 70
     8
 71
     3
 72
    11
 73
     7
 74
     0
 42
0.000000001
 43
0.00000001
 40
0.0
 40
0.0
 40
0.0
 40
0.0
 40
0.249976091952577
 40
0.4997145480685085
 40
0.7496474024757835
 40
1.0
 40
1.0
 40
1.0
 40
1.0
 10
898.7325017444477
 20
821.5156070722189
 30
0.0
 10
898.7186005594798
 20
821.5411557599656
 30
0.0
 10
898.6908114044865
 20
821.5922288480015
 30
0.0
 10
898.6231412483704
 20
821.6533268717133
 30
0.0
 10
898.5423236032842
 20
821.6952093414598
 30
0.0
 10
898.4844445084452
 20
821.7096513649998
 30
0.0
 10
898.4554806805359
 20
821.7168784352511
 30
0.0
  0
SPLINE
  5
1A5
330
1F
100
AcDbEntity
  8
0
  6
Continuous
 62
     7
370
    25
100
AcDbSpline
210
0.0
220
0.0
230
1.0
 70
     8
 71
     3
 72
    10
 73
     6
 74
     0
 42
0.000000001
 43
0.00000001
 40
0.0
 40
0.0
 40
0.0
 40
0.0
 40
0.4984292457103143
 40
0.7491818509087007
 40
1.0
 40
1.0
 40
1.0
 40
1.0
 10
898.4554806805359
 20
821.7168784352511
 30
0.0
 10
898.3332315504389
 20
821.7211024051999
 30
0.0
 10
898.1494806362495
 20
821.727451393851
 30
0.0
 10
897.9185715879734
 20
821.6720937592997
 30
0.0
 10
897.8061401885268
 20
821.6378825046535
 30
0.0
 10
897.7499171426897
 20
821.620774642014
 30
0.0
  0
SPLINE
  5
1A6
330
1F
100
AcDbEntity
  8
0
  6
Continuous
 62
     7
370
    25
100
AcDbSpline
210
0.0
220
0.0
230
1.0
 70
     8
 71
     3
 72
    13
 73
     9
 74
     0
 42
0.000000001
 43
0.00000001
 40
0.0
 40
0.0
 40
0.0
 40
0.0
 40
0.5002483766211759
 40
0.6254228423967306
 40
0.7504122033123608
 40
0.8154395700399973
 40
0.8755906537134156
 40
1.0
 40
1.0
 40
1.0
 40
1.0
 10
897.7499171426897
 20
821.620774642014
 30
0.0
 10
897.5841359438285
 20
821.5645341527021
 30
0.0
 10
897.3768722055471
 20
821.4942209076683
 30
0.0
 10
897.1744276355506
 20
821.3418314635728
 30
0.0
 10
897.1125752466476
 20
821.2563768022696
 30
0.0
 10
897.0817203338479
 20
821.1797097387104
 30
0.0
 10
897.067672134022
 20
821.09639664051
 30
0.0
 10
897.0876804280339
 20
821.0337240366306
 30
0.0
 10
897.1011677111902
 20
820.9914773986029
 30
0.0
  0
SPLINE
  5
1A7
330
1F
100
AcDbEntity
  8
0
  6
Continuous
 62
     7
370
    25
100
AcDbSpline
210
0.0
220
0.0
230
1.0
 70
     8
 71
     3
 72
    13
 73
     9
 74
     0
 42
0.000000001
 43
0.00000001
 40
0.0
 40
0.0
 40
0.0
 40
0.0
 40
0.1244986683194625
 40
0.187071562852464
 40
0.2496296411425702
 40
0.3609948977065096
 40
0.4997601890439995
 40
1.0
 40
1.0
 40
1.0
 40
1.0
 10
897.1011677111902
 20
820.9914773986029
 30
0.0
 10
897.1248607011499
 20
820.9507122829486
 30
0.0
 10
897.1604617619505
 20
820.8894586647517
 30
0.0
 10
897.2379751592936
 20
820.8308680943716
 30
0.0
 10
897.3185110997159
 20
820.7873860200513
 30
0.0
 10
897.4370969372097
 20
820.762941209602
 30
0.0
 10
897.7180151932697
 20
820.7641081570416
 30
0.0
 10
897.9400521574985
 20
820.8335868646395
 30
0.0
 10
898.1138719417416
 20
820.8879776909871
 30
0.0
  0
SPLINE
  5
1A8
330
1F
100
AcDbEntity
  8
0
  6
Continuous
 62
     7
370
    25
100
AcDbSpline
210
0.0
220
0.0
230
1.0
 70
     8
 71
     3
 72
    12
 73
     8
 74
     0
 42
0.000000001
 43
0.00000001
 40
0.0
 40
0.0
 40
0.0
 40
0.0
 40
0.5004394301618584
 40
0.6256702280929313
 40
0.7507565706532953
 40
0.8753835030206618
 40
1.0
 40
1.0
 40
1.0
 40
1.0
 10
898.1138719417416
 20
820.8879776909871
 30
0.0
 10
898.2760968784429
 20
820.9429718892374
 30
0.0
 10
898.4789172539585
 20
821.0117279274097
 30
0.0
 10
898.6727075287287
 20
821.1674299080735
 30
0.0
 10
898.739756770739
 20
821.269597765222
 30
0.0
 10
898.7727541792527
 20
821.3917416631233
 30
0.0
 10
898.7459188481997
 20
821.474319754987
 30
0.0
 10
898.7325017444477
 20
821.5156070722189
 30
0.0
  0
LINE
  5
1A9
330
1F
100
AcDbEntity
  8
0
  6
Continuous
 62
     7
370
    25
100
AcDbLine
 10
896.6801821581
 20
820.8442242639
 30
0.0
 11
896.6779469388
 21
820.8402298551
 31
0.0
  0
LINE
  5
1AA
330
1F
100
AcDbEntity
  8
0
  6
Continuous
 62
     7
370
    25
100
AcDbLine
 10
897.2737685147
 20
820.3380837109
 30
0.0
 11
897.2714465529
 21
820.3342753218
 31
0.0
  0
LINE
  5
1AB
330
1F
100
AcDbEntity
  8
0
  6
Continuous
 62
     7
370
    25
100
AcDbLine
 10
898.3003241307
 20
820.4419503422
 30
0.0
 11
898.2979713179
 21
820.4382081134
 31
0.0
  0
LINE
  5
1AC
330
1F
100
AcDbEntity
  8
0
  6
Continuous
 62
     7
370
    25
100
AcDbLine
 10
899.5142766111
 20
819.8365138362
 30
0.0
 11
899.5167579382
 21
819.8399804649
 31
0.0
  0
SPLINE
  5
1AD
330
1F
100
AcDbEntity
  8
0
  6
Continuous
 62
     7
370
    25
100
AcDbSpline
210
0.0
220
0.0
230
1.0
 70
     8
 71
     3
 72
     9
 73
     5
 74
     0
 42
0.000000001
 43
0.00000001
 40
0.0
 40
0.0
 40
0.0
 40
0.0
 40
0.7998612404803681
 40
0.9999999999999999
 40
0.9999999999999999
 40
0.9999999999999999
 40
0.9999999999999999
 10
897.747734375715
 20
821.6166677488338
 30
0.0
 10
897.5795009343203
 20
821.5626989664588
 30
0.0
 10
897.3691726512628
 20
821.4952262853941
 30
0.0
 10
897.2088715216054
 20
821.3604288666004
 30
0.0
 10
897.176789052366
 20
821.3334506784165
 30
0.0
  0
SPLINE
  5
1AE
330
1F
100
AcDbEntity
  8
0
  6
Continuous
 62
     7
370
    25
100
AcDbSpline
210
0.0
220
0.0
230
1.0
 70
     8
 71
     3
 72
    10
 73
     6
 74
     0
 42
0.000000001
 43
0.00000001
 40
0.0
 40
0.0
 40
0.0
 40
0.0
 40
0.4984228663785396
 40
0.7491782932216283
 40
1.0
 40
1.0
 40
1.0
 40
1.0
 10
898.4532808897067
 20
821.7128080498444
 30
0.0
 10
898.3310364243929
 20
821.7170197867636
 30
0.0
 10
898.1472910425949
 20
821.7233504390863
 30
0.0
 10
897.9163882324974
 20
821.6679878108591
 30
0.0
 10
897.803957280299
 20
821.6337759431293
 30
0.0
 10
897.747734375715
 20
821.616667748834
 30
0.0
  0
SPLINE
  5
1AF
330
1F
100
AcDbEntity
  8
0
  6
Continuous
 62
     7
370
    25
100
AcDbSpline
210
0.0
220
0.0
230
1.0
 70
     8
 71
     3
 72
    11
 73
     7
 74
     0
 42
0.000000001
 43
0.00000001
 40
0.0
 40
0.0
 40
0.0
 40
0.0
 40
0.2499527459290387
 40
0.4996795260429343
 40
0.7496212364743111
 40
1.0
 40
1.0
 40
1.0
 40
1.0
 10
898.7302649695879
 20
821.5116159993219
 30
0.0
 10
898.7163674288453
 20
821.5371566937949
 30
0.0
 10
898.6885849112113
 20
821.5882149930811
 30
0.0
 10
898.6209232335442
 20
821.6492909300338
 30
0.0
 10
898.5401143423333
 20
821.6911535619723
 30
0.0
 10
898.4822422252399
 20
821.7055856848446
 30
0.0
 10
898.4532808897067
 20
821.7128080498444
 30
0.0
  0
SPLINE
  5
1B0
330
1F
100
AcDbEntity
  8
0
  6
Continuous
 62
     7
370
    25
100
AcDbSpline
210
0.0
220
0.0
230
1.0
 70
     8
 71
     3
 72
    10
 73
     6
 74
     0
 42
0.000000001
 43
0.00000001
 40
0.0
 40
0.0
 40
0.0
 40
0.0
 40
0.3341935346190955
 40
0.6671264745305943
 40
1.0
 40
1.0
 40
1.0
 40
1.0
 10
898.6654990475957
 20
821.1676341570455
 30
0.0
 10
898.6899639283903
 20
821.1999927632171
 30
0.0
 10
898.7388014072268
 20
821.2645879172812
 30
0.0
 10
898.7701723997299
 20
821.3880509565904
 30
0.0
 10
898.743566654898
 20
821.4704301021621
 30
0.0
 10
898.730264969588
 20
821.511615999322
 30
0.0
  0
LINE
  5
1B1
330
1F
100
AcDbEntity
  8
0
  6
Continuous
 62
     7
370
    25
100
AcDbLine
 10
899.238893042
 20
820.0368227651
 30
0.0
 11
899.2413370193
 21
820.040369491
 31
0.0
  0
LINE
  5
1B2
330
1F
100
AcDbEntity
  8
0
  6
Continuous
 62
     7
370
    25
100
AcDbLine
 10
897.7477343757
 20
821.6166677488
 30
0.0
 11
897.7499171427
 21
821.620774642
 31
0.0
  0
LINE
  5
1B3
330
1F
100
AcDbEntity
  8
0
  6
Continuous
 62
     7
370
    25
100
AcDbLine
 10
898.7302649696
 20
821.5116159993
 30
0.0
 11
898.7325017444
 21
821.5156070722
 31
0.0
  0
LINE
  5
1B4
330
1F
100
AcDbEntity
  8
0
  6
Continuous
 62
     7
370
    25
100
AcDbLine
 10
895.7533275647
 20
834.8279925414
 30
0.0
 11
914.234761613
 21
795.1944293239
 31
0.0
  0
LINE
  5
1B5
330
1F
100
AcDbEntity
  8
0
  6
Continuous
 62
     7
370
    25
100
AcDbLine
 10
898.4532808897
 20
821.7128080498
 30
0.0
 11
898.4554806805
 21
821.7168784353
 31
0.0
  0
SPLINE
  5
1B6
330
1F
100
AcDbEntity
  8
0
  6
Continuous
 62
     7
370
    25
100
AcDbSpline
210
0.0
220
0.0
230
1.0
 70
    11
 71
     3
 72
    23
 73
    19
 74
     0
 42
0.000000001
 43
0.00000001
 40
0.0
 40
0.0
 40
0.0
 40
0.0
 40
0.0623466001878607
 40
0.1250380084989632
 40
0.1876192900816302
 40
0.2501213159404478
 40
0.3126791307555035
 40
0.3751791279510045
 40
0.4377078294553826
 40
0.5002602307751757
 40
0.5627627381277973
 40
0.6253510717303067
 40
0.6878411966132114
 40
0.7504092327424704
 40
0.8129292318582181
 40
0.8754921505832579
 40
0.9382212495805005
 40
1.0
 40
1.0
 40
1.0
 40
1.0
 10
907.2174750192598
 20
795.451772692688
 30
0.0
 10
907.2615827518995
 20
795.6363670422328
 30
0.0
 10
907.3500421551711
 20
796.0065766411154
 30
0.0
 10
907.243480888544
 20
796.5204672682586
 30
0.0
 10
906.9597144663318
 20
796.9005822393635
 30
0.0
 10
906.534337935019
 20
797.0921685551663
 30
0.0
 10
906.0384573287274
 20
797.066995506153
 30
0.0
 10
905.5497966711023
 20
796.8213048496666
 30
0.0
 10
905.1426154892488
 20
796.3981484806656
 30
0.0
 10
904.8814820202529
 20
795.8574564117978
 30
0.0
 10
904.7987175232515
 20
795.2863775126128
 30
0.0
 10
904.9068628846024
 20
794.7724374234558
 30
0.0
 10
905.1877225359985
 20
794.396266421514
 30
0.0
 10
905.5972738397397
 20
794.2113734786029
 30
0.0
 10
906.079691684345
 20
794.2483005661254
 30
0.0
 10
906.5600968814908
 20
794.4972706959225
 30
0.0
 10
906.9784210434514
 20
794.918677545009
 30
0.0
 10
907.1381968751463
 20
795.2749808455703
 30
0.0
 10
907.2174750192598
 20
795.451772692688
 30
0.0
  0
SPLINE
  5
1B7
330
1F
100
AcDbEntity
  8
0
  6
Continuous
 62
     7
370
    25
100
AcDbSpline
210
0.0
220
0.0
230
1.0
 70
    11
 71
     3
 72
    23
 73
    19
 74
     0
 42
0.000000001
 43
0.00000001
 40
0.0
 40
0.0
 40
0.0
 40
0.0
 40
0.0625087269203923
 40
0.1250171218339292
 40
0.1875202443599422
 40
0.2500162727500543
 40
0.3125075987227103
 40
0.3749993713655972
 40
0.4374963791695006
 40
0.5000002651215895
 40
0.5625087091230957
 40
0.6250168400561124
 40
0.687519960258428
 40
0.7500161837614555
 40
0.8125076155787814
 40
0.8749992581198828
 40
0.9374960806014968
 40
1.0
 40
1.0
 40
1.0
 40
1.0
 10
891.9761931954324
 20
827.4032248368898
 30
0.0
 10
891.9654767847146
 20
827.4814593428821
 30
0.0
 10
891.944044020198
 20
827.6379279393345
 30
0.0
 10
891.7727452917068
 20
827.8465611373539
 30
0.0
 10
891.5270374091529
 20
827.9950937104962
 30
0.0
 10
891.2341574876841
 20
828.0625325870593
 30
0.0
 10
890.9416286657479
 20
828.0392817647667
 30
0.0
 10
890.6933119144303
 20
827.9292435664509
 30
0.0
 10
890.5271381935296
 20
827.7487391034078
 30
0.0
 10
890.4681766239929
 20
827.524361748272
 30
0.0
 10
890.5252457148412
 20
827.2894308434837
 30
0.0
 10
890.6895686409699
 20
827.0794095773798
 30
0.0
 10
890.9362633433872
 20
826.9266664849113
 30
0.0
 10
891.2277581044809
 20
826.8553378855445
 30
0.0
 10
891.5205932523133
 20
826.8770727625647
 30
0.0
 10
891.7674779776195
 20
826.9890822512185
 30
0.0
 10
891.9410728832418
 20
827.1732139828314
 30
0.0
 10
891.9644859816094
 20
827.3265516502885
 30
0.0
 10
891.9761931954324
 20
827.4032248368898
 30
0.0
  0
SPLINE
  5
1B8
330
1F
100
AcDbEntity
  8
0
  6
Continuous
 62
     7
370
    25
100
AcDbSpline
210
0.0
220
0.0
230
1.0
 70
     8
 71
     3
 72
    13
 73
     9
 74
     0
 42
0.000000001
 43
0.00000001
 40
0.0
 40
0.0
 40
0.0
 40
0.0
 40
0.1251184144110922
 40
0.2500611703263401
 40
0.3733319042016542
 40
0.5000061642944233
 40
0.7495054703155072
 40
0.9999999999999999
 40
0.9999999999999999
 40
0.9999999999999999
 40
0.9999999999999999
 10
907.0946070960806
 20
798.4762292994852
 30
0.0
 10
907.0693576120054
 20
798.5404472719125
 30
0.0
 10
907.0188940925648
 20
798.6687930587157
 30
0.0
 10
907.0048623825339
 20
798.8936660295925
 30
0.0
 10
907.0521713607125
 20
799.1254563025134
 30
0.0
 10
907.1895633132656
 20
799.4145154914197
 30
0.0
 10
907.4485982093374
 20
799.7173275436503
 30
0.0
 10
907.6861261100812
 20
799.9032233436253
 30
0.0
 10
907.805126456755
 20
799.9963562537928
 30
0.0
  0
SPLINE
  5
1B9
330
1F
100
AcDbEntity
  8
0
  6
Continuous
 62
     7
370
    25
100
AcDbSpline
210
0.0
220
0.0
230
1.0
 70
     8
 71
     3
 72
    13
 73
     9
 74
     0
 42
0.000000001
 43
0.00000001
 40
0.0
 40
0.0
 40
0.0
 40
0.0
 40
0.2505015521607622
 40
0.5000525987393291
 40
0.6264952240746502
 40
0.7499659006311845
 40
0.8748525784795947
 40
0.9999999999999999
 40
0.9999999999999999
 40
0.9999999999999999
 40
0.9999999999999999
 10
907.805126456755
 20
799.9963562537928
 30
0.0
 10
907.9264591697898
 20
800.0833403881898
 30
0.0
 10
908.1686642098057
 20
800.2569786035187
 30
0.0
 10
908.5030097362506
 20
800.3972054927164
 30
0.0
 10
908.7709051545978
 20
800.4197995543059
 30
0.0
 10
908.9584885816821
 20
800.368947742472
 30
0.0
 10
909.1072496849921
 20
800.2439316681623
 30
0.0
 10
909.1708783328265
 20
800.1261989805695
 30
0.0
 10
909.2027258337531
 20
800.0672712490398
 30
0.0
  0
SPLINE
  5
1BA
330
1F
100
AcDbEntity
  8
0
  6
Continuous
 62
     7
370
    25
100
AcDbSpline
210
0.0
220
0.0
230
1.0
 70
     8
 71
     3
 72
    13
 73
     9
 74
     0
 42
0.000000001
 43
0.00000001
 40
0.0
 40
0.0
 40
0.0
 40
0.0
 40
0.1251450025344537
 40
0.2500599250222532
 40
0.3701772573018369
 40
0.4999969842027598
 40
0.7494643987529432
 40
1.0
 40
1.0
 40
1.0
 40
1.0
 10
909.2027258337531
 20
800.0672712490398
 30
0.0
 10
909.2278460305645
 20
800.0041509603896
 30
0.0
 10
909.2780402405132
 20
799.8780264302237
 30
0.0
 10
909.2931449312684
 20
799.6603059492429
 30
0.0
 10
909.245592075941
 20
799.4328972886415
 30
0.0
 10
909.109021693023
 20
799.1478040768945
 30
0.0
 10
908.8508050069411
 20
798.84556064991
 30
0.0
 10
908.615307188392
 20
798.6627624129829
 30
0.0
 10
908.4973067249978
 20
798.5711680330522
 30
0.0
  0
SPLINE
  5
1BB
330
1F
100
AcDbEntity
  8
0
  6
Continuous
 62
     7
370
    25
100
AcDbSpline
210
0.0
220
0.0
230
1.0
 70
     8
 71
     3
 72
     9
 73
     5
 74
     0
 42
0.000000001
 43
0.00000001
 40
0.0
 40
0.0
 40
0.0
 40
0.0
 40
0.5015966211653009
 40
1.0
 40
1.0
 40
1.0
 40
1.0
 10
908.4973067249978
 20
798.5711680330522
 30
0.0
 10
908.3568811457238
 20
798.4674513157929
 30
0.0
 10
908.0769239583177
 20
798.260678158074
 30
0.0
 10
907.7698639151788
 20
798.1826475362647
 30
0.0
 10
907.6168241521734
 20
798.1437568107024
 30
0.0
  0
SPLINE
  5
1BC
330
1F
100
AcDbEntity
  8
0
  6
Continuous
 62
     7
370
    25
100
AcDbSpline
210
0.0
220
0.0
230
1.0
 70
     8
 71
     3
 72
    12
 73
     8
 74
     0
 42
0.000000001
 43
0.00000001
 40
0.0
 40
0.0
 40
0.0
 40
0.0
 40
0.2499744251564803
 40
0.4997694931661781
 40
0.7495452907732252
 40
0.8747439722088372
 40
1.0
 40
1.0
 40
1.0
 40
1.0
 10
907.6168208834164
 20
798.1437567940038
 30
0.0
 10
907.56106508842
 20
798.1454349529855
 30
0.0
 10
907.4495935033211
 20
798.1487900668666
 30
0.0
 10
907.299642564361
 20
798.2135399672768
 30
0.0
 10
907.1982787461452
 20
798.3061681981605
 30
0.0
 10
907.1339679657451
 20
798.3987473031727
 30
0.0
 10
907.1077293885754
 20
798.4503980252435
 30
0.0
 10
907.0946070960806
 20
798.4762292994852
 30
0.0
  0
SPLINE
  5
1BD
330
1F
100
AcDbEntity
  8
0
  6
Continuous
 62
     7
370
    25
100
AcDbSpline
210
0.0
220
0.0
230
1.0
 70
     8
 71
     3
 72
    11
 73
     7
 74
     0
 42
0.000000001
 43
0.00000001
 40
0.0
 40
0.0
 40
0.0
 40
0.0
 40
0.2498712548602009
 40
0.4996515344800037
 40
0.7496147673116871
 40
1.0
 40
1.0
 40
1.0
 40
1.0
 10
908.8473785295073
 20
799.8000986524844
 30
0.0
 10
908.8349165152848
 20
799.8223364653525
 30
0.0
 10
908.8099970241154
 20
799.8668039945577
 30
0.0
 10
908.7491707216244
 20
799.9079540395309
 30
0.0
 10
908.6785386542069
 20
799.9271008816494
 30
0.0
 10
908.6281031675045
 20
799.9242338268538
 30
0.0
 10
908.6028641552082
 20
799.9227990904016
 30
0.0
  0
SPLINE
  5
1BE
330
1F
100
AcDbEntity
  8
0
  6
Continuous
 62
     7
370
    25
100
AcDbSpline
210
0.0
220
0.0
230
1.0
 70
     8
 71
     3
 72
     9
 73
     5
 74
     0
 42
0.000000001
 43
0.00000001
 40
0.0
 40
0.0
 40
0.0
 40
0.0
 40
0.4986184813867681
 40
1.0
 40
1.0
 40
1.0
 40
1.0
 10
908.6028641552082
 20
799.9227990904016
 30
0.0
 10
908.4971821355693
 20
799.8894263405035
 30
0.0
 10
908.2852324714794
 20
799.8224959094346
 30
0.0
 10
908.0932635074954
 20
799.6796475771819
 30
0.0
 10
907.9970138168065
 20
799.6080260634259
 30
0.0
  0
SPLINE
  5
1BF
330
1F
100
AcDbEntity
  8
0
  6
Continuous
 62
     7
370
    25
100
AcDbSpline
210
0.0
220
0.0
230
1.0
 70
     8
 71
     3
 72
    13
 73
     9
 74
     0
 42
0.000000001
 43
0.00000001
 40
0.0
 40
0.0
 40
0.0
 40
0.0
 40
0.5001446823876599
 40
0.6252855640042366
 40
0.7502824509019949
 40
0.8748517432010716
 40
0.9373967543515139
 40
1.0
 40
1.0
 40
1.0
 40
1.0
 10
907.9970138168065
 20
799.6080260634259
 30
0.0
 10
907.8554533691095
 20
799.4990015767517
 30
0.0
 10
907.6784731721863
 20
799.3626981428837
 30
0.0
 10
907.5078881207291
 20
799.1427068592127
 30
0.0
 10
907.4464015905785
 20
799.0155382174062
 30
0.0
 10
907.4237340966379
 20
798.901333527831
 30
0.0
 10
907.431249436504
 20
798.8143940581591
 30
0.0
 10
907.4463332372884
 20
798.7768454606626
 30
0.0
 10
907.4538786471085
 20
798.758062425781
 30
0.0
  0
SPLINE
  5
1C0
330
1F
100
AcDbEntity
  8
0
  6
Continuous
 62
     7
370
    25
100
AcDbSpline
210
0.0
220
0.0
230
1.0
 70
     8
 71
     3
 72
    13
 73
     9
 74
     0
 42
0.000000001
 43
0.00000001
 40
0.0
 40
0.0
 40
0.0
 40
0.0
 40
0.1244925679188511
 40
0.1866188962459794
 40
0.2496299294625426
 40
0.3591224997427828
 40
0.4997365689321651
 40
1.0
 40
1.0
 40
1.0
 40
1.0
 10
907.4538786471086
 20
798.7580624257811
 30
0.0
 10
907.4754668001863
 20
798.7236151694951
 30
0.0
 10
907.5078282283957
 20
798.6719774769463
 30
0.0
 10
907.5754690325531
 20
798.6348856133375
 30
0.0
 10
907.6455250228349
 20
798.6159598558344
 30
0.0
 10
907.7481128349649
 20
798.6267995917816
 30
0.0
 10
907.990292614191
 20
798.7151035499064
 30
0.0
 10
908.1805865486244
 20
798.855499227401
 30
0.0
 10
908.3291283471941
 20
798.9650908783831
 30
0.0
  0
SPLINE
  5
1C1
330
1F
100
AcDbEntity
  8
0
  6
Continuous
 62
     7
370
    25
100
AcDbSpline
210
0.0
220
0.0
230
1.0
 70
     8
 71
     3
 72
    12
 73
     8
 74
     0
 42
0.000000001
 43
0.00000001
 40
0.0
 40
0.0
 40
0.0
 40
0.0
 40
0.5003787383999663
 40
0.6264183582886885
 40
0.7507141396955243
 40
0.8753968028127227
 40
1.0
 40
1.0
 40
1.0
 40
1.0
 10
908.3291283471941
 20
798.9650908783831
 30
0.0
 10
908.4679503204877
 20
799.0714928680595
 30
0.0
 10
908.6417399440896
 20
799.2046962889422
 30
0.0
 10
908.8044485199782
 20
799.4247743296768
 30
0.0
 10
908.8604837340954
 20
799.5499534946912
 30
0.0
 10
908.885533791276
 20
799.6852627227997
 30
0.0
 10
908.8600942469392
 20
799.761828144953
 30
0.0
 10
908.8473785295074
 20
799.8000986524845
 30
0.0
  0
LINE
  5
1C2
330
1F
100
AcDbEntity
  8
0
  6
Continuous
 62
     7
370
    25
100
AcDbLine
 10
907.0946070961
 20
798.4762292995
 30
0.0
 11
907.0892019527
 21
798.4790328149
 31
0.0
  0
SPLINE
  5
1C3
330
1F
100
AcDbEntity
  8
0
  6
Continuous
 62
     7
370
    25
100
AcDbSpline
210
0.0
220
0.0
230
1.0
 70
     8
 71
     3
 72
    12
 73
     8
 74
     0
 42
0.000000001
 43
0.00000001
 40
0.0
 40
0.0
 40
0.0
 40
0.0
 40
0.5004189696252841
 40
0.6264639326962262
 40
0.7507567508741233
 40
0.8754238509091389
 40
1.0
 40
1.0
 40
1.0
 40
1.0
 10
908.3236768973882
 20
798.9679936981553
 30
0.0
 10
908.4624977723593
 20
799.0743937788105
 30
0.0
 10
908.6362846920271
 20
799.2075937912247
 30
0.0
 10
908.7990055761885
 20
799.4276499007697
 30
0.0
 10
908.8550496845465
 20
799.5528067989725
 30
0.0
 10
908.8801155623662
 20
799.6880897843203
 30
0.0
 10
908.8546854582079
 20
799.7646383113645
 30
0.0
 10
908.8419750459575
 20
799.8028986082882
 30
0.0
  0
SPLINE
  5
1C4
330
1F
100
AcDbEntity
  8
0
  6
Continuous
 62
     7
370
    25
100
AcDbSpline
210
0.0
220
0.0
230
1.0
 70
     8
 71
     3
 72
    13
 73
     9
 74
     0
 42
0.000000001
 43
0.00000001
 40
0.0
 40
0.0
 40
0.0
 40
0.0
 40
0.1244657118204741
 40
0.1865824484048
 40
0.2495875181198789
 40
0.3590786292330795
 40
0.4996989116947065
 40
1.0
 40
1.0
 40
1.0
 40
1.0
 10
907.4484749441231
 20
798.760862852166
 30
0.0
 10
907.4700583319907
 20
798.7264267416922
 30
0.0
 10
907.5024132777368
 20
798.6748047028849
 30
0.0
 10
907.5700443167742
 20
798.6377339498392
 30
0.0
 10
907.6400945858361
 20
798.6188246136087
 30
0.0
 10
907.7426753314624
 20
798.6296809138349
 30
0.0
 10
907.9848459950653
 20
798.7180072153411
 30
0.0
 10
908.1751366475569
 20
798.8584019981153
 30
0.0
 10
908.3236768973882
 20
798.9679936981553
 30
0.0
  0
LINE
  5
1C5
330
1F
100
AcDbEntity
  8
0
  6
Continuous
 62
     7
370
    25
100
AcDbLine
 10
908.841975046
 20
799.8028986083
 30
0.0
 11
908.8473785295
 21
799.8000986525
 31
0.0
  0
LINE
  5
1C6
330
1F
100
AcDbEntity
  8
0
  6
Continuous
 62
     7
370
    25
100
AcDbLine
 10
907.9983321125
 20
796.7379043497
 30
0.0
 11
907.5688349759
 21
797.6533101594
 31
0.0
  0
LINE
  5
1C7
330
1F
100
AcDbEntity
  8
0
  6
Continuous
 62
     7
370
    25
100
AcDbLine
 10
907.5688349759
 20
797.6533101594
 30
0.0
 11
907.9148170093
 21
797.9227038955
 31
0.0
  0
LINE
  5
1C8
330
1F
100
AcDbEntity
  8
0
  6
Continuous
 62
     7
370
    25
100
AcDbLine
 10
907.9148170093
 20
797.9227038955
 30
0.0
 11
908.2169011178
 21
797.2833489106
 31
0.0
  0
LINE
  5
1C9
330
1F
100
AcDbEntity
  8
0
  6
Continuous
 62
     7
370
    25
100
AcDbLine
 10
908.2169011178
 20
797.2833489106
 30
0.0
 11
908.6135588137
 21
797.484146914
 31
0.0
  0
LINE
  5
1CA
330
1F
100
AcDbEntity
  8
0
  6
Continuous
 62
     7
370
    25
100
AcDbLine
 10
908.6135591412
 20
797.4841473101
 30
0.0
 11
908.5357085886
 21
797.5947106093
 31
0.0
  0
SPLINE
  5
1CB
330
1F
100
AcDbEntity
  8
0
  6
Continuous
 62
     7
370
    25
100
AcDbSpline
210
0.0
220
0.0
230
1.0
 70
     8
 71
     3
 72
    13
 73
     9
 74
     0
 42
0.000000001
 43
0.00000001
 40
0.0
 40
0.0
 40
0.0
 40
0.0
 40
0.2493497925799047
 40
0.373216178535996
 40
0.499830888373497
 40
0.6260619068612204
 40
0.7503146606016148
 40
1.0
 40
1.0
 40
1.0
 40
1.0
 10
908.5357051009071
 20
797.5947175060443
 30
0.0
 10
908.5045482031427
 20
797.6847181102331
 30
0.0
 10
908.4579138819411
 20
797.8194271918562
 30
0.0
 10
908.4711703033495
 20
798.0318324154725
 30
0.0
 10
908.509389309447
 20
798.1923138760984
 30
0.0
 10
908.5735745879992
 20
798.3482408589218
 30
0.0
 10
908.6909497085726
 20
798.5413973491721
 30
0.0
 10
908.8128508352052
 20
798.6499555881225
 30
0.0
 10
908.8942464585309
 20
798.7224419200425
 30
0.0
  0
SPLINE
  5
1CC
330
1F
100
AcDbEntity
  8
0
  6
Continuous
 62
     7
370
    25
100
AcDbSpline
210
0.0
220
0.0
230
1.0
 70
     8
 71
     3
 72
    11
 73
     7
 74
     0
 42
0.000000001
 43
0.00000001
 40
0.0
 40
0.0
 40
0.0
 40
0.0
 40
0.2501147198117456
 40
0.5000591530775251
 40
0.7499822953594601
 40
1.0
 40
1.0
 40
1.0
 40
1.0
 10
908.8942464585309
 20
798.7224419200425
 30
0.0
 10
908.9880417718933
 20
798.7838032404029
 30
0.0
 10
909.175568539602
 20
798.9064841042649
 30
0.0
 10
909.4761371823395
 20
798.9244383865837
 30
0.0
 10
909.7433613123621
 20
798.8291110768829
 30
0.0
 10
909.8443801057705
 20
798.6658918687941
 30
0.0
 10
909.8948990561802
 20
798.58426682853
 30
0.0
  0
SPLINE
  5
1CD
330
1F
100
AcDbEntity
  8
0
  6
Continuous
 62
     7
370
    25
100
AcDbSpline
210
0.0
220
0.0
230
1.0
 70
     8
 71
     3
 72
    11
 73
     7
 74
     0
 42
0.000000001
 43
0.00000001
 40
0.0
 40
0.0
 40
0.0
 40
0.0
 40
0.2502235732092432
 40
0.5000884391592879
 40
0.7498457273135388
 40
1.0
 40
1.0
 40
1.0
 40
1.0
 10
909.8948990561802
 20
798.58426682853
 30
0.0
 10
909.9245772153732
 20
798.502571682521
 30
0.0
 10
909.9838909887228
 20
798.3392985043369
 30
0.0
 10
909.9611923766082
 20
798.0443339562687
 30
0.0
 10
909.8537531502986
 20
797.750176536803
 30
0.0
 10
909.7242012797946
 20
797.589024653399
 30
0.0
 10
909.6593739053556
 20
797.5083847255743
 30
0.0
  0
LINE
  5
1CE
330
1F
100
AcDbEntity
  8
0
  6
Continuous
 62
     7
370
    25
100
AcDbLine
 10
909.6593739054
 20
797.5083847256
 30
0.0
 11
909.4840375978
 21
797.8946706906
 31
0.0
  0
SPLINE
  5
1CF
330
1F
100
AcDbEntity
  8
0
  6
Continuous
 62
     7
370
    25
100
AcDbSpline
210
0.0
220
0.0
230
1.0
 70
     8
 71
     3
 72
    11
 73
     7
 74
     0
 42
0.000000001
 43
0.00000001
 40
0.0
 40
0.0
 40
0.0
 40
0.0
 40
0.2503609227096388
 40
0.5003549716559735
 40
0.750181228867945
 40
0.9999999999999999
 40
0.9999999999999999
 40
0.9999999999999999
 40
0.9999999999999999
 10
909.4840375978059
 20
797.8946706905535
 30
0.0
 10
909.5037056371835
 20
797.9295956844326
 30
0.0
 10
909.5430128947971
 20
797.9993944938205
 30
0.0
 10
909.572807709309
 20
798.1135403372832
 30
0.0
 10
909.5767130735742
 20
798.2261213789412
 30
0.0
 10
909.5539787233458
 20
798.2891736953015
 30
0.0
 10
909.5426117185439
 20
798.3206993811315
 30
0.0
  0
SPLINE
  5
1D0
330
1F
100
AcDbEntity
  8
0
  6
Continuous
 62
     7
370
    25
100
AcDbSpline
210
0.0
220
0.0
230
1.0
 70
     8
 71
     3
 72
    13
 73
     9
 74
     0
 42
0.000000001
 43
0.00000001
 40
0.0
 40
0.0
 40
0.0
 40
0.0
 40
0.2491646507024565
 40
0.3729077973017489
 40
0.4997327286732626
 40
0.6250318025646379
 40
0.7502766585457303
 40
1.0
 40
1.0
 40
1.0
 40
1.0
 10
909.5426088687894
 20
798.3207060689538
 30
0.0
 10
909.5194259200587
 20
798.3578677116923
 30
0.0
 10
909.4847295764088
 20
798.4134850165493
 30
0.0
 10
909.409538432343
 20
798.4507429590144
 30
0.0
 10
909.3472586609581
 20
798.4640549345415
 30
0.0
 10
909.2807051821458
 20
798.4632148726749
 30
0.0
 10
909.1897391919211
 20
798.4398318126915
 30
0.0
 10
909.1260328167292
 20
798.3966417961707
 30
0.0
 10
909.0836053015595
 20
798.3678778761453
 30
0.0
  0
SPLINE
  5
1D1
330
1F
100
AcDbEntity
  8
0
  6
Continuous
 62
     7
370
    25
100
AcDbSpline
210
0.0
220
0.0
230
1.0
 70
     8
 71
     3
 72
    12
 73
     8
 74
     0
 42
0.000000001
 43
0.00000001
 40
0.0
 40
0.0
 40
0.0
 40
0.0
 40
0.250231432508543
 40
0.4998960182221429
 40
0.6285584136775907
 40
0.7507642887923521
 40
1.0
 40
1.0
 40
1.0
 40
1.0
 10
909.0836053015595
 20
798.3678778761453
 30
0.0
 10
909.0458520146807
 20
798.3347628417888
 30
0.0
 10
908.9704309630714
 20
798.268607788237
 30
0.0
 10
908.9064987562348
 20
798.1503739757493
 30
0.0
 10
908.8783282569126
 20
798.0530891710937
 30
0.0
 10
908.8667870950915
 20
797.9543433641877
 30
0.0
 10
908.8867609641825
 20
797.8915002021392
 30
0.0
 10
908.9001633446692
 20
797.8493327099563
 30
0.0
  0
SPLINE
  5
1D2
330
1F
100
AcDbEntity
  8
0
  6
Continuous
 62
     7
370
    25
100
AcDbSpline
210
0.0
220
0.0
230
1.0
 70
     8
 71
     3
 72
    10
 73
     6
 74
     0
 42
0.000000001
 43
0.00000001
 40
0.0
 40
0.0
 40
0.0
 40
0.0
 40
0.2500403712338463
 40
0.5003148379224212
 40
0.9999999999999999
 40
0.9999999999999999
 40
0.9999999999999999
 40
0.9999999999999999
 10
908.9001657924058
 20
797.849326783681
 30
0.0
 10
908.9126148791363
 20
797.8280913950606
 30
0.0
 10
908.9375247078137
 20
797.7856007365983
 30
0.0
 10
909.0144200947711
 20
797.7307173911421
 30
0.0
 10
909.0850347398209
 20
797.7186048224772
 30
0.0
 10
909.1320840595487
 20
797.7105344269462
 30
0.0
  0
LINE
  5
1D3
330
1F
100
AcDbEntity
  8
0
  6
Continuous
 62
     7
370
    25
100
AcDbLine
 10
909.132084536
 20
797.7105343731
 30
0.0
 11
909.2009089766
 21
797.3570405736
 31
0.0
  0
LINE
  5
1D4
330
1F
100
AcDbEntity
  8
0
  6
Continuous
 62
     7
370
    25
100
AcDbLine
 10
909.200908554
 20
797.3570403557
 30
0.0
 11
907.9983321125
 21
796.7379043497
 31
0.0
  0
LINE
  5
1D5
330
1F
100
AcDbEntity
  8
0
  6
Continuous
 62
     7
370
    25
100
AcDbLine
 10
907.9983321125
 20
796.7379043497
 30
0.0
 11
907.9926729773
 21
796.7412525522
 31
0.0
  0
LINE
  5
1D6
330
1F
100
AcDbEntity
  8
0
  6
Continuous
 62
     7
370
    25
100
AcDbLine
 10
907.5688349759
 20
797.6533101594
 30
0.0
 11
907.5633059505
 21
797.6563793405
 31
0.0
  0
LINE
  5
1D7
330
1F
100
AcDbEntity
  8
0
  6
Continuous
 62
     7
370
    25
100
AcDbLine
 10
907.9148170093
 20
797.9227038955
 30
0.0
 11
907.909288461
 21
797.9257720535
 31
0.0
  0
LINE
  5
1D8
330
1F
100
AcDbEntity
  8
0
  6
Continuous
 62
     7
370
    25
100
AcDbLine
 10
908.8942464585
 20
798.72244192
 30
0.0
 11
908.8887232584
 21
798.725498609
 31
0.0
  0
LINE
  5
1D9
330
1F
100
AcDbEntity
  8
0
  6
Continuous
 62
     7
370
    25
100
AcDbLine
 10
908.5357051009
 20
797.594717506
 30
0.0
 11
908.5300916068
 21
797.597967831
 31
0.0
  0
LINE
  5
1DA
330
1F
100
AcDbEntity
  8
0
  6
Continuous
 62
     7
370
    25
100
AcDbLine
 10
908.6135592893
 20
797.4841471556
 30
0.0
 11
908.6079277673
 21
797.4874361416
 31
0.0
  0
LINE
  5
1DB
330
1F
100
AcDbEntity
  8
0
  6
Continuous
 62
     7
370
    25
100
AcDbLine
 10
909.5426088688
 20
798.320706069
 30
0.0
 11
909.5369891691
 21
798.3239697018
 31
0.0
  0
LINE
  5
1DC
330
1F
100
AcDbEntity
  8
0
  6
Continuous
 62
     7
370
    25
100
AcDbLine
 10
909.132084536
 20
797.7105343731
 30
0.0
 11
909.1264340608
 21
797.7138640042
 31
0.0
  0
LINE
  5
1DD
330
1F
100
AcDbEntity
  8
0
  6
Continuous
 62
     7
370
    25
100
AcDbLine
 10
909.4840375978
 20
797.8946706906
 30
0.0
 11
909.4783773361
 21
797.8980213089
 31
0.0
  0
LINE
  5
1DE
330
1F
100
AcDbEntity
  8
0
  6
Continuous
 62
     7
370
    25
100
AcDbLine
 10
909.6593739054
 20
797.5083847256
 30
0.0
 11
909.653657881
 21
797.5118549273
 31
0.0
  0
LINE
  5
1DF
330
1F
100
AcDbEntity
  8
0
  6
Continuous
 62
     7
370
    25
100
AcDbLine
 10
910.3612252608
 20
797.4372746572
 30
0.0
 11
910.3554419801
 21
797.4408890908
 31
0.0
  0
LINE
  5
1E0
330
1F
100
AcDbEntity
  8
0
  6
Continuous
 62
     7
370
    25
100
AcDbLine
 10
908.4052037024
 20
795.8508260786
 30
0.0
 11
910.3612252608
 21
797.4372746572
 31
0.0
  0
LINE
  5
1E1
330
1F
100
AcDbEntity
  8
0
  6
Continuous
 62
     7
370
    25
100
AcDbLine
 10
908.4052037024
 20
795.8508260786
 30
0.0
 11
908.3994192515
 21
795.8544430214
 31
0.0
  0
LINE
  5
1E2
330
1F
100
AcDbEntity
  8
0
  6
Continuous
 62
     7
370
    25
100
AcDbLine
 10
908.6518670843
 20
795.3207870191
 30
0.0
 11
908.4052037024
 21
795.8508260786
 31
0.0
  0
LINE
  5
1E3
330
1F
100
AcDbEntity
  8
0
  6
Continuous
 62
     7
370
    25
100
AcDbLine
 10
910.3612252608
 20
797.4372746572
 30
0.0
 11
910.5260345328
 21
797.0845153503
 31
0.0
  0
LINE
  5
1E4
330
1F
100
AcDbEntity
  8
0
  6
Continuous
 62
     7
370
    25
100
AcDbLine
 10
910.5260345328
 20
797.0845153503
 30
0.0
 11
908.9200659168
 21
795.7818800862
 31
0.0
  0
LINE
  5
1E5
330
1F
100
AcDbEntity
  8
0
  6
Continuous
 62
     7
370
    25
100
AcDbLine
 10
908.9200659168
 20
795.7818800862
 30
0.0
 11
909.0947466874
 21
795.4015146006
 31
0.0
  0
LINE
  5
1E6
330
1F
100
AcDbEntity
  8
0
  6
Continuous
 62
     7
370
    25
100
AcDbLine
 10
909.0947466874
 20
795.4015146006
 30
0.0
 11
908.6518670843
 21
795.3207870191
 31
0.0
  0
LINE
  5
1E7
330
1F
100
AcDbEntity
  8
0
  6
Continuous
 62
     7
370
    25
100
AcDbLine
 10
908.6518670843
 20
795.3207870191
 30
0.0
 11
908.6460074672
 21
795.3245651565
 31
0.0
  0
SPLINE
  5
1E8
330
1F
100
AcDbEntity
  8
0
  6
Continuous
 62
     7
370
    25
100
AcDbSpline
210
0.0
220
0.0
230
1.0
 70
    11
 71
     3
 72
    23
 73
    19
 74
     0
 42
0.000000001
 43
0.00000001
 40
0.0
 40
0.0
 40
0.0
 40
0.0
 40
0.0623529891271178
 40
0.1250441514605845
 40
0.1876154907358925
 40
0.2501075545845802
 40
0.3126591351607625
 40
0.3751608703529733
 40
0.4376974155839857
 40
0.500260949713448
 40
0.5627687402879294
 40
0.6253554674653674
 40
0.6878390785302051
 40
0.7503958985951601
 40
0.8129094249211474
 40
0.8754737621876032
 40
0.9382116897747972
 40
1.0
 40
1.0
 40
1.0
 40
1.0
 10
889.3594431652825
 20
834.6746718656468
 30
0.0
 10
889.332472306023
 20
834.7850863377321
 30
0.0
 10
889.2783843102833
 20
835.006514117926
 30
0.0
 10
888.9268706287395
 20
835.2823139517775
 30
0.0
 10
888.4231148799629
 20
835.4614428254791
 30
0.0
 10
887.8312831238925
 20
835.5227473384306
 30
0.0
 10
887.2443008027365
 20
835.4626665453065
 30
0.0
 10
886.7526488250126
 20
835.2874238850459
 30
0.0
 10
886.4268446246766
 20
835.0235078569325
 30
0.0
 10
886.3230014747364
 20
834.7036592372597
 30
0.0
 10
886.4502625456059
 20
834.3741918203572
 30
0.0
 10
886.7933499283733
 20
834.0845822284084
 30
0.0
 10
887.2991442848559
 20
833.882942454393
 30
0.0
 10
887.8893402920463
 20
833.8026874778117
 30
0.0
 10
888.4767689515753
 20
833.8627015418207
 30
0.0
 10
888.9672094677002
 20
834.0525090998417
 30
0.0
 10
889.3001321066356
 20
834.3414615655054
 30
0.0
 10
889.3397735789295
 20
834.5641678732735
 30
0.0
 10
889.3594431652825
 20
834.6746718656468
 30
0.0
  0
LINE
  5
1E9
330
1F
100
AcDbEntity
  8
0
  6
Continuous
 62
     7
370
    25
100
AcDbLine
 10
890.3332031635
 20
834.4350125079
 30
0.0
 11
890.4254335046
 21
834.7032730578
 31
0.0
  0
LINE
  5
1EA
330
1F
100
AcDbEntity
  8
0
  6
Continuous
 62
     7
370
    25
100
AcDbLine
 10
890.4254335046
 20
834.7032730578
 30
0.0
 11
891.4134341706
 21
834.5600214438
 31
0.0
  0
SPLINE
  5
1EB
330
1F
100
AcDbEntity
  8
0
  6
Continuous
 62
     7
370
    25
100
AcDbSpline
210
0.0
220
0.0
230
1.0
 70
     8
 71
     3
 72
    12
 73
     8
 74
     0
 42
0.000000001
 43
0.00000001
 40
0.0
 40
0.0
 40
0.0
 40
0.0
 40
0.2495719914680404
 40
0.3731158872072068
 40
0.5004974952790696
 40
0.7500799493680145
 40
0.9999999999999999
 40
0.9999999999999999
 40
0.9999999999999999
 40
0.9999999999999999
 10
891.4134346928124
 20
834.5600215063322
 30
0.0
 10
891.3953539298669
 20
834.6229390942244
 30
0.0
 10
891.3683227719711
 20
834.7170023402211
 30
0.0
 10
891.4241258918988
 20
834.8368818950025
 30
0.0
 10
891.5178544204007
 20
834.9453542977045
 30
0.0
 10
891.7020388736763
 20
835.0615317476115
 30
0.0
 10
891.9059080554437
 20
835.1002375022023
 30
0.0
 10
892.0079115404073
 20
835.1196034594411
 30
0.0
  0
SPLINE
  5
1EC
330
1F
100
AcDbEntity
  8
0
  6
Continuous
 62
     7
370
    25
100
AcDbSpline
210
0.0
220
0.0
230
1.0
 70
     8
 71
     3
 72
    11
 73
     7
 74
     0
 42
0.000000001
 43
0.00000001
 40
0.0
 40
0.0
 40
0.0
 40
0.0
 40
0.2499850951128997
 40
0.4999008845914287
 40
0.7499436036084373
 40
1.0
 40
1.0
 40
1.0
 40
1.0
 10
892.0079115404073
 20
835.1196034594411
 30
0.0
 10
892.1155205192797
 20
835.1276524263703
 30
0.0
 10
892.330708643611
 20
835.1437481287405
 30
0.0
 10
892.6426907994328
 20
835.0712765578302
 30
0.0
 10
892.9017586714983
 20
834.9460983648818
 30
0.0
 10
892.9807765854398
 20
834.825902148644
 30
0.0
 10
893.020286622954
 20
834.765802396882
 30
0.0
  0
SPLINE
  5
1ED
330
1F
100
AcDbEntity
  8
0
  6
Continuous
 62
     7
370
    25
100
AcDbSpline
210
0.0
220
0.0
230
1.0
 70
     8
 71
     3
 72
    12
 73
     8
 74
     0
 42
0.000000001
 43
0.00000001
 40
0.0
 40
0.0
 40
0.0
 40
0.0
 40
0.249787889374467
 40
0.3737545070842127
 40
0.5006234685343883
 40
0.7505177363100012
 40
1.0
 40
1.0
 40
1.0
 40
1.0
 10
893.020286622954
 20
834.765802396882
 30
0.0
 10
893.039465905947
 20
834.7024086997545
 30
0.0
 10
893.0681636281595
 20
834.6075535004834
 30
0.0
 10
893.0181815846773
 20
834.482485084515
 30
0.0
 10
892.9273425379134
 20
834.3686815324495
 30
0.0
 10
892.7548980572952
 20
834.2405806451503
 30
0.0
 10
892.5525439650784
 20
834.1975566315162
 30
0.0
 10
892.4514503937702
 20
834.1760623728995
 30
0.0
  0
SPLINE
  5
1EE
330
1F
100
AcDbEntity
  8
0
  6
Continuous
 62
     7
370
    25
100
AcDbSpline
210
0.0
220
0.0
230
1.0
 70
     8
 71
     3
 72
     9
 73
     5
 74
     0
 42
0.000000001
 43
0.00000001
 40
0.0
 40
0.0
 40
0.0
 40
0.0
 40
0.4985783857799267
 40
1.0
 40
1.0
 40
1.0
 40
1.0
 10
892.4514503937702
 20
834.1760623728995
 30
0.0
 10
892.3410040602073
 20
834.1709427090663
 30
0.0
 10
892.1194815539922
 20
834.1606741856419
 30
0.0
 10
891.9020276867461
 20
834.1976991024977
 30
0.0
 10
891.7929916176131
 20
834.2162641960739
 30
0.0
  0
LINE
  5
1EF
330
1F
100
AcDbEntity
  8
0
  6
Continuous
 62
     7
370
    25
100
AcDbLine
 10
891.7929916176
 20
834.2162641961
 30
0.0
 11
890.3332036387
 21
834.4350124386
 31
0.0
  0
SPLINE
  5
1F0
330
1F
100
AcDbEntity
  8
0
  6
Continuous
 62
     7
370
    25
100
AcDbSpline
210
0.0
220
0.0
230
1.0
 70
     8
 71
     3
 72
    13
 73
     9
 74
     0
 42
0.000000001
 43
0.00000001
 40
0.0
 40
0.0
 40
0.0
 40
0.0
 40
0.2493100637782426
 40
0.4987096028630911
 40
0.6236065873611294
 40
0.7492385011184384
 40
0.8745403452682742
 40
1.0
 40
1.0
 40
1.0
 40
1.0
 10
892.569482133607
 20
834.6998944130966
 30
0.0
 10
892.5523170938967
 20
834.7255759157351
 30
0.0
 10
892.5179808540857
 20
834.7769481378898
 30
0.0
 10
892.421710454772
 20
834.8206287498633
 30
0.0
 10
892.33678387287
 20
834.8430315619828
 30
0.0
 10
892.2682846142719
 20
834.8518057995428
 30
0.0
 10
892.1985689794941
 20
834.8530706180451
 30
0.0
 10
892.1535869032595
 20
834.8480579711577
 30
0.0
 10
892.1310817109602
 20
834.8455500704208
 30
0.0
  0
SPLINE
  5
1F1
330
1F
100
AcDbEntity
  8
0
  6
Continuous
 62
     7
370
    25
100
AcDbSpline
210
0.0
220
0.0
230
1.0
 70
     8
 71
     3
 72
    14
 73
    10
 74
     0
 42
0.000000001
 43
0.00000001
 40
0.0
 40
0.0
 40
0.0
 40
0.0
 40
0.2492484916601841
 40
0.3748492835032973
 40
0.4994302710632368
 40
0.6260594354819911
 40
0.7496793522397942
 40
0.8747386526450028
 40
1.0
 40
1.0
 40
1.0
 40
1.0
 10
892.1310817109602
 20
834.8455500704208
 30
0.0
 10
892.0874840774691
 20
834.8374276806486
 30
0.0
 10
892.0219168133794
 20
834.8252122727791
 30
0.0
 10
891.9530547357855
 20
834.7908600733272
 30
0.0
 10
891.9113571641627
 20
834.7597175374384
 30
0.0
 10
891.8815319687632
 20
834.7241867900761
 30
0.0
 10
891.8653081518986
 20
834.6854213111351
 30
0.0
 10
891.8644110445734
 20
834.6450872139909
 30
0.0
 10
891.874216885302
 20
834.6185550859065
 30
0.0
 10
891.8791237630711
 20
834.6052783141267
 30
0.0
  0
SPLINE
  5
1F2
330
1F
100
AcDbEntity
  8
0
  6
Continuous
 62
     7
370
    25
100
AcDbSpline
210
0.0
220
0.0
230
1.0
 70
     8
 71
     3
 72
    13
 73
     9
 74
     0
 42
0.000000001
 43
0.00000001
 40
0.0
 40
0.0
 40
0.0
 40
0.0
 40
0.2492818469979313
 40
0.3716888617382021
 40
0.4998689020058113
 40
0.7492277506817122
 40
0.8745380455322508
 40
1.0
 40
1.0
 40
1.0
 40
1.0
 10
891.8791237630711
 20
834.6052783141267
 30
0.0
 10
891.8955773354877
 20
834.5799435140756
 30
0.0
 10
891.9201102474376
 20
834.5421683487085
 30
0.0
 10
891.9866568044151
 20
834.5035997349614
 30
0.0
 10
892.0629344390662
 20
834.4732377474551
 30
0.0
 10
892.1526748337538
 20
834.4557547849612
 30
0.0
 10
892.2431742132342
 20
834.4548607558501
 30
0.0
 10
892.2872674443508
 20
834.4595083491772
 30
0.0
 10
892.3093273930482
 20
834.4618335512041
 30
0.0
  0
SPLINE
  5
1F3
330
1F
100
AcDbEntity
  8
0
  6
Continuous
 62
     7
370
    25
100
AcDbSpline
210
0.0
220
0.0
230
1.0
 70
     8
 71
     3
 72
    12
 73
     8
 74
     0
 42
0.000000001
 43
0.00000001
 40
0.0
 40
0.0
 40
0.0
 40
0.0
 40
0.2499654939132485
 40
0.4995326708484856
 40
0.7491807308971612
 40
0.8745085216315229
 40
1.0
 40
1.0
 40
1.0
 40
1.0
 10
892.3093273930482
 20
834.4618335512041
 30
0.0
 10
892.3522694274733
 20
834.4700907932694
 30
0.0
 10
892.438085068713
 20
834.4865921195849
 30
0.0
 10
892.5320761812567
 20
834.5456201950357
 30
0.0
 10
892.5763991390945
 20
834.6070110676127
 30
0.0
 10
892.5842819095502
 20
834.6604641797056
 30
0.0
 10
892.5744175381234
 20
834.6867452848458
 30
0.0
 10
892.569482133607
 20
834.6998944130966
 30
0.0
  0
LINE
  5
1F4
330
1F
100
AcDbEntity
  8
0
  6
Continuous
 62
     7
370
    25
100
AcDbLine
 10
890.3332031635
 20
834.4350125079
 30
0.0
 11
890.3328949207
 21
834.4268856847
 31
0.0
  0
LINE
  5
1F5
330
1F
100
AcDbEntity
  8
0
  6
Continuous
 62
     7
370
    25
100
AcDbLine
 10
892.4514503938
 20
834.1760623729
 30
0.0
 11
892.4510677186
 21
834.1680951704
 31
0.0
  0
SPLINE
  5
1F6
330
1F
100
AcDbEntity
  8
0
  6
Continuous
 62
     7
370
    25
100
AcDbSpline
210
0.0
220
0.0
230
1.0
 70
     8
 71
     3
 72
    14
 73
    10
 74
     0
 42
0.000000001
 43
0.00000001
 40
0.0
 40
0.0
 40
0.0
 40
0.0
 40
0.2492839411661552
 40
0.3748960038095673
 40
0.4994811565531205
 40
0.62610679924709
 40
0.7497158608194718
 40
0.8747582403938298
 40
1.0
 40
1.0
 40
1.0
 40
1.0
 10
892.130796393675
 20
834.8373740832499
 30
0.0
 10
892.08719894346
 20
834.8292526168863
 30
0.0
 10
892.0216331080297
 20
834.8170388125368
 30
0.0
 10
891.9527665136821
 20
834.7826939985348
 30
0.0
 10
891.9110652431503
 20
834.7515591320637
 30
0.0
 10
891.8812353335084
 20
834.7160377103588
 30
0.0
 10
891.86500601515
 20
834.6772827437171
 30
0.0
 10
891.8641031353294
 20
834.636959814389
 30
0.0
 10
891.8739053064717
 20
834.6104354438187
 30
0.0
 10
891.8788102963196
 20
834.5971626936812
 30
0.0
  0
SPLINE
  5
1F7
330
1F
100
AcDbEntity
  8
0
  6
Continuous
 62
     7
370
    25
100
AcDbSpline
210
0.0
220
0.0
230
1.0
 70
     8
 71
     3
 72
    13
 73
     9
 74
     0
 42
0.000000001
 43
0.00000001
 40
0.0
 40
0.0
 40
0.0
 40
0.0
 40
0.2492726306596303
 40
0.498658713888352
 40
0.6235600758993205
 40
0.7492034651404849
 40
0.8745217123512954
 40
1.0
 40
1.0
 40
1.0
 40
1.0
 10
892.5691688156277
 20
834.6917784736083
 30
0.0
 10
892.5520068828368
 20
834.7174521014862
 30
0.0
 10
892.517675206268
 20
834.7688110421951
 30
0.0
 10
892.4214119225136
 20
834.8124727636942
 30
0.0
 10
892.3364925992535
 20
834.8348647096699
 30
0.0
 10
892.2679962521456
 20
834.8436334052069
 30
0.0
 10
892.1982828822593
 20
834.844895006196
 30
0.0
 10
892.1533014578473
 20
834.8398821238529
 30
0.0
 10
892.130796393675
 20
834.8373740832499
 30
0.0
  0
LINE
  5
1F8
330
1F
100
AcDbEntity
  8
0
  6
Continuous
 62
     7
370
    25
100
AcDbLine
 10
892.5691688156
 20
834.6917784736
 30
0.0
 11
892.5694821336
 21
834.6998944131
 31
0.0
  0
LINE
  5
1F9
330
1F
100
AcDbEntity
  8
0
  6
Continuous
 62
     7
370
    25
100
AcDbLine
 10
892.1307963937
 20
834.8373740832
 30
0.0
 11
892.131081711
 21
834.8455500704
 31
0.0
  0
SPLINE
  5
1FA
330
1F
100
AcDbEntity
  8
0
  6
Continuous
 62
     7
370
    25
100
AcDbSpline
210
0.0
220
0.0
230
1.0
 70
     8
 71
     3
 72
    13
 73
     9
 74
     0
 42
0.000000001
 43
0.00000001
 40
0.0
 40
0.0
 40
0.0
 40
0.0
 40
0.1251071428656683
 40
0.2500445263445636
 40
0.3722968266575161
 40
0.499933080562035
 40
0.7494744421470253
 40
1.0
 40
1.0
 40
1.0
 40
1.0
 10
889.818425473421
 20
835.5700073152007
 30
0.0
 10
889.8037695860796
 20
835.6112422934482
 30
0.0
 10
889.7744776981465
 20
835.6936562977052
 30
0.0
 10
889.8075365577491
 20
835.8164855732468
 30
0.0
 10
889.9091511188926
 20
835.9272563538448
 30
0.0
 10
890.1243427020182
 20
836.0451026887492
 30
0.0
 10
890.4761918369763
 20
836.141530890654
 30
0.0
 10
890.7790122348181
 20
836.181657724614
 30
0.0
 10
890.930720428561
 20
836.2017606289892
 30
0.0
  0
SPLINE
  5
1FB
330
1F
100
AcDbEntity
  8
0
  6
Continuous
 62
     7
370
    25
100
AcDbSpline
210
0.0
220
0.0
230
1.0
 70
     8
 71
     3
 72
    13
 73
     9
 74
     0
 42
0.000000001
 43
0.00000001
 40
0.0
 40
0.0
 40
0.0
 40
0.0
 40
0.2505223607763755
 40
0.5000848383455242
 40
0.6260933529135883
 40
0.7499822898358566
 40
0.8748433995234624
 40
1.0
 40
1.0
 40
1.0
 40
1.0
 10
890.930720428561
 20
836.2017606289893
 30
0.0
 10
891.0835222339208
 20
836.2182345663555
 30
0.0
 10
891.3885403803869
 20
836.251119320751
 30
0.0
 10
891.7870148768523
 20
836.2453150570968
 30
0.0
 10
892.0872012276419
 20
836.1938623152575
 30
0.0
 10
892.2829585565
 20
836.1218851618341
 30
0.0
 10
892.4207901149131
 20
836.0188559111047
 30
0.0
 10
892.4667355050299
 20
835.9389752862795
 30
0.0
 10
892.489735351044
 20
835.8989877692333
 30
0.0
  0
SPLINE
  5
1FC
330
1F
100
AcDbEntity
  8
0
  6
Continuous
 62
     7
370
    25
100
AcDbSpline
210
0.0
220
0.0
230
1.0
 70
     8
 71
     3
 72
    13
 73
     9
 74
     0
 42
0.000000001
 43
0.00000001
 40
0.0
 40
0.0
 40
0.0
 40
0.0
 40
0.1251478835149368
 40
0.2500808380558792
 40
0.3743068652871938
 40
0.4999950367666409
 40
0.7494696108160427
 40
1.0
 40
1.0
 40
1.0
 40
1.0
 10
892.489735351044
 20
835.8989877692333
 30
0.0
 10
892.5046964996217
 20
835.8580537743435
 30
0.0
 10
892.5345931025004
 20
835.7762560846063
 30
0.0
 10
892.506993491152
 20
835.6496399257095
 30
0.0
 10
892.4074767558585
 20
835.5344083805569
 30
0.0
 10
892.197430604017
 20
835.4102725776071
 30
0.0
 10
891.8516844098082
 20
835.3088837283301
 30
0.0
 10
891.5523367551143
 20
835.2690573233998
 30
0.0
 10
891.4023468751204
 20
835.249102072031
 30
0.0
  0
SPLINE
  5
1FD
330
1F
100
AcDbEntity
  8
0
  6
Continuous
 62
     7
370
    25
100
AcDbSpline
210
0.0
220
0.0
230
1.0
 70
     8
 71
     3
 72
     9
 73
     5
 74
     0
 42
0.000000001
 43
0.00000001
 40
0.0
 40
0.0
 40
0.0
 40
0.0
 40
0.5015991098043077
 40
1.0
 40
1.0
 40
1.0
 40
1.0
 10
891.4023468751204
 20
835.249102072031
 30
0.0
 10
891.2246360222473
 20
835.2285080443439
 30
0.0
 10
890.87034740929
 20
835.1874512974624
 30
0.0
 10
890.5109955016085
 20
835.2272795835421
 30
0.0
 10
890.3318941909267
 20
835.2471300367794
 30
0.0
  0
SPLINE
  5
1FE
330
1F
100
AcDbEntity
  8
0
  6
Continuous
 62
     7
370
    25
100
AcDbSpline
210
0.0
220
0.0
230
1.0
 70
     8
 71
     3
 72
    12
 73
     8
 74
     0
 42
0.000000001
 43
0.00000001
 40
0.0
 40
0.0
 40
0.0
 40
0.0
 40
0.2499813737583378
 40
0.4997557855790883
 40
0.7495931635486014
 40
0.874766021241644
 40
1.0
 40
1.0
 40
1.0
 40
1.0
 10
890.3318906245827
 20
835.2471309087496
 30
0.0
 10
890.2699459344893
 20
835.2632525003409
 30
0.0
 10
890.1461078388954
 20
835.2954823363053
 30
0.0
 10
889.9918040503253
 20
835.3719568687995
 30
0.0
 10
889.8988310909568
 20
835.4502323366323
 30
0.0
 10
889.8456448721956
 20
835.5176179010344
 30
0.0
 10
889.8275000826487
 20
835.5525413356927
 30
0.0
 10
889.818425473421
 20
835.5700073152007
 30
0.0
  0
SPLINE
  5
1FF
330
1F
100
AcDbEntity
  8
0
  6
Continuous
 62
     7
370
    25
100
AcDbSpline
210
0.0
220
0.0
230
1.0
 70
     8
 71
     3
 72
    11
 73
     7
 74
     0
 42
0.000000001
 43
0.00000001
 40
0.0
 40
0.0
 40
0.0
 40
0.0
 40
0.2499503397089153
 40
0.4995998992413408
 40
0.7496092951368676
 40
1.0
 40
1.0
 40
1.0
 40
1.0
 10
892.0401960907537
 20
835.8439829499146
 30
0.0
 10
892.0307479758432
 20
835.859180498726
 30
0.0
 10
892.0118631155029
 20
835.8895573082302
 30
0.0
 10
891.9541769404173
 20
835.9274627835945
 30
0.0
 10
891.8797652034788
 20
835.9553012847175
 30
0.0
 10
891.823427336744
 20
835.9663917495167
 30
0.0
 10
891.7952369384191
 20
835.9719412074286
 30
0.0
  0
SPLINE
  5
200
330
1F
100
AcDbEntity
  8
0
  6
Continuous
 62
     7
370
    25
100
AcDbSpline
210
0.0
220
0.0
230
1.0
 70
     8
 71
     3
 72
     9
 73
     5
 74
     0
 42
0.000000001
 43
0.00000001
 40
0.0
 40
0.0
 40
0.0
 40
0.0
 40
0.4986103484466369
 40
1.0
 40
1.0
 40
1.0
 40
1.0
 10
891.7952369384191
 20
835.9719412074286
 30
0.0
 10
891.6711133852285
 20
835.9800842041147
 30
0.0
 10
891.4221744019577
 20
835.9964155873515
 30
0.0
 10
891.1791078297285
 20
835.9676088405943
 30
0.0
 10
891.0572367657741
 20
835.9531654358752
 30
0.0
  0
SPLINE
  5
201
330
1F
100
AcDbEntity
  8
0
  6
Continuous
 62
     7
370
    25
100
AcDbSpline
210
0.0
220
0.0
230
1.0
 70
     8
 71
     3
 72
    13
 73
     9
 74
     0
 42
0.000000001
 43
0.00000001
 40
0.0
 40
0.0
 40
0.0
 40
0.0
 40
0.5001692595923528
 40
0.6253306204935961
 40
0.7502738571976405
 40
0.8748638693158458
 40
0.9374239132637714
 40
1.0
 40
1.0
 40
1.0
 40
1.0
 10
891.0572367657741
 20
835.9531654358752
 30
0.0
 10
890.8772156340112
 20
835.9300769708494
 30
0.0
 10
890.6521463722197
 20
835.9012108942483
 30
0.0
 10
890.4168532550495
 20
835.8256254747088
 30
0.0
 10
890.3219492135355
 20
835.7727974690168
 30
0.0
 10
890.2725603935024
 20
835.7170558202372
 30
0.0
 10
890.2629876813654
 20
835.6681227854581
 30
0.0
 10
890.2718039276482
 20
835.643873258943
 30
0.0
 10
890.2762126159226
 20
835.6317469412583
 30
0.0
  0
SPLINE
  5
202
330
1F
100
AcDbEntity
  8
0
  6
Continuous
 62
     7
370
    25
100
AcDbSpline
210
0.0
220
0.0
230
1.0
 70
     8
 71
     3
 72
    13
 73
     9
 74
     0
 42
0.000000001
 43
0.00000001
 40
0.0
 40
0.0
 40
0.0
 40
0.0
 40
0.1245583036893791
 40
0.1872233927059744
 40
0.2496789448384855
 40
0.3747192602987508
 40
0.4997089642721163
 40
1.0
 40
1.0
 40
1.0
 40
1.0
 10
890.2762126159226
 20
835.6317469412583
 30
0.0
 10
890.2929620348281
 20
835.6074041618773
 30
0.0
 10
890.3181380603555
 20
835.5708145680196
 30
0.0
 10
890.3856734841252
 20
835.5328118277023
 30
0.0
 10
890.4646912753502
 20
835.5022550333366
 30
0.0
 10
890.5822433052459
 20
835.4828590830108
 30
0.0
 10
890.8692894914499
 20
835.4692731001286
 30
0.0
 10
891.1040782422522
 20
835.49637274333
 30
0.0
 10
891.2919341921609
 20
835.5180553375702
 30
0.0
  0
SPLINE
  5
203
330
1F
100
AcDbEntity
  8
0
  6
Continuous
 62
     7
370
    25
100
AcDbSpline
210
0.0
220
0.0
230
1.0
 70
     8
 71
     3
 72
    12
 73
     8
 74
     0
 42
0.000000001
 43
0.00000001
 40
0.0
 40
0.0
 40
0.0
 40
0.0
 40
0.5003329875186655
 40
0.6255463004560253
 40
0.7506189492382785
 40
0.8753508707448371
 40
1.0
 40
1.0
 40
1.0
 40
1.0
 10
891.2919341921609
 20
835.5180553375702
 30
0.0
 10
891.468025510828
 20
835.5408674881137
 30
0.0
 10
891.6881854356835
 20
835.5693886065169
 30
0.0
 10
891.9145232358908
 20
835.6486287483505
 30
0.0
 10
892.0024374001525
 20
835.7033305976591
 30
0.0
 10
892.058828472037
 20
835.7714782018804
 30
0.0
 10
892.0464055097444
 20
835.8198200502551
 30
0.0
 10
892.0401960907536
 20
835.8439829499144
 30
0.0
  0
LINE
  5
204
330
1F
100
AcDbEntity
  8
0
  6
Continuous
 62
     7
370
    25
100
AcDbLine
 10
890.3318941909
 20
835.2471300368
 30
0.0
 11
890.331694765
 21
835.238769855
 31
0.0
  0
LINE
  5
205
330
1F
100
AcDbEntity
  8
0
  6
Continuous
 62
     7
370
    25
100
AcDbLine
 10
891.4023468751
 20
835.249102072
 30
0.0
 11
891.4021295169
 21
835.2407803461
 31
0.0
  0
LINE
  5
206
330
1F
100
AcDbEntity
  8
0
  6
Continuous
 62
     7
370
    25
100
AcDbLine
 10
889.8184254734
 20
835.5700073152
 30
0.0
 11
889.818277891
 21
835.5615359547
 31
0.0
  0
SPLINE
  5
207
330
1F
100
AcDbEntity
  8
0
  6
Continuous
 62
     7
370
    25
100
AcDbSpline
210
0.0
220
0.0
230
1.0
 70
     8
 71
     3
 72
    12
 73
     8
 74
     0
 42
0.000000001
 43
0.00000001
 40
0.0
 40
0.0
 40
0.0
 40
0.0
 40
0.0304717459515626
 40
0.088813566858627
 40
0.3925556175487269
 40
0.6962774394174145
 40
1.0
 40
1.0
 40
1.0
 40
1.0
 10
895.8077109315508
 20
835.7920356030423
 30
0.0
 10
895.8034517099256
 20
835.8017483882038
 30
0.0
 10
895.7910376964595
 20
835.8300574682183
 30
0.0
 10
895.7291891594726
 20
835.953529122546
 30
0.0
 10
895.5834555770665
 20
836.1503409654244
 30
0.0
 10
895.3135282027093
 20
836.365663432644
 30
0.0
 10
895.1056101814452
 20
836.4357986813867
 30
0.0
 10
895.0016510443885
 20
836.4708663484041
 30
0.0
  0
SPLINE
  5
208
330
1F
100
AcDbEntity
  8
0
  6
Continuous
 62
     7
370
    25
100
AcDbSpline
210
0.0
220
0.0
230
1.0
 70
     8
 71
     3
 72
    11
 73
     7
 74
     0
 42
0.000000001
 43
0.00000001
 40
0.0
 40
0.0
 40
0.0
 40
0.0
 40
0.3704320937878748
 40
0.7442498469312568
 40
0.9442480537688119
 40
0.9999999999999999
 40
0.9999999999999999
 40
0.9999999999999999
 40
0.9999999999999999
 10
894.978085473899
 20
836.4905045702147
 30
0.0
 10
894.9795750400586
 20
836.4877175066575
 30
0.0
 10
894.9825677866511
 20
836.4821179064592
 30
0.0
 10
894.9898349669724
 20
836.4754160149131
 30
0.0
 10
894.9973580418385
 20
836.4720011199582
 30
0.0
 10
895.0008826924322
 20
836.4710694472684
 30
0.0
 10
895.0016510443884
 20
836.4708663484041
 30
0.0
  0
SPLINE
  5
209
330
1F
100
AcDbEntity
  8
0
  6
Continuous
 62
     7
370
    25
100
AcDbSpline
210
0.0
220
0.0
230
1.0
 70
     8
 71
     3
 72
    12
 73
     8
 74
     0
 42
0.000000001
 43
0.00000001
 40
0.0
 40
0.0
 40
0.0
 40
0.0
 40
0.0304717459459412
 40
0.0888135668586635
 40
0.3925556175487644
 40
0.6962774394174243
 40
1.0
 40
1.0
 40
1.0
 40
1.0
 10
915.0082183976773
 20
794.6164144646435
 30
0.0
 10
915.0129210478894
 20
794.6069084536299
 30
0.0
 10
915.0266274872829
 20
794.5792020417225
 30
0.0
 10
915.0814567887098
 20
794.4524572640988
 30
0.0
 10
915.1385476662015
 20
794.2143106490777
 30
0.0
 10
915.1299882739419
 20
793.86912766989
 30
0.0
 10
915.0500678636089
 20
793.6647711561818
 30
0.0
 10
915.0101076098468
 20
793.5625927750688
 30
0.0
  0
SPLINE
  5
20A
330
1F
100
AcDbEntity
  8
0
  6
Continuous
 62
     7
370
    25
100
AcDbSpline
210
0.0
220
0.0
230
1.0
 70
     8
 71
     3
 72
    10
 73
     6
 74
     0
 42
0.000000001
 43
0.00000001
 40
0.0
 40
0.0
 40
0.0
 40
0.0
 40
0.2117958997124794
 40
0.4880069094716996
 40
1.0
 40
1.0
 40
1.0
 40
1.0
 10
915.0101076098468
 20
793.5625927750688
 30
0.0
 10
915.0089926059741
 20
793.559852556323
 30
0.0
 10
915.0064234835561
 20
793.5535387151045
 30
0.0
 10
915.0060195042018
 20
793.5423721569454
 30
0.0
 10
915.0084348012741
 20
793.5360342221763
 30
0.0
 10
915.0100037038111
 20
793.53191729509
 30
0.0
  0
SPLINE
  5
20B
330
1F
100
AcDbEntity
  8
0
  6
Continuous
 62
     7
370
    25
100
AcDbSpline
210
0.0
220
0.0
230
1.0
 70
     8
 71
     3
 72
    13
 73
     9
 74
     0
 42
0.000000001
 43
0.00000001
 40
0.0
 40
0.0
 40
0.0
 40
0.0
 40
0.5002067711445528
 40
0.6253734220217549
 40
0.7503144145933844
 40
0.8748901131385193
 40
0.9374379659999742
 40
0.9999999999999999
 40
0.9999999999999999
 40
0.9999999999999999
 40
0.9999999999999999
 10
891.0571212284136
 20
835.9446253544808
 30
0.0
 10
890.8771012956497
 20
835.921537895069
 30
0.0
 10
890.6520350073084
 20
835.8926732648183
 30
0.0
 10
890.4167339666174
 20
835.8171020075285
 30
0.0
 10
890.321824955244
 20
835.7642877360774
 30
0.0
 10
890.2724261934243
 20
835.708559980156
 30
0.0
 10
890.2628460201258
 20
835.6596389925132
 30
0.0
 10
890.271658979962
 20
835.635396310286
 30
0.0
 10
890.2760659593523
 20
835.6232735952248
 30
0.0
  0
SPLINE
  5
20C
330
1F
100
AcDbEntity
  8
0
  6
Continuous
 62
     7
370
    25
100
AcDbSpline
210
0.0
220
0.0
230
1.0
 70
     8
 71
     3
 72
     9
 73
     5
 74
     0
 42
0.000000001
 43
0.00000001
 40
0.0
 40
0.0
 40
0.0
 40
0.0
 40
0.4986042877410531
 40
1.0
 40
1.0
 40
1.0
 40
1.0
 10
891.795112086504
 20
835.9634211011612
 30
0.0
 10
891.6709909332219
 20
835.9715572772253
 30
0.0
 10
891.4220537372657
 20
835.9878751795461
 30
0.0
 10
891.1789915612701
 20
835.9590687664784
 30
0.0
 10
891.0571212284136
 20
835.9446253544808
 30
0.0
  0
SPLINE
  5
20D
330
1F
100
AcDbEntity
  8
0
  6
Continuous
 62
     7
370
    25
100
AcDbSpline
210
0.0
220
0.0
230
1.0
 70
     8
 71
     3
 72
    11
 73
     7
 74
     0
 42
0.000000001
 43
0.00000001
 40
0.0
 40
0.0
 40
0.0
 40
0.0
 40
0.2499266668756135
 40
0.4995646701623871
 40
0.7495830234032126
 40
1.0
 40
1.0
 40
1.0
 40
1.0
 10
892.0400495592003
 20
835.8355093357812
 30
0.0
 10
892.0306035532182
 20
835.8507021620595
 30
0.0
 10
892.0117224513267
 20
835.8810702670056
 30
0.0
 10
891.9540405070808
 20
835.9189628366635
 30
0.0
 10
891.8796336823673
 20
835.9467897773018
 30
0.0
 10
891.8233009091417
 20
835.957874383382
 30
0.0
 10
891.795112086504
 20
835.9634211011611
 30
0.0
  0
LINE
  5
20E
330
1F
100
AcDbEntity
  8
0
  6
Continuous
 62
     7
370
    25
100
AcDbLine
 10
892.0400495592
 20
835.8355093358
 30
0.0
 11
892.0401960908
 21
835.8439829499
 31
0.0
  0
LINE
  5
20F
330
1F
100
AcDbEntity
  8
0
  6
Continuous
 62
     7
370
    25
100
AcDbLine
 10
891.7951120865
 20
835.9634211012
 30
0.0
 11
891.7952369384
 21
835.9719412074
 31
0.0
  0
SPLINE
  5
210
330
1F
100
AcDbEntity
  8
0
  6
Continuous
 62
     7
370
    25
100
AcDbSpline
210
0.0
220
0.0
230
1.0
 70
     8
 71
     3
 72
    12
 73
     8
 74
     0
 42
0.000000001
 43
0.00000001
 40
0.0
 40
0.0
 40
0.0
 40
0.0
 40
0.2238925571850161
 40
0.4477848984197664
 40
0.6716824862031461
 40
0.8955821585469023
 40
1.0
 40
1.0
 40
1.0
 40
1.0
 10
893.6832397122835
 20
840.8497374321195
 30
0.0
 10
893.6553719511525
 20
840.8494019383663
 30
0.0
 10
893.5996364557698
 20
840.8487309511835
 30
0.0
 10
893.5276749897429
 20
840.8481275387942
 30
0.0
 10
893.4752825221126
 20
840.8477988479898
 30
0.0
 10
893.4519471778692
 20
840.8477046595079
 30
0.0
 10
893.449998516938
 20
840.8477147118064
 30
0.0
 10
893.4493787663623
 20
840.8477179088316
 30
0.0
  0
LINE
  5
211
330
1F
100
AcDbEntity
  8
0
  6
Continuous
 62
     7
370
    25
100
AcDbLine
 10
893.6832397123
 20
840.8497374321
 30
0.0
 11
912.7780702382
 21
841.0578249738
 31
0.0
  0
LINE
  5
212
330
1F
100
AcDbEntity
  8
0
  6
Continuous
 62
     7
370
    25
100
AcDbLine
 10
912.7780702382
 20
841.0578249738
 30
0.0
 11
914.2567065949
 21
841.0762037874
 31
0.0
  0
SPLINE
  5
213
330
1F
100
AcDbEntity
  8
0
  6
Continuous
 62
     7
370
    25
100
AcDbSpline
210
0.0
220
0.0
230
1.0
 70
    11
 71
     3
 72
    23
 73
    19
 74
     0
 42
0.000000001
 43
0.00000001
 40
0.0
 40
0.0
 40
0.0
 40
0.0
 40
0.062499781689044
 40
0.1250061981099094
 40
0.1875154768985736
 40
0.2500221568877309
 40
0.3125223099417616
 40
0.3750158774846326
 40
0.4375067065708671
 40
0.5000002051704349
 40
0.5625001050327115
 40
0.6250063646155819
 40
0.6875153284163326
 40
0.7500218378775435
 40
0.8125220978019408
 40
0.8750158588647121
 40
0.9375066943841596
 40
1.0
 40
1.0
 40
1.0
 40
1.0
 10
910.6892575761348
 20
786.6446473134238
 30
0.0
 10
910.7312131750248
 20
786.7225918949703
 30
0.0
 10
910.815128826647
 20
786.8784893323542
 30
0.0
 10
910.8428610540817
 20
787.0718428786193
 30
0.0
 10
910.788352376849
 20
787.1975172560182
 30
0.0
 10
910.6542862350647
 20
787.2359748351772
 30
0.0
 10
910.4633111025028
 20
787.1808196827018
 30
0.0
 10
910.2451556089834
 20
787.039497163412
 30
0.0
 10
910.0338909065559
 20
786.8328899841301
 30
0.0
 10
909.8616605648822
 20
786.592456703721
 30
0.0
 10
909.7539645779391
 20
786.3554354135723
 30
0.0
 10
909.7261484114127
 20
786.1587961935602
 30
0.0
 10
909.7817291741732
 20
786.0331114890472
 30
0.0
 10
909.9121144477654
 20
785.9975299911943
 30
0.0
 10
910.0985719425585
 20
786.0568936978251
 30
0.0
 10
910.3122594583617
 20
786.201160280546
 30
0.0
 10
910.5270024897891
 20
786.4081181218002
 30
0.0
 10
910.6351718347591
 20
786.5658032107576
 30
0.0
 10
910.6892575761348
 20
786.6446473134238
 30
0.0
  0
LINE
  5
214
330
1F
100
AcDbEntity
  8
0
  6
Continuous
 62
     7
370
    25
100
AcDbLine
 10
916.5410208049
 20
837.5726721894
 30
0.0
 11
929.6993798543
 21
809.3544801455
 31
0.0
  0
LINE
  5
215
330
1F
100
AcDbEntity
  8
0
  6
Continuous
 62
     7
370
    25
100
AcDbLine
 10
915.1776611538
 20
840.4964063963
 30
0.0
 11
916.5410208049
 21
837.5726721894
 31
0.0
  0
SPLINE
  5
216
330
1F
100
AcDbEntity
  8
0
  6
Continuous
 62
     7
370
    25
100
AcDbSpline
210
0.0
220
0.0
230
1.0
 70
     8
 71
     3
 72
    11
 73
     7
 74
     0
 42
0.000000001
 43
0.00000001
 40
0.0
 40
0.0
 40
0.0
 40
0.0
 40
0.2933118760927133
 40
0.586599120141993
 40
0.8805021461502667
 40
1.0
 40
1.0
 40
1.0
 40
1.0
 10
914.2567065948967
 20
841.0762037874165
 30
0.0
 10
914.369407463582
 20
841.0665333630543
 30
0.0
 10
914.5947997364441
 20
841.0471933264428
 30
0.0
 10
914.8955562161502
 20
840.8779889536211
 30
0.0
 10
915.0840042757466
 20
840.6773884765255
 30
0.0
 10
915.1566594226962
 20
840.536990035926
 30
0.0
 10
915.1776611538356
 20
840.4964063962848
 30
0.0
  0
LINE
  5
217
330
1F
100
AcDbEntity
  8
0
  6
Continuous
 62
     7
370
    25
100
AcDbLine
 10
929.6993798543
 20
809.3544801455
 30
0.0
 11
931.087997547
 21
806.3765798936
 31
0.0
  0
SPLINE
  5
218
330
1F
100
AcDbEntity
  8
0
  6
Continuous
 62
     7
370
    25
100
AcDbSpline
210
0.0
220
0.0
230
1.0
 70
     8
 71
     3
 72
    13
 73
     9
 74
     0
 42
0.000000001
 43
0.00000001
 40
0.0
 40
0.0
 40
0.0
 40
0.0
 40
0.1251115847305333
 40
0.2500644580942257
 40
0.3700265497737006
 40
0.4999685535844507
 40
0.7494901169627491
 40
1.0
 40
1.0
 40
1.0
 40
1.0
 10
913.2928290539326
 20
785.2229940504743
 30
0.0
 10
913.2943210629858
 20
785.2298319612746
 30
0.0
 10
913.2973031883915
 20
785.243499108585
 30
0.0
 10
913.3519096958066
 20
785.3192079226685
 30
0.0
 10
913.4492735822898
 20
785.43921032973
 30
0.0
 10
913.6248790194235
 20
785.6429511543034
 30
0.0
 10
913.8887437995313
 20
785.934544766739
 30
0.0
 10
914.1039169381243
 20
786.1644093871619
 30
0.0
 10
914.2117161538896
 20
786.2795688628096
 30
0.0
  0
SPLINE
  5
219
330
1F
100
AcDbEntity
  8
0
  6
Continuous
 62
     7
370
    25
100
AcDbSpline
210
0.0
220
0.0
230
1.0
 70
     8
 71
     3
 72
    13
 73
     9
 74
     0
 42
0.000000001
 43
0.00000001
 40
0.0
 40
0.0
 40
0.0
 40
0.0
 40
0.2505173583883758
 40
0.5000982881272727
 40
0.6320130013564197
 40
0.7499891047179625
 40
0.8748669193773144
 40
1.0
 40
1.0
 40
1.0
 40
1.0
 10
914.2117161538896
 20
786.2795688628096
 30
0.0
 10
914.319325645553
 20
786.3937303813595
 30
0.0
 10
914.5341423868497
 20
786.6216266850894
 30
0.0
 10
914.8054093870286
 20
786.8996417599318
 30
0.0
 10
914.9946486586292
 20
787.0846687439239
 30
0.0
 10
915.1072602167973
 20
787.1883686434289
 30
0.0
 10
915.1722738913344
 20
787.2397536363474
 30
0.0
 10
915.1811171115822
 20
787.238611054001
 30
0.0
 10
915.1855432362556
 20
787.2380391795284
 30
0.0
  0
SPLINE
  5
21A
330
1F
100
AcDbEntity
  8
0
  6
Continuous
 62
     7
370
    25
100
AcDbSpline
210
0.0
220
0.0
230
1.0
 70
     8
 71
     3
 72
    13
 73
     9
 74
     0
 42
0.000000001
 43
0.00000001
 40
0.0
 40
0.0
 40
0.0
 40
0.0
 40
0.1251620177314012
 40
0.2501095207698986
 40
0.3698568257067838
 40
0.5000384139621079
 40
0.74947470638902
 40
1.0
 40
1.0
 40
1.0
 40
1.0
 10
915.1855432362556
 20
787.2380391795284
 30
0.0
 10
915.184111666083
 20
787.2317626927766
 30
0.0
 10
915.1812509793
 20
787.2192204765186
 30
0.0
 10
915.1273195185206
 20
787.1514689848341
 30
0.0
 10
915.0272004982813
 20
787.0377952112326
 30
0.0
 10
914.8500277449969
 20
786.8437540833503
 30
0.0
 10
914.5854148140354
 20
786.5597061344878
 30
0.0
 10
914.3725227234461
 20
786.3329305825439
 30
0.0
 10
914.2658448205993
 20
786.2192958287526
 30
0.0
  0
SPLINE
  5
21B
330
1F
100
AcDbEntity
  8
0
  6
Continuous
 62
     7
370
    25
100
AcDbSpline
210
0.0
220
0.0
230
1.0
 70
     8
 71
     3
 72
     9
 73
     5
 74
     0
 42
0.000000001
 43
0.00000001
 40
0.0
 40
0.0
 40
0.0
 40
0.0
 40
0.501604324400464
 40
1.0
 40
1.0
 40
1.0
 40
1.0
 10
914.2658448205993
 20
786.2192958287526
 30
0.0
 10
914.1403812289414
 20
786.0856919222334
 30
0.0
 10
913.8902566076914
 20
785.8193387430042
 30
0.0
 10
913.6607801228735
 20
785.5792861169396
 30
0.0
 10
913.5464100351883
 20
785.4596449261924
 30
0.0
  0
SPLINE
  5
21C
330
1F
100
AcDbEntity
  8
0
  6
Continuous
 62
     7
370
    25
100
AcDbSpline
210
0.0
220
0.0
230
1.0
 70
     8
 71
     3
 72
    12
 73
     8
 74
     0
 42
0.000000001
 43
0.00000001
 40
0.0
 40
0.0
 40
0.0
 40
0.0
 40
0.2500128312144764
 40
0.4998243404296169
 40
0.7495862285488707
 40
0.8747655307630391
 40
1.0
 40
1.0
 40
1.0
 40
1.0
 10
913.5464079504201
 20
785.4596427807143
 30
0.0
 10
913.5095202675452
 20
785.4217989866568
 30
0.0
 10
913.435774605479
 20
785.3461418721308
 30
0.0
 10
913.3538546123659
 20
785.2660134825151
 30
0.0
 10
913.3137881002249
 20
785.2314321121107
 30
0.0
 10
913.2965763109189
 20
785.22066789145
 30
0.0
 10
913.2940783230332
 20
785.2222185502611
 30
0.0
 10
913.2928290539326
 20
785.2229940504743
 30
0.0
  0
SPLINE
  5
21D
330
1F
100
AcDbEntity
  8
0
  6
Continuous
 62
     7
370
    25
100
AcDbSpline
210
0.0
220
0.0
230
1.0
 70
     8
 71
     3
 72
    11
 73
     7
 74
     0
 42
0.000000001
 43
0.00000001
 40
0.0
 40
0.0
 40
0.0
 40
0.0
 40
0.2499690632433946
 40
0.4997391479173549
 40
0.7497360711055399
 40
1.0
 40
1.0
 40
1.0
 40
1.0
 10
914.8669227639145
 20
786.8988720603822
 30
0.0
 10
914.8649575840225
 20
786.8987407608788
 30
0.0
 10
914.8610287885464
 20
786.8984782663881
 30
0.0
 10
914.8314698475716
 20
786.8728080532455
 30
0.0
 10
914.789181666358
 20
786.8328500150135
 30
0.0
 10
914.7538675487164
 20
786.7977815655627
 30
0.0
 10
914.7362010657412
 20
786.7802379822435
 30
0.0
  0
SPLINE
  5
21E
330
1F
100
AcDbEntity
  8
0
  6
Continuous
 62
     7
370
    25
100
AcDbSpline
210
0.0
220
0.0
230
1.0
 70
     8
 71
     3
 72
     9
 73
     5
 74
     0
 42
0.000000001
 43
0.00000001
 40
0.0
 40
0.0
 40
0.0
 40
0.0
 40
0.4985671949631778
 40
1.0
 40
1.0
 40
1.0
 40
1.0
 10
914.7362010657412
 20
786.7802379822436
 30
0.0
 10
914.65461929313
 20
786.6968467591751
 30
0.0
 10
914.4909868411048
 20
786.5295850060734
 30
0.0
 10
914.3191752139235
 20
786.3468401004961
 30
0.0
 10
914.2330232277682
 20
786.2552058098863
 30
0.0
  0
SPLINE
  5
21F
330
1F
100
AcDbEntity
  8
0
  6
Continuous
 62
     7
370
    25
100
AcDbSpline
210
0.0
220
0.0
230
1.0
 70
     8
 71
     3
 72
    13
 73
     9
 74
     0
 42
0.000000001
 43
0.00000001
 40
0.0
 40
0.0
 40
0.0
 40
0.0
 40
0.5001806219016189
 40
0.6253175645763209
 40
0.7503019178271814
 40
0.8748529771536415
 40
0.9374198978360823
 40
1.0
 40
1.0
 40
1.0
 40
1.0
 10
914.2330232277682
 20
786.2552058098863
 30
0.0
 10
914.1053819526803
 20
786.1190942834526
 30
0.0
 10
913.9458069356116
 20
785.9489298978419
 30
0.0
 10
913.7662772463492
 20
785.7509095889294
 30
0.0
 10
913.6884627163923
 20
785.6620936527665
 30
0.0
 10
913.6392493950812
 20
785.6030520146239
 30
0.0
 10
913.6199146431853
 20
785.5764030123997
 30
0.0
 10
913.6191128542821
 20
785.5725410598684
 30
0.0
 10
913.6187119176049
 20
785.5706098802168
 30
0.0
  0
SPLINE
  5
220
330
1F
100
AcDbEntity
  8
0
  6
Continuous
 62
     7
370
    25
100
AcDbSpline
210
0.0
220
0.0
230
1.0
 70
     8
 71
     3
 72
    13
 73
     9
 74
     0
 42
0.000000001
 43
0.00000001
 40
0.0
 40
0.0
 40
0.0
 40
0.0
 40
0.1245276035146748
 40
0.188332661204436
 40
0.2497176263683746
 40
0.3616751808222806
 40
0.4997741275501862
 40
1.0
 40
1.0
 40
1.0
 40
1.0
 10
913.6187119176049
 20
785.5706098802169
 30
0.0
 10
913.6233746968787
 20
785.5725849687251
 30
0.0
 10
913.6304265761768
 20
785.5755720468057
 30
0.0
 10
913.664850214834
 20
785.6075069270605
 30
0.0
 10
913.7074001297103
 20
785.6491231698108
 30
0.0
 10
913.7796362419076
 20
785.722870128925
 30
0.0
 10
913.9690863229857
 20
785.9202769769358
 30
0.0
 10
914.1383155351809
 20
786.100325183801
 30
0.0
 10
914.2709327040128
 20
786.2414207023462
 30
0.0
  0
SPLINE
  5
221
330
1F
100
AcDbEntity
  8
0
  6
Continuous
 62
     7
370
    25
100
AcDbSpline
210
0.0
220
0.0
230
1.0
 70
     8
 71
     3
 72
    12
 73
     8
 74
     0
 42
0.000000001
 43
0.00000001
 40
0.0
 40
0.0
 40
0.0
 40
0.0
 40
0.5003806496473509
 40
0.6256212777620814
 40
0.7507647116690643
 40
0.8754137090267652
 40
1.0
 40
1.0
 40
1.0
 40
1.0
 10
914.2709327040128
 20
786.2414207023462
 30
0.0
 10
914.3959712529725
 20
786.3745914753085
 30
0.0
 10
914.5523057891396
 20
786.5410936555986
 30
0.0
 10
914.7275847317015
 20
786.7320313138745
 30
0.0
 10
914.8022000135713
 20
786.8154838128754
 30
0.0
 10
914.8592664137808
 20
786.8822535422073
 30
0.0
 10
914.8643710753059
 20
786.8933334835436
 30
0.0
 10
914.8669227639145
 20
786.8988720603822
 30
0.0
  0
LINE
  5
222
330
1F
100
AcDbEntity
  8
0
  6
Continuous
 62
     7
370
    25
100
AcDbLine
 10
913.2928290539
 20
785.2229940505
 30
0.0
 11
913.2855434879
 21
785.2298301453
 31
0.0
  0
LINE
  5
223
330
1F
100
AcDbEntity
  8
0
  6
Continuous
 62
     7
370
    25
100
AcDbLine
 10
915.1855432363
 20
787.2380391795
 30
0.0
 11
915.1782577616
 21
787.2448750784
 31
0.0
  0
SPLINE
  5
224
330
1F
100
AcDbEntity
  8
0
  6
Continuous
 62
     7
370
    25
100
AcDbSpline
210
0.0
220
0.0
230
1.0
 70
     8
 71
     3
 72
    12
 73
     8
 74
     0
 42
0.000000001
 43
0.00000001
 40
0.0
 40
0.0
 40
0.0
 40
0.0
 40
0.500420799569825
 40
0.625666826619089
 40
0.7508072588069143
 40
0.8754407572050706
 40
1.0
 40
1.0
 40
1.0
 40
1.0
 10
914.2636449769075
 20
786.2482614314948
 30
0.0
 10
914.3886822587141
 20
786.381430816516
 30
0.0
 10
914.5450140486482
 20
786.5479300239841
 30
0.0
 10
914.7202946285744
 20
786.7388680198053
 30
0.0
 10
914.7949094308143
 20
786.8223186023517
 30
0.0
 10
914.8519787942716
 20
786.8890894627336
 30
0.0
 10
914.8570849572334
 20
786.9001695770925
 30
0.0
 10
914.8596372779352
 20
786.9057079834203
 30
0.0
  0
SPLINE
  5
225
330
1F
100
AcDbEntity
  8
0
  6
Continuous
 62
     7
370
    25
100
AcDbSpline
210
0.0
220
0.0
230
1.0
 70
     8
 71
     3
 72
    13
 73
     9
 74
     0
 42
0.000000001
 43
0.00000001
 40
0.0
 40
0.0
 40
0.0
 40
0.0
 40
0.1245007467621112
 40
0.1882958797885946
 40
0.2496751051072131
 40
0.3616312845215258
 40
0.4997363919342074
 40
1.0
 40
1.0
 40
1.0
 40
1.0
 10
913.6114264307182
 20
785.577445805201
 30
0.0
 10
913.6160892008473
 20
785.5794217585892
 30
0.0
 10
913.6231412099842
 20
785.5824102055769
 30
0.0
 10
913.6575645195118
 20
785.614346262637
 30
0.0
 10
913.7001153588008
 20
785.6559645633381
 30
0.0
 10
913.7723515352594
 20
785.7297126417747
 30
0.0
 10
913.9618020880163
 20
785.9271213128338
 30
0.0
 10
914.1310288465348
 20
786.107166970066
 30
0.0
 10
914.2636449769075
 20
786.2482614314948
 30
0.0
  0
LINE
  5
226
330
1F
100
AcDbEntity
  8
0
  6
Continuous
 62
     7
370
    25
100
AcDbLine
 10
913.6114264307
 20
785.5774458052
 30
0.0
 11
913.6187119176
 21
785.5706098802
 31
0.0
  0
LINE
  5
227
330
1F
100
AcDbEntity
  8
0
  6
Continuous
 62
     7
370
    25
100
AcDbLine
 10
914.8596372779
 20
786.9057079834
 30
0.0
 11
914.8669227639
 21
786.8988720604
 31
0.0
  0
SPLINE
  5
228
330
1F
100
AcDbEntity
  8
0
  6
Continuous
 62
     7
370
    25
100
AcDbSpline
210
0.0
220
0.0
230
1.0
 70
     8
 71
     3
 72
    15
 73
    11
 74
     0
 42
0.000000001
 43
0.00000001
 40
0.0
 40
0.0
 40
0.0
 40
0.0
 40
0.0081086425656672
 40
0.1725277381807865
 40
0.336675158449832
 40
0.5010179505843583
 40
0.665257010828243
 40
0.8296373631039408
 40
0.994476943786198
 40
1.0
 40
1.0
 40
1.0
 40
1.0
 10
912.681222590293
 20
784.5267366664154
 30
0.0
 10
912.6800398206478
 20
784.5253647405395
 30
0.0
 10
912.6548740089812
 20
784.4961742482458
 30
0.0
 10
912.459379021073
 20
784.2963393069995
 30
0.0
 10
912.125238937642
 20
783.9503362982545
 30
0.0
 10
911.7166943082146
 20
783.5206850603191
 30
0.0
 10
911.3138184216039
 20
783.0858778737589
 30
0.0
 10
910.9900239539468
 20
782.7312286763275
 30
0.0
 10
910.8063857993726
 20
782.5276546418984
 30
0.0
 10
910.7788060964727
 20
782.5005791165296
 30
0.0
 10
910.7779119787704
 20
782.4997013439656
 30
0.0
  0
SPLINE
  5
229
330
1F
100
AcDbEntity
  8
0
  6
Continuous
 62
     7
370
    25
100
AcDbSpline
210
0.0
220
0.0
230
1.0
 70
     8
 71
     3
 72
    13
 73
     9
 74
     0
 42
0.000000001
 43
0.00000001
 40
0.0
 40
0.0
 40
0.0
 40
0.0
 40
0.1251085010289548
 40
0.2500584291583733
 40
0.3749787537603182
 40
0.4999626776853889
 40
0.7494913647544091
 40
1.0
 40
1.0
 40
1.0
 40
1.0
 10
913.3051190860725
 20
785.197144296082
 30
0.0
 10
913.3087128988694
 20
785.1993414346266
 30
0.0
 10
913.3158959693669
 20
785.2037329268802
 30
0.0
 10
913.3768707967906
 20
785.267052521892
 30
0.0
 10
913.4805555828448
 20
785.3777258241602
 30
0.0
 10
913.6606450735147
 20
785.5710847948912
 30
0.0
 10
913.9252501529725
 20
785.8546852526489
 30
0.0
 10
914.1404479207779
 20
786.084054646565
 30
0.0
 10
914.2482576716005
 20
786.1989640968658
 30
0.0
  0
SPLINE
  5
22A
330
1F
100
AcDbEntity
  8
0
  6
Continuous
 62
     7
370
    25
100
AcDbSpline
210
0.0
220
0.0
230
1.0
 70
     8
 71
     3
 72
    13
 73
     9
 74
     0
 42
0.000000001
 43
0.00000001
 40
0.0
 40
0.0
 40
0.0
 40
0.0
 40
0.2505262713420641
 40
0.5001291105932357
 40
0.6322154968997167
 40
0.7500180310809426
 40
0.8748565557177899
 40
1.0
 40
1.0
 40
1.0
 40
1.0
 10
914.2482576716005
 20
786.1989640968658
 30
0.0
 10
914.3557691368873
 20
786.3134223132458
 30
0.0
 10
914.5703957835232
 20
786.5419168565588
 30
0.0
 10
914.8385581413853
 20
786.8257073118441
 30
0.0
 10
915.0234839879294
 20
787.0209947289077
 30
0.0
 10
915.1311287674026
 20
787.1351879728685
 30
0.0
 10
915.1900830371669
 20
787.1992757720562
 30
0.0
 10
915.1947587182448
 20
787.2073714922751
 30
0.0
 10
915.1970994104036
 20
787.2114242898291
 30
0.0
  0
LINE
  5
22B
330
1F
100
AcDbEntity
  8
0
  6
Continuous
 62
     7
370
    25
100
AcDbLine
 10
913.3051190861
 20
785.1971442961
 30
0.0
 11
913.2978298313
 21
785.2039883013
 31
0.0
  0
LINE
  5
22C
330
1F
100
AcDbEntity
  8
0
  6
Continuous
 62
     7
370
    25
100
AcDbLine
 10
915.1970994104
 20
787.2114242898
 30
0.0
 11
915.1898101203
 21
787.2182683709
 31
0.0
  0
LINE
  5
22D
330
1F
100
AcDbEntity
  8
0
  6
Continuous
 62
     7
370
    25
100
AcDbLine
 10
843.1057192529
 20
688.7334705859
 30
0.0
 11
843.1057192529
 21
688.6934705859
 31
0.0
  0
LINE
  5
22E
330
1F
100
AcDbEntity
  8
0
  6
Continuous
 62
     7
370
    25
100
AcDbLine
 10
861.0177713826
 20
869.803066723
 30
0.0
 11
867.7244490067
 21
872.9304418599
 31
0.0
  0
LINE
  5
22F
330
1F
100
AcDbEntity
  8
0
  6
Continuous
 62
     7
370
    25
100
AcDbLine
 10
872.2559879419
 20
875.0435331686
 30
0.0
 11
873.8052899152
 21
875.7659845435
 31
0.0
  0
ARC
  5
230
330
1F
100
AcDbEntity
  8
0
  6
Continuous
 62
     7
370
    25
100
AcDbCircle
 10
873.1924934356
 20
877.0801308347
 30
0.0
 40
1.449999999999959
100
AcDbArc
 50
295.0
 51
310.2552246619
  0
LINE
  5
231
330
1F
100
AcDbEntity
  8
0
  6
Continuous
 62
     7
370
    25
100
AcDbLine
 10
827.6057192529
 20
687.8934705859
 30
0.0
 11
825.6057192529
 21
687.8934705859
 31
0.0
  0
LINE
  5
232
330
1F
100
AcDbEntity
  8
0
  6
Continuous
 62
     7
370
    25
100
AcDbLine
 10
825.6057192529
 20
687.8934705859
 30
0.0
 11
825.6057192529
 21
688.6934705859
 31
0.0
  0
LINE
  5
233
330
1F
100
AcDbEntity
  8
0
  6
Continuous
 62
     7
370
    25
100
AcDbLine
 10
825.6057192529
 20
688.6934705859
 30
0.0
 11
827.6057192529
 21
688.6934705859
 31
0.0
  0
LINE
  5
234
330
1F
100
AcDbEntity
  8
0
  6
Continuous
 62
     7
370
    25
100
AcDbLine
 10
875.4491961096
 20
876.4773816953
 30
0.0
 11
875.787290719
 21
875.7523354657
 31
0.0
  0
LINE
  5
235
330
1F
100
AcDbEntity
  8
0
  6
Continuous
 62
     7
370
    25
100
AcDbLine
 10
875.787290719
 20
875.7523354657
 30
0.0
 11
873.9746751449
 21
874.9070989422
 31
0.0
  0
LINE
  5
236
330
1F
100
AcDbEntity
  8
0
  6
Continuous
 62
     7
370
    25
100
AcDbLine
 10
873.6365805355
 20
875.6321451718
 30
0.0
 11
875.4491961096
 21
876.4773816953
 31
0.0
  0
ARC
  5
237
330
1F
100
AcDbEntity
  8
0
  6
Continuous
 62
     7
370
    25
100
AcDbCircle
 10
886.2350166448
 20
698.6934705859
 30
0.0
 40
10.00000000000003
100
AcDbArc
 50
270.0
 51
335.0
  0
ARC
  5
238
330
1F
100
AcDbEntity
  8
0
  6
Continuous
 62
     7
370
    25
100
AcDbCircle
 10
886.2350166448
 20
698.6934705859
 30
0.0
 40
10.79999999999996
100
AcDbArc
 50
270.0
 51
335.0
  0
LINE
  5
239
330
1F
100
AcDbEntity
  8
0
  6
Continuous
 62
     7
370
    25
100
AcDbLine
 10
895.2980945152
 20
694.4672879685
 30
0.0
 11
915.9088930057
 21
738.6672879685
 31
0.0
  0
LINE
  5
23A
330
1F
100
AcDbEntity
  8
0
  6
Continuous
 62
     7
370
    25
100
AcDbLine
 10
896.0231407448
 20
694.1291933591
 30
0.0
 11
916.6339392353
 21
738.3291933591
 31
0.0
  0
ARC
  5
23B
330
1F
100
AcDbEntity
  8
0
  6
Continuous
 62
     7
370
    25
100
AcDbCircle
 10
906.8458151353
 20
742.8934705859
 30
0.0
 40
10.8000000000001
100
AcDbArc
 50
335.0
 51
25.0
  0
ARC
  5
23C
330
1F
100
AcDbEntity
  8
0
  6
Continuous
 62
     7
370
    25
100
AcDbCircle
 10
906.8458151353
 20
742.8934705859
 30
0.0
 40
10.00000000000002
100
AcDbArc
 50
335.0
 51
25.0
  0
LINE
  5
23D
330
1F
100
AcDbEntity
  8
0
  6
Continuous
 62
     7
370
    25
100
AcDbLine
 10
915.9088930057
 20
747.1196532033
 30
0.0
 11
860.0020233795
 21
867.0123220205
 31
0.0
  0
LINE
  5
23E
330
1F
100
AcDbEntity
  8
0
  6
Continuous
 62
     7
370
    25
100
AcDbLine
 10
916.6339392353
 20
747.4577478127
 30
0.0
 11
860.7270696092
 21
867.3504166299
 31
0.0
  0
LINE
  5
23F
330
1F
100
AcDbEntity
  8
0
  6
Continuous
 62
     7
370
    25
100
AcDbLine
 10
827.6057192529
 20
687.8934705859
 30
0.0
 11
886.2350166448
 21
687.8934705859
 31
0.0
  0
LINE
  5
240
330
1F
100
AcDbEntity
  8
0
  6
Continuous
 62
     7
370
    25
100
AcDbLine
 10
827.6057192529
 20
688.6934705859
 30
0.0
 11
886.2350166448
 21
688.6934705859
 31
0.0
  0
ARC
  5
241
330
1F
100
AcDbEntity
  8
0
  6
Continuous
 62
     7
370
    25
100
AcDbCircle
 10
861.8599543429
 20
867.8786894571
 30
0.0
 40
2.050000000000057
100
AcDbArc
 50
115.0
 51
205.0
  0
ARC
  5
242
330
1F
100
AcDbEntity
  8
0
  6
Continuous
 62
     7
370
    25
100
AcDbCircle
 10
861.8599543429
 20
867.8786894571
 30
0.0
 40
1.249999999999977
100
AcDbArc
 50
115.0
 51
205.0
  0
LINE
  5
243
330
1F
100
AcDbEntity
  8
0
  6
Continuous
 62
     7
370
    25
100
AcDbLine
 10
861.3316815158
 20
869.0115741909
 30
0.0
 11
873.9746751449
 21
874.9070989422
 31
0.0
  0
LINE
  5
244
330
1F
100
AcDbEntity
  8
0
  6
Continuous
 62
     7
370
    25
100
AcDbLine
 10
860.9935869064
 20
869.7366204205
 30
0.0
 11
873.6365805355
 21
875.6321451718
 31
0.0
  0
LINE
  5
245
330
1F
100
AcDbEntity
  8
0
  6
Continuous
 62
     7
370
    25
100
AcDbLine
 10
876.5234640258
 20
877.0898650173
 30
0.0
 11
876.5196511955
 21
877.0793893522
 31
0.0
  0
ARC
  5
246
330
1F
100
AcDbEntity
  8
0
  6
Continuous
 62
     7
370
    25
100
AcDbCircle
 10
874.2521612514
 20
877.5742620523
 30
0.0
 40
1.500000000000039
100
AcDbArc
 50
295.0
 51
316.1554724825
  0
ARC
  5
247
330
1F
100
AcDbEntity
  8
0
  6
Continuous
 62
     7
370
    25
100
AcDbCircle
 10
874.2521612514
 20
877.5742620523
 30
0.0
 40
2.300000000000176
100
AcDbArc
 50
310.6725549768
 51
328.1376406253
  0
LINE
  5
248
330
1F
100
AcDbEntity
  8
0
  6
Continuous
 62
     7
370
    25
100
AcDbLine
 10
902.6270258755
 20
788.1435775718
 30
0.0
 11
908.2478487567
 21
776.0896840042
 31
0.0
  0
LINE
  5
249
330
1F
100
AcDbEntity
  8
0
  6
Continuous
 62
     7
370
    25
100
AcDbLine
 10
898.9689376199
 20
787.7066676108
 30
0.0
 11
905.5617825031
 21
773.5682661331
 31
0.0
  0
LINE
  5
24A
330
1F
100
AcDbEntity
  8
0
  6
Continuous
 62
     7
370
    25
100
AcDbLine
 10
882.2895599921
 20
832.9405146959
 30
0.0
 11
904.1345267226
 21
786.0938323641
 31
0.0
  0
SPLINE
  5
24B
330
1F
100
AcDbEntity
  8
0
  6
Continuous
 62
     7
370
    25
100
AcDbSpline
210
0.0
220
0.0
230
1.0
 70
    24
 71
     3
 72
    11
 73
     7
 74
     0
 42
0.000000001
 43
0.00000001
 40
0.0
 40
0.0
 40
0.0
 40
0.0
 40
0.1499516226907169
 40
0.4331749578253698
 40
0.7165923401616968
 40
1.0
 40
1.0
 40
1.0
 40
1.0
 10
905.7016965438488
 20
782.7330258368735
 30
0.0
 10
905.601573218354
 20
782.9477410013014
 30
0.0
 10
905.3123404876886
 20
783.5680025938515
 30
0.0
 10
904.8560023816432
 20
784.5466228203575
 30
0.0
 10
904.3982358960909
 20
785.5283062166013
 30
0.0
 10
904.2224287752647
 20
785.905325803888
 30
0.0
 10
904.1345267226225
 20
786.0938323641066
 30
0.0
  0
SPLINE
  5
24C
330
1F
100
AcDbEntity
  8
0
  6
Continuous
 62
     7
370
    25
100
AcDbSpline
210
0.0
220
0.0
230
1.0
 70
    24
 71
     3
 72
    11
 73
     7
 74
     0
 42
0.000000001
 43
0.00000001
 40
0.0
 40
0.0
 40
0.0
 40
0.0
 40
0.1499515950756861
 40
0.4331749432231949
 40
0.7165923323728144
 40
1.0
 40
1.0
 40
1.0
 40
1.0
 10
882.2895599921296
 20
832.9405146959439
 30
0.0
 10
882.2474014767201
 20
833.030923923998
 30
0.0
 10
882.125615426297
 20
833.2920949519519
 30
0.0
 10
881.7956789173952
 20
833.9996460786198
 30
0.0
 10
881.2923508633348
 20
835.0790365738408
 30
0.0
 10
880.912374896079
 20
835.8938976652473
 30
0.0
 10
880.7223901709034
 20
836.3013212231771
 30
0.0
  0
LINE
  5
24D
330
1F
100
AcDbEntity
  8
0
  6
Continuous
 62
     7
370
    25
100
AcDbLine
 10
867.897762437
 20
852.8601418294
 30
0.0
 11
868.013819471
 21
852.9070319148
 31
0.0
  0
SPLINE
  5
24E
330
1F
100
AcDbEntity
  8
0
  6
Continuous
 62
     7
370
    25
100
AcDbSpline
210
0.0
220
0.0
230
1.0
 70
     8
 71
     3
 72
    14
 73
    10
 74
     0
 42
0.000000001
 43
0.00000001
 40
0.0
 40
0.0
 40
0.0
 40
0.0
 40
0.0000064140457922
 40
0.0730558909547983
 40
0.2154935957733474
 40
0.4037789030075334
 40
0.5887468703998067
 40
0.8882363243876839
 40
1.0
 40
1.0
 40
1.0
 40
1.0
 10
868.0138194709655
 20
852.9070319147907
 30
0.0
 10
868.013838010935
 20
852.9070394052925
 30
0.0
 10
868.2250080033538
 20
852.9923561149717
 30
0.0
 10
868.8760229394514
 20
853.1784982386006
 30
0.0
 10
870.1539538415585
 20
853.1843635378011
 30
0.0
 10
871.7255658150763
 20
852.7103251427699
 30
0.0
 10
873.4172369080864
 20
851.4034932628167
 30
0.0
 10
874.4100544204618
 20
849.7919078280718
 30
0.0
 10
874.9651818333078
 20
848.6378087932792
 30
0.0
 10
875.1160453176858
 20
848.3241665596639
 30
0.0
  0
SPLINE
  5
24F
330
1F
100
AcDbEntity
  8
0
  6
Continuous
 62
     7
370
    25
100
AcDbSpline
210
0.0
220
0.0
230
1.0
 70
     8
 71
     3
 72
     9
 73
     5
 74
     0
 42
0.000000001
 43
0.00000001
 40
0.0
 40
0.0
 40
0.0
 40
0.0
 40
0.0000220488581531
 40
1.0
 40
1.0
 40
1.0
 40
1.0
 10
917.6473153231776
 20
757.1155636948371
 30
0.0
 10
917.6473237755388
 20
757.1155455686787
 30
0.0
 10
918.0306706599936
 20
756.293454999055
 30
0.0
 10
918.3216087214187
 20
755.432360756848
 30
0.0
 10
918.6125403679915
 20
754.5712855007856
 30
0.0
  0
LINE
  5
250
330
1F
100
AcDbEntity
  8
0
  6
Continuous
 62
     7
370
    25
100
AcDbLine
 10
875.1160453177
 20
848.3241665597
 30
0.0
 11
880.7223901709
 21
836.3013212232
 31
0.0
  0
LINE
  5
251
330
1F
100
AcDbEntity
  8
0
  6
Continuous
 62
     7
370
    25
100
AcDbLine
 10
905.7016965438
 20
782.7330258369
 30
0.0
 11
917.6473153232
 21
757.1155636948
 31
0.0
  0
SPLINE
  5
252
330
1F
100
AcDbEntity
  8
0
  6
Continuous
 62
     7
370
    25
100
AcDbSpline
210
0.0
220
0.0
230
1.0
 70
     8
 71
     3
 72
    20
 73
    16
 74
     0
 42
0.000000001
 43
0.00000001
 40
0.0
 40
0.0
 40
0.0
 40
0.0
 40
0.2070577373168109
 40
0.4203770502760572
 40
0.7011163025568183
 40
0.8834527988430982
 40
0.9282286404935006
 40
0.9524788585968998
 40
0.9675018207221356
 40
0.9773827146382355
 40
0.9840938553685393
 40
0.9887393639099439
 40
0.9919933949590725
 40
0.9977340800222565
 40
1.0
 40
1.0
 40
1.0
 40
1.0
 10
918.6125403679915
 20
754.5712855007856
 30
0.0
 10
918.717405701605
 20
754.0821710285257
 30
0.0
 10
918.9303075723193
 20
753.0891509088215
 30
0.0
 10
918.7318762636944
 20
751.3803934219807
 30
0.0
 10
918.0977893696954
 20
750.0835796003553
 30
0.0
 10
917.4270358540899
 20
749.3158924734664
 30
0.0
 10
917.0166841035884
 20
748.9943663567585
 30
0.0
 10
916.8712011041564
 20
748.8942708775855
 30
0.0
 10
916.7833049637417
 20
748.8383992946376
 30
0.0
 10
916.7256301815835
 20
748.803627561467
 30
0.0
 10
916.6863788829666
 20
748.7808118274164
 30
0.0
 10
916.6591388540344
 20
748.7653773314167
 30
0.0
 10
916.6335535047665
 20
748.7511440367588
 30
0.0
 10
916.6122961027921
 20
748.7395502696162
 30
0.0
 10
916.5970779268289
 20
748.7314316148141
 30
0.0
 10
916.5927710865682
 20
748.7291339840438
 30
0.0
  0
SPLINE
  5
253
330
1F
100
AcDbEntity
  8
0
  6
Continuous
 62
     7
370
    25
100
AcDbSpline
210
0.0
220
0.0
230
1.0
 70
     8
 71
     3
 72
    10
 73
     6
 74
     0
 42
0.000000001
 43
0.00000001
 40
0.0
 40
0.0
 40
0.0
 40
0.0
 40
0.4549819388246192
 40
0.9100842687486003
 40
1.0
 40
1.0
 40
1.0
 40
1.0
 10
918.7346221101764
 20
751.7743636009462
 30
0.0
 10
918.7421817138343
 20
751.8269859938854
 30
0.0
 10
918.7573029214686
 20
751.9322447039816
 30
0.0
 10
918.880752801765
 20
752.4111813214332
 30
0.0
 10
918.8393770100333
 20
752.8828174295719
 30
0.0
 10
918.8325509342852
 20
752.9606267877725
 30
0.0
  0
SPLINE
  5
254
330
1F
100
AcDbEntity
  8
0
  6
Continuous
 62
     7
370
    25
100
AcDbSpline
210
0.0
220
0.0
230
1.0
 70
     8
 71
     3
 72
    12
 73
     8
 74
     0
 42
0.000000001
 43
0.00000001
 40
0.0
 40
0.0
 40
0.0
 40
0.0
 40
0.4616906276055992
 40
0.7307729957157018
 40
0.9175829515525993
 40
0.9719359527204593
 40
1.0
 40
1.0
 40
1.0
 40
1.0
 10
918.5914896235997
 20
754.6466712995837
 30
0.0
 10
918.5614758307079
 20
754.755231139605
 30
0.0
 10
918.51396940967
 20
754.9270617871499
 30
0.0
 10
918.4423460290901
 20
755.1511607811985
 30
0.0
 10
918.4008548002303
 20
755.2755295311097
 30
0.0
 10
918.3783675803753
 20
755.3412011341114
 30
0.0
 10
918.3714233846258
 20
755.3612890384534
 30
0.0
 10
918.3690587981538
 20
755.3681292239224
 30
0.0
  0
LINE
  5
255
330
1F
100
AcDbEntity
  8
0
  6
Continuous
 62
     7
370
    25
100
AcDbLine
 10
873.7462054775
 20
850.5853109077
 30
0.0
 11
873.3005927541
 21
851.3201999255
 31
0.0
  0
LINE
  5
256
330
1F
100
AcDbEntity
  8
0
  6
Continuous
 62
     7
370
    25
100
AcDbLine
 10
917.6934970703
 20
757.0160182342
 30
0.0
 11
917.6514631129
 21
757.1066647229
 31
0.0
  0
SPLINE
  5
257
330
1F
100
AcDbEntity
  8
0
  6
Continuous
 62
     7
370
    25
100
AcDbSpline
210
0.0
220
0.0
230
1.0
 70
     8
 71
     3
 72
    13
 73
     9
 74
     0
 42
0.000000001
 43
0.00000001
 40
0.0
 40
0.0
 40
0.0
 40
0.0
 40
0.125464811806548
 40
0.2502435788816417
 40
0.3760698054095847
 40
0.5019139201694172
 40
0.7508310514861658
 40
1.0
 40
1.0
 40
1.0
 40
1.0
 10
873.3005927537197
 20
851.3201999259456
 30
0.0
 10
873.2129157814297
 20
851.4174722043107
 30
0.0
 10
873.0380412567284
 20
851.611484873788
 30
0.0
 10
872.7643592245478
 20
851.8708850110371
 30
0.0
 10
872.4973585975222
 20
852.0943571794312
 30
0.0
 10
872.1724995818125
 20
852.3328309334638
 30
0.0
 10
871.8398132420704
 20
852.5303917688974
 30
0.0
 10
871.786898552136
 20
852.5573559691118
 30
0.0
 10
871.7604278311384
 20
852.5708448853592
 30
0.0
  0
SPLINE
  5
258
330
1F
100
AcDbEntity
  8
0
  6
Continuous
 62
     7
370
    25
100
AcDbSpline
210
0.0
220
0.0
230
1.0
 70
     8
 71
     3
 72
     9
 73
     5
 74
     0
 42
0.000000001
 43
0.00000001
 40
0.0
 40
0.0
 40
0.0
 40
0.0
 40
0.5000138394956852
 40
1.0
 40
1.0
 40
1.0
 40
1.0
 10
918.1613039103509
 20
755.9283829531748
 30
0.0
 10
918.0933344979129
 20
756.0970999484745
 30
0.0
 10
917.9573994355825
 20
756.4345245995
 30
0.0
 10
917.78146290212
 20
756.8221905993807
 30
0.0
 10
917.6934970702613
 20
757.0160182342189
 30
0.0
  0
SPLINE
  5
259
330
1F
100
AcDbEntity
  8
0
  6
Continuous
 62
     7
370
    25
100
AcDbSpline
210
0.0
220
0.0
230
1.0
 70
     8
 71
     3
 72
     9
 73
     5
 74
     0
 42
0.000000001
 43
0.00000001
 40
0.0
 40
0.0
 40
0.0
 40
0.0
 40
0.8821747881011964
 40
1.0
 40
1.0
 40
1.0
 40
1.0
 10
918.8507576080075
 20
752.7654999846736
 30
0.0
 10
918.8577710637326
 20
752.7761929870022
 30
0.0
 10
918.865721252085
 20
752.7883141703243
 30
0.0
 10
918.8460228504666
 20
753.0386572358526
 30
0.0
 10
918.8437018821219
 20
753.0681539605959
 30
0.0
  0
SPLINE
  5
25A
330
1F
100
AcDbEntity
  8
0
  6
Continuous
 62
     7
370
    25
100
AcDbSpline
210
0.0
220
0.0
230
1.0
 70
     8
 71
     3
 72
     9
 73
     5
 74
     0
 42
0.000000001
 43
0.00000001
 40
0.0
 40
0.0
 40
0.0
 40
0.0
 40
0.0370161288196377
 40
1.0
 40
1.0
 40
1.0
 40
1.0
 10
918.6044969662835
 20
754.5924875530065
 30
0.0
 10
918.6019337034442
 20
754.6053628823066
 30
0.0
 10
918.5326865152297
 20
754.9531931311877
 30
0.0
 10
918.3434936184713
 20
755.4499826546802
 30
0.0
 10
918.1613039103509
 20
755.9283829531748
 30
0.0
  0
LINE
  5
25B
330
1F
100
AcDbEntity
  8
0
  6
Continuous
 62
     7
370
    25
100
AcDbLine
 10
918.3690587984
 20
755.3681292233
 30
0.0
 11
918.1999546438
 21
755.8132254899
 31
0.0
  0
LINE
  5
25C
330
1F
100
AcDbEntity
  8
0
  6
Continuous
 62
     7
370
    25
100
AcDbLine
 10
856.9187490818
 20
570.0125532154
 30
0.0
 11
860.8462378024
 21
570.0125532154
 31
0.0
  0
LINE
  5
25D
330
1F
100
AcDbEntity
  8
0
  6
Continuous
 62
     7
370
    25
100
AcDbLine
 10
860.8462378024
 20
545.0125532154
 30
0.0
 11
856.9187490818
 21
545.0125532154
 31
0.0
  0
LINE
  5
25E
330
1F
100
AcDbEntity
  8
0
  6
Continuous
 62
     7
370
    25
100
AcDbLine
 10
860.8462378024
 20
570.0125532154
 30
0.0
 11
864.3043760737
 21
570.0125532154
 31
0.0
  0
LINE
  5
25F
330
1F
100
AcDbEntity
  8
0
  6
Continuous
 62
     7
370
    25
100
AcDbLine
 10
864.3043760737
 20
545.0125532154
 30
0.0
 11
860.8462378024
 21
545.0125532154
 31
0.0
  0
LINE
  5
260
330
1F
100
AcDbEntity
  8
0
  6
Continuous
 62
     7
370
    25
100
AcDbLine
 10
826.0973050059
 20
535.0125532154
 30
0.0
 11
826.0973050059
 21
586.2625532154
 31
0.0
  0
LWPOLYLINE
  5
261
330
1F
100
AcDbEntity
  8
0
  6
Continuous
 62
     7
370
    25
100
AcDbPolyline
 90
        3
 70
   128
 43
0.0
 10
825.9310006275
 20
534.1159681688
 10
826.0492682069
 20
534.5248274103
 10
826.0973050059
 20
535.0125532154
  0
SPLINE
  5
262
330
1F
100
AcDbEntity
  8
0
  6
Continuous
 62
     7
370
    25
100
AcDbSpline
210
0.0
220
0.0
230
1.0
 70
     8
 71
     3
 72
     9
 73
     5
 74
     0
 42
0.000000001
 43
0.00000001
 40
0.0
 40
0.0
 40
0.0
 40
0.0
 40
0.2746705013936008
 40
1.0
 40
1.0
 40
1.0
 40
1.0
 10
825.9310006274704
 20
586.7676950213798
 30
0.0
 10
825.946277709707
 20
586.7235285921975
 30
0.0
 10
826.0018973782152
 20
586.5627307309112
 30
0.0
 10
826.0571955851577
 20
586.3887480129437
 30
0.0
 10
826.0973050058733
 20
586.2625532153542
 30
0.0
  0
LINE
  5
263
330
1F
100
AcDbEntity
  8
0
  6
Continuous
 62
     7
370
    25
100
AcDbLine
 10
827.3043760737
 20
586.2625532154
 30
0.0
 11
826.1043760737
 21
586.2625532154
 31
0.0
  0
SPLINE
  5
264
330
1F
100
AcDbEntity
  8
0
  6
Continuous
 62
     7
370
    25
100
AcDbSpline
210
0.0
220
0.0
230
1.0
 70
     8
 71
     3
 72
     9
 73
     5
 74
     0
 42
0.000000001
 43
0.00000001
 40
0.0
 40
0.0
 40
0.0
 40
0.0
 40
0.8272241904167901
 40
1.0
 40
1.0
 40
1.0
 40
1.0
 10
826.104376073685
 20
586.2625532153542
 30
0.0
 10
826.0947713088099
 20
586.4451097736094
 30
0.0
 10
826.0831604722476
 20
586.6657954841701
 30
0.0
 10
825.9534171372183
 20
586.8343029230193
 30
0.0
 10
825.9310006274704
 20
586.8634169321873
 30
0.0
  0
SPLINE
  5
265
330
1F
100
AcDbEntity
  8
0
  6
Continuous
 62
     7
370
    25
100
AcDbSpline
210
0.0
220
0.0
230
1.0
 70
     8
 71
     3
 72
    11
 73
     7
 74
     0
 42
0.000000001
 43
0.00000001
 40
0.0
 40
0.0
 40
0.0
 40
0.0
 40
0.3186358212210549
 40
0.6373325988275894
 40
0.9560296575339321
 40
1.0
 40
1.0
 40
1.0
 40
1.0
 10
827.3043760736851
 20
586.2625532153542
 30
0.0
 10
827.2750074863159
 20
586.5535309639323
 30
0.0
 10
827.2162646932418
 20
587.1355421263673
 30
0.0
 10
826.7422571057964
 20
587.8747116248746
 30
0.0
 10
826.2819037391513
 20
588.3305012722736
 30
0.0
 10
825.9689443015008
 20
588.4308719141302
 30
0.0
 10
825.9310006274704
 20
588.4430410020652
 30
0.0
  0
LINE
  5
266
330
1F
100
AcDbEntity
  8
0
  6
Continuous
 62
     7
370
    25
100
AcDbLine
 10
827.3043760737
 20
557.5125532154
 30
0.0
 11
827.3043760737
 21
542.5125532154
 31
0.0
  0
LINE
  5
267
330
1F
100
AcDbEntity
  8
0
  6
Continuous
 62
     7
370
    25
100
AcDbLine
 10
826.1043760737
 20
557.5125532154
 30
0.0
 11
827.3043760737
 21
557.5125532154
 31
0.0
  0
LINE
  5
268
330
1F
100
AcDbEntity
  8
0
  6
Continuous
 62
     7
370
    25
100
AcDbLine
 10
827.3043760737
 20
542.5125532154
 30
0.0
 11
826.1043760737
 21
542.5125532154
 31
0.0
  0
LINE
  5
269
330
1F
100
AcDbEntity
  8
0
  6
Continuous
 62
     7
370
    25
100
AcDbLine
 10
826.1043760737
 20
541.9125532154
 30
0.0
 11
826.1043760737
 21
535.0125532154
 31
0.0
  0
LINE
  5
26A
330
1F
100
AcDbEntity
  8
0
  6
Continuous
 62
     7
370
    25
100
AcDbLine
 10
827.3043760737
 20
541.9125532154
 30
0.0
 11
827.3043760737
 21
535.0125532154
 31
0.0
  0
LINE
  5
26B
330
1F
100
AcDbEntity
  8
0
  6
Continuous
 62
     7
370
    25
100
AcDbLine
 10
826.1043760737
 20
541.9125532154
 30
0.0
 11
827.3043760737
 21
541.9125532154
 31
0.0
  0
LINE
  5
26C
330
1F
100
AcDbEntity
  8
0
  6
Continuous
 62
     7
370
    25
100
AcDbLine
 10
827.3043760737
 20
532.5125532154
 30
0.0
 11
826.1043760737
 21
532.5125532154
 31
0.0
  0
LINE
  5
26D
330
1F
100
AcDbEntity
  8
0
  6
Continuous
 62
     7
370
    25
100
AcDbLine
 10
826.1043760737
 20
532.5125532154
 30
0.0
 11
826.1043760737
 21
535.0125532154
 31
0.0
  0
LINE
  5
26E
330
1F
100
AcDbEntity
  8
0
  6
Continuous
 62
     7
370
    25
100
AcDbLine
 10
827.3043760737
 20
535.0125532154
 30
0.0
 11
827.3043760737
 21
532.5125532154
 31
0.0
  0
LINE
  5
26F
330
1F
100
AcDbEntity
  8
0
  6
Continuous
 62
     7
370
    25
100
AcDbLine
 10
826.1043760737
 20
558.1125532154
 30
0.0
 11
827.3043760737
 21
558.1125532154
 31
0.0
  0
LINE
  5
270
330
1F
100
AcDbEntity
  8
0
  6
Continuous
 62
     7
370
    25
100
AcDbLine
 10
826.1043760737
 20
586.2625532154
 30
0.0
 11
826.1043760737
 21
558.1125532154
 31
0.0
  0
LINE
  5
271
330
1F
100
AcDbEntity
  8
0
  6
Continuous
 62
     7
370
    25
100
AcDbLine
 10
827.3043760737
 20
586.2625532154
 30
0.0
 11
827.3043760737
 21
558.1125532154
 31
0.0
  0
LINE
  5
272
330
1F
100
AcDbEntity
  8
0
  6
Continuous
 62
     7
370
    25
100
AcDbLine
 10
826.1043760737
 20
558.1125532154
 30
0.0
 11
826.1043760737
 21
557.5125532154
 31
0.0
  0
LINE
  5
273
330
1F
100
AcDbEntity
  8
0
  6
Continuous
 62
     7
370
    25
100
AcDbLine
 10
827.3043760737
 20
557.5125532154
 30
0.0
 11
827.3043760737
 21
558.1125532154
 31
0.0
  0
LINE
  5
274
330
1F
100
AcDbEntity
  8
0
  6
Continuous
 62
     7
370
    25
100
AcDbLine
 10
826.1043760737
 20
542.5125532154
 30
0.0
 11
826.1043760737
 21
541.9125532154
 31
0.0
  0
LINE
  5
275
330
1F
100
AcDbEntity
  8
0
  6
Continuous
 62
     7
370
    25
100
AcDbLine
 10
827.3043760737
 20
541.9125532154
 30
0.0
 11
827.3043760737
 21
542.5125532154
 31
0.0
  0
LINE
  5
276
330
1F
100
AcDbEntity
  8
0
  6
Continuous
 62
     7
370
    25
100
AcDbLine
 10
825.9310006275
 20
207.8834705859
 30
0.0
 11
825.9310006275
 21
209.8834705859
 31
0.0
  0
LINE
  5
277
330
1F
100
AcDbEntity
  8
0
  6
Continuous
 62
     7
370
    25
100
AcDbLine
 10
825.9310006275
 20
207.8834705859
 30
0.0
 11
824.7310006275
 21
207.8834705859
 31
0.0
  0
LINE
  5
278
330
1F
100
AcDbEntity
  8
0
  6
Continuous
 62
     7
370
    25
100
AcDbLine
 10
824.7310006275
 20
207.8834705859
 30
0.0
 11
824.7310006275
 21
208.7405416537
 31
0.0
  0
LINE
  5
279
330
1F
100
AcDbEntity
  8
0
  6
Continuous
 62
     7
370
    25
100
AcDbLine
 10
825.9310006275
 20
260.0334705859
 30
0.0
 11
824.7310006275
 21
260.0334705859
 31
0.0
  0
LINE
  5
27A
330
1F
100
AcDbEntity
  8
0
  6
Continuous
 62
     7
370
    25
100
AcDbLine
 10
825.9310006275
 20
209.8834705859
 30
0.0
 11
825.9310006275
 21
260.0334705859
 31
0.0
  0
LINE
  5
27B
330
1F
100
AcDbEntity
  8
0
  6
Continuous
 62
     7
370
    25
100
AcDbLine
 10
825.9310006275
 20
686.7834705859
 30
0.0
 11
825.9310006275
 21
260.0334705859
 31
0.0
  0
LINE
  5
27C
330
1F
100
AcDbEntity
  8
0
  6
Continuous
 62
     7
370
    25
100
AcDbLine
 10
825.7396961315
 20
688.7834705859
 30
0.0
 11
824.7310006275
 21
688.7834705859
 31
0.0
  0
LINE
  5
27D
330
1F
100
AcDbEntity
  8
0
  6
Continuous
 62
     7
370
    25
100
AcDbLine
 10
824.7310006275
 20
688.7834705859
 30
0.0
 11
824.7310006275
 21
687.8040507228
 31
0.0
  0
LINE
  5
27E
330
1F
100
AcDbEntity
  8
0
  6
Continuous
 62
     7
370
    25
100
AcDbLine
 10
825.9310006275
 20
687.8934705859
 30
0.0
 11
825.9310006275
 21
686.7834705859
 31
0.0
  0
LINE
  5
27F
330
1F
100
AcDbEntity
  8
0
  6
Continuous
 62
     7
370
    25
100
AcDbLine
 10
824.7310006275
 20
688.7834705859
 30
0.0
 11
824.431057601
 21
688.7834705859
 31
0.0
  0
LWPOLYLINE
  5
280
330
1F
100
AcDbEntity
  8
0
  6
Continuous
 62
     7
370
    25
100
AcDbPolyline
 90
        3
 70
   128
 43
0.0
 10
823.9203279703
 20
689.5090204939
 10
823.9634122414
 20
689.551058972
 10
823.9921184561
 20
689.5802489345
  0
LINE
  5
281
330
1F
100
AcDbEntity
  8
0
  6
Continuous
 62
     7
370
    25
100
AcDbLine
 10
63.80067469
 20
664.6334705859
 30
0.0
 11
63.80067469
 21
670.0334705859
 31
0.0
  0
LINE
  5
282
330
1F
100
AcDbEntity
  8
0
  6
Continuous
 62
     7
370
    25
100
AcDbLine
 10
44.4984259433
 20
664.6334705859
 30
0.0
 11
44.4984259433
 21
670.0334705859
 31
0.0
  0
LINE
  5
283
330
1F
100
AcDbEntity
  8
0
  6
Continuous
 62
     7
370
    25
100
AcDbLine
 10
63.80067469
 20
664.6334705859
 30
0.0
 11
44.4984259433
 21
664.6334705859
 31
0.0
  0
LINE
  5
284
330
1F
100
AcDbEntity
  8
0
  6
Continuous
 62
     7
370
    25
100
AcDbLine
 10
63.80067469
 20
670.0334705859
 30
0.0
 11
44.4984259433
 21
670.0334705859
 31
0.0
  0
LINE
  5
285
330
1F
100
AcDbEntity
  8
0
  6
Continuous
 62
     7
370
    25
100
AcDbLine
 10
63.1090642408
 20
684.9334705859
 30
0.0
 11
63.1090642408
 21
688.7334705859
 31
0.0
  0
LINE
  5
286
330
1F
100
AcDbEntity
  8
0
  6
Continuous
 62
     7
370
    25
100
AcDbLine
 10
45.3042677986
 20
684.9334705859
 30
0.0
 11
45.3042677986
 21
688.6934705859
 31
0.0
  0
LINE
  5
287
330
1F
100
AcDbEntity
  8
0
  6
Continuous
 62
     7
370
    25
100
AcDbLine
 10
63.1090642408
 20
684.9334705859
 30
0.0
 11
45.3042677986
 21
684.9334705859
 31
0.0
  0
LINE
  5
288
330
1F
100
AcDbEntity
  8
0
  6
Continuous
 62
     7
370
    25
100
AcDbLine
 10
74.117670908
 20
676.6334705859
 30
0.0
 11
40.367670908
 21
676.6334705859
 31
0.0
  0
LINE
  5
289
330
1F
100
AcDbEntity
  8
0
  6
Continuous
 62
     7
370
    25
100
AcDbLine
 10
67.867670908
 20
655.6834705859
 30
0.0
 11
46.617670908
 21
655.6834705859
 31
0.0
  0
LINE
  5
28A
330
1F
100
AcDbEntity
  8
0
  6
Continuous
 62
     7
370
    25
100
AcDbLine
 10
73.092670908
 20
681.9834705859
 30
0.0
 11
41.392670908
 21
681.9834705859
 31
0.0
  0
LINE
  5
28B
330
1F
100
AcDbEntity
  8
0
  6
Continuous
 62
     7
370
    25
100
AcDbLine
 10
76.5449196546
 20
664.6334705859
 30
0.0
 11
76.5449196546
 21
670.0334705859
 31
0.0
  0
LINE
  5
28C
330
1F
100
AcDbEntity
  8
0
  6
Continuous
 62
     7
370
    25
100
AcDbLine
 10
76.5449196546
 20
664.6334705859
 30
0.0
 11
63.80067469
 21
664.6334705859
 31
0.0
  0
LINE
  5
28D
330
1F
100
AcDbEntity
  8
0
  6
Continuous
 62
     7
370
    25
100
AcDbLine
 10
76.5449196546
 20
670.0334705859
 30
0.0
 11
63.80067469
 21
670.0334705859
 31
0.0
  0
LINE
  5
28E
330
1F
100
AcDbEntity
  8
0
  6
Continuous
 62
     7
370
    25
100
AcDbLine
 10
63.9970383037
 20
684.9334705859
 30
0.0
 11
63.9970383037
 21
688.7334705859
 31
0.0
  0
LINE
  5
28F
330
1F
100
AcDbEntity
  8
0
  6
Continuous
 62
     7
370
    25
100
AcDbLine
 10
63.9970383037
 20
684.9334705859
 30
0.0
 11
63.1090642408
 21
684.9334705859
 31
0.0
  0
LINE
  5
290
330
1F
100
AcDbEntity
  8
0
  6
Continuous
 62
     7
370
    25
100
AcDbLine
 10
75.7634362669
 20
684.9334705859
 30
0.0
 11
75.7634362669
 21
688.7334705859
 31
0.0
  0
LINE
  5
291
330
1F
100
AcDbEntity
  8
0
  6
Continuous
 62
     7
370
    25
100
AcDbLine
 10
75.7634362669
 20
684.9334705859
 30
0.0
 11
63.9970383037
 21
684.9334705859
 31
0.0
  0
LINE
  5
292
330
1F
100
AcDbEntity
  8
0
  6
Continuous
 62
     7
370
    25
100
AcDbLine
 10
37.9404221613
 20
664.6334705859
 30
0.0
 11
37.9404221613
 21
670.0334705859
 31
0.0
  0
LINE
  5
293
330
1F
100
AcDbEntity
  8
0
  6
Continuous
 62
     7
370
    25
100
AcDbLine
 10
44.4984259433
 20
664.6334705859
 30
0.0
 11
37.9404221613
 21
664.6334705859
 31
0.0
  0
LINE
  5
294
330
1F
100
AcDbEntity
  8
0
  6
Continuous
 62
     7
370
    25
100
AcDbLine
 10
44.4984259433
 20
670.0334705859
 30
0.0
 11
37.9404221613
 21
670.0334705859
 31
0.0
  0
LINE
  5
295
330
1F
100
AcDbEntity
  8
0
  6
Continuous
 62
     7
370
    25
100
AcDbLine
 10
44.588307122
 20
684.9334705859
 30
0.0
 11
44.588307122
 21
688.6934705859
 31
0.0
  0
LINE
  5
296
330
1F
100
AcDbEntity
  8
0
  6
Continuous
 62
     7
370
    25
100
AcDbLine
 10
45.3042677986
 20
684.9334705859
 30
0.0
 11
44.588307122
 21
684.9334705859
 31
0.0
  0
LINE
  5
297
330
1F
100
AcDbEntity
  8
0
  6
Continuous
 62
     7
370
    25
100
AcDbLine
 10
38.5499058485
 20
684.9334705859
 30
0.0
 11
38.5499058485
 21
688.6934705859
 31
0.0
  0
LINE
  5
298
330
1F
100
AcDbEntity
  8
0
  6
Continuous
 62
     7
370
    25
100
AcDbLine
 10
44.588307122
 20
684.9334705859
 30
0.0
 11
38.5499058485
 21
684.9334705859
 31
0.0
  0
LINE
  5
299
330
1F
100
AcDbEntity
  8
0
  6
Continuous
 62
     7
370
    25
100
AcDbLine
 10
75.9354359674
 20
684.9334705859
 30
0.0
 11
75.9354359674
 21
688.7334705859
 31
0.0
  0
LINE
  5
29A
330
1F
100
AcDbEntity
  8
0
  6
Continuous
 62
     7
370
    25
100
AcDbLine
 10
75.9354359674
 20
684.9334705859
 30
0.0
 11
75.7634362669
 21
684.9334705859
 31
0.0
  0
LINE
  5
29B
330
1F
100
AcDbEntity
  8
0
  6
Continuous
 62
     7
370
    25
100
AcDbLine
 10
35.7426709076
 20
688.6934705859
 30
0.0
 11
45.7426709076
 21
688.6934705859
 31
0.0
  0
LINE
  5
29C
330
1F
100
AcDbEntity
  8
0
  6
Continuous
 62
     7
370
    25
100
AcDbLine
 10
35.7426709076
 20
688.6934705859
 30
0.0
 11
35.5139045328
 21
688.7334705859
 31
0.0
  0
LINE
  5
29D
330
1F
100
AcDbEntity
  8
0
  6
Continuous
 62
     7
370
    25
100
AcDbLine
 10
47.7426709076
 20
688.7334705859
 30
0.0
 11
47.7426709076
 21
688.6934705859
 31
0.0
  0
LINE
  5
29E
330
1F
100
AcDbEntity
  8
0
  6
Continuous
 62
     7
370
    25
100
AcDbLine
 10
47.7426709076
 20
688.6934705859
 30
0.0
 11
45.7426709076
 21
688.6934705859
 31
0.0
  0
LWPOLYLINE
  5
29F
330
1F
100
AcDbEntity
  8
0
  6
Continuous
 62
     7
370
    25
100
AcDbPolyline
 90
        3
 70
   128
 43
0.0
 10
79.8824047518
 20
689.0086663433
 10
79.8033310798
 20
689.0941307576
 10
79.7400746751
 20
689.1538213012
  0
LINE
  5
2A0
330
1F
100
AcDbEntity
  8
0
  6
Continuous
 62
     7
370
    25
100
AcDbLine
 10
895.3625313839
 20
885.8746663988
 30
0.0
 11
859.9692454123
 21
869.370506103
 31
0.0
  0
SPLINE
  5
2A1
330
1F
100
AcDbEntity
  8
0
  6
Continuous
 62
     7
370
    25
100
AcDbSpline
210
0.0
220
0.0
230
1.0
 70
     8
 71
     3
 72
    11
 73
     7
 74
     0
 42
0.000000001
 43
0.00000001
 40
0.0
 40
0.0
 40
0.0
 40
0.0
 40
0.288975927564344
 40
0.5779517763247598
 40
0.8674414070446311
 40
1.0
 40
1.0
 40
1.0
 40
1.0
 10
859.9692454122553
 20
869.3705061030178
 30
0.0
 10
859.6657175027001
 20
869.2802307187026
 30
0.0
 10
859.0586617663619
 20
869.0996799746903
 30
0.0
 10
857.9101437889309
 20
869.3390663393617
 30
0.0
 10
856.8755859912305
 20
869.7308466181848
 30
0.0
 10
856.2486375687375
 20
869.9976926076354
 30
0.0
 10
856.0517231023823
 20
870.0815046625456
 30
0.0
  0
LINE
  5
2A2
330
1F
100
AcDbEntity
  8
0
  6
Continuous
 62
     7
370
    25
100
AcDbLine
 10
859.5079543013
 20
868.1118565789
 30
0.0
 11
859.9063125287
 21
867.2575746034
 31
0.0
  0
SPLINE
  5
2A3
330
1F
100
AcDbEntity
  8
0
  6
Continuous
 62
     7
370
    25
100
AcDbSpline
210
0.0
220
0.0
230
1.0
 70
     8
 71
     3
 72
    11
 73
     7
 74
     0
 42
0.000000001
 43
0.00000001
 40
0.0
 40
0.0
 40
0.0
 40
0.0
 40
0.2888077077192551
 40
0.5776153362194977
 40
0.8669345414319913
 40
1.0
 40
1.0
 40
1.0
 40
1.0
 10
856.0517231023822
 20
870.0815046625454
 30
0.0
 10
856.4994211271597
 20
869.9452959076891
 30
0.0
 10
857.3948170539126
 20
869.6728784353384
 30
0.0
 10
858.5419786429733
 20
869.1728691082238
 30
0.0
 10
859.216866191705
 20
868.6366183777957
 30
0.0
 10
859.4382202761551
 20
868.2375702417435
 30
0.0
 10
859.5079543012724
 20
868.1118565788956
 30
0.0
  0
CIRCLE
  5
2A4
330
1F
100
AcDbEntity
  8
0
  6
Continuous
 62
     7
370
    25
100
AcDbCircle
 10
95.189893318
 20
915.9334705859
 30
0.0
 40
6.347663105371566
  0
CIRCLE
  5
2A5
330
1F
100
AcDbEntity
  8
0
  6
Continuous
 62
     7
370
    25
100
AcDbCircle
 10
865.189893318
 20
915.9334705859
 30
0.0
 40
6.347663105371566
  0
CIRCLE
  5
2A6
330
1F
100
AcDbEntity
  8
0
  6
Continuous
 62
     7
370
    25
100
AcDbCircle
 10
485.189893318
 20
915.9334705859
 30
0.0
 40
6.347663105371566
  0
LINE
  5
2A7
330
1F
100
AcDbEntity
  8
0
  6
Continuous
 62
     7
370
    25
100
AcDbLine
 10
915.908893006
 20
738.7072879685
 30
0.0
 11
895.2980945156
 21
694.5072879685
 31
0.0
  0
ARC
  5
2A8
330
1F
100
AcDbEntity
  8
0
  6
Continuous
 62
     7
370
    25
100
AcDbCircle
 10
906.8458151357
 20
742.9334705859
 30
0.0
 40
9.999999999999886
100
AcDbArc
 50
335.0
 51
0.0
  0
ARC
  5
2A9
330
1F
100
AcDbEntity
  8
0
  6
Continuous
 62
     7
370
    25
100
AcDbCircle
 10
886.2350166452
 20
698.7334705859
 30
0.0
 40
10.0
100
AcDbArc
 50
270.0
 51
335.0
  0
SPLINE
  5
2AA
330
1F
100
AcDbEntity
  8
0
  6
Continuous
 62
     7
370
    25
100
AcDbSpline
210
0.0
220
0.0
230
1.0
 70
     8
 71
     3
 72
    15
 73
    11
 74
     0
 42
0.000000001
 43
0.00000001
 40
0.0
 40
0.0
 40
0.0
 40
0.0
 40
0.2091619226109921
 40
0.323806936570853
 40
0.4417755067866046
 40
0.5564324095154979
 40
0.6744139442038942
 40
0.7890706737780081
 40
0.907052028098177
 40
1.0
 40
1.0
 40
1.0
 40
1.0
 10
18.44974197580079
 20
688.7334705858685
 30
0.0
 10
18.55414855243748
 20
688.7568151573018
 30
0.0
 10
18.71578205301239
 20
688.7929552638138
 30
0.0
 10
18.93537099589443
 20
689.017252818241
 30
0.0
 10
19.10813234090886
 20
689.2534479107691
 30
0.0
 10
19.28250559402833
 20
689.5531466261822
 30
0.0
 10
19.4552540955506
 20
689.8986887757303
 30
0.0
 10
19.62963289379838
 20
690.2853786170971
 30
0.0
 10
19.79160599586421
 20
690.6679068549761
 30
0.0
 10
19.89646417489571
 20
690.9216543771648
 30
0.0
 10
19.94267090798913
 20
691.0334705858685
 30
0.0
  0
LINE
  5
2AB
330
1F
100
AcDbEntity
  8
0
  6
Continuous
 62
     7
370
    25
100
AcDbLine
 10
18.4497419758
 20
688.7334705859
 30
0.0
 11
18.4497419758
 21
689.5334705859
 31
0.0
  0
SPLINE
  5
2AC
330
1F
100
AcDbEntity
  8
0
  6
Continuous
 62
     7
370
    25
100
AcDbSpline
210
0.0
220
0.0
230
1.0
 70
     8
 71
     3
 72
    11
 73
     7
 74
     0
 42
0.000000001
 43
0.00000001
 40
0.0
 40
0.0
 40
0.0
 40
0.0
 40
0.2543211584720793
 40
0.5088664984542215
 40
0.7634130007197083
 40
1.0
 40
1.0
 40
1.0
 40
1.0
 10
18.44974197580079
 20
689.5334705858685
 30
0.0
 10
18.57632308358625
 20
689.5568246478875
 30
0.0
 10
18.8295968791139
 20
689.6035533582935
 30
0.0
 10
19.20954154859939
 20
689.9624409744885
 30
0.0
 10
19.58076668027014
 20
690.4616639537783
 30
0.0
 10
19.82501332493941
 20
690.8475722703733
 30
0.0
 10
19.94267090798901
 20
691.0334705858685
 30
0.0
  0
SPLINE
  5
2AD
330
1F
100
AcDbEntity
  8
0
  6
Continuous
 62
     7
370
    25
100
AcDbSpline
210
0.0
220
0.0
230
1.0
 70
     8
 71
     3
 72
    24
 73
    20
 74
     0
 42
0.000000001
 43
0.00000001
 40
0.0
 40
0.0
 40
0.0
 40
0.0
 40
0.0516519798807587
 40
0.1035970116266629
 40
0.1564567567181643
 40
0.2096307448684999
 40
0.2667254519687267
 40
0.324216806723607
 40
0.3829576349531887
 40
0.4421307317448549
 40
0.4992313283186141
 40
0.5567286966518069
 40
0.6154759449943178
 40
0.6746556039194119
 40
0.7317561138049008
 40
0.7892533956919889
 40
0.8480005554127921
 40
0.9071801219092958
 40
1.0
 40
1.0
 40
1.0
 40
1.0
 10
17.64267090798904
 20
935.1263995180569
 30
0.0
 10
17.6441290496111
 20
935.1006968490165
 30
0.0
 10
17.64705360574454
 20
935.0491456846742
 30
0.0
 10
17.6708518853595
 20
934.971293864345
 30
0.0
 10
17.70923066910662
 20
934.8926874620767
 30
0.0
 10
17.76504377751981
 20
934.8115143580565
 30
0.0
 10
17.83892502847711
 20
934.7280302770511
 30
0.0
 10
17.93245203016747
 20
934.6417758169017
 30
0.0
 10
18.04394443085278
 20
934.5544930510064
 30
0.0
 10
18.17129576755666
 20
934.4674014906534
 30
0.0
 10
18.3124292667512
 20
934.3809268165844
 30
0.0
 10
18.4665286117297
 20
934.2946631696095
 30
0.0
 10
18.63485891257099
 20
934.2073685485625
 30
0.0
 10
18.81390792464011
 20
934.1202730037188
 30
0.0
 10
19.00102368254103
 20
934.0337947623483
 30
0.0
 10
19.1953639947951
 20
933.9475329516277
 30
0.0
 10
19.39832130224156
 20
933.8602329104058
 30
0.0
 10
19.64767502929771
 20
933.7553770678733
 30
0.0
 10
19.83082727898994
 20
933.6796897513922
 30
0.0
 10
19.94267090798901
 20
933.633470585869
 30
0.0
  0
LINE
  5
2AE
330
1F
100
AcDbEntity
  8
0
  6
Continuous
 62
     7
370
    25
100
AcDbLine
 10
17.642670908
 20
935.1263995181
 30
0.0
 11
18.442670908
 21
935.1263995181
 31
0.0
  0
SPLINE
  5
2AF
330
1F
100
AcDbEntity
  8
0
  6
Continuous
 62
     7
370
    25
100
AcDbSpline
210
0.0
220
0.0
230
1.0
 70
     8
 71
     3
 72
    21
 73
    17
 74
     0
 42
0.000000001
 43
0.00000001
 40
0.0
 40
0.0
 40
0.0
 40
0.0
 40
0.0624763969719623
 40
0.1253866436237762
 40
0.1896611442506958
 40
0.254408362557162
 40
0.3169383358009095
 40
0.4441227652168168
 40
0.5089296300343441
 40
0.5714598844542949
 40
0.6344251195137051
 40
0.6987582682569589
 40
0.7635654383790534
 40
0.8217915801688653
 40
0.9399499359527895
 40
1.0
 40
1.0
 40
1.0
 40
1.0
 10
18.4426709079889
 20
935.126399518057
 30
0.0
 10
18.44406232497931
 20
935.0953140848363
 30
0.0
 10
18.44685482126201
 20
935.0329273543904
 30
0.0
 10
18.46960085476201
 20
934.9385652897741
 30
0.0
 10
18.50632421009069
 20
934.8430744167027
 30
0.0
 10
18.55785497002071
 20
934.7477564636076
 30
0.0
 10
18.64456362595945
 20
934.6211863206064
 30
0.0
 10
18.75781429567741
 20
934.4943238056444
 30
0.0
 10
18.89398776569423
 20
934.3677205288005
 30
0.0
 10
19.00624805486806
 20
934.2730276167108
 30
0.0
 10
19.12739335699171
 20
934.1785851805344
 30
0.0
 10
19.25818755498265
 20
934.0830061741734
 30
0.0
 10
19.39257657588317
 20
933.9897705850464
 30
0.0
 10
19.57213776414457
 20
933.8698014943863
 30
0.0
 10
19.75562327670677
 20
933.7519914946307
 30
0.0
 10
19.89552789735816
 20
933.6633422951413
 30
0.0
 10
19.94267090798913
 20
933.633470585869
 30
0.0
  0
SPLINE
  5
2B0
330
1F
100
AcDbEntity
  8
0
  6
Continuous
 62
     7
370
    25
100
AcDbSpline
210
0.0
220
0.0
230
1.0
 70
     8
 71
     3
 72
    17
 73
    13
 74
     0
 42
0.000000001
 43
0.00000001
 40
0.0
 40
0.0
 40
0.0
 40
0.0
 40
0.1035984107083706
 40
0.209630005767477
 40
0.3241995137044546
 40
0.4420903889795406
 40
0.556671777855567
 40
0.6745756090647874
 40
0.7891568249000167
 40
0.9070604758598063
 40
0.9534246172613429
 40
1.0
 40
1.0
 40
1.0
 40
1.0
 10
80.24974197579698
 20
207.933470585869
 30
0.0
 10
80.30129244254213
 20
207.9393553082794
 30
0.0
 10
80.40560412615989
 20
207.9512629657849
 30
0.0
 10
80.56691692673861
 20
208.0502638918663
 30
0.0
 10
80.73539732936396
 20
208.2158283962589
 30
0.0
 10
80.90812567277467
 20
208.4538223801191
 30
0.0
 10
81.08250653116039
 20
208.7530421016362
 30
0.0
 10
81.25525724985977
 20
209.0987242561811
 30
0.0
 10
81.42961967820628
 20
209.4853396771127
 30
0.0
 10
81.56848484079471
 20
209.8133024448006
 30
0.0
 10
81.67329661874828
 20
210.0655940614156
 30
0.0
 10
81.71951113140152
 20
210.1774270163741
 30
0.0
 10
81.74267090798531
 20
210.233470585869
 30
0.0
  0
LINE
  5
2B1
330
1F
100
AcDbEntity
  8
0
  6
Continuous
 62
     7
370
    25
100
AcDbLine
 10
80.2497419758
 20
207.9334705859
 30
0.0
 11
80.2497419758
 21
208.7334705859
 31
0.0
  0
SPLINE
  5
2B2
330
1F
100
AcDbEntity
  8
0
  6
Continuous
 62
     7
370
    25
100
AcDbSpline
210
0.0
220
0.0
230
1.0
 70
     8
 71
     3
 72
    15
 73
    11
 74
     0
 42
0.000000001
 43
0.00000001
 40
0.0
 40
0.0
 40
0.0
 40
0.0
 40
0.125360790573971
 40
0.2543493449801014
 40
0.3798182032805922
 40
0.50892450638052
 40
0.6343939312768484
 40
0.7635008384374716
 40
0.8802930527505034
 40
1.0
 40
1.0
 40
1.0
 40
1.0
 10
80.24974197579698
 20
208.733470585869
 30
0.0
 10
80.31212554668681
 20
208.7390950537705
 30
0.0
 10
80.4386979807048
 20
208.750506753713
 30
0.0
 10
80.62773602693963
 20
208.8420214579923
 30
0.0
 10
80.81860168115517
 20
208.9857343885696
 30
0.0
 10
81.00775673400868
 20
209.1788367448542
 30
0.0
 10
81.19867734732222
 20
209.4155758258699
 30
0.0
 10
81.38352471675387
 20
209.6766500052294
 30
0.0
 10
81.56541883412244
 20
209.9537289402997
 30
0.0
 10
81.68310341565189
 20
210.1394603553277
 30
0.0
 10
81.7426709079852
 20
210.2334705858691
 30
0.0
  0
SPLINE
  5
2B3
330
1F
100
AcDbEntity
  8
0
  6
Continuous
 62
     7
370
    25
100
AcDbSpline
210
0.0
220
0.0
230
1.0
 70
     8
 71
     3
 72
    11
 73
     7
 74
     0
 42
0.000000001
 43
0.00000001
 40
0.0
 40
0.0
 40
0.0
 40
0.0
 40
0.28897592756443
 40
0.5779517763249507
 40
0.8674414070449372
 40
1.0
 40
1.0
 40
1.0
 40
1.0
 10
822.4310006274698
 20
691.0334705858687
 30
0.0
 10
822.7793901426412
 20
690.7202288518586
 30
0.0
 10
823.4761690779784
 20
690.0937454692593
 30
0.0
 10
824.3047895690754
 20
689.1540037320831
 30
0.0
 10
824.6891747738933
 20
688.3819494443082
 30
0.0
 10
824.7210036780399
 20
687.9265151951473
 30
0.0
 10
824.7310006274697
 20
687.7834705858687
 30
0.0
  0
LINE
  5
2B4
330
1F
100
AcDbEntity
  8
0
  6
Continuous
 62
     7
370
    25
100
AcDbLine
 10
824.7310006275
 20
208.7405416537
 30
0.0
 11
824.7310006275
 21
687.7834705859
 31
0.0
  0
SPLINE
  5
2B5
330
1F
100
AcDbEntity
  8
0
  6
Continuous
 62
     7
370
    25
100
AcDbSpline
210
0.0
220
0.0
230
1.0
 70
     8
 71
     3
 72
    24
 73
    20
 74
     0
 42
0.000000001
 43
0.00000001
 40
0.0
 40
0.0
 40
0.0
 40
0.0
 40
0.0516519798807446
 40
0.1035970116266476
 40
0.1564567567181206
 40
0.2096307448684802
 40
0.2667254519687168
 40
0.3242168067235717
 40
0.3829576349531555
 40
0.44213073174484
 40
0.4992313283186001
 40
0.5567286966517657
 40
0.6154759449942272
 40
0.6746556039194145
 40
0.7317561138048427
 40
0.7892533956919134
 40
0.8480005554127645
 40
0.907180121909243
 40
1.0
 40
1.0
 40
1.0
 40
1.0
 10
824.7310006274697
 20
208.7405416536809
 30
0.0
 10
824.7295424858478
 20
208.7662443227215
 30
0.0
 10
824.7266179297147
 20
208.8177954870636
 30
0.0
 10
824.702819650099
 20
208.8956473073931
 30
0.0
 10
824.6644408663525
 20
208.9742537096612
 30
0.0
 10
824.6086277579392
 20
209.055426813682
 30
0.0
 10
824.5347465069816
 20
209.1389108946868
 30
0.0
 10
824.4412195052914
 20
209.2251653548362
 30
0.0
 10
824.3297271046063
 20
209.3124481207316
 30
0.0
 10
824.2023757679023
 20
209.3995396810847
 30
0.0
 10
824.0612422687077
 20
209.4860143551537
 30
0.0
 10
823.9071429237293
 20
209.5722780021283
 30
0.0
 10
823.7388126228881
 20
209.6595726231751
 30
0.0
 10
823.5597636108192
 20
209.7466681680196
 30
0.0
 10
823.3726478529176
 20
209.8331464093893
 30
0.0
 10
823.1783075406642
 20
209.9194082201102
 30
0.0
 10
822.9753502332172
 20
210.006708261332
 30
0.0
 10
822.7259965061612
 20
210.111564103865
 30
0.0
 10
822.5428442564688
 20
210.1872514203461
 30
0.0
 10
822.4310006274698
 20
210.2334705858691
 30
0.0
  0
SPLINE
  5
2B6
330
1F
100
AcDbEntity
  8
0
  6
Continuous
 62
     7
370
    25
100
AcDbSpline
210
0.0
220
0.0
230
1.0
 70
     8
 71
     3
 72
    12
 73
     8
 74
     0
 42
0.000000001
 43
0.00000001
 40
0.0
 40
0.0
 40
0.0
 40
0.0
 40
0.2096821001529465
 40
0.4420453733185461
 40
0.6744332966681148
 40
0.9068208701180693
 40
0.9999999999999999
 40
0.9999999999999999
 40
0.9999999999999999
 40
0.9999999999999999
 10
19.94267090798901
 20
933.6334705858688
 30
0.0
 10
19.83838570006141
 20
933.8858015438445
 30
0.0
 10
19.61853482277487
 20
934.4177579313315
 30
0.0
 10
19.28256669289174
 20
935.1391393611461
 30
0.0
 10
18.93566142447522
 20
935.6824982951327
 30
0.0
 10
18.65728476224204
 20
935.9111201352761
 30
0.0
 10
18.49592430102054
 20
935.9284971739003
 30
0.0
 10
18.4497419758009
 20
935.9334705858688
 30
0.0
  0
LINE
  5
2B7
330
1F
100
AcDbEntity
  8
0
  6
Continuous
 62
     7
370
    25
100
AcDbLine
 10
18.4497419758
 20
935.9334705859
 30
0.0
 11
21.8585456239
 21
935.9334705859
 31
0.0
  0
LINE
  5
2B8
330
1F
100
AcDbEntity
  8
0
  6
Continuous
 62
     7
370
    25
100
AcDbLine
 10
32.6085456239
 20
935.9334705859
 30
0.0
 11
94.8585456239
 21
935.9334705859
 31
0.0
  0
LINE
  5
2B9
330
1F
100
AcDbEntity
  8
0
  6
Continuous
 62
     7
370
    25
100
AcDbLine
 10
18.4497419758
 20
688.7334705859
 30
0.0
 11
78.492670908
 21
688.7334705859
 31
0.0
  0
SPLINE
  5
2BA
330
1F
100
AcDbEntity
  8
0
  6
Continuous
 62
     7
370
    25
100
AcDbSpline
210
0.0
220
0.0
230
1.0
 70
     8
 71
     3
 72
    14
 73
    10
 74
     0
 42
0.000000001
 43
0.00000001
 40
0.0
 40
0.0
 40
0.0
 40
0.0
 40
0.1424979789612514
 40
0.2891107491290901
 40
0.4316087267218226
 40
0.5782214232938186
 40
0.720967110898641
 40
0.867849816673692
 40
0.9999999999999999
 40
0.9999999999999999
 40
0.9999999999999999
 40
0.9999999999999999
 10
81.7426709079852
 20
691.0334705858685
 30
0.0
 10
81.58830455750993
 20
690.8618721272288
 30
0.0
 10
81.27511435262724
 20
690.5137201092962
 30
0.0
 10
80.80747463083243
 20
690.0201852127818
 30
0.0
 10
80.33549013078861
 20
689.5746607581776
 30
0.0
 10
79.86756991573901
 20
689.2068427363109
 30
0.0
 10
79.39502744974075
 20
688.9320703430258
 30
0.0
 10
78.93801173897619
 20
688.7634436546579
 30
0.0
 10
78.63579905796165
 20
688.7431036345052
 30
0.0
 10
78.49267090798534
 20
688.7334705858683
 30
0.0
  0
SPLINE
  5
2BB
330
1F
100
AcDbEntity
  8
0
  6
Continuous
 62
     7
370
    25
100
AcDbSpline
210
0.0
220
0.0
230
1.0
 70
     8
 71
     3
 72
    17
 73
    13
 74
     0
 42
0.000000001
 43
0.00000001
 40
0.0
 40
0.0
 40
0.0
 40
0.0
 40
0.1035984107084208
 40
0.2096300057675336
 40
0.3241995137044966
 40
0.4420903889795649
 40
0.5566717778555532
 40
0.6745756090648158
 40
0.7891568249000525
 40
0.9070604758598375
 40
0.9534246172613722
 40
1.0
 40
1.0
 40
1.0
 40
1.0
 10
822.4310006274698
 20
210.2334705858691
 30
0.0
 10
822.4825510942148
 20
210.1087238024971
 30
0.0
 10
822.5868627778325
 20
209.8563003460083
 30
0.0
 10
822.7481755784115
 20
209.4763433901616
 30
0.0
 10
822.9166559810368
 20
209.1024480943044
 30
0.0
 10
823.0893843244477
 20
208.7563966202076
 30
0.0
 10
823.2637651828328
 20
208.4565165743643
 30
0.0
 10
823.436515901533
 20
208.2182035122954
 30
0.0
 10
823.610878329879
 20
208.0448409110296
 30
0.0
 10
823.7497434924678
 20
207.9656767933651
 30
0.0
 10
823.8545552704209
 20
207.9370319556679
 30
0.0
 10
823.900769783074
 20
207.9346595065741
 30
0.0
 10
823.9239295596578
 20
207.933470585869
 30
0.0
  0
LINE
  5
2BC
330
1F
100
AcDbEntity
  8
0
  6
Continuous
 62
     7
370
    25
100
AcDbLine
 10
823.9239295597
 20
207.9334705859
 30
0.0
 11
80.2497419758
 21
207.9334705859
 31
0.0
  0
SPLINE
  5
2BD
330
1F
100
AcDbEntity
  8
0
  6
Continuous
 62
     7
370
    25
100
AcDbSpline
210
0.0
220
0.0
230
1.0
 70
     8
 71
     3
 72
    24
 73
    20
 74
     0
 42
0.000000001
 43
0.00000001
 40
0.0
 40
0.0
 40
0.0
 40
0.0
 40
0.0516519798807446
 40
0.1035970116266713
 40
0.1564567567181301
 40
0.2096307448684749
 40
0.2667254519686654
 40
0.3242168067235477
 40
0.3829576349531073
 40
0.4421307317448063
 40
0.4992313283186254
 40
0.556728696651766
 40
0.6154759449942255
 40
0.6746556039194341
 40
0.7317561138048746
 40
0.7892533956919592
 40
0.8480005554128307
 40
0.9071801219092925
 40
1.0
 40
1.0
 40
1.0
 40
1.0
 10
19.94267090798907
 20
691.0334705858685
 30
0.0
 10
19.88047379761865
 20
691.007767916828
 30
0.0
 10
19.7557266963253
 20
690.9562167524858
 30
0.0
 10
19.56856968302434
 20
690.8783649321562
 30
0.0
 10
19.38212526346317
 20
690.7997585298881
 30
0.0
 10
19.19358998207621
 20
690.7185854258677
 30
0.0
 10
19.00534998585263
 20
690.6351013448624
 30
0.0
 10
18.8185133594766
 20
690.5488468847136
 30
0.0
 10
18.63883654766679
 20
690.4615641188177
 30
0.0
 10
18.47061237849146
 20
690.3744725584648
 30
0.0
 10
18.31582915539037
 20
690.2879978843956
 30
0.0
 10
18.17469937537186
 20
690.2017342374213
 30
0.0
 10
18.04668291049261
 20
690.1144396163743
 30
0.0
 10
17.93502442697975
 20
690.0273440715298
 30
0.0
 10
17.84088127071071
 20
689.9408658301599
 30
0.0
 10
17.76400700497071
 20
689.8546040194392
 30
0.0
 10
17.70491529483831
 20
689.7673039782173
 30
0.0
 10
17.65473386385919
 20
689.6624481356843
 30
0.0
 10
17.64724441175103
 20
689.5867608192034
 30
0.0
 10
17.64267090798916
 20
689.5405416536802
 30
0.0
  0
LINE
  5
2BE
330
1F
100
AcDbEntity
  8
0
  6
Continuous
 62
     7
370
    25
100
AcDbLine
 10
17.642670908
 20
935.1263995181
 30
0.0
 11
17.642670908
 21
689.5405416537
 31
0.0
  0
SPLINE
  5
2BF
330
1F
100
AcDbEntity
  8
0
  6
Continuous
 62
     7
370
    25
100
AcDbSpline
210
0.0
220
0.0
230
1.0
 70
     8
 71
     3
 72
    12
 73
     8
 74
     0
 42
0.000000001
 43
0.00000001
 40
0.0
 40
0.0
 40
0.0
 40
0.0
 40
0.2096821001529506
 40
0.4420453733186254
 40
0.6744332966681659
 40
0.9068208701180529
 40
1.0
 40
1.0
 40
1.0
 40
1.0
 10
81.74267090798531
 20
210.233470585869
 30
0.0
 10
81.49033995000993
 20
210.1291853779415
 30
0.0
 10
80.95838356252261
 20
209.9093345006548
 30
0.0
 10
80.23700213270769
 20
209.5733663707717
 30
0.0
 10
79.69364319872146
 20
209.2264611023551
 30
0.0
 10
79.46502135857847
 20
208.9480844401222
 30
0.0
 10
79.44764431995394
 20
208.7867239789006
 30
0.0
 10
79.44267090798523
 20
208.7405416536809
 30
0.0
  0
SPLINE
  5
2C0
330
1F
100
AcDbEntity
  8
0
  6
Continuous
 62
     7
370
    25
100
AcDbSpline
210
0.0
220
0.0
230
1.0
 70
     8
 71
     3
 72
    11
 73
     7
 74
     0
 42
0.000000001
 43
0.00000001
 40
0.0
 40
0.0
 40
0.0
 40
0.0
 40
0.2543211584722222
 40
0.5088664984542751
 40
0.7634130007198043
 40
1.0
 40
1.0
 40
1.0
 40
1.0
 10
81.7426709079852
 20
210.2334705858691
 30
0.0
 10
81.54269571784583
 20
210.1068894780836
 30
0.0
 10
81.14256906147449
 20
209.8536156825561
 30
0.0
 10
80.6409453073792
 20
209.4736710130703
 30
0.0
 10
80.30488006052062
 20
209.1024458813996
 30
0.0
 10
80.2628955364097
 20
208.8581992367304
 30
0.0
 10
80.2426709079852
 20
208.7405416536809
 30
0.0
  0
LINE
  5
2C1
330
1F
100
AcDbEntity
  8
0
  6
Continuous
 62
     7
370
    25
100
AcDbLine
 10
79.442670908
 20
208.7405416537
 30
0.0
 11
80.242670908
 21
208.7405416537
 31
0.0
  0
LINE
  5
2C2
330
1F
100
AcDbEntity
  8
0
  6
Continuous
 62
     7
370
    25
100
AcDbLine
 10
886.2350166452
 20
688.7334705859
 30
0.0
 11
825.9502313967
 21
688.7334705859
 31
0.0
  0
SPLINE
  5
2C3
330
1F
100
AcDbEntity
  8
0
  6
Continuous
 62
     7
370
    25
100
AcDbSpline
210
0.0
220
0.0
230
1.0
 70
     8
 71
     3
 72
    11
 73
     7
 74
     0
 42
0.000000001
 43
0.00000001
 40
0.0
 40
0.0
 40
0.0
 40
0.0
 40
0.2999401068834048
 40
0.5998801778523312
 40
0.90048665206421
 40
1.0
 40
1.0
 40
1.0
 40
1.0
 10
825.9502313967005
 20
688.7334705858685
 30
0.0
 10
825.5981903865966
 20
688.7835811407057
 30
0.0
 10
824.8941084085415
 20
688.8838022443798
 30
0.0
 10
823.8379612254619
 20
689.6374330278777
 30
0.0
 10
823.0145433310167
 20
690.4339021105687
 30
0.0
 10
822.5472264738917
 20
690.9140528412784
 30
0.0
 10
822.4310006274698
 20
691.0334705858687
 30
0.0
  0
LINE
  5
2C4
330
1F
100
AcDbEntity
  8
0
  6
Continuous
 62
     7
370
    25
100
AcDbLine
 10
79.442670908
 20
687.7834705859
 30
0.0
 11
79.442670908
 21
208.7405416537
 31
0.0
  0
SPLINE
  5
2C5
330
1F
100
AcDbEntity
  8
0
  6
Continuous
 62
     7
370
    25
100
AcDbSpline
210
0.0
220
0.0
230
1.0
 70
     8
 71
     3
 72
    11
 73
     7
 74
     0
 42
0.000000001
 43
0.00000001
 40
0.0
 40
0.0
 40
0.0
 40
0.0
 40
0.2889759275644761
 40
0.5779517763250497
 40
0.8674414070449602
 40
1.0
 40
1.0
 40
1.0
 40
1.0
 10
79.44267090798512
 20
687.7834705858685
 30
0.0
 10
79.48913006172853
 20
688.0967123198786
 30
0.0
 10
79.58204835654587
 20
688.7231957024779
 30
0.0
 10
80.28439075415811
 20
689.6629374396541
 30
0.0
 10
81.07668728979705
 20
690.4349917274291
 30
0.0
 10
81.5834917404904
 20
690.8904259765898
 30
0.0
 10
81.7426709079852
 20
691.0334705858685
 30
0.0
  0
SPLINE
  5
2C6
330
1F
100
AcDbEntity
  8
0
  6
Continuous
 62
     7
370
    25
100
AcDbSpline
210
0.0
220
0.0
230
1.0
 70
     8
 71
     3
 72
    11
 73
     7
 74
     0
 42
0.000000001
 43
0.00000001
 40
0.0
 40
0.0
 40
0.0
 40
0.0
 40
0.2543211584720994
 40
0.5088664984542763
 40
0.7634130007198395
 40
1.0
 40
1.0
 40
1.0
 40
1.0
 10
19.94267090798901
 20
933.6334705858688
 30
0.0
 10
19.81608980020361
 20
933.8334457760083
 30
0.0
 10
19.56281600467585
 20
934.2335724323794
 30
0.0
 10
19.18287133519059
 20
934.735196186475
 30
0.0
 10
18.8116462035196
 20
935.0712614333338
 30
0.0
 10
18.56739955885051
 20
935.1132459574446
 30
0.0
 10
18.44974197580101
 20
935.133470585869
 30
0.0
  0
LINE
  5
2C7
330
1F
100
AcDbEntity
  8
0
  6
Continuous
 62
     7
370
    25
100
AcDbLine
 10
18.4497419758
 20
935.9334705859
 30
0.0
 11
18.4497419758
 21
935.1334705859
 31
0.0
  0
SPLINE
  5
2C8
330
1F
100
AcDbEntity
  8
0
  6
Continuous
 62
     7
370
    25
100
AcDbSpline
210
0.0
220
0.0
230
1.0
 70
     8
 71
     3
 72
    15
 73
    11
 74
     0
 42
0.000000001
 43
0.00000001
 40
0.0
 40
0.0
 40
0.0
 40
0.0
 40
0.1253607905739376
 40
0.2543493449800489
 40
0.3798182032805521
 40
0.5089245063804745
 40
0.634393931276851
 40
0.763500838437485
 40
0.8802930527505086
 40
1.0
 40
1.0
 40
1.0
 40
1.0
 10
822.4310006274698
 20
210.233470585869
 30
0.0
 10
822.4933841983598
 20
210.1350148245489
 30
0.0
 10
822.6199566323776
 20
209.9352541315392
 30
0.0
 10
822.8089946786123
 20
209.6486164152391
 30
0.0
 10
822.9998603328277
 20
209.3826777427978
 30
0.0
 10
823.1890153856816
 20
209.1528609598706
 30
0.0
 10
823.3799359989948
 20
208.9639304638631
 30
0.0
 10
823.5647833684266
 20
208.8312578897857
 30
0.0
 10
823.7466774857953
 20
208.7486836211014
 30
0.0
 10
823.8643620673247
 20
208.7385830922551
 30
0.0
 10
823.9239295596578
 20
208.733470585869
 30
0.0
  0
LINE
  5
2C9
330
1F
100
AcDbEntity
  8
0
  6
Continuous
 62
     7
370
    25
100
AcDbLine
 10
823.9239295597
 20
207.9334705859
 30
0.0
 11
823.9239295597
 21
208.7334705859
 31
0.0
  0
LINE
  5
2CA
330
1F
100
AcDbEntity
  8
0
  6
Continuous
 62
     7
370
    25
100
AcDbLine
 10
824.7310006275
 20
208.7405416537
 30
0.0
 11
823.9310006275
 21
208.7405416537
 31
0.0
  0
SPLINE
  5
2CB
330
1F
100
AcDbEntity
  8
0
  6
Continuous
 62
     7
370
    25
100
AcDbSpline
210
0.0
220
0.0
230
1.0
 70
     8
 71
     3
 72
    21
 73
    17
 74
     0
 42
0.000000001
 43
0.00000001
 40
0.0
 40
0.0
 40
0.0
 40
0.0
 40
0.062476396971966
 40
0.125386643623806
 40
0.1896611442507657
 40
0.2544083625572541
 40
0.316938335801021
 40
0.4441227652167742
 40
0.5089296300342838
 40
0.5714598844542133
 40
0.6344251195136781
 40
0.6987582682569679
 40
0.7635654383790572
 40
0.8217915801687808
 40
0.939949935952925
 40
1.0
 40
1.0
 40
1.0
 40
1.0
 10
823.9310006274699
 20
208.7405416536809
 30
0.0
 10
823.9296092104795
 20
208.7716270869016
 30
0.0
 10
823.9268167141971
 20
208.8340138173477
 30
0.0
 10
823.9040706806967
 20
208.9283758819636
 30
0.0
 10
823.8673473253684
 20
209.0238667550354
 30
0.0
 10
823.8158165654374
 20
209.1191847081303
 30
0.0
 10
823.7291079094995
 20
209.2457548511318
 30
0.0
 10
823.6158572397816
 20
209.3726173660932
 30
0.0
 10
823.4796837697646
 20
209.4992206429373
 30
0.0
 10
823.3674234805912
 20
209.5939135550273
 30
0.0
 10
823.2462781784674
 20
209.6883559912036
 30
0.0
 10
823.1154839804761
 20
209.7839349975645
 30
0.0
 10
822.9810949595758
 20
209.8771705866916
 30
0.0
 10
822.8015337713142
 20
209.9971396773518
 30
0.0
 10
822.6180482587522
 20
210.1149496771071
 30
0.0
 10
822.4781436381006
 20
210.2035988765967
 30
0.0
 10
822.4310006274698
 20
210.233470585869
 30
0.0
  0
LINE
  5
2CC
330
1F
100
AcDbEntity
  8
0
  6
Continuous
 62
     7
370
    25
100
AcDbLine
 10
900.1994266368
 20
890.7115616518
 30
0.0
 11
914.6529711884
 21
921.7072879685
 31
0.0
  0
SPLINE
  5
2CD
330
1F
100
AcDbEntity
  8
0
  6
Continuous
 62
     7
370
    25
100
AcDbSpline
210
0.0
220
0.0
230
1.0
 70
     8
 71
     3
 72
    21
 73
    17
 74
     0
 42
0.000000001
 43
0.00000001
 40
0.0
 40
0.0
 40
0.0
 40
0.0
 40
0.0624763969719753
 40
0.1253866436238647
 40
0.1896611442507816
 40
0.2544083625572808
 40
0.3169383358010333
 40
0.444122765216719
 40
0.5089296300342804
 40
0.5714598844541873
 40
0.6344251195136221
 40
0.6987582682569359
 40
0.7635654383790368
 40
0.8217915801687794
 40
0.9399499359529031
 40
1.0
 40
1.0
 40
1.0
 40
1.0
 10
19.94267090798901
 20
691.0334705858685
 30
0.0
 10
19.89361281750945
 20
691.0023851526479
 30
0.0
 10
19.79515596650738
 20
690.9399984222018
 30
0.0
 10
19.64766206414703
 20
690.8456363575857
 30
0.0
 10
19.50135036661948
 20
690.7501454845137
 30
0.0
 10
19.35979514098879
 20
690.6548275314191
 30
0.0
 10
19.17958639014844
 20
690.5282573884175
 30
0.0
 10
19.01324247344993
 20
690.4013948734562
 30
0.0
 10
18.86667588531443
 20
690.274791596612
 30
0.0
 10
18.76776283267812
 20
690.1800986845222
 30
0.0
 10
18.68059520832638
 20
690.0856562483455
 30
0.0
 10
18.60506813394641
 20
689.990077241985
 30
0.0
 10
18.5446286735923
 20
689.8968416528577
 30
0.0
 10
18.48420673151596
 20
689.7768725621974
 30
0.0
 10
18.44798212605664
 20
689.6590625624423
 30
0.0
 10
18.44400953392145
 20
689.5704133629526
 30
0.0
 10
18.44267090798907
 20
689.5405416536803
 30
0.0
  0
LINE
  5
2CE
330
1F
100
AcDbEntity
  8
0
  6
Continuous
 62
     7
370
    25
100
AcDbLine
 10
17.642670908
 20
689.5405416537
 30
0.0
 11
18.442670908
 21
689.5405416537
 31
0.0
  0
CIRCLE
  5
2CF
330
1F
100
AcDbEntity
  8
0
  6
Continuous
 62
     7
370
    25
100
AcDbCircle
 10
95.189893318
 20
915.9334705859
 30
0.0
 40
2.700000000000045
  0
CIRCLE
  5
2D0
330
1F
100
AcDbEntity
  8
0
  6
Continuous
 62
     7
370
    25
100
AcDbCircle
 10
485.189893318
 20
915.9334705859
 30
0.0
 40
2.700000000000045
  0
CIRCLE
  5
2D1
330
1F
100
AcDbEntity
  8
0
  6
Continuous
 62
     7
370
    25
100
AcDbCircle
 10
865.189893318
 20
915.9334705859
 30
0.0
 40
2.700000000000045
  0
LINE
  5
2D2
330
1F
100
AcDbEntity
  8
0
  6
Continuous
 62
     7
370
    25
100
AcDbLine
 10
18.4249813767
 20
689.5005416537
 30
0.0
 11
17.6426709076
 21
689.5005416537
 31
0.0
  0
LINE
  5
2D3
330
1F
100
AcDbEntity
  8
0
  6
Continuous
 62
     7
370
    25
100
AcDbLine
 10
17.6426709076
 20
689.5005416537
 30
0.0
 11
17.6426709076
 21
689.5405416537
 31
0.0
  0
LINE
  5
2D4
330
1F
100
AcDbEntity
  8
0
  6
Continuous
 62
     7
370
    25
100
AcDbLine
 10
78.4926709076
 20
688.7334705859
 30
0.0
 11
78.4926709076
 21
688.6934705859
 31
0.0
  0
LINE
  5
2D5
330
1F
100
AcDbEntity
  8
0
  6
Continuous
 62
     7
370
    25
100
AcDbLine
 10
75.9354359674
 20
688.6934705859
 30
0.0
 11
78.4926709076
 21
688.6934705859
 31
0.0
  0
LINE
  5
2D6
330
1F
100
AcDbEntity
  8
0
  6
Continuous
 62
     7
370
    25
100
AcDbLine
 10
18.4497419754
 20
688.7334705859
 30
0.0
 11
18.4497419754
 21
688.6934705859
 31
0.0
  0
LINE
  5
2D7
330
1F
100
AcDbEntity
  8
0
  6
Continuous
 62
     7
370
    25
100
AcDbLine
 10
18.4497419754
 20
688.6934705859
 30
0.0
 11
20.4426709076
 21
688.6934705859
 31
0.0
  0
LINE
  5
2D8
330
1F
100
AcDbEntity
  8
0
  6
Continuous
 62
     7
370
    25
100
AcDbLine
 10
20.4426709076
 20
688.6934705859
 30
0.0
 11
35.7426709076
 21
688.6934705859
 31
0.0
  0
LINE
  5
2D9
330
1F
100
AcDbEntity
  8
0
  6
Continuous
 62
     7
370
    25
100
AcDbLine
 10
80.2426709076
 20
208.7005416537
 30
0.0
 11
79.4426709076
 21
208.7005416537
 31
0.0
  0
LINE
  5
2DA
330
1F
100
AcDbEntity
  8
0
  6
Continuous
 62
     7
370
    25
100
AcDbLine
 10
79.4426709076
 20
208.7405416537
 30
0.0
 11
79.4426709076
 21
208.7005416537
 31
0.0
  0
LINE
  5
2DB
330
1F
100
AcDbEntity
  8
0
  6
Continuous
 62
     7
370
    25
100
AcDbLine
 10
80.2426709076
 20
208.7659349477
 30
0.0
 11
80.2426709076
 21
208.7005416537
 31
0.0
  0
LINE
  5
2DC
330
1F
100
AcDbEntity
  8
0
  6
Continuous
 62
     7
370
    25
100
AcDbLine
 10
823.9310006271
 20
208.7005416537
 30
0.0
 11
824.7310006271
 21
208.7005416537
 31
0.0
  0
LINE
  5
2DD
330
1F
100
AcDbEntity
  8
0
  6
Continuous
 62
     7
370
    25
100
AcDbLine
 10
823.9310006271
 20
208.7005416537
 30
0.0
 11
823.9310006271
 21
208.7405416537
 31
0.0
  0
LINE
  5
2DE
330
1F
100
AcDbEntity
  8
0
  6
Continuous
 62
     7
370
    25
100
AcDbLine
 10
823.8600128955
 20
208.6934705859
 30
0.0
 11
823.9239295593
 21
208.6934705859
 31
0.0
  0
LINE
  5
2DF
330
1F
100
AcDbEntity
  8
0
  6
Continuous
 62
     7
370
    25
100
AcDbLine
 10
823.9239295593
 20
207.9334705859
 30
0.0
 11
823.9239295593
 21
207.8934705859
 31
0.0
  0
LINE
  5
2E0
330
1F
100
AcDbEntity
  8
0
  6
Continuous
 62
     7
370
    25
100
AcDbLine
 10
821.9310006271
 20
207.8934705859
 30
0.0
 11
823.9239295593
 21
207.8934705859
 31
0.0
  0
LINE
  5
2E1
330
1F
100
AcDbEntity
  8
0
  6
Continuous
 62
     7
370
    25
100
AcDbLine
 10
82.2426709076
 20
207.8934705859
 30
0.0
 11
84.7045739369
 21
207.8934705859
 31
0.0
  0
LINE
  5
2E2
330
1F
100
AcDbEntity
  8
0
  6
Continuous
 62
     7
370
    25
100
AcDbLine
 10
94.7264222989
 20
207.8934705859
 30
0.0
 11
125.0867639187
 21
207.8934705859
 31
0.0
  0
LINE
  5
2E3
330
1F
100
AcDbEntity
  8
0
  6
Continuous
 62
     7
370
    25
100
AcDbLine
 10
191.1985778973
 20
207.8934705859
 30
0.0
 11
704.0867639187
 21
207.8934705859
 31
0.0
  0
LINE
  5
2E4
330
1F
100
AcDbEntity
  8
0
  6
Continuous
 62
     7
370
    25
100
AcDbLine
 10
770.1985778973
 20
207.8934705859
 30
0.0
 11
821.9310006271
 21
207.8934705859
 31
0.0
  0
LINE
  5
2E5
330
1F
100
AcDbEntity
  8
0
  6
Continuous
 62
     7
370
    25
100
AcDbLine
 10
80.2497419754
 20
207.9334705859
 30
0.0
 11
80.2497419754
 21
207.8934705859
 31
0.0
  0
LINE
  5
2E6
330
1F
100
AcDbEntity
  8
0
  6
Continuous
 62
     7
370
    25
100
AcDbLine
 10
80.2497419754
 20
208.6934705859
 30
0.0
 11
80.3096281499
 21
208.6934705859
 31
0.0
  0
LINE
  5
2E7
330
1F
100
AcDbEntity
  8
0
  6
Continuous
 62
     7
370
    25
100
AcDbLine
 10
80.2497419754
 20
207.8934705859
 30
0.0
 11
82.2426709076
 21
207.8934705859
 31
0.0
  0
LINE
  5
2E8
330
1F
100
AcDbEntity
  8
0
  6
Continuous
 62
     7
370
    25
100
AcDbLine
 10
881.7559251065
 20
879.5211039771
 30
0.0
 11
881.7525936891
 21
879.5282482248
 31
0.0
  0
LINE
  5
2E9
330
1F
100
AcDbEntity
  8
0
  6
Continuous
 62
     7
370
    25
100
AcDbLine
 10
873.9865562262
 20
875.8668854825
 30
0.0
 11
875.2540668101
 21
876.4579353746
 31
0.0
  0
LINE
  5
2EA
330
1F
100
AcDbEntity
  8
0
  6
Continuous
 62
     7
370
    25
100
AcDbLine
 10
895.3472104947
 20
885.8675221509
 30
0.0
 11
895.3505419121
 21
885.8603779032
 31
0.0
  0
LINE
  5
2EB
330
1F
100
AcDbEntity
  8
0
  6
Continuous
 62
     7
370
    25
100
AcDbLine
 10
900.1840461928
 20
890.6787336704
 30
0.0
 11
900.1993383658
 21
890.6716028131
 31
0.0
  0
ARC
  5
2EC
330
1F
100
AcDbEntity
  8
0
  6
Continuous
 62
     7
370
    25
100
AcDbCircle
 10
905.5898933176
 20
925.8934705859
 30
0.0
 40
9.999999999999595
100
AcDbArc
 50
335.0
 51
1.239601911
  0
LINE
  5
2ED
330
1F
100
AcDbEntity
  8
0
  6
Continuous
 62
     7
370
    25
100
AcDbLine
 10
914.6376502994
 20
921.6744322161
 30
0.0
 11
914.652971188
 21
921.6672879685
 31
0.0
  0
SPLINE
  5
2EE
330
1F
100
AcDbEntity
  8
0
  6
Continuous
 62
     7
370
    25
100
AcDbSpline
210
0.0
220
0.0
230
1.0
 70
     8
 71
     3
 72
    11
 73
     7
 74
     0
 42
0.000000001
 43
0.00000001
 40
0.0
 40
0.0
 40
0.0
 40
0.0
 40
0.2543211584721443
 40
0.5088664984542813
 40
0.7634130007197422
 40
1.0
 40
1.0
 40
1.0
 40
1.0
 10
80.24267090759402
 20
208.7005416536832
 30
0.0
 10
80.26602496961304
 20
208.8271227614686
 30
0.0
 10
80.31275368001877
 20
209.0803965569963
 30
0.0
 10
80.67164129621423
 20
209.4603412264818
 30
0.0
 10
81.17086427550369
 20
209.8315663581526
 30
0.0
 10
81.55677259209875
 20
210.0758130028217
 30
0.0
 10
81.74267090759385
 20
210.1934705858714
 30
0.0
  0
SPLINE
  5
2EF
330
1F
100
AcDbEntity
  8
0
  6
Continuous
 62
     7
370
    25
100
AcDbSpline
210
0.0
220
0.0
230
1.0
 70
     8
 71
     3
 72
     9
 73
     5
 74
     0
 42
0.000000001
 43
0.00000001
 40
0.0
 40
0.0
 40
0.0
 40
0.0
 40
0.3122237622208738
 40
1.0
 40
1.0
 40
1.0
 40
1.0
 10
823.9226761778217
 20
689.5118586619418
 30
0.0
 10
824.0518737337098
 20
689.393349334628
 30
0.0
 10
824.4656716937664
 20
689.0137839662824
 30
0.0
 10
824.8794779284938
 20
688.8773243010427
 30
0.0
 10
825.1640840237842
 20
688.7834705858756
 30
0.0
  0
SPLINE
  5
2F0
330
1F
100
AcDbEntity
  8
0
  6
Continuous
 62
     7
370
    25
100
AcDbSpline
210
0.0
220
0.0
230
1.0
 70
     8
 71
     3
 72
    11
 73
     7
 74
     0
 42
0.000000001
 43
0.00000001
 40
0.0
 40
0.0
 40
0.0
 40
0.0
 40
0.0117859772751398
 40
0.3491232602724308
 40
0.6864620835906935
 40
1.0
 40
1.0
 40
1.0
 40
1.0
 10
822.9940961293925
 20
209.8270101260622
 30
0.0
 10
823.000911468056
 20
209.8225837444696
 30
0.0
 10
823.202794875643
 20
209.6914658289388
 30
0.0
 10
823.5280206022213
 20
209.4336720811318
 30
0.0
 10
823.8698715540639
 20
209.0624456362509
 30
0.0
 10
823.9111271400228
 20
208.8181991570324
 30
0.0
 10
823.9310006270783
 20
208.7005416536832
 30
0.0
  0
SPLINE
  5
2F1
330
1F
100
AcDbEntity
  8
0
  6
Continuous
 62
     7
370
    25
100
AcDbSpline
210
0.0
220
0.0
230
1.0
 70
     8
 71
     3
 72
    11
 73
     7
 74
     0
 42
0.000000001
 43
0.00000001
 40
0.0
 40
0.0
 40
0.0
 40
0.0
 40
0.2543211584721778
 40
0.5088664984542571
 40
0.7634130007196763
 40
1.0
 40
1.0
 40
1.0
 40
1.0
 10
81.74267090759385
 20
210.1934705858713
 30
0.0
 10
81.61608979980834
 20
209.993495395732
 30
0.0
 10
81.36281600428052
 20
209.5933687393609
 30
0.0
 10
80.98287133479532
 20
209.0917449852652
 30
0.0
 10
80.61164620312444
 20
208.7556797384065
 30
0.0
 10
80.36739955845529
 20
208.7136952142958
 30
0.0
 10
80.24974197540568
 20
208.6934705858713
 30
0.0
  0
LINE
  5
2F2
330
1F
100
AcDbEntity
  8
0
  6
Continuous
 62
     7
370
    25
100
AcDbLine
 10
737.142670908
 20
39.9334705859
 30
0.0
 11
710.642670908
 21
39.9334705859
 31
0.0
  0
LINE
  5
2F3
330
1F
100
AcDbEntity
  8
0
  6
Continuous
 62
     7
370
    25
100
AcDbLine
 10
763.642670908
 20
39.9334705859
 30
0.0
 11
737.142670908
 21
39.9334705859
 31
0.0
  0
LINE
  5
2F4
330
1F
100
AcDbEntity
  8
0
  6
Continuous
 62
     7
370
    25
100
AcDbLine
 10
737.142670908
 20
45.9334705859
 30
0.0
 11
708.642670908
 21
45.9334705859
 31
0.0
  0
LINE
  5
2F5
330
1F
100
AcDbEntity
  8
0
  6
Continuous
 62
     7
370
    25
100
AcDbLine
 10
765.642670908
 20
45.9334705859
 30
0.0
 11
737.142670908
 21
45.9334705859
 31
0.0
  0
LINE
  5
2F6
330
1F
100
AcDbEntity
  8
0
  6
Continuous
 62
     7
370
    25
100
AcDbLine
 10
158.142670908
 20
45.9334705859
 30
0.0
 11
129.642670908
 21
45.9334705859
 31
0.0
  0
LINE
  5
2F7
330
1F
100
AcDbEntity
  8
0
  6
Continuous
 62
     7
370
    25
100
AcDbLine
 10
186.642670908
 20
45.9334705859
 30
0.0
 11
158.142670908
 21
45.9334705859
 31
0.0
  0
LINE
  5
2F8
330
1F
100
AcDbEntity
  8
0
  6
Continuous
 62
     7
370
    25
100
AcDbLine
 10
158.142670908
 20
39.9334705859
 30
0.0
 11
131.642670908
 21
39.9334705859
 31
0.0
  0
LINE
  5
2F9
330
1F
100
AcDbEntity
  8
0
  6
Continuous
 62
     7
370
    25
100
AcDbLine
 10
184.642670908
 20
39.9334705859
 30
0.0
 11
158.142670908
 21
39.9334705859
 31
0.0
  0
LINE
  5
2FA
330
1F
100
AcDbEntity
  8
0
  6
Continuous
 62
     7
370
    25
100
AcDbLine
 10
158.142670908
 20
113.9334705859
 30
0.0
 11
127.1830206876
 21
113.9334705859
 31
0.0
  0
LINE
  5
2FB
330
1F
100
AcDbEntity
  8
0
  6
Continuous
 62
     7
370
    25
100
AcDbLine
 10
189.1023211283
 20
113.9334705859
 30
0.0
 11
158.142670908
 21
113.9334705859
 31
0.0
  0
LINE
  5
2FC
330
1F
100
AcDbEntity
  8
0
  6
Continuous
 62
     7
370
    25
100
AcDbLine
 10
737.142670908
 20
113.9334705859
 30
0.0
 11
706.1830206876
 21
113.9334705859
 31
0.0
  0
LINE
  5
2FD
330
1F
100
AcDbEntity
  8
0
  6
Continuous
 62
     7
370
    25
100
AcDbLine
 10
768.1023211283
 20
113.9334705859
 30
0.0
 11
737.142670908
 21
113.9334705859
 31
0.0
  0
LWPOLYLINE
  5
2FE
330
1F
100
AcDbEntity
  8
0
  6
Continuous
 62
     7
370
    25
100
AcDbPolyline
 90
        3
 70
   128
 43
0.0
 10
822.8292790738
 20
209.625487568
 10
822.8907679468
 20
209.685373547
 10
823.0346431214
 20
209.8388793174
  0
LINE
  5
2FF
330
1F
100
AcDbEntity
  8
0
  6
Continuous
 62
     7
370
    25
100
AcDbLine
 10
828.5956941271
 20
687.6934705859
 30
0.0
 11
839.6366297574
 21
687.6934705859
 31
0.0
  0
LINE
  5
300
330
1F
100
AcDbEntity
  8
0
  6
Continuous
 62
     7
370
    25
100
AcDbLine
 10
851.626527706
 20
687.6934705859
 30
0.0
 11
880.5956941271
 21
687.6934705859
 31
0.0
  0
LINE
  5
301
330
1F
100
AcDbEntity
  8
0
  6
Continuous
 62
     7
370
    25
100
AcDbLine
 10
881.5956941271
 20
687.6934705859
 30
0.0
 11
881.5956941271
 21
687.8184705859
 31
0.0
  0
LINE
  5
302
330
1F
100
AcDbEntity
  8
0
  6
Continuous
 62
     7
370
    25
100
AcDbLine
 10
880.5956941271
 20
687.6934705859
 30
0.0
 11
881.5956941271
 21
687.6934705859
 31
0.0
  0
LINE
  5
303
330
1F
100
AcDbEntity
  8
0
  6
Continuous
 62
     7
370
    25
100
AcDbLine
 10
827.5956941271
 20
687.6934705859
 30
0.0
 11
827.5956941271
 21
687.8184705859
 31
0.0
  0
LINE
  5
304
330
1F
100
AcDbEntity
  8
0
  6
Continuous
 62
     7
370
    25
100
AcDbLine
 10
827.5956941271
 20
687.6934705859
 30
0.0
 11
828.5956941271
 21
687.6934705859
 31
0.0
  0
LINE
  5
305
330
1F
100
AcDbEntity
  8
0
  6
Continuous
 62
     7
370
    25
100
AcDbLine
 10
860.8177003878
 20
867.3926784561
 30
0.0
 11
860.7270696091
 21
867.35041663
 31
0.0
  0
LINE
  5
306
330
1F
100
AcDbEntity
  8
0
  6
Continuous
 62
     7
370
    25
100
AcDbLine
 10
860.8177003878
 20
867.3926784561
 30
0.0
 11
861.3009481877
 21
866.3563502049
 31
0.0
  0
LINE
  5
307
330
1F
100
AcDbEntity
  8
0
  6
Continuous
 62
     7
370
    25
100
AcDbLine
 10
882.5974950755
 20
831.0970449869
 30
0.0
 11
882.8907530522
 21
830.4681512264
 31
0.0
  0
LINE
  5
308
330
1F
100
AcDbEntity
  8
0
  6
Continuous
 62
     7
370
    25
100
AcDbLine
 10
877.2699301711
 20
842.522044794
 30
0.0
 11
882.5974950755
 21
831.0970449869
 31
0.0
  0
LINE
  5
309
330
1F
100
AcDbEntity
  8
0
  6
Continuous
 62
     7
370
    25
100
AcDbLine
 10
879.8607150365
 20
828.6843831796
 30
0.0
 11
880.2046867986
 21
827.9467333553
 31
0.0
  0
LINE
  5
30A
330
1F
100
AcDbEntity
  8
0
  6
Continuous
 62
     7
370
    25
100
AcDbLine
 10
873.6118419155
 20
842.085134833
 30
0.0
 11
879.8607150365
 21
828.6843831796
 31
0.0
  0
SPLINE
  5
30B
330
1F
100
AcDbEntity
  8
0
  6
Continuous
 62
     7
370
    25
100
AcDbSpline
210
0.0
220
0.0
230
1.0
 70
     8
 71
     3
 72
    13
 73
     9
 74
     0
 42
0.000000001
 43
0.00000001
 40
0.0
 40
0.0
 40
0.0
 40
0.0
 40
0.1695411050600857
 40
0.3386458383076488
 40
0.5184804584265571
 40
0.727723621148494
 40
0.9924537768853281
 40
1.0
 40
1.0
 40
1.0
 40
1.0
 10
87.3116656533558
 20
197.2834705858699
 30
0.0
 10
87.31096284996053
 20
197.3080817331566
 30
0.0
 10
87.309559052074
 20
197.357240682555
 30
0.0
 10
87.29892112638194
 20
197.4233764759354
 30
0.0
 10
87.28292846205277
 20
197.4790480790398
 30
0.0
 10
87.26005221697226
 20
197.5217668583119
 30
0.0
 10
87.24158761779249
 20
197.5333525179244
 30
0.0
 10
87.23129527514806
 20
197.5334674018274
 30
0.0
 10
87.23101001972378
 20
197.5334705858699
 30
0.0
  0
LINE
  5
30C
330
1F
100
AcDbEntity
  8
0
  6
Continuous
 62
     7
370
    25
100
AcDbLine
 10
87.2310100197
 20
197.5334705859
 30
0.0
 11
93.9988206576
 21
197.5334705859
 31
0.0
  0
SPLINE
  5
30D
330
1F
100
AcDbEntity
  8
0
  6
Continuous
 62
     7
370
    25
100
AcDbSpline
210
0.0
220
0.0
230
1.0
 70
     8
 71
     3
 72
    13
 73
     9
 74
     0
 42
0.000000001
 43
0.00000001
 40
0.0
 40
0.0
 40
0.0
 40
0.0
 40
0.0075462231145104
 40
0.2722763788514371
 40
0.4815195415733991
 40
0.6613541616923592
 40
0.8304588949399386
 40
1.0
 40
1.0
 40
1.0
 40
1.0
 10
87.23101001972405
 20
196.3334705858699
 30
0.0
 10
87.23129527514823
 20
196.3334737699124
 30
0.0
 10
87.24158761778888
 20
196.3335886538155
 30
0.0
 10
87.2600522169738
 20
196.3451743134279
 30
0.0
 10
87.2829284620525
 20
196.3878930927
 30
0.0
 10
87.29892112638227
 20
196.4435646958043
 30
0.0
 10
87.309559052074
 20
196.5097004891848
 30
0.0
 10
87.31096284996049
 20
196.5588594385832
 30
0.0
 10
87.3116656533558
 20
196.5834705858699
 30
0.0
  0
LINE
  5
30E
330
1F
100
AcDbEntity
  8
0
  6
Continuous
 62
     7
370
    25
100
AcDbLine
 10
93.6535303077
 20
196.3334705859
 30
0.0
 11
87.2310100197
 21
196.3334705859
 31
0.0
  0
LINE
  5
30F
330
1F
100
AcDbEntity
  8
0
  6
Continuous
 62
     7
370
    25
100
AcDbLine
 10
87.3116656534
 20
196.5834705859
 30
0.0
 11
87.3116656534
 21
197.2834705859
 31
0.0
  0
SPLINE
  5
310
330
1F
100
AcDbEntity
  8
0
  6
Continuous
 62
     7
370
    25
100
AcDbSpline
210
0.0
220
0.0
230
1.0
 70
     8
 71
     3
 72
    12
 73
     8
 74
     0
 42
0.000000001
 43
0.00000001
 40
0.0
 40
0.0
 40
0.0
 40
0.0
 40
0.2289440738515784
 40
0.4594214300241341
 40
0.6825355698157622
 40
0.8947175231628799
 40
1.0
 40
1.0
 40
1.0
 40
1.0
 10
82.44354353919925
 20
197.5334705858699
 30
0.0
 10
82.321732624835
 20
197.5161361012923
 30
0.0
 10
82.07729500507799
 20
197.4813510397732
 30
0.0
 10
81.75735524368515
 20
197.2074811939609
 30
0.0
 10
81.52790875319127
 20
196.8104446594779
 30
0.0
 10
81.42516254381893
 20
196.4095686701252
 30
0.0
 10
81.416424210564
 20
196.1646832770382
 30
0.0
 10
81.41352626899634
 20
196.0834705858699
 30
0.0
  0
LINE
  5
311
330
1F
100
AcDbEntity
  8
0
  6
Continuous
 62
     7
370
    25
100
AcDbLine
 10
82.4435435392
 20
197.5334705859
 30
0.0
 11
87.0242587634
 21
197.5334705859
 31
0.0
  0
LINE
  5
312
330
1F
100
AcDbEntity
  8
0
  6
Continuous
 62
     7
370
    25
100
AcDbLine
 10
86.2057401363
 20
190.7334705859
 30
0.0
 11
81.6250249121
 21
190.7334705859
 31
0.0
  0
LINE
  5
313
330
1F
100
AcDbEntity
  8
0
  6
Continuous
 62
     7
370
    25
100
AcDbLine
 10
86.6817190843
 20
190.7334705859
 30
0.0
 11
86.2057401363
 21
190.7334705859
 31
0.0
  0
LINE
  5
314
330
1F
100
AcDbEntity
  8
0
  6
Continuous
 62
     7
370
    25
100
AcDbLine
 10
87.0242587634
 20
197.5334705859
 30
0.0
 11
87.2310100197
 21
197.5334705859
 31
0.0
  0
LINE
  5
315
330
1F
100
AcDbEntity
  8
0
  6
Continuous
 62
     7
370
    25
100
AcDbLine
 10
87.2310100197
 20
196.3334705859
 30
0.0
 11
87.0242587634
 21
196.3334705859
 31
0.0
  0
LINE
  5
316
330
1F
100
AcDbEntity
  8
0
  6
Continuous
 62
     7
370
    25
100
AcDbLine
 10
81.413526269
 20
196.0834705859
 30
0.0
 11
81.3750249121
 21
196.0834705859
 31
0.0
  0
LINE
  5
317
330
1F
100
AcDbEntity
  8
0
  6
Continuous
 62
     7
370
    25
100
AcDbLine
 10
81.592670908
 20
197.5334705859
 30
0.0
 11
82.4435435392
 21
197.5334705859
 31
0.0
  0
ARC
  5
318
330
1F
100
AcDbEntity
  8
0
  6
Continuous
 62
     7
370
    25
100
AcDbCircle
 10
98.0034744721
 20
190.9670407652
 30
0.0
 40
0.2343528001292121
100
AcDbArc
 50
175.9798550465
 51
265.316190911
  0
LINE
  5
319
330
1F
100
AcDbEntity
  8
0
  6
Continuous
 62
     7
370
    25
100
AcDbLine
 10
97.9843379558
 20
190.7334705859
 30
0.0
 11
95.7724589444
 21
190.7334705859
 31
0.0
  0
LINE
  5
31A
330
1F
100
AcDbEntity
  8
0
  6
Continuous
 62
     7
370
    25
100
AcDbLine
 10
98.4603169038
 20
190.7334705859
 30
0.0
 11
97.9843379558
 21
190.7334705859
 31
0.0
  0
SPLINE
  5
31B
330
1F
100
AcDbEntity
  8
0
  6
Continuous
 62
     7
370
    25
100
AcDbSpline
210
0.0
220
0.0
230
1.0
 70
     8
 71
     3
 72
    13
 73
     9
 74
     0
 42
0.000000001
 43
0.00000001
 40
0.0
 40
0.0
 40
0.0
 40
0.0
 40
0.1695411050600398
 40
0.3386458383077752
 40
0.5184804584270583
 40
0.7277236211487518
 40
0.9924537768853461
 40
0.9999999999999999
 40
0.9999999999999999
 40
0.9999999999999999
 40
0.9999999999999999
 10
93.58626645121242
 20
196.0834705858701
 30
0.0
 10
93.58671644244859
 20
196.1080817331567
 30
0.0
 10
93.58761526671516
 20
196.1572406825551
 30
0.0
 10
93.59441440884308
 20
196.2233764759356
 30
0.0
 10
93.60460010045429
 20
196.2790480790398
 30
0.0
 10
93.61909761523212
 20
196.3217668583123
 30
0.0
 10
93.63071257366352
 20
196.3333525179243
 30
0.0
 10
93.63715579885074
 20
196.3334674018275
 30
0.0
 10
93.63733437480737
 20
196.33347058587
 30
0.0
  0
LINE
  5
31C
330
1F
100
AcDbEntity
  8
0
  6
Continuous
 62
     7
370
    25
100
AcDbLine
 10
87.2310100197
 20
196.3334705859
 30
0.0
 11
93.6373343748
 21
196.3334705859
 31
0.0
  0
SPLINE
  5
31D
330
1F
100
AcDbEntity
  8
0
  6
Continuous
 62
     7
370
    25
100
AcDbSpline
210
0.0
220
0.0
230
1.0
 70
     8
 71
     3
 72
    13
 73
     9
 74
     0
 42
0.000000001
 43
0.00000001
 40
0.0
 40
0.0
 40
0.0
 40
0.0
 40
0.0075462231144877
 40
0.2722763788513782
 40
0.4815195415730105
 40
0.6613541616925522
 40
0.8304588949399349
 40
1.0
 40
1.0
 40
1.0
 40
1.0
 10
93.63733437480737
 20
195.13347058587
 30
0.0
 10
93.63715579885069
 20
195.1334737699126
 30
0.0
 10
93.63071257366329
 20
195.1335886538157
 30
0.0
 10
93.61909761523235
 20
195.1451743134279
 30
0.0
 10
93.60460010045402
 20
195.1878930927004
 30
0.0
 10
93.59441440884287
 20
195.2435646958045
 30
0.0
 10
93.58761526671493
 20
195.3097004891849
 30
0.0
 10
93.58671644244865
 20
195.3588594385834
 30
0.0
 10
93.58626645121254
 20
195.38347058587
 30
0.0
  0
LINE
  5
31E
330
1F
100
AcDbEntity
  8
0
  6
Continuous
 62
     7
370
    25
100
AcDbLine
 10
93.6373343748
 20
195.1334705859
 30
0.0
 11
87.042670908
 21
195.1334705859
 31
0.0
  0
LINE
  5
31F
330
1F
100
AcDbEntity
  8
0
  6
Continuous
 62
     7
370
    25
100
AcDbLine
 10
93.5862664512
 20
196.0834705859
 30
0.0
 11
93.5862664512
 21
195.3834705859
 31
0.0
  0
SPLINE
  5
320
330
1F
100
AcDbEntity
  8
0
  6
Continuous
 62
     7
370
    25
100
AcDbSpline
210
0.0
220
0.0
230
1.0
 70
     8
 71
     3
 72
    12
 73
     8
 74
     0
 42
0.000000001
 43
0.00000001
 40
0.0
 40
0.0
 40
0.0
 40
0.0
 40
0.2289440738516366
 40
0.4594214300241721
 40
0.6825355698157323
 40
0.8947175231628329
 40
1.0
 40
1.0
 40
1.0
 40
1.0
 10
98.03759285488917
 20
195.1334705858698
 30
0.0
 10
98.17168487150863
 20
195.1508050704473
 30
0.0
 10
98.44076694467057
 20
195.1855901319664
 30
0.0
 10
98.79337400011279
 20
195.4594599777789
 30
0.0
 10
99.04638356877987
 20
195.8564965122618
 30
0.0
 10
99.15972641364561
 20
196.2573725016145
 30
0.0
 10
99.16936606822591
 20
196.5022578947016
 30
0.0
 10
99.1725629199472
 20
196.5834705858698
 30
0.0
  0
LINE
  5
321
330
1F
100
AcDbEntity
  8
0
  6
Continuous
 62
     7
370
    25
100
AcDbLine
 10
98.0375928549
 20
195.1334705859
 30
0.0
 11
93.8674957503
 21
195.1334705859
 31
0.0
  0
LINE
  5
322
330
1F
100
AcDbEntity
  8
0
  6
Continuous
 62
     7
370
    25
100
AcDbLine
 10
94.7786939523
 20
201.9334705859
 30
0.0
 11
98.9487910569
 21
201.9334705859
 31
0.0
  0
LINE
  5
323
330
1F
100
AcDbEntity
  8
0
  6
Continuous
 62
     7
370
    25
100
AcDbLine
 10
94.2488206576
 20
201.9334705859
 30
0.0
 11
94.7786939523
 21
201.9334705859
 31
0.0
  0
LINE
  5
324
330
1F
100
AcDbEntity
  8
0
  6
Continuous
 62
     7
370
    25
100
AcDbLine
 10
93.6373343748
 20
196.3334705859
 30
0.0
 11
93.8674957503
 21
196.3334705859
 31
0.0
  0
LINE
  5
325
330
1F
100
AcDbEntity
  8
0
  6
Continuous
 62
     7
370
    25
100
AcDbLine
 10
93.8674957503
 20
195.1334705859
 30
0.0
 11
93.6373343748
 21
195.1334705859
 31
0.0
  0
LINE
  5
326
330
1F
100
AcDbEntity
  8
0
  6
Continuous
 62
     7
370
    25
100
AcDbLine
 10
99.1725629199
 20
196.5834705859
 30
0.0
 11
99.1987910569
 21
196.5834705859
 31
0.0
  0
LINE
  5
327
330
1F
100
AcDbEntity
  8
0
  6
Continuous
 62
     7
370
    25
100
AcDbLine
 10
98.492670908
 20
195.1334705859
 30
0.0
 11
98.0375928549
 21
195.1334705859
 31
0.0
  0
SPLINE
  5
328
330
1F
100
AcDbEntity
  8
0
  6
Continuous
 62
     7
370
    25
100
AcDbSpline
210
0.0
220
0.0
230
1.0
 70
     8
 71
     3
 72
    11
 73
     7
 74
     0
 42
0.000000001
 43
0.00000001
 40
0.0
 40
0.0
 40
0.0
 40
0.0
 40
0.0873544003317088
 40
0.4640325544688578
 40
0.8222541651773813
 40
1.0
 40
1.0
 40
1.0
 40
1.0
 10
81.38255352218616
 20
195.4262985528978
 30
0.0
 10
81.35589304959029
 20
195.4449889145231
 30
0.0
 10
81.21427079409976
 20
195.5442733949386
 30
0.0
 10
81.04270915051987
 20
195.8648540239269
 30
0.0
 10
80.92521159078403
 20
196.2564727558238
 30
0.0
 10
80.91587518098764
 20
196.502033818632
 30
0.0
 10
80.91277889600367
 20
196.5834705858699
 30
0.0
  0
ARC
  5
329
330
1F
100
AcDbEntity
  8
0
  6
Continuous
 62
     7
370
    25
100
AcDbCircle
 10
81.654000741
 20
201.694720395
 30
0.0
 40
0.2390731945685902
100
AcDbArc
 50
357.3028984187
 51
87.0213133887
  0
LINE
  5
32A
330
1F
100
AcDbEntity
  8
0
  6
Continuous
 62
     7
370
    25
100
AcDbLine
 10
81.136550759
 20
201.9334705859
 30
0.0
 11
81.6664240537
 21
201.9334705859
 31
0.0
  0
LINE
  5
32B
330
1F
100
AcDbEntity
  8
0
  6
Continuous
 62
     7
370
    25
100
AcDbLine
 10
81.6664240537
 20
201.9334705859
 30
0.0
 11
84.4024856505
 21
201.9334705859
 31
0.0
  0
LINE
  5
32C
330
1F
100
AcDbEntity
  8
0
  6
Continuous
 62
     7
370
    25
100
AcDbLine
 10
88.9661514959
 20
207.7368885985
 30
0.0
 11
90.165802013
 21
207.9334705859
 31
0.0
  0
LINE
  5
32D
330
1F
100
AcDbEntity
  8
0
  6
Continuous
 62
     7
370
    25
100
AcDbLine
 10
93.2962540706
 20
207.9334705859
 30
0.0
 11
94.4167252663
 21
207.7368885985
 31
0.0
  0
LINE
  5
32E
330
1F
100
AcDbEntity
  8
0
  6
Continuous
 62
     7
370
    25
100
AcDbLine
 10
94.4167252663
 20
207.7368885985
 30
0.0
 11
94.4167252663
 21
203.4300525733
 31
0.0
  0
SPLINE
  5
32F
330
1F
100
AcDbEntity
  8
0
  6
Continuous
 62
     7
370
    25
100
AcDbSpline
210
0.0
220
0.0
230
1.0
 70
     8
 71
     3
 72
     9
 73
     5
 74
     0
 42
0.000000001
 43
0.00000001
 40
0.0
 40
0.0
 40
0.0
 40
0.0
 40
0.07020057670343
 40
1.0
 40
1.0
 40
1.0
 40
1.0
 10
91.69143838109161
 20
202.9834705858698
 30
0.0
 10
91.75604380562386
 20
202.9839167021374
 30
0.0
 10
92.67634143800856
 20
202.9902715825179
 30
0.0
 10
93.57818844203008
 20
203.2181610644133
 30
0.0
 10
94.4167252662711
 20
203.430052573255
 30
0.0
  0
LINE
  5
330
330
1F
100
AcDbEntity
  8
0
  6
Continuous
 62
     7
370
    25
100
AcDbLine
 10
88.9661514959
 20
203.4300525733
 30
0.0
 11
91.6914383811
 21
202.9834705859
 31
0.0
  0
LINE
  5
331
330
1F
100
AcDbEntity
  8
0
  6
Continuous
 62
     7
370
    25
100
AcDbLine
 10
88.9661514959
 20
207.7368885985
 30
0.0
 11
88.9661514959
 21
203.4300525733
 31
0.0
  0
SPLINE
  5
332
330
1F
100
AcDbEntity
  8
0
  6
Continuous
 62
     7
370
    25
100
AcDbSpline
210
0.0
220
0.0
230
1.0
 70
     8
 71
     3
 72
     9
 73
     5
 74
     0
 42
0.000000001
 43
0.00000001
 40
0.0
 40
0.0
 40
0.0
 40
0.0
 40
0.0702005767034369
 40
1.0
 40
1.0
 40
1.0
 40
1.0
 10
86.77912431676427
 20
202.9834705858698
 30
0.0
 10
86.83096980141426
 20
202.9839167021374
 30
0.0
 10
87.56950340162977
 20
202.9902715825179
 30
0.0
 10
88.29323047783366
 20
203.2181610644133
 30
0.0
 10
88.96615149591214
 20
203.4300525732551
 30
0.0
  0
LINE
  5
333
330
1F
100
AcDbEntity
  8
0
  6
Continuous
 62
     7
370
    25
100
AcDbLine
 10
91.6914383811
 20
202.9834705859
 30
0.0
 11
86.7791243168
 21
202.9834705859
 31
0.0
  0
LINE
  5
334
330
1F
100
AcDbEntity
  8
0
  6
Continuous
 62
     7
370
    25
100
AcDbLine
 10
88.066979753
 20
207.9334705859
 30
0.0
 11
88.9661514959
 21
207.7368885985
 31
0.0
  0
LINE
  5
335
330
1F
100
AcDbEntity
  8
0
  6
Continuous
 62
     7
370
    25
100
AcDbLine
 10
84.5920971376
 20
207.7368885985
 30
0.0
 11
85.5548098342
 21
207.9334705859
 31
0.0
  0
LINE
  5
336
330
1F
100
AcDbEntity
  8
0
  6
Continuous
 62
     7
370
    25
100
AcDbLine
 10
84.5920971376
 20
203.4300525733
 30
0.0
 11
86.7791243168
 21
202.9834705859
 31
0.0
  0
LINE
  5
337
330
1F
100
AcDbEntity
  8
0
  6
Continuous
 62
     7
370
    25
100
AcDbLine
 10
84.5920971376
 20
207.7368885985
 30
0.0
 11
84.5920971376
 21
203.4300525733
 31
0.0
  0
SPLINE
  5
338
330
1F
100
AcDbEntity
  8
0
  6
Continuous
 62
     7
370
    25
100
AcDbSpline
210
0.0
220
0.0
230
1.0
 70
     8
 71
     3
 72
     9
 73
     5
 74
     0
 42
0.000000001
 43
0.00000001
 40
0.0
 40
0.0
 40
0.0
 40
0.0
 40
0.2575513451038088
 40
0.9999999999999999
 40
0.9999999999999999
 40
0.9999999999999999
 40
0.9999999999999999
 10
94.41672526627116
 20
203.430052573255
 30
0.0
 10
94.46191310377972
 20
203.3626373504802
 30
0.0
 10
94.63736486657409
 20
203.1008828535362
 30
0.0
 10
94.81964863421122
 20
203.0334993657437
 30
0.0
 10
94.95498497230281
 20
202.9834705858698
 30
0.0
  0
LINE
  5
339
330
1F
100
AcDbEntity
  8
0
  6
Continuous
 62
     7
370
    25
100
AcDbLine
 10
94.9549849723
 20
202.9834705859
 30
0.0
 11
91.6914383811
 21
202.9834705859
 31
0.0
  0
SPLINE
  5
33A
330
1F
100
AcDbEntity
  8
0
  6
Continuous
 62
     7
370
    25
100
AcDbSpline
210
0.0
220
0.0
230
1.0
 70
     8
 71
     3
 72
     9
 73
     5
 74
     0
 42
0.000000001
 43
0.00000001
 40
0.0
 40
0.0
 40
0.0
 40
0.0
 40
0.925052869347275
 40
1.0
 40
1.0
 40
1.0
 40
1.0
 10
94.41672526627116
 20
207.7368885984846
 30
0.0
 10
94.46152159365762
 20
207.8154423112498
 30
0.0
 10
94.50994728787553
 20
207.9003603903868
 30
0.0
 10
94.56027513503507
 20
207.9311620870824
 30
0.0
 10
94.5640470627716
 20
207.933470585869
 30
0.0
  0
SPLINE
  5
33B
330
1F
100
AcDbEntity
  8
0
  6
Continuous
 62
     7
370
    25
100
AcDbSpline
210
0.0
220
0.0
230
1.0
 70
     8
 71
     3
 72
     9
 73
     5
 74
     0
 42
0.000000001
 43
0.00000001
 40
0.0
 40
0.0
 40
0.0
 40
0.0
 40
0.9250528693479391
 40
1.0
 40
1.0
 40
1.0
 40
1.0
 10
84.5920971376165
 20
207.7368885984847
 30
0.0
 10
84.6368934650027
 20
207.8154423112499
 30
0.0
 10
84.68531915922023
 20
207.9003603903869
 30
0.0
 10
84.7356470063803
 20
207.9311620870824
 30
0.0
 10
84.73941893411686
 20
207.933470585869
 30
0.0
  0
SPLINE
  5
33C
330
1F
100
AcDbEntity
  8
0
  6
Continuous
 62
     7
370
    25
100
AcDbSpline
210
0.0
220
0.0
230
1.0
 70
     8
 71
     3
 72
     9
 73
     5
 74
     0
 42
0.000000001
 43
0.00000001
 40
0.0
 40
0.0
 40
0.0
 40
0.0
 40
0.2575513451038056
 40
1.0
 40
1.0
 40
1.0
 40
1.0
 10
84.59209713761645
 20
203.4300525732551
 30
0.0
 10
84.63728497512496
 20
203.3626373504802
 30
0.0
 10
84.81273673791951
 20
203.1008828535363
 30
0.0
 10
84.99502050555657
 20
203.0334993657437
 30
0.0
 10
85.13035684364812
 20
202.9834705858699
 30
0.0
  0
LINE
  5
33D
330
1F
100
AcDbEntity
  8
0
  6
Continuous
 62
     7
370
    25
100
AcDbLine
 10
86.7791243168
 20
202.9834705859
 30
0.0
 11
85.0506936954
 21
202.9834705859
 31
0.0
  0
LINE
  5
33E
330
1F
100
AcDbEntity
  8
0
  6
Continuous
 62
     7
370
    25
100
AcDbLine
 10
95.305932855
 20
207.9334705859
 30
0.0
 11
95.4932446783
 21
207.7368885985
 31
0.0
  0
LINE
  5
33F
330
1F
100
AcDbEntity
  8
0
  6
Continuous
 62
     7
370
    25
100
AcDbLine
 10
95.4932446783
 20
207.7368885985
 30
0.0
 11
95.4932446783
 21
203.4300525733
 31
0.0
  0
SPLINE
  5
340
330
1F
100
AcDbEntity
  8
0
  6
Continuous
 62
     7
370
    25
100
AcDbSpline
210
0.0
220
0.0
230
1.0
 70
     8
 71
     3
 72
     9
 73
     5
 74
     0
 42
0.000000001
 43
0.00000001
 40
0.0
 40
0.0
 40
0.0
 40
0.0
 40
0.2686336050555682
 40
0.9999999999999999
 40
0.9999999999999999
 40
0.9999999999999999
 40
0.9999999999999999
 10
94.95498497230281
 20
202.9834705858698
 30
0.0
 10
95.00392784107781
 20
202.9900995384543
 30
0.0
 10
95.1861197480245
 20
203.0147760958906
 30
0.0
 10
95.36350850363785
 20
203.2546308594906
 30
0.0
 10
95.49324467833448
 20
203.430052573255
 30
0.0
  0
LINE
  5
341
330
1F
100
AcDbEntity
  8
0
  6
Continuous
 62
     7
370
    25
100
AcDbLine
 10
95.4932446783
 20
207.7368885985
 30
0.0
 11
94.5305319817
 21
207.9334705859
 31
0.0
  0
LINE
  5
342
330
1F
100
AcDbEntity
  8
0
  6
Continuous
 62
     7
370
    25
100
AcDbLine
 10
95.4932446783
 20
203.4300525733
 30
0.0
 11
93.3062174992
 21
202.9834705859
 31
0.0
  0
LINE
  5
343
330
1F
100
AcDbEntity
  8
0
  6
Continuous
 62
     7
370
    25
100
AcDbLine
 10
86.154293347
 20
202.2868885985
 30
0.0
 11
88.9743859758
 21
202.7334705859
 31
0.0
  0
SPLINE
  5
344
330
1F
100
AcDbEntity
  8
0
  6
Continuous
 62
     7
370
    25
100
AcDbSpline
210
0.0
220
0.0
230
1.0
 70
     8
 71
     3
 72
     9
 73
     5
 74
     0
 42
0.000000001
 43
0.00000001
 40
0.0
 40
0.0
 40
0.0
 40
0.0
 40
0.0702005767034239
 40
1.0
 40
1.0
 40
1.0
 40
1.0
 10
88.97438597576196
 20
202.7334705858699
 30
0.0
 10
89.04123885737563
 20
202.7330244696023
 30
0.0
 10
89.99355128489545
 20
202.7266695892219
 30
0.0
 10
90.92677123399534
 20
202.4987801073264
 30
0.0
 10
91.79447860447738
 20
202.2868885984846
 30
0.0
  0
LINE
  5
345
330
1F
100
AcDbEntity
  8
0
  6
Continuous
 62
     7
370
    25
100
AcDbLine
 10
91.7944786045
 20
202.2868885985
 30
0.0
 11
91.7944786045
 21
197.9800525733
 31
0.0
  0
SPLINE
  5
346
330
1F
100
AcDbEntity
  8
0
  6
Continuous
 62
     7
370
    25
100
AcDbSpline
210
0.0
220
0.0
230
1.0
 70
     8
 71
     3
 72
     9
 73
     5
 74
     0
 42
0.000000001
 43
0.00000001
 40
0.0
 40
0.0
 40
0.0
 40
0.0
 40
0.0702005767034228
 40
1.0
 40
1.0
 40
1.0
 40
1.0
 10
88.9743859757619
 20
197.5334705858698
 30
0.0
 10
89.04123885737563
 20
197.5339167021374
 30
0.0
 10
89.99355128489506
 20
197.5402715825178
 30
0.0
 10
90.92677123399511
 20
197.7681610644133
 30
0.0
 10
91.79447860447732
 20
197.980052573255
 30
0.0
  0
LINE
  5
347
330
1F
100
AcDbEntity
  8
0
  6
Continuous
 62
     7
370
    25
100
AcDbLine
 10
86.154293347
 20
197.9800525733
 30
0.0
 11
88.9743859758
 21
197.5334705859
 31
0.0
  0
LINE
  5
348
330
1F
100
AcDbEntity
  8
0
  6
Continuous
 62
     7
370
    25
100
AcDbLine
 10
86.154293347
 20
202.2868885985
 30
0.0
 11
86.154293347
 21
197.9800525733
 31
0.0
  0
LINE
  5
349
330
1F
100
AcDbEntity
  8
0
  6
Continuous
 62
     7
370
    25
100
AcDbLine
 10
91.7944786045
 20
202.2868885985
 30
0.0
 11
93.7386673849
 21
202.7334705859
 31
0.0
  0
LINE
  5
34A
330
1F
100
AcDbEntity
  8
0
  6
Continuous
 62
     7
370
    25
100
AcDbLine
 10
88.9743859758
 20
202.7334705859
 30
0.0
 11
93.7386673849
 21
202.7334705859
 31
0.0
  0
LINE
  5
34B
330
1F
100
AcDbEntity
  8
0
  6
Continuous
 62
     7
370
    25
100
AcDbLine
 10
91.7944786045
 20
197.9800525733
 30
0.0
 11
93.7386673849
 21
197.5334705859
 31
0.0
  0
SPLINE
  5
34C
330
1F
100
AcDbEntity
  8
0
  6
Continuous
 62
     7
370
    25
100
AcDbSpline
210
0.0
220
0.0
230
1.0
 70
     8
 71
     3
 72
     9
 73
     5
 74
     0
 42
0.000000001
 43
0.00000001
 40
0.0
 40
0.0
 40
0.0
 40
0.0
 40
0.2575513451038133
 40
0.9999999999999999
 40
0.9999999999999999
 40
0.9999999999999999
 40
0.9999999999999999
 10
86.15429334704649
 20
202.2868885984846
 30
0.0
 10
86.0807596971665
 20
202.3543038212596
 30
0.0
 10
85.79524905519959
 20
202.6160583182035
 30
0.0
 10
85.4986207700838
 20
202.6834418059961
 30
0.0
 10
85.27838949879558
 20
202.7334705858699
 30
0.0
  0
LINE
  5
34D
330
1F
100
AcDbEntity
  8
0
  6
Continuous
 62
     7
370
    25
100
AcDbLine
 10
85.2783894988
 20
202.7334705859
 30
0.0
 11
88.9743859758
 21
202.7334705859
 31
0.0
  0
SPLINE
  5
34E
330
1F
100
AcDbEntity
  8
0
  6
Continuous
 62
     7
370
    25
100
AcDbSpline
210
0.0
220
0.0
230
1.0
 70
     8
 71
     3
 72
     9
 73
     5
 74
     0
 42
0.000000001
 43
0.00000001
 40
0.0
 40
0.0
 40
0.0
 40
0.0
 40
0.2575513451038132
 40
1.0
 40
1.0
 40
1.0
 40
1.0
 10
86.15429334704643
 20
197.9800525732551
 30
0.0
 10
86.08075969716633
 20
197.9126373504802
 30
0.0
 10
85.79524905519953
 20
197.6508828535363
 30
0.0
 10
85.4986207700838
 20
197.5834993657437
 30
0.0
 10
85.27838949879552
 20
197.5334705858699
 30
0.0
  0
SPLINE
  5
34F
330
1F
100
AcDbEntity
  8
0
  6
Continuous
 62
     7
370
    25
100
AcDbSpline
210
0.0
220
0.0
230
1.0
 70
     8
 71
     3
 72
     9
 73
     5
 74
     0
 42
0.000000001
 43
0.00000001
 40
0.0
 40
0.0
 40
0.0
 40
0.0
 40
0.0702005767034205
 40
0.9999999999999999
 40
0.9999999999999999
 40
0.9999999999999999
 40
0.9999999999999999
 10
93.7386673849419
 20
202.7334705858698
 30
0.0
 10
93.7847561626834
 20
202.7330244696022
 30
0.0
 10
94.44128606465452
 20
202.7266695892218
 30
0.0
 10
95.08465349743733
 20
202.4987801073264
 30
0.0
 10
95.68285616540639
 20
202.2868885984846
 30
0.0
  0
LINE
  5
350
330
1F
100
AcDbEntity
  8
0
  6
Continuous
 62
     7
370
    25
100
AcDbLine
 10
95.6828561654
 20
202.2868885985
 30
0.0
 11
95.6828561654
 21
201.9334705859
 31
0.0
  0
SPLINE
  5
351
330
1F
100
AcDbEntity
  8
0
  6
Continuous
 62
     7
370
    25
100
AcDbSpline
210
0.0
220
0.0
230
1.0
 70
     8
 71
     3
 72
     9
 73
     5
 74
     0
 42
0.000000001
 43
0.00000001
 40
0.0
 40
0.0
 40
0.0
 40
0.0
 40
0.5278771639353337
 40
1.0
 40
1.0
 40
1.0
 40
1.0
 10
93.73866738494185
 20
197.5334705858698
 30
0.0
 10
93.78489712904437
 20
197.5315441285578
 30
0.0
 10
93.872473836773
 20
197.5278946861426
 30
0.0
 10
93.95830011278933
 20
197.5537063719
 30
0.0
 10
93.9988206576311
 20
197.5658926581834
 30
0.0
  0
LINE
  5
352
330
1F
100
AcDbEntity
  8
0
  6
Continuous
 62
     7
370
    25
100
AcDbLine
 10
84.8064090336
 20
197.7195494344
 30
0.0
 11
84.4024856505
 21
197.9800525733
 31
0.0
  0
LINE
  5
353
330
1F
100
AcDbEntity
  8
0
  6
Continuous
 62
     7
370
    25
100
AcDbLine
 10
84.4024856505
 20
202.2868885985
 30
0.0
 11
84.4024856505
 21
197.9800525733
 31
0.0
  0
SPLINE
  5
354
330
1F
100
AcDbEntity
  8
0
  6
Continuous
 62
     7
370
    25
100
AcDbSpline
210
0.0
220
0.0
230
1.0
 70
     8
 71
     3
 72
     9
 73
     5
 74
     0
 42
0.000000001
 43
0.00000001
 40
0.0
 40
0.0
 40
0.0
 40
0.0
 40
0.2686336050555651
 40
1.0
 40
1.0
 40
1.0
 40
1.0
 10
85.27838949879558
 20
202.7334705858699
 30
0.0
 10
85.1987453295887
 20
202.7268416332854
 30
0.0
 10
84.90226652832156
 20
202.7021650758491
 30
0.0
 10
84.6136038401486
 20
202.4623103122491
 30
0.0
 10
84.40248565054465
 20
202.2868885984847
 30
0.0
  0
SPLINE
  5
355
330
1F
100
AcDbEntity
  8
0
  6
Continuous
 62
     7
370
    25
100
AcDbSpline
210
0.0
220
0.0
230
1.0
 70
     8
 71
     3
 72
     9
 73
     5
 74
     0
 42
0.000000001
 43
0.00000001
 40
0.0
 40
0.0
 40
0.0
 40
0.0
 40
0.5569342110492221
 40
1.0
 40
1.0
 40
1.0
 40
1.0
 10
95.68285616540639
 20
202.2868885984846
 30
0.0
 10
95.60960826289461
 20
202.3592995747289
 30
0.0
 10
95.47808841538196
 20
202.4893166841248
 30
0.0
 10
95.34142727130235
 20
202.5294479257415
 30
0.0
 10
95.28087739368168
 20
202.54722870597
 30
0.0
  0
LINE
  5
356
330
1F
100
AcDbEntity
  8
0
  6
Continuous
 62
     7
370
    25
100
AcDbLine
 10
93.7386673849
 20
202.7334705859
 30
0.0
 11
95.042670908
 21
202.7334705859
 31
0.0
  0
LINE
  5
357
330
1F
100
AcDbEntity
  8
0
  6
Continuous
 62
     7
370
    25
100
AcDbLine
 10
85.2783894988
 20
202.7334705859
 30
0.0
 11
85.042670908
 21
202.7334705859
 31
0.0
  0
LINE
  5
358
330
1F
100
AcDbEntity
  8
0
  6
Continuous
 62
     7
370
    25
100
AcDbLine
 10
87.7918996734
 20
194.6868885985
 30
0.0
 11
90.6567936916
 21
195.1334705859
 31
0.0
  0
SPLINE
  5
359
330
1F
100
AcDbEntity
  8
0
  6
Continuous
 62
     7
370
    25
100
AcDbSpline
210
0.0
220
0.0
230
1.0
 70
     8
 71
     3
 72
     9
 73
     5
 74
     0
 42
0.000000001
 43
0.00000001
 40
0.0
 40
0.0
 40
0.0
 40
0.0
 40
0.0702005767034196
 40
1.0
 40
1.0
 40
1.0
 40
1.0
 10
90.65679369160168
 20
195.1334705858698
 30
0.0
 10
90.72470863123333
 20
195.1330244696022
 30
0.0
 10
91.6921499660613
 20
195.1266695892218
 30
0.0
 10
92.64019550989272
 20
194.8987801073264
 30
0.0
 10
93.52168770980617
 20
194.6868885984846
 30
0.0
  0
LINE
  5
35A
330
1F
100
AcDbEntity
  8
0
  6
Continuous
 62
     7
370
    25
100
AcDbLine
 10
93.5216877098
 20
194.6868885985
 30
0.0
 11
93.5216877098
 21
190.3800525733
 31
0.0
  0
SPLINE
  5
35B
330
1F
100
AcDbEntity
  8
0
  6
Continuous
 62
     7
370
    25
100
AcDbSpline
210
0.0
220
0.0
230
1.0
 70
     8
 71
     3
 72
     9
 73
     5
 74
     0
 42
0.000000001
 43
0.00000001
 40
0.0
 40
0.0
 40
0.0
 40
0.0
 40
0.0702005767034398
 40
1.0
 40
1.0
 40
1.0
 40
1.0
 10
90.65679369160162
 20
189.9334705858699
 30
0.0
 10
90.72470863123333
 20
189.9339167021375
 30
0.0
 10
91.6921499660615
 20
189.9402715825179
 30
0.0
 10
92.64019550989278
 20
190.1681610644133
 30
0.0
 10
93.52168770980607
 20
190.380052573255
 30
0.0
  0
LINE
  5
35C
330
1F
100
AcDbEntity
  8
0
  6
Continuous
 62
     7
370
    25
100
AcDbLine
 10
87.7918996734
 20
190.3800525733
 30
0.0
 11
90.6567936916
 21
189.9334705859
 31
0.0
  0
LINE
  5
35D
330
1F
100
AcDbEntity
  8
0
  6
Continuous
 62
     7
370
    25
100
AcDbLine
 10
87.7918996734
 20
194.6868885985
 30
0.0
 11
87.7918996734
 21
190.3800525733
 31
0.0
  0
SPLINE
  5
35E
330
1F
100
AcDbEntity
  8
0
  6
Continuous
 62
     7
370
    25
100
AcDbSpline
210
0.0
220
0.0
230
1.0
 70
     8
 71
     3
 72
     9
 73
     5
 74
     0
 42
0.000000001
 43
0.00000001
 40
0.0
 40
0.0
 40
0.0
 40
0.0
 40
0.25755134510381
 40
1.0
 40
1.0
 40
1.0
 40
1.0
 10
87.79189967339718
 20
190.3800525732551
 30
0.0
 10
87.64586492087068
 20
190.3126373504802
 30
0.0
 10
87.07885272969929
 20
190.0508828535363
 30
0.0
 10
86.48976136431924
 20
189.9834993657437
 30
0.0
 10
86.05239127248183
 20
189.9334705858699
 30
0.0
  0
LINE
  5
35F
330
1F
100
AcDbEntity
  8
0
  6
Continuous
 62
     7
370
    25
100
AcDbLine
 10
90.6567936916
 20
189.9334705859
 30
0.0
 11
86.0523912725
 21
189.9334705859
 31
0.0
  0
SPLINE
  5
360
330
1F
100
AcDbEntity
  8
0
  6
Continuous
 62
     7
370
    25
100
AcDbSpline
210
0.0
220
0.0
230
1.0
 70
     8
 71
     3
 72
     9
 73
     5
 74
     0
 42
0.000000001
 43
0.00000001
 40
0.0
 40
0.0
 40
0.0
 40
0.0
 40
0.5174000252722688
 40
1.0
 40
1.0
 40
1.0
 40
1.0
 10
87.79189967339724
 20
194.6868885984846
 30
0.0
 10
87.64635746586441
 20
194.7586398741642
 30
0.0
 10
87.36506214227747
 20
194.8973164728786
 30
0.0
 10
87.07277624903747
 20
194.9392390854877
 30
0.0
 10
86.93171908434665
 20
194.9594709372734
 30
0.0
  0
LINE
  5
361
330
1F
100
AcDbEntity
  8
0
  6
Continuous
 62
     7
370
    25
100
AcDbLine
 10
93.5216877098
 20
190.3800525733
 30
0.0
 11
94.6470733271
 21
189.9334705859
 31
0.0
  0
LINE
  5
362
330
1F
100
AcDbEntity
  8
0
  6
Continuous
 62
     7
370
    25
100
AcDbLine
 10
94.6470733271
 20
189.9334705859
 30
0.0
 11
90.6567936916
 21
189.9334705859
 31
0.0
  0
LINE
  5
363
330
1F
100
AcDbEntity
  8
0
  6
Continuous
 62
     7
370
    25
100
AcDbLine
 10
93.5216877098
 20
194.6868885985
 30
0.0
 11
94.6470733271
 21
195.1334705859
 31
0.0
  0
SPLINE
  5
364
330
1F
100
AcDbEntity
  8
0
  6
Continuous
 62
     7
370
    25
100
AcDbSpline
210
0.0
220
0.0
230
1.0
 70
     8
 71
     3
 72
     9
 73
     5
 74
     0
 42
0.000000001
 43
0.00000001
 40
0.0
 40
0.0
 40
0.0
 40
0.0
 40
0.2686336050555593
 40
1.0
 40
1.0
 40
1.0
 40
1.0
 10
86.05239127248183
 20
189.9334705858699
 30
0.0
 10
85.89422128419372
 20
189.9400995384544
 30
0.0
 10
85.3054267874836
 20
189.9647760958907
 30
0.0
 10
84.73215476440676
 20
190.2046308594907
 30
0.0
 10
84.31288287156646
 20
190.3800525732551
 30
0.0
  0
LINE
  5
365
330
1F
100
AcDbEntity
  8
0
  6
Continuous
 62
     7
370
    25
100
AcDbLine
 10
84.3128828716
 20
190.7334705859
 30
0.0
 11
84.3128828716
 21
190.3800525733
 31
0.0
  0
LINE
  5
366
330
1F
100
AcDbEntity
  8
0
  6
Continuous
 62
     7
370
    25
100
AcDbLine
 10
95.4737080798
 20
194.8138182423
 30
0.0
 11
95.7724589444
 21
194.6868885985
 31
0.0
  0
LINE
  5
367
330
1F
100
AcDbEntity
  8
0
  6
Continuous
 62
     7
370
    25
100
AcDbLine
 10
95.7724589444
 20
194.6868885985
 30
0.0
 11
95.7724589444
 21
190.3800525733
 31
0.0
  0
SPLINE
  5
368
330
1F
100
AcDbEntity
  8
0
  6
Continuous
 62
     7
370
    25
100
AcDbSpline
210
0.0
220
0.0
230
1.0
 70
     8
 71
     3
 72
     9
 73
     5
 74
     0
 42
0.000000001
 43
0.00000001
 40
0.0
 40
0.0
 40
0.0
 40
0.0
 40
0.0702005767034269
 40
1.0
 40
1.0
 40
1.0
 40
1.0
 10
94.64707332709521
 20
189.9334705858699
 30
0.0
 10
94.67375162506187
 20
189.9339167021374
 30
0.0
 10
95.05378123762954
 20
189.9402715825178
 30
0.0
 10
95.42619180946355
 20
190.1681610644133
 30
0.0
 10
95.77245894438435
 20
190.380052573255
 30
0.0
  0
LINE
  5
369
330
1F
100
AcDbEntity
  8
0
  6
Continuous
 62
     7
370
    25
100
AcDbLine
 10
84.6116337361
 20
190.2531229294
 30
0.0
 11
84.3128828716
 21
190.3800525733
 31
0.0
  0
LINE
  5
36A
330
1F
100
AcDbEntity
  8
0
  6
Continuous
 62
     7
370
    25
100
AcDbLine
 10
86.0523912725
 20
189.9334705859
 30
0.0
 11
85.042670908
 21
189.9334705859
 31
0.0
  0
LINE
  5
36B
330
1F
100
AcDbEntity
  8
0
  6
Continuous
 62
     7
370
    25
100
AcDbLine
 10
95.042670908
 20
189.9334705859
 30
0.0
 11
94.6470733271
 21
189.9334705859
 31
0.0
  0
LINE
  5
36C
330
1F
100
AcDbEntity
  8
0
  6
Continuous
 62
     7
370
    25
100
AcDbLine
 10
90.3585456239
 20
938.5334705859
 30
0.0
 11
90.3585456239
 21
936.2334705859
 31
0.0
  0
LINE
  5
36D
330
1F
100
AcDbEntity
  8
0
  6
Continuous
 62
     7
370
    25
100
AcDbLine
 10
90.3585456239
 20
936.2334705859
 30
0.0
 11
32.8585456228
 21
936.2334705859
 31
0.0
  0
LINE
  5
36E
330
1F
100
AcDbEntity
  8
0
  6
Continuous
 62
     7
370
    25
100
AcDbLine
 10
32.8585456228
 20
936.2334705859
 30
0.0
 11
32.8585456228
 21
938.3334705859
 31
0.0
  0
LINE
  5
36F
330
1F
100
AcDbEntity
  8
0
  6
Continuous
 62
     7
370
    25
100
AcDbLine
 10
32.8585456228
 20
938.3334705859
 30
0.0
 11
21.8585456239
 21
938.3334705859
 31
0.0
  0
ARC
  5
370
330
1F
100
AcDbEntity
  8
0
  6
Continuous
 62
     7
370
    25
100
AcDbCircle
 10
21.8585456239
 20
940.3334705859
 30
0.0
 40
2.0
100
AcDbArc
 50
180.0
 51
270.0
  0
LINE
  5
371
330
1F
100
AcDbEntity
  8
0
  6
Continuous
 62
     7
370
    25
100
AcDbLine
 10
19.8585456239
 20
940.3334705859
 30
0.0
 11
19.8585456239
 21
951.1354705859
 31
0.0
  0
ARC
  5
372
330
1F
100
AcDbEntity
  8
0
  6
Continuous
 62
     7
370
    25
100
AcDbCircle
 10
21.8565456239
 20
951.1354705859
 30
0.0
 40
1.997999999999998
100
AcDbArc
 50
90.0
 51
180.0
  0
LINE
  5
373
330
1F
100
AcDbEntity
  8
0
  6
Continuous
 62
     7
370
    25
100
AcDbLine
 10
21.8565456239
 20
953.1334705859
 30
0.0
 11
21.8585456239
 21
953.1334705859
 31
0.0
  0
LINE
  5
374
330
1F
100
AcDbEntity
  8
0
  6
Continuous
 62
     7
370
    25
100
AcDbLine
 10
21.8585456239
 20
953.1334705859
 30
0.0
 11
21.8585456239
 21
951.6334705859
 31
0.0
  0
LINE
  5
375
330
1F
100
AcDbEntity
  8
0
  6
Continuous
 62
     7
370
    25
100
AcDbLine
 10
88.3585456239
 20
951.6334705859
 30
0.0
 11
88.3585456239
 21
953.1334705859
 31
0.0
  0
LINE
  5
376
330
1F
100
AcDbEntity
  8
0
  6
Continuous
 62
     7
370
    25
100
AcDbLine
 10
88.3585456239
 20
953.1334705859
 30
0.0
 11
88.3605456239
 21
953.1334705859
 31
0.0
  0
ARC
  5
377
330
1F
100
AcDbEntity
  8
0
  6
Continuous
 62
     7
370
    25
100
AcDbCircle
 10
88.3605456239
 20
951.1354705859
 30
0.0
 40
1.99799999999999
100
AcDbArc
 50
0.0
 51
90.0
  0
LINE
  5
378
330
1F
100
AcDbEntity
  8
0
  6
Continuous
 62
     7
370
    25
100
AcDbLine
 10
90.3585456239
 20
951.1354705859
 30
0.0
 11
90.3585456239
 21
938.5334705859
 31
0.0
  0
LINE
  5
379
330
1F
100
AcDbEntity
  8
0
  6
Continuous
 62
     7
370
    25
100
AcDbLine
 10
32.8585456228
 20
938.5334705859
 30
0.0
 11
32.8585456228
 21
938.3334705859
 31
0.0
  0
LINE
  5
37A
330
1F
100
AcDbEntity
  8
0
  6
Continuous
 62
     7
370
    25
100
AcDbLine
 10
21.8585456239
 20
953.1334705859
 30
0.0
 11
21.8585456239
 21
953.9334705859
 31
0.0
  0
LINE
  5
37B
330
1F
100
AcDbEntity
  8
0
  6
Continuous
 62
     7
370
    25
100
AcDbLine
 10
88.3585456239
 20
953.9334705859
 30
0.0
 11
88.3585456239
 21
953.1334705859
 31
0.0
  0
ARC
  5
37C
330
1F
100
AcDbEntity
  8
0
  6
Continuous
 62
     7
370
    25
100
AcDbCircle
 10
21.8565456239
 20
940.3314705859
 30
0.0
 40
1.998000000000001
100
AcDbArc
 50
180.0
 51
270.0
  0
ARC
  5
37D
330
1F
100
AcDbEntity
  8
0
  6
Continuous
 62
     7
370
    25
100
AcDbCircle
 10
909.2998823808
 20
910.6607922918
 30
0.0
 40
0.2000000000000527
100
AcDbArc
 50
335.0000000001
 51
358.7265342338
  0
ARC
  5
37E
330
1F
100
AcDbEntity
  8
0
  6
Continuous
 62
     7
370
    25
100
AcDbCircle
 10
905.2427470681
 20
901.9602375363
 30
0.0
 40
0.199999999999989
100
AcDbArc
 50
311.2734657555
 51
335.0000000001
  0
CIRCLE
  5
37F
330
1F
100
AcDbEntity
  8
0
  6
Continuous
 62
     7
370
    25
100
AcDbCircle
 10
485.2085456239
 20
915.9334705859
 30
0.0
 40
2.524999999999977
  0
CIRCLE
  5
380
330
1F
100
AcDbEntity
  8
0
  6
Continuous
 62
     7
370
    25
100
AcDbCircle
 10
485.2085456239
 20
915.9334705859
 30
0.0
 40
2.099999999999966
  0
CIRCLE
  5
381
330
1F
100
AcDbEntity
  8
0
  6
Continuous
 62
     7
370
    25
100
AcDbCircle
 10
95.2085456239
 20
915.9334705859
 30
0.0
 40
2.525000000000006
  0
CIRCLE
  5
382
330
1F
100
AcDbEntity
  8
0
  6
Continuous
 62
     7
370
    25
100
AcDbCircle
 10
95.2085456239
 20
915.9334705859
 30
0.0
 40
2.099999999999994
  0
CIRCLE
  5
383
330
1F
100
AcDbEntity
  8
0
  6
Continuous
 62
     7
370
    25
100
AcDbCircle
 10
865.2085456239
 20
915.9334705859
 30
0.0
 40
2.525000000000023
  0
CIRCLE
  5
384
330
1F
100
AcDbEntity
  8
0
  6
Continuous
 62
     7
370
    25
100
AcDbCircle
 10
865.2085456239
 20
915.9334705859
 30
0.0
 40
2.099999999999913
  0
ENDSEC
  0
SECTION
  2
OBJECTS
  0
DICTIONARY
  5
C
330
0
100
AcDbDictionary
281
     1
  3
ACAD_GROUP
350
D
  3
ACAD_LAYOUT
350
1A
  3
ACAD_MLINESTYLE
350
17
  3
ACAD_PLOTSETTINGS
350
19
  3
ACAD_PLOTSTYLENAME
350
E
  3
ACAD_SCALELIST
350
47
  0
DICTIONARY
  5
D
102
{ACAD_REACTORS
330
C
102
}
330
C
100
AcDbDictionary
281
     1
  0
DICTIONARY
  5
1A
102
{ACAD_REACTORS
330
C
102
}
330
C
100
AcDbDictionary
281
     1
  3
Layout1
350
1E
  3
Layout2
350
26
  3
Model
350
22
  0
DICTIONARY
  5
17
102
{ACAD_REACTORS
330
C
102
}
330
C
100
AcDbDictionary
281
     1
  3
Standard
350
18
  0
DICTIONARY
  5
19
102
{ACAD_REACTORS
330
C
102
}
330
C
100
AcDbDictionary
281
     1
  0
ACDBDICTIONARYWDFLT
  5
E
102
{ACAD_REACTORS
330
C
102
}
330
C
100
AcDbDictionary
281
     1
  3
Normal
350
F
100
AcDbDictionaryWithDefault
340
F
  0
DICTIONARY
  5
47
102
{ACAD_REACTORS
330
C
102
}
330
C
100
AcDbDictionary
281
     1
  3
A0
350
48
  3
A1
350
49
  3
A2
350
4A
  3
A3
350
4B
  3
A4
350
4C
  3
A5
350
4D
  3
A6
350
4E
  3
A7
350
4F
  3
A8
350
50
  3
A9
350
51
  3
B0
350
52
  3
B1
350
53
  3
B2
350
54
  3
B3
350
55
  3
B4
350
56
  3
B5
350
57
  3
B6
350
58
  3
B7
350
59
  3
B8
350
5A
  3
B9
350
5B
  3
C0
350
5C
  3
C1
350
5D
  3
C2
350
5E
  3
C3
350
5F
  3
C4
350
60
  3
C5
350
61
  3
C6
350
62
  3
C7
350
63
  3
C8
350
64
  3
C9
350
65
  3
D0
350
66
  3
D1
350
67
  3
D2
350
68
  0
LAYOUT
  5
1E
102
{ACAD_REACTORS
330
1A
102
}
330
1A
100
AcDbPlotSettings
  1

  2
none_device
  4

  6

 40
0.0
 41
0.0
 42
0.0
 43
0.0
 44
0.0
 45
0.0
 46
0.0
 47
0.0
 48
0.0
 49
0.0
140
0.0
141
0.0
142
1.0
143
1.0
 70
   688
 72
     1
 73
     0
 74
     5
  7

 75
    16
147
1.0
148
0.0
149
0.0
100
AcDbLayout
  1
Layout1
 70
     1
 71
     1
 10
0.0
 20
0.0
 11
420.0
 21
297.0
 12
0.0
 22
0.0
 32
0.0
 14
1.0000000000E+20
 24
1.0000000000E+20
 34
1.0000000000E+20
 15
-1.0000000000E+20
 25
-1.0000000000E+20
 35
-1.0000000000E+20
146
0.0
 13
0.0
 23
0.0
 33
0.0
 16
1.0
 26
0.0
 36
0.0
 17
0.0
 27
1.0
 37
0.0
 76
     0
330
1B
  0
LAYOUT
  5
26
102
{ACAD_REACTORS
330
1A
102
}
330
1A
100
AcDbPlotSettings
  1

  2
none_device
  4

  6

 40
0.0
 41
0.0
 42
0.0
 43
0.0
 44
0.0
 45
0.0
 46
0.0
 47
0.0
 48
0.0
 49
0.0
140
0.0
141
0.0
142
1.0
143
1.0
 70
   688
 72
     1
 73
     0
 74
     5
  7

 75
    16
147
1.0
148
0.0
149
0.0
100
AcDbLayout
  1
Layout2
 70
     1
 71
     2
 10
0.0
 20
0.0
 11
0.0
 21
0.0
 12
0.0
 22
0.0
 32
0.0
 14
0.0
 24
0.0
 34
0.0
 15
0.0
 25
0.0
 35
0.0
146
0.0
 13
0.0
 23
0.0
 33
0.0
 16
1.0
 26
0.0
 36
0.0
 17
0.0
 27
1.0
 37
0.0
 76
     0
330
23
  0
LAYOUT
  5
22
102
{ACAD_REACTORS
330
1A
102
}
330
1A
100
AcDbPlotSettings
  1

  2
none_device
  4
Letter_(8.50_x_11.00_Inches)
  6

 40
6.35
 41
6.35
 42
6.35000508
 43
6.35000508
 44
215.9
 45
279.4
 46
0.0
 47
0.0
 48
0.0
 49
0.0
140
0.0
141
0.0
142
1.0
143
1.0
 70
  1712
 72
     1
 73
     0
 74
     0
  7

 75
     0
147
1.0
148
0.0
149
0.0
100
AcDbLayout
  1
Model
 70
     1
 71
     0
 10
0.0
 20
0.0
 11
950.0
 21
1050.0
 12
0.0
 22
0.0
 32
0.0
 14
0.0
 24
0.0
 34
0.0
 15
950.0
 25
1050.0
 35
0.0
146
0.0
 13
0.0
 23
0.0
 33
0.0
 16
1.0
 26
0.0
 36
0.0
 17
0.0
 27
1.0
 37
0.0
 76
     0
330
1F
331
29
  0
MLINESTYLE
  5
18
102
{ACAD_REACTORS
330
17
102
}
330
17
100
AcDbMlineStyle
  2
Standard
 70
     0
  3

 62
   256
 51
90.0
 52
90.0
 71
     2
 49
0.5
 62
   256
  6
BYLAYER
 49
-0.5
 62
   256
  6
BYLAYER
  0
ACDBPLACEHOLDER
  5
F
102
{ACAD_REACTORS
330
E
102
}
330
E
  0
SCALE
  5
48
102
{ACAD_REACTORS
330
47
102
}
330
47
100
AcDbScale
 70
     0
300
1:1
140
1.0
141
1.0
290
     1
  0
SCALE
  5
49
102
{ACAD_REACTORS
330
47
102
}
330
47
100
AcDbScale
 70
     0
300
1:2
140
1.0
141
2.0
290
     0
  0
SCALE
  5
4A
102
{ACAD_REACTORS
330
47
102
}
330
47
100
AcDbScale
 70
     0
300
1:4
140
1.0
141
4.0
290
     0
  0
SCALE
  5
4B
102
{ACAD_REACTORS
330
47
102
}
330
47
100
AcDbScale
 70
     0
300
1:5
140
1.0
141
5.0
290
     0
  0
SCALE
  5
4C
102
{ACAD_REACTORS
330
47
102
}
330
47
100
AcDbScale
 70
     0
300
1:8
140
1.0
141
8.0
290
     0
  0
SCALE
  5
4D
102
{ACAD_REACTORS
330
47
102
}
330
47
100
AcDbScale
 70
     0
300
1:10
140
1.0
141
10.0
290
     0
  0
SCALE
  5
4E
102
{ACAD_REACTORS
330
47
102
}
330
47
100
AcDbScale
 70
     0
300
1:16
140
1.0
141
16.0
290
     0
  0
SCALE
  5
4F
102
{ACAD_REACTORS
330
47
102
}
330
47
100
AcDbScale
 70
     0
300
1:20
140
1.0
141
20.0
290
     0
  0
SCALE
  5
50
102
{ACAD_REACTORS
330
47
102
}
330
47
100
AcDbScale
 70
     0
300
1:30
140
1.0
141
30.0
290
     0
  0
SCALE
  5
51
102
{ACAD_REACTORS
330
47
102
}
330
47
100
AcDbScale
 70
     0
300
1:40
140
1.0
141
40.0
290
     0
  0
SCALE
  5
52
102
{ACAD_REACTORS
330
47
102
}
330
47
100
AcDbScale
 70
     0
300
1:50
140
1.0
141
50.0
290
     0
  0
SCALE
  5
53
102
{ACAD_REACTORS
330
47
102
}
330
47
100
AcDbScale
 70
     0
300
1:100
140
1.0
141
100.0
290
     0
  0
SCALE
  5
54
102
{ACAD_REACTORS
330
47
102
}
330
47
100
AcDbScale
 70
     0
300
2:1
140
2.0
141
1.0
290
     0
  0
SCALE
  5
55
102
{ACAD_REACTORS
330
47
102
}
330
47
100
AcDbScale
 70
     0
300
4:1
140
4.0
141
1.0
290
     0
  0
SCALE
  5
56
102
{ACAD_REACTORS
330
47
102
}
330
47
100
AcDbScale
 70
     0
300
8:1
140
8.0
141
1.0
290
     0
  0
SCALE
  5
57
102
{ACAD_REACTORS
330
47
102
}
330
47
100
AcDbScale
 70
     0
300
10:1
140
10.0
141
1.0
290
     0
  0
SCALE
  5
58
102
{ACAD_REACTORS
330
47
102
}
330
47
100
AcDbScale
 70
     0
300
100:1
140
100.0
141
1.0
290
     0
  0
SCALE
  5
59
102
{ACAD_REACTORS
330
47
102
}
330
47
100
AcDbScale
 70
     0
300
1/128" = 1'-0"
140
0.0078125
141
12.0
290
     0
  0
SCALE
  5
5A
102
{ACAD_REACTORS
330
47
102
}
330
47
100
AcDbScale
 70
     0
300
1/64" = 1'-0"
140
0.015625
141
12.0
290
     0
  0
SCALE
  5
5B
102
{ACAD_REACTORS
330
47
102
}
330
47
100
AcDbScale
 70
     0
300
1/32" = 1'-0"
140
0.03125
141
12.0
290
     0
  0
SCALE
  5
5C
102
{ACAD_REACTORS
330
47
102
}
330
47
100
AcDbScale
 70
     0
300
1/16" = 1'-0"
140
0.0625
141
12.0
290
     0
  0
SCALE
  5
5D
102
{ACAD_REACTORS
330
47
102
}
330
47
100
AcDbScale
 70
     0
300
3/32" = 1'-0"
140
0.09375
141
12.0
290
     0
  0
SCALE
  5
5E
102
{ACAD_REACTORS
330
47
102
}
330
47
100
AcDbScale
 70
     0
300
1/8" = 1'-0"
140
0.125
141
12.0
290
     0
  0
SCALE
  5
5F
102
{ACAD_REACTORS
330
47
102
}
330
47
100
AcDbScale
 70
     0
300
3/16" = 1'-0"
140
0.1875
141
12.0
290
     0
  0
SCALE
  5
60
102
{ACAD_REACTORS
330
47
102
}
330
47
100
AcDbScale
 70
     0
300
1/4" = 1'-0"
140
0.25
141
12.0
290
     0
  0
SCALE
  5
61
102
{ACAD_REACTORS
330
47
102
}
330
47
100
AcDbScale
 70
     0
300
3/8" = 1'-0"
140
0.375
141
12.0
290
     0
  0
SCALE
  5
62
102
{ACAD_REACTORS
330
47
102
}
330
47
100
AcDbScale
 70
     0
300
1/2" = 1'-0"
140
0.5
141
12.0
290
     0
  0
SCALE
  5
63
102
{ACAD_REACTORS
330
47
102
}
330
47
100
AcDbScale
 70
     0
300
3/4" = 1'-0"
140
0.75
141
12.0
290
     0
  0
SCALE
  5
64
102
{ACAD_REACTORS
330
47
102
}
330
47
100
AcDbScale
 70
     0
300
1" = 1'-0"
140
1.0
141
12.0
290
     0
  0
SCALE
  5
65
102
{ACAD_REACTORS
330
47
102
}
330
47
100
AcDbScale
 70
     0
300
1-1/2" = 1'-0"
140
1.5
141
12.0
290
     0
  0
SCALE
  5
66
102
{ACAD_REACTORS
330
47
102
}
330
47
100
AcDbScale
 70
     0
300
3" = 1'-0"
140
3.0
141
12.0
290
     0
  0
SCALE
  5
67
102
{ACAD_REACTORS
330
47
102
}
330
47
100
AcDbScale
 70
     0
300
6" = 1'-0"
140
6.0
141
12.0
290
     0
  0
SCALE
  5
68
102
{ACAD_REACTORS
330
47
102
}
330
47
100
AcDbScale
 70
     0
300
1'-0" = 1'-0"
140
12.0
141
12.0
290
     0
  0
ENDSEC
  0
EOF
