  0
SECTION
  2
HEADER
  9
$ACADVER
  1
AC1015
  9
$ACADMAINTVER
 70
     6
  9
$DWGCODEPAGE
  3
ANSI_1252
  9
$INSBASE
 10
0.0
 20
0.0
 30
0.0
  9
$EXTMIN
 10
0.0
 20
0.0
 30
0.0
  9
$EXTMAX
 10
950.0
 20
1050.0
 30
0.0
  9
$LIMMIN
 10
0.0
 20
0.0
  9
$LIMMAX
 10
950.0
 20
1050.0
  9
$ORTHOMODE
 70
     0
  9
$REGENMODE
 70
     1
  9
$FILLMODE
 70
     1
  9
$QTEXTMODE
 70
     0
  9
$MIRRTEXT
 70
     1
  9
$LTSCALE
 40
1.0
  9
$ATTMODE
 70
     1
  9
$TEXTSIZE
 40
3.5
  9
$TRACEWID
 40
1.0
  9
$TEXTSTYLE
  7
Standard
  9
$CLAYER
  8
0
  9
$CELTYPE
  6
ByLayer
  9
$CECOLOR
 62
   256
  9
$CELTSCALE
 40
1.0
  9
$DISPSILH
 70
     0
  9
$DIMSCALE
 40
1.0
  9
$DIMASZ
 40
3.302
  9
$DIMEXO
 40
1.0
  9
$DIMDLI
 40
3.75
  9
$DIMRND
 40
0.0
  9
$DIMDLE
 40
0.0
  9
$DIMEXE
 40
1.0
  9
$DIMTP
 40
0.0
  9
$DIMTM
 40
0.0
  9
$DIMTXT
 40
3.5
  9
$DIMCEN
 40
2.5
  9
$DIMTSZ
 40
0.0
  9
$DIMTOL
 70
     0
  9
$DIMLIM
 70
     0
  9
$DIMTIH
 70
     1
  9
$DIMTOH
 70
     1
  9
$DIMSE1
 70
     0
  9
$DIMSE2
 70
     0
  9
$DIMTAD
 70
     1
  9
$DIMZIN
 70
     0
  9
$DIMBLK
  1

  9
$DIMASO
 70
     1
  9
$DIMSHO
 70
     1
  9
$DIMPOST
  1

  9
$DIMAPOST
  1

  9
$DIMALT
 70
     0
  9
$DIMALTD
 70
     3
  9
$DIMALTF
 40
0.0393700787
  9
$DIMLFAC
 40
1.0
  9
$DIMTOFL
 70
     1
  9
$DIMTVP
 40
0.0
  9
$DIMTIX
 70
     0
  9
$DIMSOXD
 70
     0
  9
$DIMSAH
 70
     0
  9
$DIMBLK1
  1

  9
$DIMBLK2
  1

  9
$DIMSTYLE
  2
ISO-25
  9
$DIMCLRD
 70
     0
  9
$DIMCLRE
 70
     0
  9
$DIMCLRT
 70
     0
  9
$DIMTFAC
 40
1.0
  9
$DIMGAP
 40
1.524
  9
$DIMJUST
 70
     0
  9
$DIMSD1
 70
     0
  9
$DIMSD2
 70
     0
  9
$DIMTOLJ
 70
     0
  9
$DIMTZIN
 70
     0
  9
$DIMALTZ
 70
     0
  9
$DIMALTTZ
 70
     0
  9
$DIMUPT
 70
     0
  9
$DIMDEC
 70
     3
  9
$DIMTDEC
 70
     3
  9
$DIMALTU
 70
     2
  9
$DIMALTTD
 70
     3
  9
$DIMTXSTY
  7
Standard
  9
$DIMAUNIT
 70
     0
  9
$DIMADEC
 70
     2
  9
$DIMALTRND
 40
0.0
  9
$DIMAZIN
 70
     0
  9
$DIMDSEP
 70
    44
  9
$DIMATFIT
 70
     3
  9
$DIMFRAC
 70
     0
  9
$DIMLDRBLK
  1

  9
$DIMLUNIT
 70
     2
  9
$DIMLWD
 70
    -2
  9
$DIMLWE
 70
    -2
  9
$DIMTMOVE
 70
     0
  9
$LUNITS
 70
     2
  9
$LUPREC
 70
     8
  9
$SKETCHINC
 40
1.0
  9
$FILLETRAD
 40
10.0
  9
$AUNITS
 70
     0
  9
$AUPREC
 70
     8
  9
$MENU
  1
.
  9
$ELEVATION
 40
0.0
  9
$PELEVATION
 40
0.0
  9
$THICKNESS
 40
0.0
  9
$LIMCHECK
 70
     0
  9
$CHAMFERA
 40
0.0
  9
$CHAMFERB
 40
0.0
  9
$CHAMFERC
 40
0.0
  9
$CHAMFERD
 40
0.0
  9
$SKPOLY
 70
     0
  9
$TDCREATE
 40
2458296.350889225
  9
$TDUCREATE
 40
2458296.309222558
  9
$TDUPDATE
 40
2458296.350889757
  9
$TDUUPDATE
 40
2458296.30922309
  9
$TDINDWG
 40
0.0000000116
  9
$TDUSRTIMER
 40
0.0000000116
  9
$USRTIMER
 70
     1
  9
$ANGBASE
 50
0.0
  9
$ANGDIR
 70
     0
  9
$PDMODE
 70
     0
  9
$PDSIZE
 40
-1.0
  9
$PLINEWID
 40
0.0
  9
$SPLFRAME
 70
     0
  9
$SPLINETYPE
 70
     6
  9
$SPLINESEGS
 70
     8
  9
$HANDSEED
  5
13C
  9
$SURFTAB1
 70
     6
  9
$SURFTAB2
 70
     6
  9
$SURFTYPE
 70
     6
  9
$SURFU
 70
     6
  9
$SURFV
 70
     6
  9
$UCSBASE
  2

  9
$UCSNAME
  2

  9
$UCSORG
 10
0.0
 20
0.0
 30
0.0
  9
$UCSXDIR
 10
1.0
 20
0.0
 30
0.0
  9
$UCSYDIR
 10
0.0
 20
1.0
 30
0.0
  9
$UCSORTHOREF
  2

  9
$UCSORTHOVIEW
 70
     0
  9
$UCSORGTOP
 10
0.0
 20
0.0
 30
0.0
  9
$UCSORGBOTTOM
 10
0.0
 20
0.0
 30
0.0
  9
$UCSORGLEFT
 10
0.0
 20
0.0
 30
0.0
  9
$UCSORGRIGHT
 10
0.0
 20
0.0
 30
0.0
  9
$UCSORGFRONT
 10
0.0
 20
0.0
 30
0.0
  9
$UCSORGBACK
 10
0.0
 20
0.0
 30
0.0
  9
$PUCSBASE
  2

  9
$PUCSNAME
  2

  9
$PUCSORG
 10
0.0
 20
0.0
 30
0.0
  9
$PUCSXDIR
 10
1.0
 20
0.0
 30
0.0
  9
$PUCSYDIR
 10
0.0
 20
1.0
 30
0.0
  9
$PUCSORTHOREF
  2

  9
$PUCSORTHOVIEW
 70
     0
  9
$PUCSORGTOP
 10
0.0
 20
0.0
 30
0.0
  9
$PUCSORGBOTTOM
 10
0.0
 20
0.0
 30
0.0
  9
$PUCSORGLEFT
 10
0.0
 20
0.0
 30
0.0
  9
$PUCSORGRIGHT
 10
0.0
 20
0.0
 30
0.0
  9
$PUCSORGFRONT
 10
0.0
 20
0.0
 30
0.0
  9
$PUCSORGBACK
 10
0.0
 20
0.0
 30
0.0
  9
$USERI1
 70
     0
  9
$USERI2
 70
     0
  9
$USERI3
 70
     0
  9
$USERI4
 70
     0
  9
$USERI5
 70
     0
  9
$USERR1
 40
0.0
  9
$USERR2
 40
0.0
  9
$USERR3
 40
0.0
  9
$USERR4
 40
0.0
  9
$USERR5
 40
0.0
  9
$WORLDVIEW
 70
     1
  9
$SHADEDGE
 70
     3
  9
$SHADEDIF
 70
    70
  9
$TILEMODE
 70
     1
  9
$MAXACTVP
 70
    64
  9
$PINSBASE
 10
0.0
 20
0.0
 30
0.0
  9
$PLIMCHECK
 70
     0
  9
$PEXTMIN
 10
1.0000000000E+20
 20
1.0000000000E+20
 30
1.0000000000E+20
  9
$PEXTMAX
 10
-1.0000000000E+20
 20
-1.0000000000E+20
 30
-1.0000000000E+20
  9
$PLIMMIN
 10
0.0
 20
0.0
  9
$PLIMMAX
 10
420.0
 20
297.0
  9
$UNITMODE
 70
     0
  9
$VISRETAIN
 70
     1
  9
$PLINEGEN
 70
     0
  9
$PSLTSCALE
 70
     1
  9
$TREEDEPTH
 70
  3020
  9
$CMLSTYLE
  2
Standard
  9
$CMLJUST
 70
     0
  9
$CMLSCALE
 40
20.0
  9
$PROXYGRAPHICS
 70
     1
  9
$MEASUREMENT
 70
     1
  9
$CELWEIGHT
370
    -1
  9
$ENDCAPS
280
     0
  9
$JOINSTYLE
280
     0
  9
$LWDISPLAY
290
     1
  9
$INSUNITS
 70
     4
  9
$HYPERLINKBASE
  1

  9
$STYLESHEET
  1

  9
$XEDIT
290
     1
  9
$CEPSNTYPE
380
     0
  9
$PSTYLEMODE
290
     1
  9
$FINGERPRINTGUID
  2
{3F6DE6D6-675B-4B62-964F-818A30A9CAEB}
  9
$VERSIONGUID
  2
{FAEB1C32-E019-11D5-929B-00C0DF256EC4}
  9
$EXTNAMES
290
     1
  9
$PSVPSCALE
 40
0.0
  9
$OLESTARTUP
290
     0
  0
ENDSEC
  0
SECTION
  2
CLASSES
  0
CLASS
  1
ACDBDICTIONARYWDFLT
  2
AcDbDictionaryWithDefault
  3
ObjectDBX Classes
 90
        0
280
     0
281
     0
  0
CLASS
  1
VISUALSTYLE
  2
AcDbVisualStyle
  3
ObjectDBX Classes
 90
     4095
280
     0
281
     0
  0
CLASS
  1
MATERIAL
  2
AcDbMaterial
  3
ObjectDBX Classes
 90
     1153
280
     0
281
     0
  0
CLASS
  1
SCALE
  2
AcDbScale
  3
ObjectDBX Classes
 90
     1153
280
     0
281
     0
  0
CLASS
  1
TABLESTYLE
  2
AcDbTableStyle
  3
ObjectDBX Classes
 90
     4095
280
     0
281
     0
  0
CLASS
  1
MLEADERSTYLE
  2
AcDbMLeaderStyle
  3
ACDB_MLEADERSTYLE_CLASS
 90
     4095
280
     0
281
     0
  0
CLASS
  1
SUN
  2
AcDbSun
  3
SCENEOE
 90
     1153
280
     0
281
     0
  0
CLASS
  1
ACDBPLACEHOLDER
  2
AcDbPlaceHolder
  3
ObjectDBX Classes
 90
        0
280
     0
281
     0
  0
CLASS
  1
LAYOUT
  2
AcDbLayout
  3
ObjectDBX Classes
 90
        0
280
     0
281
     0
  0
ENDSEC
  0
SECTION
  2
TABLES
  0
TABLE
  2
VPORT
  5
8
330
0
100
AcDbSymbolTable
 70
     1
  0
VPORT
  5
29
330
8
100
AcDbSymbolTableRecord
100
AcDbViewportTableRecord
  2
*Active
 70
     0
 10
0.0
 20
0.0
 11
1.0
 21
1.0
 12
475.0
 22
525.0
 13
0.0
 23
0.0
 14
10.0
 24
10.0
 15
10.0
 25
10.0
 16
0.0
 26
0.0
 36
1.0
 17
0.0
 27
0.0
 37
0.0
 40
1050.0
 41
0.9047619048
 42
50.0
 43
0.0
 44
0.0
 50
0.0
 51
0.0
 71
     0
 72
  2000
 73
     1
 74
     3
 75
     0
 76
     0
 77
     0
 78
     0
281
     0
 65
     1
110
0.0
120
0.0
130
0.0
111
1.0
121
0.0
131
0.0
112
0.0
122
1.0
132
0.0
 79
     0
146
0.0
  0
ENDTAB
  0
TABLE
  2
LTYPE
  5
5
330
0
100
AcDbSymbolTable
 70
     6
  0
LTYPE
  5
14
330
5
100
AcDbSymbolTableRecord
100
AcDbLinetypeTableRecord
  2
ByBlock
 70
     0
  3

 72
    65
 73
     0
 40
0.0
  0
LTYPE
  5
15
330
5
100
AcDbSymbolTableRecord
100
AcDbLinetypeTableRecord
  2
ByLayer
 70
     0
  3

 72
    65
 73
     0
 40
0.0
  0
LTYPE
  5
16
330
5
100
AcDbSymbolTableRecord
100
AcDbLinetypeTableRecord
  2
Continuous
 70
     0
  3
Solid line
 72
    65
 73
     0
 40
0.0
  0
LTYPE
  5
6E
330
5
100
AcDbSymbolTableRecord
100
AcDbLinetypeTableRecord
  2
HIDDEN
 70
     0
  3
Hidden __ __ __ __ __ __ __ __ __ __ __ __ __ __
 72
    65
 73
     2
 40
1.905
 49
1.27
 74
     0
 49
-0.635
 74
     0
  0
LTYPE
  5
6F
330
5
100
AcDbSymbolTableRecord
100
AcDbLinetypeTableRecord
  2
PHANTOM
 70
     0
  3
Phantom ______  __  __  ______  __  __  ______
 72
    65
 73
     6
 40
12.7
 49
6.35
 74
     0
 49
-1.27
 74
     0
 49
1.27
 74
     0
 49
-1.27
 74
     0
 49
1.27
 74
     0
 49
-1.27
 74
     0
  0
LTYPE
  5
70
330
5
100
AcDbSymbolTableRecord
100
AcDbLinetypeTableRecord
  2
CENTER
 70
     0
  3
Center ____ _ ____ _ ____ _ ____ _ ____ _ ____
 72
    65
 73
     4
 40
10.16
 49
6.35
 74
     0
 49
-1.27
 74
     0
 49
1.27
 74
     0
 49
-1.27
 74
     0
  0
LTYPE
  5
71
330
5
100
AcDbSymbolTableRecord
100
AcDbLinetypeTableRecord
  2
CENTERX2
 70
     0
  3
Center (2x) ________  __  ________  __  _____
 72
    65
 73
     4
 40
20.32
 49
12.7
 74
     0
 49
-2.54
 74
     0
 49
2.54
 74
     0
 49
-2.54
 74
     0
  0
LTYPE
  5
72
330
5
100
AcDbSymbolTableRecord
100
AcDbLinetypeTableRecord
  2
DOT2
 70
     0
  3
Dot (.5x) ........................................
 72
    65
 73
     2
 40
0.635
 49
0.0
 74
     0
 49
-0.635
 74
     0
  0
ENDTAB
  0
TABLE
  2
LAYER
  5
2
330
0
100
AcDbSymbolTable
 70
     1
  0
LAYER
  5
10
330
2
100
AcDbSymbolTableRecord
100
AcDbLayerTableRecord
  2
0
 70
     0
 62
     7
  6
Continuous
370
    -3
390
F
  0
ENDTAB
  0
TABLE
  2
STYLE
  5
3
330
0
100
AcDbSymbolTable
 70
     1
  0
STYLE
  5
11
330
3
100
AcDbSymbolTableRecord
100
AcDbTextStyleTableRecord
  2
Standard
 70
     0
 40
0.0
 41
1.0
 50
0.0
 71
     0
 42
3.5
  3
txt
  4

  0
ENDTAB
  0
TABLE
  2
VIEW
  5
6
330
0
100
AcDbSymbolTable
 70
     0
  0
ENDTAB
  0
TABLE
  2
UCS
  5
7
330
0
100
AcDbSymbolTable
 70
     0
  0
ENDTAB
  0
TABLE
  2
APPID
  5
9
330
0
100
AcDbSymbolTable
 70
     1
  0
APPID
  5
12
330
9
100
AcDbSymbolTableRecord
100
AcDbRegAppTableRecord
  2
ACAD
 70
     0
  0
ENDTAB
  0
TABLE
  2
DIMSTYLE
  5
A
330
0
100
AcDbSymbolTable
 70
     1
100
AcDbDimStyleTable
  0
DIMSTYLE
105
27
330
A
100
AcDbSymbolTableRecord
100
AcDbDimStyleTableRecord
  2
ISO-25
 70
     0
 41
2.5
 42
0.625
 43
3.75
 44
1.25
 73
     0
 74
     0
 77
     1
 78
     8
140
2.5
141
2.5
143
0.0393700787
147
0.625
171
     3
172
     1
178
     0
271
     2
272
     2
274
     3
278
    44
283
     0
284
     8
340
11
  0
ENDTAB
  0
TABLE
  2
BLOCK_RECORD
  5
1
330
0
100
AcDbSymbolTable
 70
     1
  0
BLOCK_RECORD
  5
1F
330
1
100
AcDbSymbolTableRecord
100
AcDbBlockTableRecord
  2
*Model_Space
340
22
  0
BLOCK_RECORD
  5
1B
330
1
100
AcDbSymbolTableRecord
100
AcDbBlockTableRecord
  2
*Paper_Space
340
1E
  0
BLOCK_RECORD
  5
23
330
1
100
AcDbSymbolTableRecord
100
AcDbBlockTableRecord
  2
*Paper_Space0
340
26
  0
ENDTAB
  0
ENDSEC
  0
SECTION
  2
BLOCKS
  0
BLOCK
  5
20
330
1F
100
AcDbEntity
  8
0
100
AcDbBlockBegin
  2
*Model_Space
 70
     0
 10
0.0
 20
0.0
 30
0.0
  3
*Model_Space
  1

  0
ENDBLK
  5
21
330
1F
100
AcDbEntity
  8
0
100
AcDbBlockEnd
  0
BLOCK
  5
1C
330
1B
100
AcDbEntity
 67
     1
  8
0
100
AcDbBlockBegin
  2
*Paper_Space
 70
     0
 10
0.0
 20
0.0
 30
0.0
  3
*Paper_Space
  1

  0
ENDBLK
  5
1D
330
1B
100
AcDbEntity
 67
     1
  8
0
100
AcDbBlockEnd
  0
BLOCK
  5
24
330
23
100
AcDbEntity
  8
0
100
AcDbBlockBegin
  2
*Paper_Space0
 70
     0
 10
0.0
 20
0.0
 30
0.0
  3
*Paper_Space0
  1

  0
ENDBLK
  5
25
330
23
100
AcDbEntity
  8
0
100
AcDbBlockEnd
  0
ENDSEC
  0
SECTION
  2
ENTITIES
  0
LINE
  5
73
330
1F
100
AcDbEntity
  8
0
  6
Continuous
 62
     7
370
    25
100
AcDbLine
 10
283.8940660182
 20
104.5936476159
 30
0.0
 11
683.8940794292
 21
104.5936476159
 31
0.0
  0
SPLINE
  5
74
330
1F
100
AcDbEntity
  8
0
  6
Continuous
 62
     7
370
    25
100
AcDbSpline
210
0.0
220
0.0
230
1.0
 70
     8
 71
     3
 72
     9
 73
     5
 74
     0
 42
0.000000001
 43
0.00000001
 40
0.0
 40
0.0
 40
0.0
 40
0.0
 40
0.0538105631837838
 40
1.0
 40
1.0
 40
1.0
 40
1.0
 10
494.213383895457
 20
103.6147009301282
 30
0.0
 10
494.2181323809876
 20
103.6322849869396
 30
0.0
 10
494.3063768677522
 20
103.9590620316496
 30
0.0
 10
494.4821249073357
 20
104.2851277127518
 30
0.0
 10
494.6484158459307
 20
104.5936476159191
 30
0.0
  0
LINE
  5
75
330
1F
100
AcDbEntity
  8
0
  6
Continuous
 62
     7
370
    25
100
AcDbLine
 10
473.1462414089
 20
104.5936476159
 30
0.0
 11
473.3529652181
 21
104.108704226
 31
0.0
  0
ARC
  5
76
330
1F
100
AcDbEntity
  8
0
  6
Continuous
 62
     7
370
    25
100
AcDbCircle
 10
494.5288798634
 20
93.4091055204
 30
0.0
 40
0.999999999999964
100
AcDbArc
 50
286.1036910378
 51
349.3444562998
  0
ARC
  5
77
330
1F
100
AcDbEntity
  8
0
  6
Continuous
 62
     7
370
    25
100
AcDbCircle
 10
473.2592733426
 20
93.4091055204
 30
0.0
 40
0.999999999999964
100
AcDbArc
 50
190.6555437002
 51
253.8963089622
  0
SPLINE
  5
78
330
1F
100
AcDbEntity
  8
0
  6
Continuous
 62
     7
370
    25
100
AcDbSpline
210
0.0
220
0.0
230
1.0
 70
     8
 71
     3
 72
    17
 73
    13
 74
     0
 42
0.000000001
 43
0.00000001
 40
0.0
 40
0.0
 40
0.0
 40
0.0
 40
0.0568467870382712
 40
0.1651294621955923
 40
0.273186667320356
 40
0.381046681230957
 40
0.4887965449323257
 40
0.5965119850267007
 40
0.7042565415941854
 40
0.8120888607988894
 40
0.9200911713292969
 40
1.0
 40
1.0
 40
1.0
 40
1.0
 10
472.9818965020777
 20
92.44836677790636
 30
0.0
 10
473.3516696877077
 20
92.34624375273015
 30
0.0
 10
474.4257927905018
 20
92.04959514506538
 30
0.0
 10
476.3260109570743
 20
91.65036888465872
 30
0.0
 10
478.6934225952537
 20
91.29842811320776
 30
0.0
 10
481.1431276946121
 20
91.08097399403603
 30
0.0
 10
483.6339181786116
 20
90.99850230016115
 30
0.0
 10
486.127987043344
 20
91.05257695241453
 30
0.0
 10
488.5874340372035
 20
91.24176674637341
 30
0.0
 10
490.9707086740974
 20
91.5658809558354
 30
0.0
 10
493.0552827521054
 20
91.97287584648106
 30
0.0
 10
494.2838224115143
 20
92.30649564082982
 30
0.0
 10
494.8062563958766
 20
92.44836677790647
 30
0.0
  0
SPLINE
  5
79
330
1F
100
AcDbEntity
  8
0
  6
Continuous
 62
     7
370
    25
100
AcDbSpline
210
0.0
220
0.0
230
1.0
 70
     8
 71
     3
 72
     9
 73
     5
 74
     0
 42
0.000000001
 43
0.00000001
 40
0.0
 40
0.0
 40
0.0
 40
0.0
 40
0.5339775417892693
 40
1.0
 40
1.0
 40
1.0
 40
1.0
 10
495.5125118318202
 20
93.22453846217161
 30
0.0
 10
495.9018995668392
 20
95.22493709888968
 30
0.0
 10
496.6311207504011
 20
98.97115951493952
 30
0.0
 10
497.5613305584699
 20
102.8063586754231
 30
0.0
 10
497.9948292198779
 20
104.5936476159192
 30
0.0
  0
SPLINE
  5
7A
330
1F
100
AcDbEntity
  8
0
  6
Continuous
 62
     7
370
    25
100
AcDbSpline
210
0.0
220
0.0
230
1.0
 70
     8
 71
     3
 72
    10
 73
     6
 74
     0
 42
0.000000001
 43
0.00000001
 40
0.0
 40
0.0
 40
0.0
 40
0.0
 40
0.0944679874061931
 40
0.712987969097792
 40
1.0
 40
1.0
 40
1.0
 40
1.0
 10
469.8028231683375
 20
104.5936476159192
 30
0.0
 10
469.8938333960249
 20
104.2306458214445
 30
0.0
 10
470.5807242591381
 20
101.4909249982577
 30
0.0
 10
471.4324770146563
 20
97.6744234977619
 30
0.0
 10
472.0494290390031
 20
94.30735943959534
 30
0.0
 10
472.2449744763972
 20
93.24015487910276
 30
0.0
  0
LINE
  5
7B
330
1F
100
AcDbEntity
  8
0
  6
Continuous
 62
     7
370
    25
100
AcDbLine
 10
283.8940660182
 20
104.5563351083
 30
0.0
 11
469.8121214929
 21
104.5563351083
 31
0.0
  0
LINE
  5
7C
330
1F
100
AcDbEntity
  8
0
  6
Continuous
 62
     7
370
    25
100
AcDbLine
 10
497.9860598865
 20
104.5563351083
 30
0.0
 11
683.8940794292
 21
104.5563351083
 31
0.0
  0
ARC
  5
7D
330
1F
100
AcDbEntity
  8
0
  6
Continuous
 62
     7
370
    25
100
AcDbCircle
 10
468.894076603
 20
390.4686557091
 30
0.0
 40
4.500000000000016
100
AcDbArc
 50
7.6622556608
 51
172.3377443392
  0
LINE
  5
7E
330
1F
100
AcDbEntity
  8
0
  6
Continuous
 62
     7
370
    25
100
AcDbLine
 10
473.3538965407
 20
391.0686503816
 30
0.0
 11
464.4342551652
 21
391.0686503816
 31
0.0
  0
ARC
  5
7F
330
1F
100
AcDbEntity
  8
0
  6
Continuous
 62
     7
370
    25
100
AcDbCircle
 10
468.894076603
 20
390.4686557091
 30
0.0
 40
4.500000000000024
100
AcDbArc
 50
187.6622556608
 51
352.3377443392
  0
LINE
  5
80
330
1F
100
AcDbEntity
  8
0
  6
Continuous
 62
     7
370
    25
100
AcDbLine
 10
473.3538965407
 20
389.8686598706
 30
0.0
 11
464.4342551652
 21
389.8686598706
 31
0.0
  0
ARC
  5
81
330
1F
100
AcDbEntity
  8
0
  6
Continuous
 62
     7
370
    25
100
AcDbCircle
 10
468.894076603
 20
390.4686557091
 30
0.0
 40
4.500000000000024
100
AcDbArc
 50
172.3377443392
 51
187.6622556608
  0
ARC
  5
82
330
1F
100
AcDbEntity
  8
0
  6
Continuous
 62
     7
370
    25
100
AcDbCircle
 10
468.894076603
 20
390.4686557091
 30
0.0
 40
4.499999999999967
100
AcDbArc
 50
352.3377443392
 51
7.6622556608
  0
ARC
  5
83
330
1F
100
AcDbEntity
  8
0
  6
Continuous
 62
     7
370
    25
100
AcDbCircle
 10
498.894076603
 20
390.4686557091
 30
0.0
 40
4.500000000000016
100
AcDbArc
 50
7.6622556608
 51
172.3377443392
  0
LINE
  5
84
330
1F
100
AcDbEntity
  8
0
  6
Continuous
 62
     7
370
    25
100
AcDbLine
 10
503.3538977328
 20
391.0686503816
 30
0.0
 11
494.4342563573
 21
391.0686503816
 31
0.0
  0
LINE
  5
85
330
1F
100
AcDbEntity
  8
0
  6
Continuous
 62
     7
370
    25
100
AcDbLine
 10
503.3538977328
 20
389.8686598706
 30
0.0
 11
494.4342563573
 21
389.8686598706
 31
0.0
  0
ARC
  5
86
330
1F
100
AcDbEntity
  8
0
  6
Continuous
 62
     7
370
    25
100
AcDbCircle
 10
498.894076603
 20
390.4686557091
 30
0.0
 40
4.500000000000024
100
AcDbArc
 50
187.6622556608
 51
352.3377443392
  0
ARC
  5
87
330
1F
100
AcDbEntity
  8
0
  6
Continuous
 62
     7
370
    25
100
AcDbCircle
 10
498.894076603
 20
390.4686557091
 30
0.0
 40
4.500000000000024
100
AcDbArc
 50
352.3377443392
 51
7.6622556608
  0
ARC
  5
88
330
1F
100
AcDbEntity
  8
0
  6
Continuous
 62
     7
370
    25
100
AcDbCircle
 10
498.894076603
 20
390.4686557091
 30
0.0
 40
4.499999999999967
100
AcDbArc
 50
172.3377443392
 51
187.6622556608
  0
LINE
  5
89
330
1F
100
AcDbEntity
  8
0
  6
Continuous
 62
     7
370
    25
100
AcDbLine
 10
471.3940734687
 20
358.4686498809
 30
0.0
 11
461.3940755549
 21
358.4686498809
 31
0.0
  0
LINE
  5
8A
330
1F
100
AcDbEntity
  8
0
  6
Continuous
 62
     7
370
    25
100
AcDbLine
 10
461.3940755549
 20
358.4686498809
 30
0.0
 11
461.3940755549
 21
360.468653934
 31
0.0
  0
LINE
  5
8B
330
1F
100
AcDbEntity
  8
0
  6
Continuous
 62
     7
370
    25
100
AcDbLine
 10
471.3940734687
 20
360.468653934
 30
0.0
 11
461.3940755549
 21
360.468653934
 31
0.0
  0
LINE
  5
8C
330
1F
100
AcDbEntity
  8
0
  6
Continuous
 62
     7
370
    25
100
AcDbLine
 10
506.394077343
 20
358.4686498809
 30
0.0
 11
506.394077343
 21
360.468653934
 31
0.0
  0
LINE
  5
8D
330
1F
100
AcDbEntity
  8
0
  6
Continuous
 62
     7
370
    25
100
AcDbLine
 10
506.394077343
 20
358.4686498809
 30
0.0
 11
496.3940794292
 21
358.4686498809
 31
0.0
  0
LINE
  5
8E
330
1F
100
AcDbEntity
  8
0
  6
Continuous
 62
     7
370
    25
100
AcDbLine
 10
506.394077343
 20
360.468653934
 30
0.0
 11
496.3940794292
 21
360.468653934
 31
0.0
  0
LINE
  5
8F
330
1F
100
AcDbEntity
  8
0
  6
Continuous
 62
     7
370
    25
100
AcDbLine
 10
496.3940794292
 20
358.4686498809
 30
0.0
 11
471.3940734687
 21
358.4686498809
 31
0.0
  0
LINE
  5
90
330
1F
100
AcDbEntity
  8
0
  6
Continuous
 62
     7
370
    25
100
AcDbLine
 10
496.3940794292
 20
360.468653934
 30
0.0
 11
471.3940734687
 21
360.468653934
 31
0.0
  0
LINE
  5
91
330
1F
100
AcDbEntity
  8
0
  6
Continuous
 62
     7
370
    25
100
AcDbLine
 10
506.394077343
 20
360.468653934
 30
0.0
 11
506.394077343
 21
362.7186547685
 31
0.0
  0
LINE
  5
92
330
1F
100
AcDbEntity
  8
0
  6
Continuous
 62
     7
370
    25
100
AcDbLine
 10
461.3940755549
 20
362.7186547685
 30
0.0
 11
461.3940755549
 21
360.468653934
 31
0.0
  0
CIRCLE
  5
93
330
1F
100
AcDbEntity
  8
0
  6
Continuous
 62
     7
370
    25
100
AcDbCircle
 10
498.894076603
 20
390.4686557091
 30
0.0
 40
4.5
  0
ARC
  5
94
330
1F
100
AcDbEntity
  8
0
  6
Continuous
 62
     7
370
    25
100
AcDbCircle
 10
483.894076603
 20
390.4686557091
 30
0.0
 40
29.99999999999998
100
AcDbArc
 50
318.5903778907
 51
221.4096221093
  0
LINE
  5
95
330
1F
100
AcDbEntity
  8
0
  6
Continuous
 62
     7
370
    25
100
AcDbLine
 10
506.394077343
 20
362.7186547685
 30
0.0
 11
506.394077343
 21
370.6255238223
 31
0.0
  0
CIRCLE
  5
96
330
1F
100
AcDbEntity
  8
0
  6
Continuous
 62
     7
370
    25
100
AcDbCircle
 10
468.894076603
 20
390.4686557091
 30
0.0
 40
4.5
  0
LINE
  5
97
330
1F
100
AcDbEntity
  8
0
  6
Continuous
 62
     7
370
    25
100
AcDbLine
 10
461.3940755549
 20
370.6255238223
 30
0.0
 11
461.3940755549
 21
362.7186547685
 31
0.0
  0
ELLIPSE
  5
98
330
1F
100
AcDbEntity
  8
0
  6
Continuous
 62
     7
370
    25
100
AcDbEllipse
 10
680.3864369262
 20
998.0859922886
 30
0.0
 11
1.424997215780536
 21
1.424997215780536
 31
0.0
210
0.0
220
0.0
230
1.0
 40
0.9924325091
 41
5.501585242055454
 42
7.064785372303788
  0
ELLIPSE
  5
99
330
1F
100
AcDbEntity
  8
0
  6
Continuous
 62
     7
370
    25
100
AcDbEllipse
 10
287.4017162764
 20
998.0859922886
 30
0.0
 11
-1.424997215780536
 21
1.424997215780536
 31
0.0
210
0.0
220
0.0
230
1.0
 40
0.9924325091
 41
5.501585242055467
 42
7.064785372303692
  0
LINE
  5
9A
330
1F
100
AcDbEntity
  8
0
  6
Continuous
 62
     7
370
    25
100
AcDbLine
 10
680.4016868296
 20
1000.0936221051
 30
0.0
 11
287.3864511672
 21
1000.0936221051
 31
0.0
  0
LINE
  5
9B
330
1F
100
AcDbEntity
  8
0
  6
Continuous
 62
     7
370
    25
100
AcDbLine
 10
682.3940763894
 20
936.0860120225
 30
0.0
 11
682.3940763894
 21
998.1012474465
 31
0.0
  0
LINE
  5
9C
330
1F
100
AcDbEntity
  8
0
  6
Continuous
 62
     7
370
    25
100
AcDbLine
 10
285.3940765086
 20
998.1012474465
 30
0.0
 11
285.3940765086
 21
936.0860120225
 31
0.0
  0
LINE
  5
9D
330
1F
100
AcDbEntity
  8
0
  6
Continuous
 62
     7
370
    25
100
AcDbLine
 10
574.3956698748
 20
982.8802775312
 30
0.0
 11
574.3956698748
 21
951.3070117402
 31
0.0
  0
LINE
  5
9E
330
1F
100
AcDbEntity
  8
0
  6
Continuous
 62
     7
370
    25
100
AcDbLine
 10
563.3924834143
 20
950.9852658677
 30
0.0
 11
563.3924834143
 21
983.2019936013
 31
0.0
  0
LINE
  5
9F
330
1F
100
AcDbEntity
  8
0
  6
Continuous
 62
     7
370
    25
100
AcDbLine
 10
668.3924833956
 20
978.4267376828
 30
0.0
 11
668.3924833956
 21
975.3630887437
 31
0.0
  0
LINE
  5
A0
330
1F
100
AcDbEntity
  8
0
  6
Continuous
 62
     7
370
    25
100
AcDbLine
 10
668.3924833956
 20
958.8241707254
 30
0.0
 11
668.3924833956
 21
955.7605217862
 31
0.0
  0
LINE
  5
A1
330
1F
100
AcDbEntity
  8
0
  6
Continuous
 62
     7
370
    25
100
AcDbLine
 10
478.3924857798
 20
950.4949878621
 30
0.0
 11
478.3924857798
 21
983.6923014093
 31
0.0
  0
LINE
  5
A2
330
1F
100
AcDbEntity
  8
0
  6
Continuous
 62
     7
370
    25
100
AcDbLine
 10
393.3924774352
 20
951.3070117402
 30
0.0
 11
393.3924774352
 21
982.8802775312
 31
0.0
  0
LINE
  5
A3
330
1F
100
AcDbEntity
  8
0
  6
Continuous
 62
     7
370
    25
100
AcDbLine
 10
299.3956844035
 20
978.4267376828
 30
0.0
 11
299.3956844035
 21
975.3630887437
 31
0.0
  0
LINE
  5
A4
330
1F
100
AcDbEntity
  8
0
  6
Continuous
 62
     7
370
    25
100
AcDbLine
 10
299.3956844035
 20
958.8241707254
 30
0.0
 11
299.3956844035
 21
955.7605217862
 31
0.0
  0
LINE
  5
A5
330
1F
100
AcDbEntity
  8
0
  6
Continuous
 62
     7
370
    25
100
AcDbLine
 10
489.3956671181
 20
983.6923014093
 30
0.0
 11
489.3956671181
 21
950.4949878621
 31
0.0
  0
LINE
  5
A6
330
1F
100
AcDbEntity
  8
0
  6
Continuous
 62
     7
370
    25
100
AcDbLine
 10
404.3956736746
 20
983.2019936013
 30
0.0
 11
404.3956736746
 21
950.9852658677
 31
0.0
  0
ELLIPSE
  5
A7
330
1F
100
AcDbEntity
  8
0
  6
Continuous
 62
     7
370
    25
100
AcDbEllipse
 10
287.4017162764
 20
936.1012716388
 30
0.0
 11
-1.424997215780536
 21
-1.424997215780422
 31
0.0
210
0.0
220
0.0
230
1.0
 40
0.9924325091
 41
5.501585242055448
 42
7.064785372303819
  0
ELLIPSE
  5
A8
330
1F
100
AcDbEntity
  8
0
  6
Continuous
 62
     7
370
    25
100
AcDbEllipse
 10
680.3864369262
 20
936.1012716388
 30
0.0
 11
1.424997215780536
 21
-1.424997215780422
 31
0.0
210
0.0
220
0.0
230
1.0
 40
0.9924325091
 41
5.501585242055378
 42
7.064785372303729
  0
LINE
  5
A9
330
1F
100
AcDbEntity
  8
0
  6
Continuous
 62
     7
370
    25
100
AcDbLine
 10
287.3864511672
 20
934.0936373639
 30
0.0
 11
680.4016868296
 21
934.0936373639
 31
0.0
  0
LINE
  5
AA
330
1F
100
AcDbEntity
  8
0
  6
Continuous
 62
     7
370
    25
100
AcDbLine
 10
667.7800605717
 20
958.4408830571
 30
0.0
 11
666.6847954217
 21
960.1635168958
 31
0.0
  0
LINE
  5
AB
330
1F
100
AcDbEntity
  8
0
  6
Continuous
 62
     7
370
    25
100
AcDbLine
 10
666.6847954217
 20
974.0237425733
 30
0.0
 11
667.7800605717
 21
975.7463764119
 31
0.0
  0
SPLINE
  5
AC
330
1F
100
AcDbEntity
  8
0
  6
Continuous
 62
     7
370
    25
100
AcDbSpline
210
0.0
220
0.0
230
1.0
 70
     8
 71
     3
 72
    19
 73
    15
 74
     0
 42
0.000000001
 43
0.00000001
 40
0.0
 40
0.0
 40
0.0
 40
0.0
 40
0.324384634114021
 40
0.5392426737347733
 40
0.6822269304250758
 40
0.7780874233820129
 40
0.843087876122305
 40
0.8878431484024114
 40
0.9311166213711862
 40
0.9564462293437286
 40
0.9725855058678339
 40
0.9849277013433317
 40
0.9973175344558767
 40
1.0
 40
1.0
 40
1.0
 40
1.0
 10
667.7800605717304
 20
975.7463764119245
 30
0.0
 10
667.8473733953971
 20
975.6062951253759
 30
0.0
 10
667.9592712573593
 20
975.3734301880309
 30
0.0
 10
668.1015762595424
 20
975.1276909260603
 30
0.0
 10
668.1966510378957
 20
975.0018239050178
 30
0.0
 10
668.260607918465
 20
974.951562930808
 30
0.0
 10
668.3040004595329
 20
974.9467068844322
 30
0.0
 10
668.3362222659929
 20
974.9712301135321
 30
0.0
 10
668.3598817925812
 20
975.0184406557332
 30
0.0
 10
668.376690895689
 20
975.0932144787321
 30
0.0
 10
668.3859642704113
 20
975.1714162885629
 30
0.0
 10
668.390981781821
 20
975.2540278961142
 30
0.0
 10
668.3924015886116
 20
975.3201453256627
 30
0.0
 10
668.3924710358818
 20
975.3566006688383
 30
0.0
 10
668.3924833956363
 20
975.3630887436964
 30
0.0
  0
SPLINE
  5
AD
330
1F
100
AcDbEntity
  8
0
  6
Continuous
 62
     7
370
    25
100
AcDbSpline
210
0.0
220
0.0
230
1.0
 70
     8
 71
     3
 72
    14
 73
    10
 74
     0
 42
0.000000001
 43
0.00000001
 40
0.0
 40
0.0
 40
0.0
 40
0.0
 40
0.0127083798608453
 40
0.0254448345882479
 40
0.0421314709907141
 40
0.0736048315675783
 40
0.1869942135337899
 40
0.6362607816541339
 40
1.0
 40
1.0
 40
1.0
 40
1.0
 10
668.3924833956363
 20
958.8241707253553
 30
0.0
 10
668.3922310020494
 20
958.855140848047
 30
0.0
 10
668.3917256572973
 20
958.9171495114406
 30
0.0
 10
668.3868151021658
 20
959.0060637665274
 30
0.0
 10
668.3765894649159
 20
959.0981748465348
 30
0.0
 10
668.3440474192976
 20
959.2304731550345
 30
0.0
 10
668.2174082916355
 20
959.2683129749322
 30
0.0
 10
668.0242362031779
 20
958.9392971804139
 30
0.0
 10
667.8555367819191
 20
958.5949459703967
 30
0.0
 10
667.7800605717304
 20
958.440883057127
 30
0.0
  0
SPLINE
  5
AE
330
1F
100
AcDbEntity
  8
0
  6
Continuous
 62
     7
370
    25
100
AcDbSpline
210
0.0
220
0.0
230
1.0
 70
     8
 71
     3
 72
    19
 73
    15
 74
     0
 42
0.000000001
 43
0.00000001
 40
0.0
 40
0.0
 40
0.0
 40
0.0
 40
0.3243841573381471
 40
0.5392420581761889
 40
0.6822257491115477
 40
0.7780861011741097
 40
0.8430865478332921
 40
0.8878419328019482
 40
0.9311153421679943
 40
0.956443151318155
 40
0.9725848561173578
 40
0.9849236832588525
 40
0.9973175478239833
 40
0.9999999999999999
 40
0.9999999999999999
 40
0.9999999999999999
 40
0.9999999999999999
 10
300.008092326224
 20
958.4408830571272
 30
0.0
 10
299.9407856635588
 20
958.5809643474746
 30
0.0
 10
299.828898006645
 20
958.8138293675757
 30
0.0
 10
299.6865413791936
 20
959.0595685173206
 30
0.0
 10
299.5915234113905
 20
959.1854349709134
 30
0.0
 10
299.5275598046323
 20
959.235698082181
 30
0.0
 10
299.4841653025642
 20
959.2405492933211
 30
0.0
 10
299.4519211725203
 20
959.2160374139978
 30
0.0
 10
299.4282567497685
 20
959.1687955906481
 30
0.0
 10
299.4114687267971
 20
959.0940883649555
 30
0.0
 10
299.402201118688
 20
959.0158428252734
 30
0.0
 10
299.3972001322534
 20
958.9332507674723
 30
0.0
 10
299.3956927552471
 20
958.867123726461
 30
0.0
 10
299.3956856650091
 20
958.8306587523024
 30
0.0
 10
299.3956844034793
 20
958.8241707253552
 30
0.0
  0
SPLINE
  5
AF
330
1F
100
AcDbEntity
  8
0
  6
Continuous
 62
     7
370
    25
100
AcDbSpline
210
0.0
220
0.0
230
1.0
 70
     8
 71
     3
 72
    14
 73
    10
 74
     0
 42
0.000000001
 43
0.00000001
 40
0.0
 40
0.0
 40
0.0
 40
0.0
 40
0.0119795926984903
 40
0.0239913603724199
 40
0.0398818376240722
 40
0.0687377060514417
 40
0.1675484828592491
 40
0.6411401571107025
 40
0.9999999999999999
 40
0.9999999999999999
 40
0.9999999999999999
 40
0.9999999999999999
 10
299.3956844034792
 20
975.3630887436964
 30
0.0
 10
299.3958964430429
 20
975.3339265924513
 30
0.0
 10
299.3963210916693
 20
975.2755239658042
 30
0.0
 10
299.4007338148726
 20
975.1898756256338
 30
0.0
 10
299.4099480777721
 20
975.0999008812462
 30
0.0
 10
299.4385735700164
 20
974.9712463130576
 30
0.0
 10
299.5665227230024
 20
974.8951308704852
 30
0.0
 10
299.7609963743385
 20
975.2459674390461
 30
0.0
 10
299.933659379937
 20
975.5956377457683
 30
0.0
 10
300.008092326224
 20
975.7463764119244
 30
0.0
  0
LINE
  5
B0
330
1F
100
AcDbEntity
  8
0
  6
Continuous
 62
     7
370
    25
100
AcDbLine
 10
300.0080923262
 20
975.7463764119
 30
0.0
 11
301.1033574763
 21
974.0237425733
 31
0.0
  0
LINE
  5
B1
330
1F
100
AcDbEntity
  8
0
  6
Continuous
 62
     7
370
    25
100
AcDbLine
 10
301.1033574763
 20
960.1635168958
 30
0.0
 11
300.0080923262
 21
958.4408830571
 31
0.0
  0
ARC
  5
B2
330
1F
100
AcDbEntity
  8
0
  6
Continuous
 62
     7
370
    25
100
AcDbCircle
 10
293.8940766013
 20
967.0936319637
 30
0.0
 40
10.0000000000001
100
AcDbArc
 50
316.1311450389
 51
43.8688549611
  0
ARC
  5
B3
330
1F
100
AcDbEntity
  8
0
  6
Continuous
 62
     7
370
    25
100
AcDbCircle
 10
673.8940766013
 20
967.0936319637
 30
0.0
 40
10.0000000000001
100
AcDbArc
 50
136.1311450389
 51
223.8688549611
  0
ARC
  5
B4
330
1F
100
AcDbEntity
  8
0
  6
Continuous
 62
     7
370
    25
100
AcDbCircle
 10
483.8940766013
 20
-4564.448034703
 30
0.0
 40
5553.154087311352
100
AcDbArc
 50
90.1083239506
 51
90.7694911169
  0
ARC
  5
B5
330
1F
100
AcDbEntity
  8
0
  6
Continuous
 62
     7
370
    25
100
AcDbCircle
 10
483.8940766013
 20
6498.6352986304
 30
0.0
 40
5553.15408731135
100
AcDbArc
 50
270.1083239506
 51
270.7694911169
  0
ARC
  5
B6
330
1F
100
AcDbEntity
  8
0
  6
Continuous
 62
     7
370
    25
100
AcDbCircle
 10
483.8940766013
 20
6498.6352986304
 30
0.0
 40
5553.15408731135
100
AcDbArc
 50
269.2305088831
 51
269.8916760494
  0
ARC
  5
B7
330
1F
100
AcDbEntity
  8
0
  6
Continuous
 62
     7
370
    25
100
AcDbCircle
 10
483.8940766013
 20
-4564.448034703
 30
0.0
 40
5553.154087311352
100
AcDbArc
 50
89.2305088831
 51
89.8916760494
  0
SPLINE
  5
B8
330
1F
100
AcDbEntity
  8
0
  6
Continuous
 62
     7
370
    25
100
AcDbSpline
210
0.0
220
0.0
230
1.0
 70
     8
 71
     3
 72
    12
 73
     8
 74
     0
 42
0.000000001
 43
0.00000001
 40
0.0
 40
0.0
 40
0.0
 40
0.0
 40
0.2154573939164939
 40
0.4309426169123739
 40
0.6457516255170002
 40
0.8597524198868981
 40
1.0
 40
1.0
 40
1.0
 40
1.0
 10
478.392485779822
 20
983.6923014092541
 30
0.0
 10
478.3371665549902
 20
984.2567014040355
 30
0.0
 10
478.2265209601411
 20
985.3855742930792
 30
0.0
 10
477.3621175686364
 20
986.88896126993
 30
0.0
 10
476.0908176658263
 20
988.0193949648528
 30
0.0
 10
474.686640180356
 20
988.6139240461323
 30
0.0
 10
473.7615032264716
 20
988.6728229547145
 30
0.0
 10
473.3952398124339
 20
988.6961411404706
 30
0.0
  0
SPLINE
  5
B9
330
1F
100
AcDbEntity
  8
0
  6
Continuous
 62
     7
370
    25
100
AcDbSpline
210
0.0
220
0.0
230
1.0
 70
     8
 71
     3
 72
    12
 73
     8
 74
     0
 42
0.000000001
 43
0.00000001
 40
0.0
 40
0.0
 40
0.0
 40
0.0
 40
0.2154606636195622
 40
0.4309454008422656
 40
0.6457513960829322
 40
0.8597531482032823
 40
1.0
 40
1.0
 40
1.0
 40
1.0
 10
489.3956671181323
 20
950.4949878621197
 30
0.0
 10
489.450985507485
 20
949.9305784560098
 30
0.0
 10
489.5616284669611
 20
948.8016965818472
 30
0.0
 10
490.426024865941
 20
947.2982937057344
 30
0.0
 10
491.6973539153761
 20
946.1679087991093
 30
0.0
 10
493.1015036561444
 20
945.5733173932668
 30
0.0
 10
494.0266486340319
 20
945.5144526531749
 30
0.0
 10
494.3929130855204
 20
945.4911481309033
 30
0.0
  0
SPLINE
  5
BA
330
1F
100
AcDbEntity
  8
0
  6
Continuous
 62
     7
370
    25
100
AcDbSpline
210
0.0
220
0.0
230
1.0
 70
     8
 71
     3
 72
    12
 73
     8
 74
     0
 42
0.000000001
 43
0.00000001
 40
0.0
 40
0.0
 40
0.0
 40
0.0
 40
0.213736821098256
 40
0.4274802567044385
 40
0.641172788876219
 40
0.8553622404154717
 40
1.0
 40
1.0
 40
1.0
 40
1.0
 10
473.3952398124339
 20
945.4911481309033
 30
0.0
 10
473.9552565873827
 20
945.5450729969319
 30
0.0
 10
475.0753074681053
 20
945.6529243978006
 30
0.0
 10
476.5693213120264
 20
946.508769587983
 30
0.0
 10
477.6987604836084
 20
947.7709723367387
 30
0.0
 10
478.3046091987791
 20
949.1801480799863
 30
0.0
 10
478.3672401866994
 20
950.1172545710969
 30
0.0
 10
478.392485779822
 20
950.4949878621197
 30
0.0
  0
SPLINE
  5
BB
330
1F
100
AcDbEntity
  8
0
  6
Continuous
 62
     7
370
    25
100
AcDbSpline
210
0.0
220
0.0
230
1.0
 70
     8
 71
     3
 72
    12
 73
     8
 74
     0
 42
0.000000001
 43
0.00000001
 40
0.0
 40
0.0
 40
0.0
 40
0.0
 40
0.2137381270620356
 40
0.4274822365947349
 40
0.6411754425325351
 40
0.8553655694045791
 40
1.0
 40
1.0
 40
1.0
 40
1.0
 10
494.3929130855204
 20
988.6961411404706
 30
0.0
 10
493.8328966996089
 20
988.6422039184221
 30
0.0
 10
492.7128482530831
 20
988.534327964637
 30
0.0
 10
491.2188312442043
 20
987.6784920144995
 30
0.0
 10
490.0893924314099
 20
986.4162865448184
 30
0.0
 10
489.4835479516901
 20
985.0071208303282
 30
0.0
 10
489.4209136518585
 20
984.0700246455292
 30
0.0
 10
489.3956671181323
 20
983.6923014092541
 30
0.0
  0
SPLINE
  5
BC
330
1F
100
AcDbEntity
  8
0
  6
Continuous
 62
     7
370
    25
100
AcDbSpline
210
0.0
220
0.0
230
1.0
 70
     8
 71
     3
 72
    12
 73
     8
 74
     0
 42
0.000000001
 43
0.00000001
 40
0.0
 40
0.0
 40
0.0
 40
0.0
 40
0.2175556319321613
 40
0.4351415694820742
 40
0.6520490109041118
 40
0.8681520626958285
 40
1.0
 40
1.0
 40
1.0
 40
1.0
 10
563.3924834142628
 20
983.2019936013318
 30
0.0
 10
563.3371670224848
 20
983.7663580065896
 30
0.0
 10
563.2265265333256
 20
984.8951654333738
 30
0.0
 10
562.3621800410177
 20
986.3983903030984
 30
0.0
 10
561.090901779737
 20
987.5290751003976
 30
0.0
 10
559.7107454313173
 20
988.1126317201954
 30
0.0
 10
558.8120764681519
 20
988.1797894324775
 30
0.0
 10
558.4715467590096
 20
988.2052372861004
 30
0.0
  0
SPLINE
  5
BD
330
1F
100
AcDbEntity
  8
0
  6
Continuous
 62
     7
370
    25
100
AcDbSpline
210
0.0
220
0.0
230
1.0
 70
     8
 71
     3
 72
    12
 73
     8
 74
     0
 42
0.000000001
 43
0.00000001
 40
0.0
 40
0.0
 40
0.0
 40
0.0
 40
0.2175554610002631
 40
0.4351419473369788
 40
0.6520494493175208
 40
0.8681527422814015
 40
1.0
 40
1.0
 40
1.0
 40
1.0
 10
404.3956736746431
 20
950.9852658677198
 30
0.0
 10
404.4509849964691
 20
950.4209009584077
 30
0.0
 10
404.5616155280054
 20
949.2920906563469
 30
0.0
 10
405.4259762148237
 20
947.7888714605467
 30
0.0
 10
406.6972518799457
 20
946.6581834886588
 30
0.0
 10
408.0774082057955
 20
946.0746287953127
 30
0.0
 10
408.9760755684459
 20
946.0074702522685
 30
0.0
 10
409.3166033449771
 20
945.982022182951
 30
0.0
  0
SPLINE
  5
BE
330
1F
100
AcDbEntity
  8
0
  6
Continuous
 62
     7
370
    25
100
AcDbSpline
210
0.0
220
0.0
230
1.0
 70
     8
 71
     3
 72
    12
 73
     8
 74
     0
 42
0.000000001
 43
0.00000001
 40
0.0
 40
0.0
 40
0.0
 40
0.0
 40
0.2158334481196012
 40
0.4316764848809198
 40
0.6474815443847427
 40
0.8638044287561968
 40
1.0
 40
1.0
 40
1.0
 40
1.0
 10
409.3166033449771
 20
988.2052372861004
 30
0.0
 10
408.7574740424974
 20
988.1427349409942
 30
0.0
 10
407.639190597595
 20
988.0177274740456
 30
0.0
 10
406.1585093437133
 20
987.1390596792584
 30
0.0
 10
405.0481408511745
 20
985.8596107992114
 30
0.0
 10
404.4747034114791
 20
984.4655246249973
 30
0.0
 10
404.4176978023786
 20
983.5541163563474
 30
0.0
 10
404.3956736746432
 20
983.2019936013318
 30
0.0
  0
SPLINE
  5
BF
330
1F
100
AcDbEntity
  8
0
  6
Continuous
 62
     7
370
    25
100
AcDbSpline
210
0.0
220
0.0
230
1.0
 70
     8
 71
     3
 72
    12
 73
     8
 74
     0
 42
0.000000001
 43
0.00000001
 40
0.0
 40
0.0
 40
0.0
 40
0.0
 40
0.2158356249108657
 40
0.4316752661706962
 40
0.6474812673125527
 40
0.863804306238646
 40
1.0
 40
1.0
 40
1.0
 40
1.0
 10
558.4715467590096
 20
945.982022182951
 30
0.0
 10
559.0306785103254
 20
946.0445376816542
 30
0.0
 10
560.148952417487
 20
946.169569842372
 30
0.0
 10
561.6296465992812
 20
947.0482009877204
 30
0.0
 10
562.7400144740062
 20
948.3276474967676
 30
0.0
 10
563.3134509160437
 20
949.7217348795258
 30
0.0
 10
563.3704585151762
 20
950.633143093738
 30
0.0
 10
563.3924834142628
 20
950.9852658677197
 30
0.0
  0
ARC
  5
C0
330
1F
100
AcDbEntity
  8
0
  6
Continuous
 62
     7
370
    25
100
AcDbCircle
 10
309.1472681171
 20
958.849050077
 30
0.0
 40
10.61242064468146
100
AcDbArc
 50
213.2125857976
 51
268.1932631805
  0
LINE
  5
C1
330
1F
100
AcDbEntity
  8
0
  6
Continuous
 62
     7
370
    25
100
AcDbLine
 10
300.2684454146
 20
953.0361424852
 30
0.0
 11
300.0610808554
 21
953.370673554
 31
0.0
  0
ARC
  5
C2
330
1F
100
AcDbEntity
  8
0
  6
Continuous
 62
     7
370
    25
100
AcDbCircle
 10
658.6408850854
 20
975.3382138504
 30
0.0
 40
10.61242064468153
100
AcDbArc
 50
33.2125857976
 51
88.1932631805
  0
LINE
  5
C3
330
1F
100
AcDbEntity
  8
0
  6
Continuous
 62
     7
370
    25
100
AcDbLine
 10
667.5197000328
 20
981.1511467862
 30
0.0
 11
667.7270645919
 21
980.8165859151
 31
0.0
  0
ARC
  5
C4
330
1F
100
AcDbEntity
  8
0
  6
Continuous
 62
     7
370
    25
100
AcDbCircle
 10
658.6408850854
 20
958.849050077
 30
0.0
 40
10.61242064468185
100
AcDbArc
 50
271.8067368195
 51
326.7874142024
  0
LINE
  5
C5
330
1F
100
AcDbEntity
  8
0
  6
Continuous
 62
     7
370
    25
100
AcDbLine
 10
667.7270645919
 20
953.370673554
 30
0.0
 11
667.5197000328
 21
953.0361424852
 31
0.0
  0
ARC
  5
C6
330
1F
100
AcDbEntity
  8
0
  6
Continuous
 62
     7
370
    25
100
AcDbCircle
 10
309.1472681171
 20
975.3382138504
 30
0.0
 40
10.61242064468152
100
AcDbArc
 50
91.8067368195
 51
146.7874142024
  0
LINE
  5
C7
330
1F
100
AcDbEntity
  8
0
  6
Continuous
 62
     7
370
    25
100
AcDbLine
 10
300.0610808554
 20
980.8165859151
 30
0.0
 11
300.2684454146
 21
981.1511467862
 31
0.0
  0
SPLINE
  5
C8
330
1F
100
AcDbEntity
  8
0
  6
Continuous
 62
     7
370
    25
100
AcDbSpline
210
0.0
220
0.0
230
1.0
 70
     8
 71
     3
 72
    12
 73
     8
 74
     0
 42
0.000000001
 43
0.00000001
 40
0.0
 40
0.0
 40
0.0
 40
0.0
 40
0.211683576164621
 40
0.4233726085065208
 40
0.6349943515891654
 40
0.8470900787352715
 40
1.0
 40
1.0
 40
1.0
 40
1.0
 10
388.3189300718905
 20
946.3037382531262
 30
0.0
 10
388.8797025400387
 20
946.3490877572511
 30
0.0
 10
390.0012619303332
 20
946.4397879343916
 30
0.0
 10
391.5082583843634
 20
947.2726039251021
 30
0.0
 10
392.6565105892095
 20
948.51726195622
 30
0.0
 10
393.2953431459671
 20
949.9408502985327
 30
0.0
 10
393.3637994085125
 20
950.9036648421626
 30
0.0
 10
393.3924774351718
 20
951.3070117402173
 30
0.0
  0
SPLINE
  5
C9
330
1F
100
AcDbEntity
  8
0
  6
Continuous
 62
     7
370
    25
100
AcDbSpline
210
0.0
220
0.0
230
1.0
 70
     8
 71
     3
 72
    12
 73
     8
 74
     0
 42
0.000000001
 43
0.00000001
 40
0.0
 40
0.0
 40
0.0
 40
0.0
 40
0.2134006322463974
 40
0.4268284201361789
 40
0.6395794659242627
 40
0.8515212003975116
 40
1.0
 40
1.0
 40
1.0
 40
1.0
 10
393.3924774351718
 20
982.8802775311566
 30
0.0
 10
393.3371652886718
 20
983.4447144512656
 30
0.0
 10
393.2265339570944
 20
984.5736601171737
 30
0.0
 10
392.3620356927486
 20
986.0771901652967
 30
0.0
 10
391.0907355426427
 20
987.2073850840948
 30
0.0
 10
389.6625379165286
 20
987.8129263439198
 30
0.0
 10
388.7109472483848
 20
987.8629241328484
 30
0.0
 10
388.3189300718905
 20
987.8835212159253
 30
0.0
  0
SPLINE
  5
CA
330
1F
100
AcDbEntity
  8
0
  6
Continuous
 62
     7
370
    25
100
AcDbSpline
210
0.0
220
0.0
230
1.0
 70
     8
 71
     3
 72
    12
 73
     8
 74
     0
 42
0.000000001
 43
0.00000001
 40
0.0
 40
0.0
 40
0.0
 40
0.0
 40
0.2134038950838191
 40
0.4268303232563199
 40
0.6395816670769796
 40
0.8515215244421388
 40
1.0
 40
1.0
 40
1.0
 40
1.0
 10
574.3956698748472
 20
951.3070117402173
 30
0.0
 10
574.4509857582192
 20
950.7425650233894
 30
0.0
 10
574.5616233657082
 20
949.6136119904097
 30
0.0
 10
575.4261092284154
 20
948.1100658865349
 30
0.0
 10
576.6974145487502
 20
946.9798663119323
 30
0.0
 10
578.1256272165377
 20
946.3743797362604
 30
0.0
 10
579.0772107680568
 20
946.3243489929699
 30
0.0
 10
579.4692265513542
 20
946.3037382531262
 30
0.0
  0
SPLINE
  5
CB
330
1F
100
AcDbEntity
  8
0
  6
Continuous
 62
     7
370
    25
100
AcDbSpline
210
0.0
220
0.0
230
1.0
 70
     8
 71
     3
 72
    12
 73
     8
 74
     0
 42
0.000000001
 43
0.00000001
 40
0.0
 40
0.0
 40
0.0
 40
0.0
 40
0.2116832644284106
 40
0.4233731535306612
 40
0.6349948407617529
 40
0.8470936792803195
 40
1.0
 40
1.0
 40
1.0
 40
1.0
 10
579.4692265513542
 20
987.8835212159253
 30
0.0
 10
578.9084531650589
 20
987.8381837895845
 30
0.0
 10
577.7868888429434
 20
987.7475075180582
 30
0.0
 10
576.279892088368
 20
986.9146853829911
 30
0.0
 10
575.131625459372
 20
985.6700237004295
 30
0.0
 10
574.4928252172682
 20
984.2464239583653
 30
0.0
 10
574.4243536683576
 20
983.2836136838246
 30
0.0
 10
574.3956698748472
 20
982.8802775311566
 30
0.0
  0
ARC
  5
CC
330
1F
100
AcDbEntity
  8
0
  6
Continuous
 62
     7
370
    25
100
AcDbCircle
 10
483.8940766013
 20
6498.6352986304
 30
0.0
 40
5553.154087311349
100
AcDbArc
 50
268.1932631805
 51
269.0138355523
  0
ARC
  5
CD
330
1F
100
AcDbEntity
  8
0
  6
Continuous
 62
     7
370
    25
100
AcDbCircle
 10
483.8940766013
 20
-4564.448034703
 30
0.0
 40
5553.154087311351
100
AcDbArc
 50
88.1932631805
 51
89.0138355523
  0
ARC
  5
CE
330
1F
100
AcDbEntity
  8
0
  6
Continuous
 62
     7
370
    25
100
AcDbCircle
 10
483.8940766013
 20
-4564.448034703
 30
0.0
 40
5553.154087311351
100
AcDbArc
 50
90.9861644477
 51
91.8067368195
  0
ARC
  5
CF
330
1F
100
AcDbEntity
  8
0
  6
Continuous
 62
     7
370
    25
100
AcDbCircle
 10
483.8940766013
 20
6498.6352986304
 30
0.0
 40
5553.154087311349
100
AcDbArc
 50
270.9861644477
 51
271.8067368195
  0
SPLINE
  5
D0
330
1F
100
AcDbEntity
  8
0
  6
Continuous
 62
     7
370
    25
100
AcDbSpline
210
0.0
220
0.0
230
1.0
 70
     8
 71
     3
 72
    12
 73
     8
 74
     0
 42
0.000000001
 43
0.00000001
 40
0.0
 40
0.0
 40
0.0
 40
0.0
 40
0.2431750636206797
 40
0.4869708767986678
 40
0.7196857687520285
 40
0.9552498063857501
 40
1.0
 40
1.0
 40
1.0
 40
1.0
 10
667.7270645919444
 20
953.3706735539532
 30
0.0
 10
667.8268968324193
 20
953.5619668943306
 30
0.0
 10
668.0268161537222
 20
953.9450418868988
 30
0.0
 10
668.1773608766608
 20
954.471048802425
 30
0.0
 10
668.2408691488788
 20
954.8510935226107
 30
0.0
 10
668.2435071450659
 20
954.9969793661352
 30
0.0
 10
668.234372579998
 20
955.0240469783837
 30
0.0
 10
668.232914310992
 20
955.028368132124
 30
0.0
  0
SPLINE
  5
D1
330
1F
100
AcDbEntity
  8
0
  6
Continuous
 62
     7
370
    25
100
AcDbSpline
210
0.0
220
0.0
230
1.0
 70
     8
 71
     3
 72
    15
 73
    11
 74
     0
 42
0.000000001
 43
0.00000001
 40
0.0
 40
0.0
 40
0.0
 40
0.0
 40
0.3098041527815906
 40
0.522451979983494
 40
0.6700771520761958
 40
0.8213345351386135
 40
0.8850072314002161
 40
0.9493297230943506
 40
0.9897454019511897
 40
1.0
 40
1.0
 40
1.0
 40
1.0
 10
668.232914310992
 20
955.028368132124
 30
0.0
 10
668.2512982265001
 20
955.0602519611211
 30
0.0
 10
668.282300758167
 20
955.1140206709318
 30
0.0
 10
668.3215377900062
 20
955.2181448300622
 30
0.0
 10
668.3507661055244
 20
955.3252178587963
 30
0.0
 10
668.3707432697375
 20
955.4296905319737
 30
0.0
 10
668.384120580265
 20
955.5469052799583
 30
0.0
 10
668.390469522242
 20
955.6405601711215
 30
0.0
 10
668.3923826718525
 20
955.718575739158
 30
0.0
 10
668.3924664422667
 20
955.7534616182254
 30
0.0
 10
668.3924833956363
 20
955.7605217862225
 30
0.0
  0
SPLINE
  5
D2
330
1F
100
AcDbEntity
  8
0
  6
Continuous
 62
     7
370
    25
100
AcDbSpline
210
0.0
220
0.0
230
1.0
 70
     8
 71
     3
 72
    12
 73
     8
 74
     0
 42
0.000000001
 43
0.00000001
 40
0.0
 40
0.0
 40
0.0
 40
0.0
 40
0.2406659681494526
 40
0.4814790197664175
 40
0.7183683401313405
 40
0.9505657179441656
 40
1.0
 40
1.0
 40
1.0
 40
1.0
 10
668.232914310992
 20
979.1589211392499
 30
0.0
 10
668.2375765063659
 20
979.1987371954796
 30
0.0
 10
668.2469037464236
 20
979.278393641598
 30
0.0
 10
668.1929136749908
 20
979.6508449517319
 30
0.0
 10
668.0542233620192
 20
980.1479616208819
 30
0.0
 10
667.8732055738748
 20
980.5610615484817
 30
0.0
 10
667.7488861495431
 20
980.7784313905403
 30
0.0
 10
667.7270645919444
 20
980.8165859150982
 30
0.0
  0
SPLINE
  5
D3
330
1F
100
AcDbEntity
  8
0
  6
Continuous
 62
     7
370
    25
100
AcDbSpline
210
0.0
220
0.0
230
1.0
 70
     8
 71
     3
 72
    12
 73
     8
 74
     0
 42
0.000000001
 43
0.00000001
 40
0.0
 40
0.0
 40
0.0
 40
0.0
 40
0.0402781436386966
 40
0.0803722642951341
 40
0.1535328385539252
 40
0.3575515697322508
 40
1.0
 40
1.0
 40
1.0
 40
1.0
 10
668.3924833956363
 20
978.426737682829
 30
0.0
 10
668.3922319712655
 20
978.4545597095499
 30
0.0
 10
668.391730271233
 20
978.5100766495782
 30
0.0
 10
668.3870450416342
 20
978.6037392874528
 30
0.0
 10
668.3729480562444
 20
978.7537765935509
 30
0.0
 10
668.3213059174234
 20
979.0053220758032
 30
0.0
 10
668.2710541821282
 20
979.0926450670862
 30
0.0
 10
668.232914310992
 20
979.1589211392499
 30
0.0
  0
SPLINE
  5
D4
330
1F
100
AcDbEntity
  8
0
  6
Continuous
 62
     7
370
    25
100
AcDbSpline
210
0.0
220
0.0
230
1.0
 70
     8
 71
     3
 72
    15
 73
    11
 74
     0
 42
0.000000001
 43
0.00000001
 40
0.0
 40
0.0
 40
0.0
 40
0.0
 40
0.3098060275969483
 40
0.5224536045885886
 40
0.6700783905654201
 40
0.8213348147912909
 40
0.8850075905019414
 40
0.9493297301446145
 40
0.9897454649419761
 40
1.0
 40
1.0
 40
1.0
 40
1.0
 10
299.555246037543
 20
979.1589211392499
 30
0.0
 10
299.5368597013345
 20
979.1270243573416
 30
0.0
 10
299.5058531786345
 20
979.0732339620673
 30
0.0
 10
299.4666103869718
 20
978.9691153613747
 30
0.0
 10
299.4373689785568
 20
978.8620419081481
 30
0.0
 10
299.4174337663806
 20
978.7575681293266
 30
0.0
 10
299.4040183204974
 20
978.6403547161757
 30
0.0
 10
299.3977204032271
 20
978.5466987156873
 30
0.0
 10
299.3957348868737
 20
978.4686839799981
 30
0.0
 10
299.3956929005723
 20
978.4337978576706
 30
0.0
 10
299.3956844034793
 20
978.426737682829
 30
0.0
  0
SPLINE
  5
D5
330
1F
100
AcDbEntity
  8
0
  6
Continuous
 62
     7
370
    25
100
AcDbSpline
210
0.0
220
0.0
230
1.0
 70
     8
 71
     3
 72
    12
 73
     8
 74
     0
 42
0.000000001
 43
0.00000001
 40
0.0
 40
0.0
 40
0.0
 40
0.0
 40
0.2431758416204515
 40
0.4869637889679801
 40
0.719686133786854
 40
0.9552508721120091
 40
1.0
 40
1.0
 40
1.0
 40
1.0
 10
300.0610808554293
 20
980.8165859150982
 30
0.0
 10
299.9612488816005
 20
980.62529098971
 30
0.0
 10
299.7613336436729
 20
980.2422196243283
 30
0.0
 10
299.6107828015211
 20
979.7162369022043
 30
0.0
 10
299.5472663011561
 20
979.3361794633893
 30
0.0
 10
299.5446341711872
 20
979.1902323884931
 30
0.0
 10
299.5537851768074
 20
979.1632315379176
 30
0.0
 10
299.555246037543
 20
979.1589211392499
 30
0.0
  0
SPLINE
  5
D6
330
1F
100
AcDbEntity
  8
0
  6
Continuous
 62
     7
370
    25
100
AcDbSpline
210
0.0
220
0.0
230
1.0
 70
     8
 71
     3
 72
    12
 73
     8
 74
     0
 42
0.000000001
 43
0.00000001
 40
0.0
 40
0.0
 40
0.0
 40
0.0
 40
0.2406686501207226
 40
0.4814821153617211
 40
0.718371363524803
 40
0.9505643991875891
 40
1.0
 40
1.0
 40
1.0
 40
1.0
 10
299.555246037543
 20
955.028368132124
 30
0.0
 10
299.5505792843094
 20
954.9885399281885
 30
0.0
 10
299.5412429697639
 20
954.9088595548942
 30
0.0
 10
299.5952559030793
 20
954.5364154198545
 30
0.0
 10
299.7339562303906
 20
954.039306458712
 30
0.0
 10
299.9149250804797
 20
953.6261885195149
 30
0.0
 10
300.0392563943941
 20
953.4088278890231
 30
0.0
 10
300.0610808554293
 20
953.3706735539532
 30
0.0
  0
SPLINE
  5
D7
330
1F
100
AcDbEntity
  8
0
  6
Continuous
 62
     7
370
    25
100
AcDbSpline
210
0.0
220
0.0
230
1.0
 70
     8
 71
     3
 72
    12
 73
     8
 74
     0
 42
0.000000001
 43
0.00000001
 40
0.0
 40
0.0
 40
0.0
 40
0.0
 40
0.0403538282898725
 40
0.0805387760004433
 40
0.1538224303525396
 40
0.3585400550608036
 40
1.0
 40
1.0
 40
1.0
 40
1.0
 10
299.3956844034793
 20
955.7605217862225
 30
0.0
 10
299.3959254019407
 20
955.7326490663443
 30
0.0
 10
299.3964063902862
 20
955.6770202737877
 30
0.0
 10
299.4011205346949
 20
955.5831894568711
 30
0.0
 10
299.4152896540845
 20
955.4329550962755
 30
0.0
 10
299.4669388790761
 20
955.1818102786393
 30
0.0
 10
299.5171685459144
 20
955.0945314211576
 30
0.0
 10
299.555246037543
 20
955.028368132124
 30
0.0
  0
LINE
  5
D8
330
1F
100
AcDbEntity
  8
0
  6
Continuous
 62
     7
370
    25
100
AcDbLine
 10
299.9282221022
 20
978.7859152722
 30
0.0
 11
299.5553950492
 21
979.1587423253
 31
0.0
  0
ELLIPSE
  5
D9
330
1F
100
AcDbEntity
  8
0
  6
Continuous
 62
     7
370
    25
100
AcDbEllipse
 10
299.9206016706
 20
977.7897214344
 30
0.0
 11
0.0
 21
1.0
 31
0.0
210
0.0
220
0.0
230
1.0
 40
0.0874886635
 41
4.712388980384691
 42
6.195918844579485
  0
LINE
  5
DA
330
1F
100
AcDbEntity
  8
0
  6
Continuous
 62
     7
370
    25
100
AcDbLine
 10
300.0080923262
 20
975.7463764119
 30
0.0
 11
300.0080923262
 21
977.7897130418
 31
0.0
  0
ELLIPSE
  5
DB
330
1F
100
AcDbEntity
  8
0
  6
Continuous
 62
     7
370
    25
100
AcDbEllipse
 10
299.5706470165
 20
981.1511356011
 30
0.0
 11
0.0
 21
2.0
 31
0.0
210
0.0
220
0.0
230
1.0
 40
0.0874886635
 41
3.053409736769531
 42
3.054326190990538
  0
LINE
  5
DC
330
1F
100
AcDbEntity
  8
0
  6
Continuous
 62
     7
370
    25
100
AcDbLine
 10
667.8599233451
 20
955.4013441968
 30
0.0
 11
668.2327578488
 21
955.0285171437
 31
0.0
  0
ELLIPSE
  5
DD
330
1F
100
AcDbEntity
  8
0
  6
Continuous
 62
     7
370
    25
100
AcDbEllipse
 10
667.867551532
 20
956.397542493
 30
0.0
 11
0.0
 21
1.000000000000114
 31
0.0
210
0.0
220
0.0
230
1.0
 40
0.0874886635
 41
1.570796326794897
 42
3.054326190989569
  0
LINE
  5
DE
330
1F
100
AcDbEntity
  8
0
  6
Continuous
 62
     7
370
    25
100
AcDbLine
 10
667.7800605717
 20
956.3975464273
 30
0.0
 11
667.7800605717
 21
958.4408830571
 31
0.0
  0
ELLIPSE
  5
DF
330
1F
100
AcDbEntity
  8
0
  6
Continuous
 62
     7
370
    25
100
AcDbEllipse
 10
668.2175061861
 20
953.0361283263
 30
0.0
 11
0.0
 21
2.0
 31
0.0
210
0.0
220
0.0
230
1.0
 40
0.0874886635
 41
6.195002390610574
 42
6.19591884458014
  0
LINE
  5
E0
330
1F
100
AcDbEntity
  8
0
  6
Continuous
 62
     7
370
    25
100
AcDbLine
 10
667.7800605717
 20
975.7463764119
 30
0.0
 11
667.7800605717
 21
977.7897130418
 31
0.0
  0
ELLIPSE
  5
E1
330
1F
100
AcDbEntity
  8
0
  6
Continuous
 62
     7
370
    25
100
AcDbEllipse
 10
667.867551532
 20
977.7897214344
 30
0.0
 11
0.0
 21
1.0
 31
0.0
210
0.0
220
0.0
230
1.0
 40
0.0874886635
 41
0.0872664626002052
 42
1.570796326794897
  0
LINE
  5
E2
330
1F
100
AcDbEntity
  8
0
  6
Continuous
 62
     7
370
    25
100
AcDbLine
 10
667.8599233451
 20
978.7859152722
 30
0.0
 11
668.2327578488
 21
979.1587423253
 31
0.0
  0
ELLIPSE
  5
E3
330
1F
100
AcDbEntity
  8
0
  6
Continuous
 62
     7
370
    25
100
AcDbEllipse
 10
668.2175061861
 20
981.1511356011
 30
0.0
 11
0.0
 21
2.0
 31
0.0
210
0.0
220
0.0
230
1.0
 40
0.0874886635
 41
3.228859116188912
 42
3.229775570159123
  0
LINE
  5
E4
330
1F
100
AcDbEntity
  8
0
  6
Continuous
 62
     7
370
    25
100
AcDbLine
 10
300.0080923262
 20
956.3975464273
 30
0.0
 11
300.0080923262
 21
958.4408830571
 31
0.0
  0
ELLIPSE
  5
E5
330
1F
100
AcDbEntity
  8
0
  6
Continuous
 62
     7
370
    25
100
AcDbEllipse
 10
299.9206016706
 20
956.397542493
 30
0.0
 11
0.0
 21
1.000000000000114
 31
0.0
210
0.0
220
0.0
230
1.0
 40
0.0874886635
 41
3.228859116190232
 42
4.712388980384691
  0
LINE
  5
E6
330
1F
100
AcDbEntity
  8
0
  6
Continuous
 62
     7
370
    25
100
AcDbLine
 10
299.9282221022
 20
955.4013441968
 30
0.0
 11
299.5553950492
 21
955.0285171437
 31
0.0
  0
ELLIPSE
  5
E7
330
1F
100
AcDbEntity
  8
0
  6
Continuous
 62
     7
370
    25
100
AcDbEllipse
 10
299.5706470165
 20
953.0361283263
 30
0.0
 11
0.0
 21
2.0
 31
0.0
210
0.0
220
0.0
230
1.0
 40
0.0874886635
 41
0.0872664625992576
 42
0.0881829168205881
  0
ARC
  5
E8
330
1F
100
AcDbEntity
  8
0
  6
Continuous
 62
     7
370
    25
100
AcDbCircle
 10
611.894076603
 20
833.4686557091
 30
0.0
 40
25.00000000000011
100
AcDbArc
 50
0.0
 51
90.0
  0
LINE
  5
E9
330
1F
100
AcDbEntity
  8
0
  6
Continuous
 62
     7
370
    25
100
AcDbLine
 10
330.8940718594
 20
833.4686588216
 30
0.0
 11
330.8940718594
 21
375.4686545301
 31
0.0
  0
LINE
  5
EA
330
1F
100
AcDbEntity
  8
0
  6
Continuous
 62
     7
370
    25
100
AcDbLine
 10
355.8940778199
 20
858.4686647821
 30
0.0
 11
611.8940750781
 21
858.4686647821
 31
0.0
  0
ARC
  5
EB
330
1F
100
AcDbEntity
  8
0
  6
Continuous
 62
     7
370
    25
100
AcDbCircle
 10
355.894076603
 20
833.4686557091
 30
0.0
 40
25.00000000000011
100
AcDbArc
 50
90.0
 51
180.0
  0
ARC
  5
EC
330
1F
100
AcDbEntity
  8
0
  6
Continuous
 62
     7
370
    25
100
AcDbCircle
 10
611.894076603
 20
375.4686557091
 30
0.0
 40
25.00000000000011
100
AcDbArc
 50
270.0
 51
0.0
  0
ARC
  5
ED
330
1F
100
AcDbEntity
  8
0
  6
Continuous
 62
     7
370
    25
100
AcDbCircle
 10
355.894076603
 20
375.4686557091
 30
0.0
 40
25.0
100
AcDbArc
 50
180.0
 51
270.0
  0
LINE
  5
EE
330
1F
100
AcDbEntity
  8
0
  6
Continuous
 62
     7
370
    25
100
AcDbLine
 10
636.894073588
 20
833.4686588216
 30
0.0
 11
636.894073588
 21
375.4686545301
 31
0.0
  0
LINE
  5
EF
330
1F
100
AcDbEntity
  8
0
  6
Continuous
 62
     7
370
    25
100
AcDbLine
 10
611.8940750781
 20
350.4686485696
 30
0.0
 11
355.8940778199
 21
350.4686485696
 31
0.0
  0
ARC
  5
F0
330
1F
100
AcDbEntity
  8
0
  6
Continuous
 62
     7
370
    25
100
AcDbCircle
 10
483.894076603
 20
390.4686557091
 30
0.0
 40
31.65000000000007
100
AcDbArc
 50
315.3082276666
 51
224.6917723334
  0
LWPOLYLINE
  5
F1
330
1F
100
AcDbEntity
  8
0
  6
Continuous
 62
     7
370
    25
100
AcDbPolyline
 90
        3
 70
   128
 43
0.0
 10
499.1144577685
 20
362.7186547685
 10
496.9722444835
 20
361.6470675635
 10
493.9798305455
 20
360.468653934
  0
LINE
  5
F2
330
1F
100
AcDbEntity
  8
0
  6
Continuous
 62
     7
370
    25
100
AcDbLine
 10
283.8940660182
 20
933.8436256814
 30
0.0
 11
283.8940660182
 21
929.593635695
 31
0.0
  0
LINE
  5
F3
330
1F
100
AcDbEntity
  8
0
  6
Continuous
 62
     7
370
    25
100
AcDbLine
 10
283.8940660182
 20
929.593635695
 30
0.0
 11
683.8940794292
 21
929.593635695
 31
0.0
  0
LINE
  5
F4
330
1F
100
AcDbEntity
  8
0
  6
Continuous
 62
     7
370
    25
100
AcDbLine
 10
683.8940794292
 20
933.8436256814
 30
0.0
 11
683.8940794292
 21
929.593635695
 31
0.0
  0
LINE
  5
F5
330
1F
100
AcDbEntity
  8
0
  6
Continuous
 62
     7
370
    25
100
AcDbLine
 10
283.8940660182
 20
1000.3436337876
 30
0.0
 11
283.8940660182
 21
933.8436256814
 31
0.0
  0
LINE
  5
F6
330
1F
100
AcDbEntity
  8
0
  6
Continuous
 62
     7
370
    25
100
AcDbLine
 10
683.8940794292
 20
1000.3436337876
 30
0.0
 11
683.8940794292
 21
933.8436256814
 31
0.0
  0
LINE
  5
F7
330
1F
100
AcDbEntity
  8
0
  6
Continuous
 62
     7
370
    25
100
AcDbLine
 10
663.894076151
 20
949.6280085015
 30
0.0
 11
663.894076151
 21
984.5592509675
 31
0.0
  0
LINE
  5
F8
330
1F
100
AcDbEntity
  8
0
  6
Continuous
 62
     7
370
    25
100
AcDbLine
 10
303.894076747
 20
984.5592509675
 30
0.0
 11
303.894076747
 21
949.6280085015
 31
0.0
  0
LINE
  5
F9
330
1F
100
AcDbEntity
  8
0
  6
Continuous
 62
     7
370
    25
100
AcDbLine
 10
283.8940660182
 20
1004.5936237741
 30
0.0
 11
283.8940660182
 21
1000.3436337876
 31
0.0
  0
LINE
  5
FA
330
1F
100
AcDbEntity
  8
0
  6
Continuous
 62
     7
370
    25
100
AcDbLine
 10
283.8940660182
 20
1004.5936237741
 30
0.0
 11
683.8940794292
 21
1004.5936237741
 31
0.0
  0
LINE
  5
FB
330
1F
100
AcDbEntity
  8
0
  6
Continuous
 62
     7
370
    25
100
AcDbLine
 10
683.8940794292
 20
1004.5936237741
 30
0.0
 11
683.8940794292
 21
1000.3436337876
 31
0.0
  0
LINE
  5
FC
330
1F
100
AcDbEntity
  8
0
  6
Continuous
 62
     7
370
    25
100
AcDbLine
 10
283.8940660182
 20
929.593635695
 30
0.0
 11
283.8940660182
 21
927.3436199594
 31
0.0
  0
LINE
  5
FD
330
1F
100
AcDbEntity
  8
0
  6
Continuous
 62
     7
370
    25
100
AcDbLine
 10
683.8940794292
 20
929.593635695
 30
0.0
 11
683.8940794292
 21
927.3436199594
 31
0.0
  0
LINE
  5
FE
330
1F
100
AcDbEntity
  8
0
  6
Continuous
 62
     7
370
    25
100
AcDbLine
 10
683.8940794292
 20
927.3436199594
 30
0.0
 11
683.8940794292
 21
116.5936421323
 31
0.0
  0
LINE
  5
FF
330
1F
100
AcDbEntity
  8
0
  6
Continuous
 62
     7
370
    25
100
AcDbLine
 10
283.8940660182
 20
927.3436199594
 30
0.0
 11
283.8940660182
 21
116.5936421323
 31
0.0
  0
ARC
  5
100
330
1F
100
AcDbEntity
  8
0
  6
Continuous
 62
     7
370
    25
100
AcDbCircle
 10
616.394076603
 20
852.0936319637
 30
0.0
 40
40.0
100
AcDbArc
 50
0.0
 51
90.0
  0
LINE
  5
101
330
1F
100
AcDbEntity
  8
0
  6
Continuous
 62
     7
370
    25
100
AcDbLine
 10
311.3940695944
 20
852.0936350989
 30
0.0
 11
311.3940695944
 21
218.0936466622
 31
0.0
  0
ARC
  5
102
330
1F
100
AcDbEntity
  8
0
  6
Continuous
 62
     7
370
    25
100
AcDbCircle
 10
351.394076603
 20
852.0936319637
 30
0.0
 40
40.00000000000006
100
AcDbArc
 50
90.0
 51
180.0
  0
LINE
  5
103
330
1F
100
AcDbEntity
  8
0
  6
Continuous
 62
     7
370
    25
100
AcDbLine
 10
351.394076151
 20
892.0936416555
 30
0.0
 11
616.394076747
 21
892.0936416555
 31
0.0
  0
LINE
  5
104
330
1F
100
AcDbEntity
  8
0
  6
Continuous
 62
     7
370
    25
100
AcDbLine
 10
656.3940758529
 20
852.0936350989
 30
0.0
 11
656.3940758529
 21
218.0936466622
 31
0.0
  0
ARC
  5
105
330
1F
100
AcDbEntity
  8
0
  6
Continuous
 62
     7
370
    25
100
AcDbCircle
 10
616.394076603
 20
218.0936319637
 30
0.0
 40
40.00000000000004
100
AcDbArc
 50
270.0
 51
320.66669498
  0
ARC
  5
106
330
1F
100
AcDbEntity
  8
0
  6
Continuous
 62
     7
370
    25
100
AcDbCircle
 10
616.394076603
 20
218.0936319637
 30
0.0
 40
40.00000000000004
100
AcDbArc
 50
320.66669498
 51
0.0
  0
ARC
  5
107
330
1F
100
AcDbEntity
  8
0
  6
Continuous
 62
     7
370
    25
100
AcDbCircle
 10
351.394076603
 20
218.0936319637
 30
0.0
 40
40.00000000000006
100
AcDbArc
 50
180.0
 51
219.33330502
  0
ARC
  5
108
330
1F
100
AcDbEntity
  8
0
  6
Continuous
 62
     7
370
    25
100
AcDbCircle
 10
351.394076603
 20
218.0936319637
 30
0.0
 40
40.00000000000004
100
AcDbArc
 50
219.33330502
 51
270.0
  0
LINE
  5
109
330
1F
100
AcDbEntity
  8
0
  6
Continuous
 62
     7
370
    25
100
AcDbLine
 10
683.8940794292
 20
116.5936421323
 30
0.0
 11
683.8940794292
 21
104.5936476159
 31
0.0
  0
LINE
  5
10A
330
1F
100
AcDbEntity
  8
0
  6
Continuous
 62
     7
370
    25
100
AcDbLine
 10
283.8940660182
 20
116.5936421323
 30
0.0
 11
283.8940660182
 21
104.5936476159
 31
0.0
  0
LINE
  5
10B
330
1F
100
AcDbEntity
  8
0
  6
Continuous
 62
     7
370
    25
100
AcDbLine
 10
351.394076151
 20
178.0936252046
 30
0.0
 11
616.394076747
 21
178.0936252046
 31
0.0
  0
ELLIPSE
  5
10C
330
1F
100
AcDbEntity
  8
0
  6
Continuous
 62
     7
370
    25
100
AcDbEllipse
 10
644.7866593661
 20
414.2925362121
 30
0.0
 11
-1.591058419013052
 21
125.1988520140709
 31
0.0
210
0.0
220
0.0
230
1.0
 40
0.0718798391
 41
3.140679186816552
 42
3.14113534706552
  0
ELLIPSE
  5
10D
330
1F
100
AcDbEntity
  8
0
  6
Continuous
 62
     7
370
    25
100
AcDbEllipse
 10
646.3736021925
 20
289.4175362121
 30
0.0
 11
8.999999764729637
 21
0.05718481864482784
 31
0.0
210
0.0
220
0.0
230
1.0
 40
0.0359864627
 41
4.712160327122552
 42
6.108423728718439
  0
ELLIPSE
  5
10E
330
1F
100
AcDbEntity
  8
0
  6
Continuous
 62
     7
370
    25
100
AcDbEllipse
 10
321.4145510135
 20
289.4175362121
 30
0.0
 11
8.999999764729637
 21
-0.05718481864482784
 31
0.0
210
0.0
220
0.0
230
1.0
 40
0.0359864627
 41
3.316354232053935
 42
4.712617633646822
  0
ELLIPSE
  5
10F
330
1F
100
AcDbEntity
  8
0
  6
Continuous
 62
     7
370
    25
100
AcDbEllipse
 10
323.0014938399
 20
414.2925362121
 30
0.0
 11
1.591058419013166
 21
125.1988520140709
 31
0.0
210
0.0
220
0.0
230
1.0
 40
0.0718798391
 41
3.142049960114261
 42
3.142506120363247
  0
LINE
  5
110
330
1F
100
AcDbEntity
  8
0
  6
Continuous
 62
     7
370
    25
100
AcDbLine
 10
321.4186618748
 20
289.0936266351
 30
0.0
 11
646.3694984737
 21
289.0936266351
 31
0.0
  0
ARC
  5
111
330
1F
100
AcDbEntity
  8
0
  6
Continuous
 62
     7
370
    25
100
AcDbCircle
 10
358.094076603
 20
377.6686557091
 30
0.0
 40
30.00000000000006
100
AcDbArc
 50
180.0
 51
270.0
  0
ARC
  5
112
330
1F
100
AcDbEntity
  8
0
  6
Continuous
 62
     7
370
    25
100
AcDbCircle
 10
609.694076603
 20
377.6686557091
 30
0.0
 40
30.00000000000006
100
AcDbArc
 50
270.0
 51
0.0
  0
LINE
  5
113
330
1F
100
AcDbEntity
  8
0
  6
Continuous
 62
     7
370
    25
100
AcDbLine
 10
639.6940762821
 20
377.6686619687
 30
0.0
 11
639.6940762821
 21
831.2686513829
 31
0.0
  0
ARC
  5
114
330
1F
100
AcDbEntity
  8
0
  6
Continuous
 62
     7
370
    25
100
AcDbCircle
 10
609.694076603
 20
831.2686557091
 30
0.0
 40
30.0
100
AcDbArc
 50
0.0
 51
90.0
  0
LINE
  5
115
330
1F
100
AcDbEntity
  8
0
  6
Continuous
 62
     7
370
    25
100
AcDbLine
 10
609.69407509
 20
861.268652575
 30
0.0
 11
358.0940703574
 21
861.268652575
 31
0.0
  0
LINE
  5
116
330
1F
100
AcDbEntity
  8
0
  6
Continuous
 62
     7
370
    25
100
AcDbLine
 10
328.0940691653
 20
831.2686513829
 30
0.0
 11
328.0940691653
 21
377.6686619687
 31
0.0
  0
LINE
  5
117
330
1F
100
AcDbEntity
  8
0
  6
Continuous
 62
     7
370
    25
100
AcDbLine
 10
358.0940703574
 20
347.6686607766
 30
0.0
 11
609.69407509
 21
347.6686607766
 31
0.0
  0
ARC
  5
118
330
1F
100
AcDbEntity
  8
0
  6
Continuous
 62
     7
370
    25
100
AcDbCircle
 10
358.094076603
 20
831.2686557091
 30
0.0
 40
30.00000000000006
100
AcDbArc
 50
90.0
 51
180.0
  0
ARC
  5
119
330
1F
100
AcDbEntity
  8
0
  6
Continuous
 62
     7
370
    25
100
AcDbCircle
 10
504.939104398
 20
99.9749265747
 30
0.0
 40
11.37202964150572
100
AcDbArc
 50
159.9568776389
 51
197.7097561087
  0
ARC
  5
11A
330
1F
100
AcDbEntity
  8
0
  6
Continuous
 62
     7
370
    25
100
AcDbCircle
 10
462.7871648466
 20
99.9783377746
 30
0.0
 40
11.43237096599533
100
AcDbArc
 50
341.0812116109
 51
22.7586131872
  0
LWPOLYLINE
  5
11B
330
1F
100
AcDbEntity
  8
0
  6
Continuous
 62
     7
370
    25
100
AcDbPolyline
 90
        9
 70
   128
 43
0.0
 10
482.3940734091
 20
91.8974410462
 10
482.5082610074
 20
91.654850142
 10
482.8334192458
 20
91.4492141175
 10
483.3200539175
 20
91.3117658067
 10
483.894076449
 20
91.2635456491
 10
484.4680989805
 20
91.3117658067
 10
484.9547336522
 20
91.4492141175
 10
485.2798993412
 20
91.654850142
 10
485.3940794888
 20
91.8974410462
  0
LINE
  5
11C
330
1F
100
AcDbEntity
  8
0
  6
Continuous
 62
     7
370
    25
100
AcDbLine
 10
482.3940734091
 20
104.5936476159
 30
0.0
 11
482.3940734091
 21
91.8974410462
 31
0.0
  0
LINE
  5
11D
330
1F
100
AcDbEntity
  8
0
  6
Continuous
 62
     7
370
    25
100
AcDbLine
 10
485.3940794888
 20
91.8974410462
 30
0.0
 11
485.3940794888
 21
104.5936476159
 31
0.0
  0
LINE
  5
11E
330
1F
100
AcDbEntity
  8
0
  6
Continuous
 62
     7
370
    25
100
AcDbLine
 10
472.2765202346
 20
93.2241808343
 30
0.0
 11
472.2733760896
 21
93.2425390649
 31
0.0
  0
LINE
  5
11F
330
1F
100
AcDbEntity
  8
0
  6
Continuous
 62
     7
370
    25
100
AcDbLine
 10
283.8940660182
 20
104.5563351083
 30
0.0
 11
283.8940660182
 21
104.5936476159
 31
0.0
  0
LINE
  5
120
330
1F
100
AcDbEntity
  8
0
  6
Continuous
 62
     7
370
    25
100
AcDbLine
 10
683.8940794292
 20
104.5563351083
 30
0.0
 11
683.8940794292
 21
104.5936476159
 31
0.0
  0
LINE
  5
121
330
1F
100
AcDbEntity
  8
0
  6
Continuous
 62
     7
370
    25
100
AcDbLine
 10
647.0900590244
 20
947.8797148633
 30
0.0
 11
575.8229198578
 21
947.8797148633
 31
0.0
  0
LINE
  5
122
330
1F
100
AcDbEntity
  8
0
  6
Continuous
 62
     7
370
    25
100
AcDbLine
 10
562.2309964561
 20
947.8797148633
 30
0.0
 11
490.2066032115
 21
947.8797148633
 31
0.0
  0
LINE
  5
123
330
1F
100
AcDbEntity
  8
0
  6
Continuous
 62
     7
370
    25
100
AcDbLine
 10
477.6466156068
 20
947.8797148633
 30
0.0
 11
405.478392047
 21
947.8797148633
 31
0.0
  0
LINE
  5
124
330
1F
100
AcDbEntity
  8
0
  6
Continuous
 62
     7
370
    25
100
AcDbLine
 10
391.9450531426
 20
947.8797148633
 30
0.0
 11
320.6981013241
 21
947.8797148633
 31
0.0
  0
LINE
  5
125
330
1F
100
AcDbEntity
  8
0
  6
Continuous
 62
     7
370
    25
100
AcDbLine
 10
325.0079343739
 20
984.9149416852
 30
0.0
 11
327.7792076293
 21
984.9155377317
 31
0.0
  0
LINE
  5
126
330
1F
100
AcDbEntity
  8
0
  6
Continuous
 62
     7
370
    25
100
AcDbLine
 10
344.3690727177
 20
956.1816286016
 30
0.0
 11
342.9834286395
 21
953.7816475797
 31
0.0
  0
LINE
  5
127
330
1F
100
AcDbEntity
  8
0
  6
Continuous
 62
     7
370
    25
100
AcDbLine
 10
342.9834286395
 20
953.7816475797
 30
0.0
 11
332.7610383454
 21
947.8797148633
 31
0.0
  0
LINE
  5
128
330
1F
100
AcDbEntity
  8
0
  6
Continuous
 62
     7
370
    25
100
AcDbLine
 10
319.9910412255
 20
947.900576489
 30
0.0
 11
309.8047117415
 21
953.7816475797
 31
0.0
  0
LINE
  5
129
330
1F
100
AcDbEntity
  8
0
  6
Continuous
 62
     7
370
    25
100
AcDbLine
 10
309.8047117415
 20
953.7816475797
 30
0.0
 11
308.4190825644
 21
956.1816286016
 31
0.0
  0
LINE
  5
12A
330
1F
100
AcDbEntity
  8
0
  6
Continuous
 62
     7
370
    25
100
AcDbLine
 10
309.8047117415
 20
976.1373828817
 30
0.0
 11
325.0079343739
 21
984.9149416852
 31
0.0
  0
LINE
  5
12B
330
1F
100
AcDbEntity
  8
0
  6
Continuous
 62
     7
370
    25
100
AcDbLine
 10
308.4190825644
 20
973.7373720574
 30
0.0
 11
309.8047117415
 21
976.1373828817
 31
0.0
  0
LINE
  5
12C
330
1F
100
AcDbEntity
  8
0
  6
Continuous
 62
     7
370
    25
100
AcDbLine
 10
344.3690727177
 20
973.7373720574
 30
0.0
 11
344.3690727177
 21
956.1816286016
 31
0.0
  0
LINE
  5
12D
330
1F
100
AcDbEntity
  8
0
  6
Continuous
 62
     7
370
    25
100
AcDbLine
 10
342.9834286395
 20
976.1373828817
 30
0.0
 11
344.3690727177
 21
973.7373720574
 31
0.0
  0
LINE
  5
12E
330
1F
100
AcDbEntity
  8
0
  6
Continuous
 62
     7
370
    25
100
AcDbLine
 10
308.4190825644
 20
956.1816286016
 30
0.0
 11
308.4190825644
 21
973.7373720574
 31
0.0
  0
LINE
  5
12F
330
1F
100
AcDbEntity
  8
0
  6
Continuous
 62
     7
370
    25
100
AcDbLine
 10
327.7792076293
 20
984.9155377317
 30
0.0
 11
342.9834286395
 21
976.1373828817
 31
0.0
  0
CIRCLE
  5
130
330
1F
100
AcDbEntity
  8
0
  6
Continuous
 62
     7
370
    25
100
AcDbCircle
 10
326.394076603
 20
964.9595066796
 30
0.0
 40
13.47500000000002
  0
CIRCLE
  5
131
330
1F
100
AcDbEntity
  8
0
  6
Continuous
 62
     7
370
    25
100
AcDbCircle
 10
326.394076603
 20
964.9595066796
 30
0.0
 40
15.84999999999997
  0
CIRCLE
  5
132
330
1F
100
AcDbEntity
  8
0
  6
Continuous
 62
     7
370
    25
100
AcDbCircle
 10
326.394076603
 20
964.9595066796
 30
0.0
 40
10.80000000000011
  0
LINE
  5
133
330
1F
100
AcDbEntity
  8
0
  6
Continuous
 62
     7
370
    25
100
AcDbLine
 10
559.798173275
 20
987.959517138
 30
0.0
 11
491.9116238776
 21
987.959517138
 31
0.0
  0
LINE
  5
134
330
1F
100
AcDbEntity
  8
0
  6
Continuous
 62
     7
370
    25
100
AcDbLine
 10
475.9990985218
 20
987.959517138
 30
0.0
 11
407.9815636101
 21
987.959517138
 31
0.0
  0
LINE
  5
135
330
1F
100
AcDbEntity
  8
0
  6
Continuous
 62
     7
370
    25
100
AcDbLine
 10
663.894076151
 20
986.9595002103
 30
0.0
 11
576.5529556844
 21
986.9595002103
 31
0.0
  0
LINE
  5
136
330
1F
100
AcDbEntity
  8
0
  6
Continuous
 62
     7
370
    25
100
AcDbLine
 10
561.592965521
 20
986.9595002103
 30
0.0
 11
490.6972164932
 21
986.9595002103
 31
0.0
  0
LINE
  5
137
330
1F
100
AcDbEntity
  8
0
  6
Continuous
 62
     7
370
    25
100
AcDbLine
 10
477.1453256431
 20
986.9595002103
 30
0.0
 11
406.1224351349
 21
986.9595002103
 31
0.0
  0
LINE
  5
138
330
1F
100
AcDbEntity
  8
0
  6
Continuous
 62
     7
370
    25
100
AcDbLine
 10
391.2309000912
 20
986.9595002103
 30
0.0
 11
344.6294854108
 21
986.9595002103
 31
0.0
  0
LINE
  5
139
330
1F
100
AcDbEntity
  8
0
  6
Continuous
 62
     7
370
    25
100
AcDbLine
 10
663.7940744582
 20
949.5717715192
 30
0.0
 11
663.7940744582
 21
984.6154879499
 31
0.0
  0
LWPOLYLINE
  5
13A
330
1F
100
AcDbEntity
  8
0
  6
Continuous
 62
     7
370
    25
100
AcDbPolyline
 90
        3
 70
   128
 43
0.0
 10
663.894076151
 20
985.6181274819
 10
663.8325045529
 20
985.3838216233
 10
663.7940744582
 20
984.9936198163
  0
LINE
  5
13B
330
1F
100
AcDbEntity
  8
0
  6
Continuous
 62
     7
370
    25
100
AcDbLine
 10
303.9940635386
 20
949.5717715192
 30
0.0
 11
303.9940635386
 21
984.6154879499
 31
0.0
  0
ENDSEC
  0
SECTION
  2
OBJECTS
  0
DICTIONARY
  5
C
330
0
100
AcDbDictionary
281
     1
  3
ACAD_GROUP
350
D
  3
ACAD_LAYOUT
350
1A
  3
ACAD_MLINESTYLE
350
17
  3
ACAD_PLOTSETTINGS
350
19
  3
ACAD_PLOTSTYLENAME
350
E
  3
ACAD_SCALELIST
350
47
  0
DICTIONARY
  5
D
102
{ACAD_REACTORS
330
C
102
}
330
C
100
AcDbDictionary
281
     1
  0
DICTIONARY
  5
1A
102
{ACAD_REACTORS
330
C
102
}
330
C
100
AcDbDictionary
281
     1
  3
Layout1
350
1E
  3
Layout2
350
26
  3
Model
350
22
  0
DICTIONARY
  5
17
102
{ACAD_REACTORS
330
C
102
}
330
C
100
AcDbDictionary
281
     1
  3
Standard
350
18
  0
DICTIONARY
  5
19
102
{ACAD_REACTORS
330
C
102
}
330
C
100
AcDbDictionary
281
     1
  0
ACDBDICTIONARYWDFLT
  5
E
102
{ACAD_REACTORS
330
C
102
}
330
C
100
AcDbDictionary
281
     1
  3
Normal
350
F
100
AcDbDictionaryWithDefault
340
F
  0
DICTIONARY
  5
47
102
{ACAD_REACTORS
330
C
102
}
330
C
100
AcDbDictionary
281
     1
  3
A0
350
48
  3
A1
350
49
  3
A2
350
4A
  3
A3
350
4B
  3
A4
350
4C
  3
A5
350
4D
  3
A6
350
4E
  3
A7
350
4F
  3
A8
350
50
  3
A9
350
51
  3
B0
350
52
  3
B1
350
53
  3
B2
350
54
  3
B3
350
55
  3
B4
350
56
  3
B5
350
57
  3
B6
350
58
  3
B7
350
59
  3
B8
350
5A
  3
B9
350
5B
  3
C0
350
5C
  3
C1
350
5D
  3
C2
350
5E
  3
C3
350
5F
  3
C4
350
60
  3
C5
350
61
  3
C6
350
62
  3
C7
350
63
  3
C8
350
64
  3
C9
350
65
  3
D0
350
66
  3
D1
350
67
  3
D2
350
68
  0
LAYOUT
  5
1E
102
{ACAD_REACTORS
330
1A
102
}
330
1A
100
AcDbPlotSettings
  1

  2
none_device
  4

  6

 40
0.0
 41
0.0
 42
0.0
 43
0.0
 44
0.0
 45
0.0
 46
0.0
 47
0.0
 48
0.0
 49
0.0
140
0.0
141
0.0
142
1.0
143
1.0
 70
   688
 72
     1
 73
     0
 74
     5
  7

 75
    16
147
1.0
148
0.0
149
0.0
100
AcDbLayout
  1
Layout1
 70
     1
 71
     1
 10
0.0
 20
0.0
 11
420.0
 21
297.0
 12
0.0
 22
0.0
 32
0.0
 14
1.0000000000E+20
 24
1.0000000000E+20
 34
1.0000000000E+20
 15
-1.0000000000E+20
 25
-1.0000000000E+20
 35
-1.0000000000E+20
146
0.0
 13
0.0
 23
0.0
 33
0.0
 16
1.0
 26
0.0
 36
0.0
 17
0.0
 27
1.0
 37
0.0
 76
     0
330
1B
  0
LAYOUT
  5
26
102
{ACAD_REACTORS
330
1A
102
}
330
1A
100
AcDbPlotSettings
  1

  2
none_device
  4

  6

 40
0.0
 41
0.0
 42
0.0
 43
0.0
 44
0.0
 45
0.0
 46
0.0
 47
0.0
 48
0.0
 49
0.0
140
0.0
141
0.0
142
1.0
143
1.0
 70
   688
 72
     1
 73
     0
 74
     5
  7

 75
    16
147
1.0
148
0.0
149
0.0
100
AcDbLayout
  1
Layout2
 70
     1
 71
     2
 10
0.0
 20
0.0
 11
0.0
 21
0.0
 12
0.0
 22
0.0
 32
0.0
 14
0.0
 24
0.0
 34
0.0
 15
0.0
 25
0.0
 35
0.0
146
0.0
 13
0.0
 23
0.0
 33
0.0
 16
1.0
 26
0.0
 36
0.0
 17
0.0
 27
1.0
 37
0.0
 76
     0
330
23
  0
LAYOUT
  5
22
102
{ACAD_REACTORS
330
1A
102
}
330
1A
100
AcDbPlotSettings
  1

  2
none_device
  4
Letter_(8.50_x_11.00_Inches)
  6

 40
6.35
 41
6.35
 42
6.35000508
 43
6.35000508
 44
215.9
 45
279.4
 46
0.0
 47
0.0
 48
0.0
 49
0.0
140
0.0
141
0.0
142
1.0
143
1.0
 70
  1712
 72
     1
 73
     0
 74
     0
  7

 75
     0
147
1.0
148
0.0
149
0.0
100
AcDbLayout
  1
Model
 70
     1
 71
     0
 10
0.0
 20
0.0
 11
950.0
 21
1050.0
 12
0.0
 22
0.0
 32
0.0
 14
0.0
 24
0.0
 34
0.0
 15
950.0
 25
1050.0
 35
0.0
146
0.0
 13
0.0
 23
0.0
 33
0.0
 16
1.0
 26
0.0
 36
0.0
 17
0.0
 27
1.0
 37
0.0
 76
     0
330
1F
331
29
  0
MLINESTYLE
  5
18
102
{ACAD_REACTORS
330
17
102
}
330
17
100
AcDbMlineStyle
  2
Standard
 70
     0
  3

 62
   256
 51
90.0
 52
90.0
 71
     2
 49
0.5
 62
   256
  6
BYLAYER
 49
-0.5
 62
   256
  6
BYLAYER
  0
ACDBPLACEHOLDER
  5
F
102
{ACAD_REACTORS
330
E
102
}
330
E
  0
SCALE
  5
48
102
{ACAD_REACTORS
330
47
102
}
330
47
100
AcDbScale
 70
     0
300
1:1
140
1.0
141
1.0
290
     1
  0
SCALE
  5
49
102
{ACAD_REACTORS
330
47
102
}
330
47
100
AcDbScale
 70
     0
300
1:2
140
1.0
141
2.0
290
     0
  0
SCALE
  5
4A
102
{ACAD_REACTORS
330
47
102
}
330
47
100
AcDbScale
 70
     0
300
1:4
140
1.0
141
4.0
290
     0
  0
SCALE
  5
4B
102
{ACAD_REACTORS
330
47
102
}
330
47
100
AcDbScale
 70
     0
300
1:5
140
1.0
141
5.0
290
     0
  0
SCALE
  5
4C
102
{ACAD_REACTORS
330
47
102
}
330
47
100
AcDbScale
 70
     0
300
1:8
140
1.0
141
8.0
290
     0
  0
SCALE
  5
4D
102
{ACAD_REACTORS
330
47
102
}
330
47
100
AcDbScale
 70
     0
300
1:10
140
1.0
141
10.0
290
     0
  0
SCALE
  5
4E
102
{ACAD_REACTORS
330
47
102
}
330
47
100
AcDbScale
 70
     0
300
1:16
140
1.0
141
16.0
290
     0
  0
SCALE
  5
4F
102
{ACAD_REACTORS
330
47
102
}
330
47
100
AcDbScale
 70
     0
300
1:20
140
1.0
141
20.0
290
     0
  0
SCALE
  5
50
102
{ACAD_REACTORS
330
47
102
}
330
47
100
AcDbScale
 70
     0
300
1:30
140
1.0
141
30.0
290
     0
  0
SCALE
  5
51
102
{ACAD_REACTORS
330
47
102
}
330
47
100
AcDbScale
 70
     0
300
1:40
140
1.0
141
40.0
290
     0
  0
SCALE
  5
52
102
{ACAD_REACTORS
330
47
102
}
330
47
100
AcDbScale
 70
     0
300
1:50
140
1.0
141
50.0
290
     0
  0
SCALE
  5
53
102
{ACAD_REACTORS
330
47
102
}
330
47
100
AcDbScale
 70
     0
300
1:100
140
1.0
141
100.0
290
     0
  0
SCALE
  5
54
102
{ACAD_REACTORS
330
47
102
}
330
47
100
AcDbScale
 70
     0
300
2:1
140
2.0
141
1.0
290
     0
  0
SCALE
  5
55
102
{ACAD_REACTORS
330
47
102
}
330
47
100
AcDbScale
 70
     0
300
4:1
140
4.0
141
1.0
290
     0
  0
SCALE
  5
56
102
{ACAD_REACTORS
330
47
102
}
330
47
100
AcDbScale
 70
     0
300
8:1
140
8.0
141
1.0
290
     0
  0
SCALE
  5
57
102
{ACAD_REACTORS
330
47
102
}
330
47
100
AcDbScale
 70
     0
300
10:1
140
10.0
141
1.0
290
     0
  0
SCALE
  5
58
102
{ACAD_REACTORS
330
47
102
}
330
47
100
AcDbScale
 70
     0
300
100:1
140
100.0
141
1.0
290
     0
  0
SCALE
  5
59
102
{ACAD_REACTORS
330
47
102
}
330
47
100
AcDbScale
 70
     0
300
1/128" = 1'-0"
140
0.0078125
141
12.0
290
     0
  0
SCALE
  5
5A
102
{ACAD_REACTORS
330
47
102
}
330
47
100
AcDbScale
 70
     0
300
1/64" = 1'-0"
140
0.015625
141
12.0
290
     0
  0
SCALE
  5
5B
102
{ACAD_REACTORS
330
47
102
}
330
47
100
AcDbScale
 70
     0
300
1/32" = 1'-0"
140
0.03125
141
12.0
290
     0
  0
SCALE
  5
5C
102
{ACAD_REACTORS
330
47
102
}
330
47
100
AcDbScale
 70
     0
300
1/16" = 1'-0"
140
0.0625
141
12.0
290
     0
  0
SCALE
  5
5D
102
{ACAD_REACTORS
330
47
102
}
330
47
100
AcDbScale
 70
     0
300
3/32" = 1'-0"
140
0.09375
141
12.0
290
     0
  0
SCALE
  5
5E
102
{ACAD_REACTORS
330
47
102
}
330
47
100
AcDbScale
 70
     0
300
1/8" = 1'-0"
140
0.125
141
12.0
290
     0
  0
SCALE
  5
5F
102
{ACAD_REACTORS
330
47
102
}
330
47
100
AcDbScale
 70
     0
300
3/16" = 1'-0"
140
0.1875
141
12.0
290
     0
  0
SCALE
  5
60
102
{ACAD_REACTORS
330
47
102
}
330
47
100
AcDbScale
 70
     0
300
1/4" = 1'-0"
140
0.25
141
12.0
290
     0
  0
SCALE
  5
61
102
{ACAD_REACTORS
330
47
102
}
330
47
100
AcDbScale
 70
     0
300
3/8" = 1'-0"
140
0.375
141
12.0
290
     0
  0
SCALE
  5
62
102
{ACAD_REACTORS
330
47
102
}
330
47
100
AcDbScale
 70
     0
300
1/2" = 1'-0"
140
0.5
141
12.0
290
     0
  0
SCALE
  5
63
102
{ACAD_REACTORS
330
47
102
}
330
47
100
AcDbScale
 70
     0
300
3/4" = 1'-0"
140
0.75
141
12.0
290
     0
  0
SCALE
  5
64
102
{ACAD_REACTORS
330
47
102
}
330
47
100
AcDbScale
 70
     0
300
1" = 1'-0"
140
1.0
141
12.0
290
     0
  0
SCALE
  5
65
102
{ACAD_REACTORS
330
47
102
}
330
47
100
AcDbScale
 70
     0
300
1-1/2" = 1'-0"
140
1.5
141
12.0
290
     0
  0
SCALE
  5
66
102
{ACAD_REACTORS
330
47
102
}
330
47
100
AcDbScale
 70
     0
300
3" = 1'-0"
140
3.0
141
12.0
290
     0
  0
SCALE
  5
67
102
{ACAD_REACTORS
330
47
102
}
330
47
100
AcDbScale
 70
     0
300
6" = 1'-0"
140
6.0
141
12.0
290
     0
  0
SCALE
  5
68
102
{ACAD_REACTORS
330
47
102
}
330
47
100
AcDbScale
 70
     0
300
1'-0" = 1'-0"
140
12.0
141
12.0
290
     0
  0
ENDSEC
  0
EOF
