  0
SECTION
  2
HEADER
  9
$LIMMIN
 10
0.000000
 20
0.000000
  9
$LIMMAX
 10
937.579000
 20
937.953000
  9
$EXTMIN
 10
0.000000
 20
0.000000
  9
$EXTMAX
 10
937.579000
 20
937.953000
  9
$ANGBASE
 50
0.0
  9
$ANGDIR
 70
0
  9
$DIMRND
 40
0.100000
  9
$DIMSE1
 70
0
  9
$DIMSE2
 70
0
  9
$DIMTXT
 40
3.500000
  9
$LTSCALE
 40
1.000000
  9
$LUPREC
 70
5
  9
$AUPREC
 70
5
  9
$PDMODE
 70
2
  9
$PDSIZE
 40
4.689765
  0
ENDSEC
  0
SECTION
  2
TABLES
  0
TABLE
  2
VPORT
  70
1
  0
VPORT
  2
*ACTIVE
 70
0
  10
0.0
 20
0.0
 11
1.0
 21
1.0
 12
594.0
 22
420.0
 13
0.0
 23
0.0
 14
10.0
 24
10.0
 15
10.0
 25
10.0
 16
0.0
 26
0.0
 36
1.0
 17
594.0
 27
420.0
 37
100.0
 40
1000.0
 41
1.0
 42
50.0
 43
0.0
 44
0.0
 50
0.0
 51
0.0
 71
0
 72
2000
 73
1
 74
3
 75
0
 76
0
 77
0
 78
1
  0
ENDTAB
  0
TABLE
  2
LTYPE
 70
5
  0
LTYPE
  2
CONTINUOUS
 70
0
  3
Solid line
 72
65
 73
0
 40
0.0
  0
LTYPE
  2
DASHED
 70
0
  3
Dashed line
 72
65
 73
2
 40
6.000000
 49
3.000000
 49
-3.000000
  0
LTYPE
  2
CENTER
 70
0
  3
Chain line
 72
65
 73
4
 40
24.000000
 49
15.000000
 49
-3.000000
 49
3.000000
 49
-3.000000
  0
LTYPE
  2
RANDOM
 70
0
  3
Random line
 72
65
 73
4
 40
22.500000
 49
6.000000
 49
-3.000000
 49
4.500000
 49
-9.000000
  0
LTYPE
  2
DASH_2_167774853
  3
DASH_2_167774853
 70
0
 72
65
 73
2
 40
6.000000
 49
3.000000
 49
-3.000000
  0
ENDTAB
  0
TABLE
  2
STYLE
 70
9
  0
STYLE
  2
STANDARD
 40
0
 41
1.0
 50
0.0
 71
0
 42
0
  3
simplex
  4

 70
0
  0
ENDTAB
  0
TABLE
  2
LAYER
 70
4
  0
LAYER
  2
0
 70
0
 62
7
  6
CONTINUOUS
  0
LAYER
  2
0
 62
1
  6
CONTINUOUS
 70
0
  0
LAYER
  2
MODEL
 62
1
  6
CONTINUOUS
 70
0
  0
LAYER
  2
MODEL-0
 62
1
  6
CONTINUOUS
 70
0
  0
ENDTAB
  0
ENDSEC
  0
SECTION
  2
BLOCKS
  0
ENDSEC
  0
SECTION
  2
ENTITIES
  0
LINE
  8
MODEL-0
  6
CONTINUOUS
 62
1
 10
799.000000
 20
850.000000
 11
799.000000
 21
145.000000
  0
LINE
  8
MODEL-0
  6
CONTINUOUS
 62
1
 10
799.000000
 20
145.000000
 11
123.000000
 21
145.000000
  0
LINE
  8
MODEL-0
  6
CONTINUOUS
 62
1
 10
123.000000
 20
145.000000
 11
123.000000
 21
850.000000
  0
LINE
  8
MODEL-0
  6
CONTINUOUS
 62
1
 10
20.000000
 20
850.000000
 11
20.000000
 21
740.000000
  0
LINE
  8
MODEL-0
  6
CONTINUOUS
 62
1
 10
20.000000
 20
740.000000
 11
123.000000
 21
740.000000
  0
LINE
  8
MODEL-0
  6
CONTINUOUS
 62
1
 10
38.982687
 20
740.000000
 11
38.982687
 21
555.000000
  0
LINE
  8
MODEL-0
  6
CONTINUOUS
 62
1
 10
38.982687
 20
555.000000
 11
123.000000
 21
555.000000
  0
LINE
  8
MODEL-0
  6
CONTINUOUS
 62
1
 10
140.500000
 20
145.000000
 11
140.500000
 21
135.000000
  0
LINE
  8
MODEL-0
  6
CONTINUOUS
 62
1
 10
140.500000
 20
135.000000
 11
195.500000
 21
135.000000
  0
LINE
  8
MODEL-0
  6
CONTINUOUS
 62
1
 10
195.500000
 20
135.000000
 11
195.500000
 21
145.000000
  0
LINE
  8
MODEL-0
  6
CONTINUOUS
 62
1
 10
740.500000
 20
145.000000
 11
740.500000
 21
135.000000
  0
LINE
  8
MODEL-0
  6
CONTINUOUS
 62
1
 10
740.500000
 20
135.000000
 11
795.500000
 21
135.000000
  0
LINE
  8
MODEL-0
  6
CONTINUOUS
 62
1
 10
795.500000
 20
135.000000
 11
795.500000
 21
145.000000
  0
LINE
  8
MODEL-0
  6
CONTINUOUS
 62
1
 10
437.600000
 20
899.999512
 11
742.600000
 21
899.999512
  0
LINE
  8
MODEL-0
  6
CONTINUOUS
 62
1
 10
439.600000
 20
875.999024
 11
740.600000
 21
875.999024
  0
LINE
  8
MODEL-0
  6
CONTINUOUS
 62
1
 10
742.600000
 20
899.999512
 11
740.600000
 21
875.999024
  0
LINE
  8
MODEL-0
  6
CONTINUOUS
 62
1
 10
752.099756
 20
899.999024
 11
836.149197
 21
899.999024
  0
LINE
  8
MODEL-0
  6
CONTINUOUS
 62
1
 10
746.099756
 20
893.999024
 11
746.099756
 21
878.499024
  0
LINE
  8
MODEL-0
  6
CONTINUOUS
 62
1
 10
721.099756
 20
875.499024
 11
743.099756
 21
875.499024
  0
ARC
  8
MODEL-0
  6
CONTINUOUS
 62
1
 10
743.099756
 20
878.499024
 40
3.000000
 50
270.000000
 51
0.000000
  0
ARC
  8
MODEL-0
  6
CONTINUOUS
 62
1
 10
752.099756
 20
893.999024
 40
6.000000
 50
90.000000
 51
180.000000
  0
LINE
  8
MODEL-0
  6
CONTINUOUS
 62
1
 10
746.099756
 20
849.999024
 11
799.000000
 21
849.999024
  0
LINE
  8
MODEL-0
  6
CONTINUOUS
 62
1
 10
154.100000
 20
875.499146
 11
721.099756
 21
875.499146
  0
LINE
  8
MODEL-0
  6
CONTINUOUS
 62
1
 10
129.100000
 20
849.999024
 11
746.099756
 21
849.999024
  0
LINE
  8
MODEL-0
  6
CONTINUOUS
 62
1
 10
154.100000
 20
875.499146
 11
6.000000
 21
875.499146
  0
LINE
  8
MODEL-0
  6
CONTINUOUS
 62
1
 10
0.000000
 20
869.499146
 11
0.000000
 21
851.999024
  0
LINE
  8
MODEL-0
  6
CONTINUOUS
 62
1
 10
154.100000
 20
875.499146
 11
721.099756
 21
875.499146
  0
LINE
  8
MODEL-0
  6
CONTINUOUS
 62
1
 10
132.600000
 20
899.999512
 11
437.600000
 21
899.999512
  0
LINE
  8
MODEL-0
  6
CONTINUOUS
 62
1
 10
134.600000
 20
875.999024
 11
435.600000
 21
875.999024
  0
LINE
  8
MODEL-0
  6
CONTINUOUS
 62
1
 10
132.600000
 20
899.999512
 11
134.600000
 21
875.999024
  0
LINE
  8
MODEL-0
  6
CONTINUOUS
 62
1
 10
194.000000
 20
1.000000
 11
183.000000
 21
4.999985
  0
LINE
  8
MODEL-0
  6
CONTINUOUS
 62
1
 10
142.000000
 20
1.000000
 11
153.000000
 21
4.999985
  0
LINE
  8
MODEL-0
  6
CONTINUOUS
 62
1
 10
142.000000
 20
1.000000
 11
142.000000
 21
0.000000
  0
LINE
  8
MODEL-0
  6
CONTINUOUS
 62
1
 10
194.000000
 20
1.000000
 11
142.000000
 21
1.000000
  0
LINE
  8
MODEL-0
  6
CONTINUOUS
 62
1
 10
183.000000
 20
4.999985
 11
153.030945
 21
4.999985
  0
LINE
  8
MODEL-0
  6
CONTINUOUS
 62
1
 10
194.000000
 20
0.000000
 11
142.000000
 21
0.000000
  0
LINE
  8
MODEL-0
  6
CONTINUOUS
 62
1
 10
194.000000
 20
1.000000
 11
194.000000
 21
0.000000
  0
LINE
  8
MODEL-0
  6
CONTINUOUS
 62
1
 10
145.561851
 20
129.062500
 11
146.531906
 21
35.937493
  0
ARC
  8
MODEL-0
  6
CONTINUOUS
 62
1
 10
139.562179
 20
129.000000
 40
6.000000
 50
0.596809
 51
81.007603
  0
ARC
  8
MODEL-0
  6
CONTINUOUS
 62
1
 10
196.437835
 20
129.000000
 40
6.000000
 50
98.992545
 51
179.403198
  0
ARC
  8
MODEL-0
  6
CONTINUOUS
 62
1
 10
183.468429
 20
35.999993
 40
5.999996
 50
269.999969
 51
359.403160
  0
ARC
  8
MODEL-0
  6
CONTINUOUS
 62
1
 10
152.531585
 20
35.999993
 40
6.000000
 50
180.596802
 51
270.000000
  0
LINE
  8
MODEL-0
  6
CONTINUOUS
 62
1
 10
190.438156
 20
129.062500
 11
189.468109
 21
35.937493
  0
LINE
  8
MODEL-0
  6
CONTINUOUS
 62
1
 10
183.468429
 20
29.999993
 11
152.531585
 21
29.999993
  0
LINE
  8
MODEL-0
  6
CONTINUOUS
 62
1
 10
152.531585
 20
29.999993
 11
153.000000
 21
4.999985
  0
LINE
  8
MODEL-0
  6
CONTINUOUS
 62
1
 10
183.468426
 20
29.999997
 11
183.000000
 21
4.999985
  0
LINE
  8
MODEL-0
  6
CONTINUOUS
 62
1
 10
794.000000
 20
1.000000
 11
783.000000
 21
4.999985
  0
LINE
  8
MODEL-0
  6
CONTINUOUS
 62
1
 10
742.000000
 20
1.000000
 11
753.000000
 21
4.999985
  0
LINE
  8
MODEL-0
  6
CONTINUOUS
 62
1
 10
742.000000
 20
1.000000
 11
742.000000
 21
0.000000
  0
LINE
  8
MODEL-0
  6
CONTINUOUS
 62
1
 10
794.000000
 20
1.000000
 11
742.000000
 21
1.000000
  0
LINE
  8
MODEL-0
  6
CONTINUOUS
 62
1
 10
783.000000
 20
4.999985
 11
753.030945
 21
4.999985
  0
LINE
  8
MODEL-0
  6
CONTINUOUS
 62
1
 10
794.000000
 20
0.000000
 11
742.000000
 21
0.000000
  0
LINE
  8
MODEL-0
  6
CONTINUOUS
 62
1
 10
794.000000
 20
1.000000
 11
794.000000
 21
0.000000
  0
LINE
  8
MODEL-0
  6
CONTINUOUS
 62
1
 10
745.561851
 20
129.062500
 11
746.531906
 21
35.937493
  0
ARC
  8
MODEL-0
  6
CONTINUOUS
 62
1
 10
739.562179
 20
129.000000
 40
6.000000
 50
0.596809
 51
81.007603
  0
ARC
  8
MODEL-0
  6
CONTINUOUS
 62
1
 10
796.437835
 20
129.000000
 40
6.000000
 50
98.992545
 51
179.403198
  0
ARC
  8
MODEL-0
  6
CONTINUOUS
 62
1
 10
783.468429
 20
35.999993
 40
5.999996
 50
269.999969
 51
359.403160
  0
ARC
  8
MODEL-0
  6
CONTINUOUS
 62
1
 10
752.531585
 20
35.999993
 40
6.000000
 50
180.596802
 51
270.000000
  0
LINE
  8
MODEL-0
  6
CONTINUOUS
 62
1
 10
790.438156
 20
129.062500
 11
789.468109
 21
35.937493
  0
LINE
  8
MODEL-0
  6
CONTINUOUS
 62
1
 10
783.468429
 20
29.999993
 11
752.531585
 21
29.999993
  0
LINE
  8
MODEL-0
  6
CONTINUOUS
 62
1
 10
752.531585
 20
29.999993
 11
753.000000
 21
4.999985
  0
LINE
  8
MODEL-0
  6
CONTINUOUS
 62
1
 10
783.468426
 20
29.999997
 11
783.000000
 21
4.999985
  0
LINE
  8
MODEL-0
  6
CONTINUOUS
 62
1
 10
752.099756
 20
899.999024
 11
917.378088
 21
899.999024
  0
ARC
  8
MODEL-0
  6
CONTINUOUS
 62
1
 10
752.099756
 20
893.999024
 40
6.000000
 50
90.000000
 51
180.000000
  0
LINE
  8
MODEL-0
  6
CONTINUOUS
 62
1
 10
0.000000
 20
851.999024
 11
909.780108
 21
851.999024
  0
LINE
  8
MODEL-0
  6
CONTINUOUS
 62
1
 10
921.620729
 20
898.241664
 11
935.821739
 21
884.040654
  0
LINE
  8
MODEL-0
  6
CONTINUOUS
 62
1
 10
914.022749
 20
853.756383
 11
935.821739
 21
875.555373
  0
ARC
  8
MODEL-0
  6
CONTINUOUS
 62
1
 10
931.579098
 20
879.798014
 40
6.000000
 50
315.000000
 51
45.000000
  0
ARC
  8
MODEL-0
  6
CONTINUOUS
 62
1
 10
917.378088
 20
893.999024
 40
6.000000
 50
45.000000
 51
90.000000
  0
ARC
  8
MODEL-0
  6
CONTINUOUS
 62
1
 10
909.780108
 20
857.999024
 40
6.000000
 50
270.000000
 51
315.000000
  0
ARC
  8
MODEL-0
  6
CONTINUOUS
 62
1
 10
6.000000
 20
869.499146
 40
6.000000
 50
90.000000
 51
180.000000
  0
ARC
  8
MODEL-0
  6
CONTINUOUS
 62
1
 10
119.038595
 20
910.824407
 40
10.000000
 50
4.055248
 51
81.207657
  0
LINE
  8
MODEL-0
  6
CONTINUOUS
 62
1
 10
129.013559
 20
911.531591
 11
130.752807
 21
886.999147
  0
LINE
  8
MODEL-0
  6
CONTINUOUS
 62
1
 10
14.899948
 20
937.950581
 11
120.567133
 21
920.706895
  0
LINE
  8
MODEL-0
  6
CONTINUOUS
 62
1
 10
128.629623
 20
875.499146
 11
102.037082
 21
875.499146
  0
LINE
  8
MODEL-0
  6
CONTINUOUS
 62
1
 10
0.577723
 20
889.499147
 11
4.613121
 21
929.328991
  0
ARC
  8
MODEL-0
  6
CONTINUOUS
 62
1
 10
14.637565
 20
927.759549
 40
10.146351
 50
150.871009
 51
173.973395
  0
ARC
  8
MODEL-0
  6
CONTINUOUS
 62
1
 10
14.736948
 20
927.708349
 40
10.258088
 50
127.958278
 51
150.891412
  0
ARC
  8
MODEL-0
  6
CONTINUOUS
 62
1
 10
14.709925
 20
927.749718
 40
10.208850
 50
104.974183
 51
127.981510
  0
ARC
  8
MODEL-0
  6
CONTINUOUS
 62
1
 10
14.665866
 20
927.922977
 40
10.030092
 50
81.704955
 51
104.986775
  0
LINE
  8
MODEL-0
  6
CONTINUOUS
 62
1
 10
0.577723
 20
889.499147
 11
1.494264
 21
876.411990
  0
LINE
  8
MODEL-0
  6
CONTINUOUS
 62
1
 10
130.752807
 20
886.999147
 11
129.641752
 21
876.411990
  0
LINE
  8
MODEL-0
  6
CONTINUOUS
 62
1
 10
28.829623
 20
875.499146
 11
2.474525
 21
875.499146
  0
ARC
  8
MODEL-0
  6
CONTINUOUS
 62
1
 10
2.470810
 20
876.477907
 40
0.978769
 50
183.861641
 51
270.217454
  0
ARC
  8
MODEL-0
  6
CONTINUOUS
 62
1
 10
128.625776
 20
876.520940
 40
1.021801
 50
270.215739
 51
353.879165
  0
LINE
  8
MODEL-0
  6
CONTINUOUS
 62
1
 10
30.594651
 20
883.586302
 11
29.841752
 21
876.411990
  0
LINE
  8
MODEL-0
  6
CONTINUOUS
 62
1
 10
100.554378
 20
883.586302
 11
101.056821
 21
876.411990
  0
ARC
  8
MODEL-0
  6
CONTINUOUS
 62
1
 10
28.825776
 20
876.520940
 40
1.021801
 50
270.215739
 51
353.879165
  0
ARC
  8
MODEL-0
  6
CONTINUOUS
 62
1
 10
102.033367
 20
876.477907
 40
0.978769
 50
183.861641
 51
270.217454
  0
ARC
  8
MODEL-0
  6
CONTINUOUS
 62
1
 10
99.577831
 20
883.520385
 40
0.978769
 50
3.861610
 51
90.217423
  0
ARC
  8
MODEL-0
  6
CONTINUOUS
 62
1
 10
31.610628
 20
883.477353
 40
1.021801
 50
90.215799
 51
173.879224
  0
LINE
  8
MODEL-0
  6
CONTINUOUS
 62
1
 10
31.606779
 20
884.499147
 11
99.574117
 21
884.499147
  0
LINE
  8
MODEL-0
  6
CONTINUOUS
 62
1
 10
801.099853
 20
738.899048
 11
833.499878
 21
738.899048
  0
ARC
  8
MODEL-0
  6
CONTINUOUS
 62
1
 10
833.499878
 20
740.499024
 40
1.600000
 50
270.000000
 51
0.000000
  0
LINE
  8
MODEL-0
  6
CONTINUOUS
 62
1
 10
801.099853
 20
738.899048
 11
801.099853
 21
851.999024
  0
LINE
  8
MODEL-0
  6
CONTINUOUS
 62
1
 10
835.099853
 20
851.999024
 11
835.099853
 21
740.499024
  0
LINE
  8
MODEL-0
  6
CONTINUOUS
 62
6
 10
885.265390
 20
851.999024
 11
907.780108
 21
851.999024
  0
LINE
  8
MODEL-0
  6
CONTINUOUS
 62
1
 10
799.000000
 20
167.899048
 11
799.000000
 21
159.899048
  0
LINE
  8
MODEL-0
  6
CONTINUOUS
 62
1
 10
799.000000
 20
144.899048
 11
799.000000
 21
159.899048
  0
LINE
  8
MODEL-0
  6
CONTINUOUS
 62
1
 10
807.652588
 20
277.889405
 11
829.052734
 21
277.889405
  0
LINE
  8
MODEL-0
  6
CONTINUOUS
 62
1
 10
807.652588
 20
157.889405
 11
829.052734
 21
157.889405
  0
LINE
  8
MODEL-0
  6
CONTINUOUS
 62
1
 10
807.652588
 20
157.889405
 11
807.652588
 21
277.889405
  0
LINE
  8
MODEL-0
  6
CONTINUOUS
 62
1
 10
829.652588
 20
264.889405
 11
829.652588
 21
226.889405
  0
LINE
  8
MODEL-0
  6
CONTINUOUS
 62
1
 10
829.652588
 20
264.889405
 11
832.052734
 21
264.889405
  0
ARC
  8
MODEL-0
  6
CONTINUOUS
 62
1
 10
832.052734
 20
266.489502
 40
1.600000
 50
270.000000
 51
0.000000
  0
LINE
  8
MODEL-0
  6
CONTINUOUS
 62
1
 10
833.652588
 20
264.889405
 11
833.652588
 21
264.889527
  0
LINE
  8
MODEL-0
  6
CONTINUOUS
 62
1
 10
829.652588
 20
226.889405
 11
832.052734
 21
226.889405
  0
ARC
  8
MODEL-0
  6
CONTINUOUS
 62
1
 10
832.052734
 20
225.289429
 40
1.600000
 50
0.000000
 51
90.000000
  0
LINE
  8
MODEL-0
  6
CONTINUOUS
 62
1
 10
833.652588
 20
226.889405
 11
833.652588
 21
226.889527
  0
LINE
  8
MODEL-0
  6
CONTINUOUS
 62
1
 10
829.652588
 20
233.389405
 11
829.652588
 21
233.389527
  0
LINE
  8
MODEL-0
  6
CONTINUOUS
 62
1
 10
832.052734
 20
276.289429
 11
832.052734
 21
276.289551
  0
LINE
  8
MODEL-0
  6
CONTINUOUS
 62
1
 10
833.652588
 20
266.489502
 11
833.652588
 21
273.289429
  0
ARC
  8
MODEL-0
  6
CONTINUOUS
 62
1
 10
829.052734
 20
273.289429
 40
4.600000
 50
0.000000
 51
90.000000
  0
LINE
  8
MODEL-0
  6
CONTINUOUS
 62
1
 10
833.652588
 20
277.889405
 11
833.652588
 21
277.889527
  0
LINE
  8
MODEL-0
  6
CONTINUOUS
 62
1
 10
833.652588
 20
225.289429
 11
833.652588
 21
162.489502
  0
ARC
  8
MODEL-0
  6
CONTINUOUS
 62
1
 10
829.052734
 20
162.489502
 40
4.600000
 50
270.000000
 51
0.000000
  0
LINE
  8
MODEL-0
  6
CONTINUOUS
 62
1
 10
833.652588
 20
157.889405
 11
833.652588
 21
157.889527
  0
LINE
  8
MODEL-0
  6
CONTINUOUS
 62
1
 10
847.600097
 20
712.491455
 11
872.600097
 21
737.491455
  0
LINE
  8
MODEL-0
  6
CONTINUOUS
 62
1
 10
799.000000
 20
712.491455
 11
847.600097
 21
712.491455
  0
LINE
  8
MODEL-0
  6
CONTINUOUS
 62
1
 10
799.000000
 20
737.491455
 11
872.600097
 21
737.491455
  0
LINE
  8
MODEL-0
  6
CONTINUOUS
 62
1
 10
807.384033
 20
388.899170
 11
807.384033
 21
697.399170
  0
LINE
  8
MODEL-0
  6
DASH_2_167774853
 62
1
 10
807.384033
 20
388.899170
 11
807.384033
 21
349.899170
  0
LINE
  8
MODEL-0
  6
CONTINUOUS
 62
1
 10
807.384033
 20
700.799073
 11
807.384033
 21
302.899048
  0
ARC
  8
MODEL-0
  6
CONTINUOUS
 62
1
 10
814.284179
 20
302.899048
 40
6.900000
 50
180.000000
 51
270.000000
  0
LINE
  8
MODEL-0
  6
CONTINUOUS
 62
1
 10
839.684082
 20
699.899170
 11
839.684082
 21
302.899048
  0
LINE
  8
MODEL-0
  6
CONTINUOUS
 62
1
 10
814.284179
 20
295.999146
 11
832.784179
 21
295.999146
  0
ARC
  8
MODEL-0
  6
CONTINUOUS
 62
1
 10
832.784179
 20
302.899048
 40
6.900000
 50
270.000000
 51
0.000000
  0
LINE
  8
MODEL-0
  6
DASH_2_167774853
 62
1
 10
808.284179
 20
296.899048
 11
808.284179
 21
296.899170
  0
LINE
  8
MODEL-0
  6
CONTINUOUS
 62
1
 10
838.784179
 20
296.899048
 11
838.784179
 21
296.899170
  0
LINE
  8
MODEL-0
  6
CONTINUOUS
 62
1
 10
807.384033
 20
700.799073
 11
838.784179
 21
700.799073
  0
ARC
  8
MODEL-0
  6
CONTINUOUS
 62
1
 10
838.784179
 20
699.899170
 40
0.900000
 50
0.000000
 51
90.000000
  0
LINE
  8
MODEL-0
  6
CONTINUOUS
 62
1
 10
799.000000
 20
697.899170
 11
807.384033
 21
697.899170
  0
LINE
  8
MODEL-0
  6
CONTINUOUS
 62
1
 10
807.652588
 20
167.899048
 11
799.000000
 21
167.899048
  0
LINE
  8
MODEL-0
  6
CONTINUOUS
 62
1
 10
828.000000
 20
296.899048
 11
828.000000
 21
277.889405
  0
LINE
  8
MODEL-0
  6
CONTINUOUS
 62
1
 10
822.000000
 20
295.999146
 11
822.000000
 21
277.889405
  0
LINE
  8
MODEL-0
  6
CONTINUOUS
 62
1
 10
850.500000
 20
776.841806
 11
850.500000
 21
832.156253
  0
LINE
  8
MODEL-0
  6
CONTINUOUS
 62
1
 10
866.026169
 20
777.655503
 11
850.500000
 21
776.841806
  0
ARC
  8
MODEL-0
  6
CONTINUOUS
 62
1
 10
866.000000
 20
778.154816
 40
0.500000
 50
272.999969
 51
0.000000
  0
LINE
  8
MODEL-0
  6
CONTINUOUS
 62
1
 10
885.500000
 20
799.166776
 11
885.500000
 21
808.075592
  0
ARC
  8
MODEL-0
  6
CONTINUOUS
 62
1
 10
884.000000
 20
808.075592
 40
1.500000
 50
0.000000
 51
86.999992
  0
LINE
  8
MODEL-0
  6
CONTINUOUS
 62
1
 10
865.078506
 20
831.392228
 11
850.500000
 21
832.156253
  0
ARC
  8
MODEL-0
  6
CONTINUOUS
 62
1
 10
865.000000
 20
829.894287
 40
1.500000
 50
0.000000
 51
87.000023
  0
LINE
  8
MODEL-0
  6
CONTINUOUS
 62
1
 10
866.500000
 20
816.188568
 11
866.500000
 21
829.894287
  0
LINE
  8
MODEL-0
  6
CONTINUOUS
 62
1
 10
884.078506
 20
809.573532
 11
872.185989
 21
810.196793
  0
ARC
  8
MODEL-0
  6
CONTINUOUS
 62
1
 10
872.500000
 20
816.188568
 40
5.999998
 50
180.000000
 51
267.000015
  0
LINE
  8
MODEL-0
  6
CONTINUOUS
 62
1
 10
885.000000
 20
799.149316
 11
885.000000
 21
784.589482
  0
LINE
  8
MODEL-0
  6
CONTINUOUS
 62
1
 10
866.500000
 20
778.149316
 11
879.209397
 21
778.593137
  0
LINE
  8
MODEL-0
  6
CONTINUOUS
 62
1
 10
885.500000
 20
799.166776
 11
871.202359
 21
798.667491
  0
ARC
  8
MODEL-0
  6
CONTINUOUS
 62
1
 10
879.000000
 20
784.589482
 40
6.000000
 50
272.000000
 51
0.000000
  0
LINE
  8
MODEL-0
  6
CONTINUOUS
 62
1
 10
885.000000
 20
799.149316
 11
885.000000
 21
784.589482
  0
LINE
  8
MODEL-0
  6
CONTINUOUS
 62
1
 10
866.500000
 20
778.149316
 11
866.500000
 21
792.809494
  0
LINE
  8
MODEL-0
  6
CONTINUOUS
 62
1
 10
866.500000
 20
778.149316
 11
879.209397
 21
778.593137
  0
LINE
  8
MODEL-0
  6
CONTINUOUS
 62
1
 10
885.000000
 20
799.149316
 11
883.447650
 21
799.095106
  0
ARC
  8
MODEL-0
  6
CONTINUOUS
 62
1
 10
879.000000
 20
784.589482
 40
6.000000
 50
272.000000
 51
0.000000
  0
ARC
  8
MODEL-0
  6
CONTINUOUS
 62
1
 10
872.500000
 20
792.809494
 40
6.000000
 50
102.490253
 51
180.000000
  0
LINE
  8
MODEL-0
  6
CONTINUOUS
 62
1
 10
835.099853
 20
800.499024
 11
850.500000
 21
800.499024
  0
LINE
  8
MODEL-0
  6
CONTINUOUS
 62
1
 10
835.099853
 20
806.499024
 11
850.500000
 21
806.499024
  0
LINE
  8
MODEL-0
  6
CONTINUOUS
 62
1
 10
850.500000
 20
581.342783
 11
850.500000
 21
630.799073
  0
LINE
  8
MODEL-0
  6
CONTINUOUS
 62
1
 10
866.026169
 20
582.156479
 11
850.500000
 21
581.342783
  0
ARC
  8
MODEL-0
  6
CONTINUOUS
 62
1
 10
866.000000
 20
582.655793
 40
0.500000
 50
272.999969
 51
0.000000
  0
LINE
  8
MODEL-0
  6
CONTINUOUS
 62
1
 10
885.500000
 20
603.667752
 11
885.500000
 21
612.576569
  0
ARC
  8
MODEL-0
  6
CONTINUOUS
 62
1
 10
884.000000
 20
612.576569
 40
1.500000
 50
0.000000
 51
86.999992
  0
LINE
  8
MODEL-0
  6
CONTINUOUS
 62
1
 10
866.500000
 20
620.689545
 11
866.500000
 21
630.799073
  0
LINE
  8
MODEL-0
  6
CONTINUOUS
 62
1
 10
884.078506
 20
614.074509
 11
872.185989
 21
614.697770
  0
ARC
  8
MODEL-0
  6
CONTINUOUS
 62
1
 10
872.500000
 20
620.689545
 40
5.999998
 50
180.000000
 51
267.000015
  0
LINE
  8
MODEL-0
  6
CONTINUOUS
 62
1
 10
885.000000
 20
603.650292
 11
885.000000
 21
589.090459
  0
LINE
  8
MODEL-0
  6
CONTINUOUS
 62
1
 10
866.500000
 20
582.650292
 11
879.209397
 21
583.094114
  0
LINE
  8
MODEL-0
  6
CONTINUOUS
 62
1
 10
885.500000
 20
603.667752
 11
871.202359
 21
603.168468
  0
ARC
  8
MODEL-0
  6
CONTINUOUS
 62
1
 10
879.000000
 20
589.090459
 40
6.000000
 50
272.000000
 51
0.000000
  0
LINE
  8
MODEL-0
  6
CONTINUOUS
 62
1
 10
885.000000
 20
603.650292
 11
885.000000
 21
589.090459
  0
LINE
  8
MODEL-0
  6
CONTINUOUS
 62
1
 10
866.500000
 20
582.650292
 11
866.500000
 21
597.310471
  0
LINE
  8
MODEL-0
  6
CONTINUOUS
 62
1
 10
866.500000
 20
582.650292
 11
879.209397
 21
583.094114
  0
LINE
  8
MODEL-0
  6
CONTINUOUS
 62
1
 10
885.000000
 20
603.650292
 11
883.447650
 21
603.596083
  0
ARC
  8
MODEL-0
  6
CONTINUOUS
 62
1
 10
879.000000
 20
589.090459
 40
6.000000
 50
272.000000
 51
0.000000
  0
ARC
  8
MODEL-0
  6
CONTINUOUS
 62
1
 10
872.500000
 20
597.310471
 40
6.000000
 50
102.490253
 51
180.000000
  0
LINE
  8
MODEL-0
  6
CONTINUOUS
 62
1
 10
839.684082
 20
605.000000
 11
850.500000
 21
605.000000
  0
LINE
  8
MODEL-0
  6
CONTINUOUS
 62
1
 10
839.684082
 20
611.000000
 11
850.500000
 21
611.000000
  0
LINE
  8
MODEL-0
  6
CONTINUOUS
 62
1
 10
839.684082
 20
366.000000
 11
839.684082
 21
442.000000
  0
LINE
  8
MODEL-0
  6
CONTINUOUS
 62
1
 10
842.412979
 20
366.143006
 11
839.684082
 21
366.000000
  0
ARC
  8
MODEL-0
  6
CONTINUOUS
 62
1
 10
842.386810
 20
366.642334
 40
0.500002
 50
273.000153
 51
330.000137
  0
LINE
  8
MODEL-0
  6
CONTINUOUS
 62
1
 10
842.819824
 20
366.392334
 11
848.706054
 21
376.587586
  0
ARC
  8
MODEL-0
  6
CONTINUOUS
 62
1
 10
849.139068
 20
376.337586
 40
0.500002
 50
93.000122
 51
150.000153
  0
LINE
  8
MODEL-0
  6
CONTINUOUS
 62
1
 10
855.210251
 20
377.156464
 11
849.112899
 21
376.836914
  0
ARC
  8
MODEL-0
  6
CONTINUOUS
 62
1
 10
855.184082
 20
377.655762
 40
0.500000
 50
272.999969
 51
0.000000
  0
LINE
  8
MODEL-0
  6
CONTINUOUS
 62
1
 10
842.412979
 20
441.856964
 11
839.684082
 21
442.000000
  0
ARC
  8
MODEL-0
  6
CONTINUOUS
 62
1
 10
842.386810
 20
441.357666
 40
0.500000
 50
29.999809
 51
86.999770
  0
ARC
  8
MODEL-0
  6
CONTINUOUS
 62
1
 10
874.184082
 20
399.474488
 40
0.500000
 50
273.000046
 51
0.000000
  0
LINE
  8
MODEL-0
  6
CONTINUOUS
 62
1
 10
874.684082
 20
399.474488
 11
874.684082
 21
407.576538
  0
ARC
  8
MODEL-0
  6
CONTINUOUS
 62
1
 10
849.139084
 20
431.662384
 40
0.500002
 50
209.999863
 51
266.999863
  0
LINE
  8
MODEL-0
  6
CONTINUOUS
 62
1
 10
842.819824
 20
441.607666
 11
848.706070
 21
431.412384
  0
ARC
  8
MODEL-0
  6
CONTINUOUS
 62
1
 10
873.184082
 20
407.576538
 40
1.500000
 50
0.000000
 51
86.999992
  0
LINE
  8
MODEL-0
  6
CONTINUOUS
 62
1
 10
854.262588
 20
430.893189
 11
849.112915
 21
431.163086
  0
ARC
  8
MODEL-0
  6
CONTINUOUS
 62
1
 10
854.184082
 20
429.395234
 40
1.500000
 50
0.000000
 51
87.000023
  0
LINE
  8
MODEL-0
  6
CONTINUOUS
 62
1
 10
855.684082
 20
415.689515
 11
855.684082
 21
429.395234
  0
LINE
  8
MODEL-0
  6
CONTINUOUS
 62
1
 10
873.262573
 20
409.074494
 11
861.370071
 21
409.697754
  0
ARC
  8
MODEL-0
  6
CONTINUOUS
 62
1
 10
861.684082
 20
415.689515
 40
5.999998
 50
180.000000
 51
267.000015
  0
LINE
  8
MODEL-0
  6
CONTINUOUS
 62
1
 10
868.498108
 20
378.145325
 11
855.684082
 21
377.473786
  0
ARC
  8
MODEL-0
  6
CONTINUOUS
 62
1
 10
868.184082
 20
384.137116
 40
6.000000
 50
273.000000
 51
0.000000
  0
LINE
  8
MODEL-0
  6
CONTINUOUS
 62
1
 10
874.184082
 20
384.137116
 11
874.184082
 21
398.973786
  0
ARC
  8
MODEL-0
  6
CONTINUOUS
 62
1
 10
861.684082
 20
392.310456
 40
6.000000
 50
93.000000
 51
180.000000
  0
LINE
  8
MODEL-0
  6
CONTINUOUS
 62
1
 10
874.184082
 20
398.973786
 11
861.370056
 21
398.302216
  0
LINE
  8
MODEL-0
  6
DASH_2_167774853
 62
1
 10
855.684082
 20
392.310456
 11
855.684082
 21
387.250000
  0
LINE
  8
MODEL-0
  6
CONTINUOUS
 62
1
 10
855.684082
 20
377.473786
 11
855.684082
 21
392.310456
  0
LINE
  8
MODEL-0
  6
CONTINUOUS
 62
1
 10
848.706069
 20
431.412384
 11
848.706069
 21
376.587612
  0
LINE
  8
MODEL-0
  6
CONTINUOUS
 62
1
 10
909.524702
 20
632.556432
 11
917.725712
 21
640.757442
  0
ARC
  8
MODEL-0
  6
CONTINUOUS
 62
1
 10
893.684082
 20
664.799073
 40
6.000000
 50
45.000000
 51
90.000000
  0
ARC
  8
MODEL-0
  6
CONTINUOUS
 62
1
 10
913.483072
 20
645.000083
 40
6.000000
 50
315.000000
 51
45.000000
  0
ARC
  8
MODEL-0
  6
CONTINUOUS
 62
1
 10
905.282061
 20
636.799073
 40
6.000000
 50
270.000000
 51
315.000000
  0
LINE
  8
MODEL-0
  6
CONTINUOUS
 62
1
 10
839.684082
 20
630.799073
 11
905.282061
 21
630.799073
  0
LINE
  8
MODEL-0
  6
CONTINUOUS
 62
1
 10
893.684082
 20
670.799073
 11
839.684082
 21
670.799073
  0
LINE
  8
MODEL-0
  6
CONTINUOUS
 62
1
 10
839.684082
 20
670.799073
 11
839.684082
 21
630.799073
  0
LINE
  8
MODEL-0
  6
CONTINUOUS
 62
1
 10
917.725712
 20
649.242723
 11
897.926722
 21
669.041713
  0
ENDSEC
  0
EOF
