  0
SECTION
  2
HEADER
  9
$LIMMIN
 10
0.000000
 20
0.000000
  9
$LIMMAX
 10
4000.000000
 20
2500.000000
  9
$EXTMIN
 10
0.000000
 20
0.000000
  9
$EXTMAX
 10
4000.000000
 20
2500.000000
  9
$ANGBASE
 50
0.0
  9
$ANGDIR
 70
0
  9
$DIMRND
 40
0.100000
  9
$DIMSE1
 70
0
  9
$DIMSE2
 70
0
  9
$DIMTXT
 40
3.500000
  9
$LTSCALE
 40
1.000000
  9
$LUPREC
 70
5
  9
$AUPREC
 70
5
  9
$PDMODE
 70
2
  9
$PDSIZE
 40
20.000000
  0
ENDSEC
  0
SECTION
  2
TABLES
  0
TABLE
  2
VPORT
  70
1
  0
VPORT
  2
*ACTIVE
 70
0
  10
0.0
 20
0.0
 11
1.0
 21
1.0
 12
594.0
 22
420.0
 13
0.0
 23
0.0
 14
10.0
 24
10.0
 15
10.0
 25
10.0
 16
0.0
 26
0.0
 36
1.0
 17
594.0
 27
420.0
 37
100.0
 40
1000.0
 41
1.0
 42
50.0
 43
0.0
 44
0.0
 50
0.0
 51
0.0
 71
0
 72
2000
 73
1
 74
3
 75
0
 76
0
 77
0
 78
1
  0
ENDTAB
  0
TABLE
  2
LTYPE
 70
4
  0
LTYPE
  2
CONTINUOUS
 70
0
  3
Solid line
 72
65
 73
0
 40
0.0
  0
LTYPE
  2
DASHED
 70
0
  3
Dashed line
 72
65
 73
2
 40
6.000000
 49
3.000000
 49
-3.000000
  0
LTYPE
  2
CENTER
 70
0
  3
Chain line
 72
65
 73
4
 40
24.000000
 49
15.000000
 49
-3.000000
 49
3.000000
 49
-3.000000
  0
LTYPE
  2
RANDOM
 70
0
  3
Random line
 72
65
 73
4
 40
22.500000
 49
6.000000
 49
-3.000000
 49
4.500000
 49
-9.000000
  0
ENDTAB
  0
TABLE
  2
STYLE
 70
9
  0
STYLE
  2
STANDARD
 40
0
 41
1.0
 50
0.0
 71
0
 42
0
  3
simplex
  4

 70
0
  0
ENDTAB
  0
TABLE
  2
LAYER
 70
2
  0
LAYER
  2
0
 70
0
 62
7
  6
CONTINUOUS
  0
LAYER
  2
0
 62
1
  6
CONTINUOUS
 70
0
  0
ENDTAB
  0
ENDSEC
  0
SECTION
  2
BLOCKS
  0
ENDSEC
  0
SECTION
  2
ENTITIES
  0
LINE
  8
0
  6
CONTINUOUS
 62
1
 10
660.524371
 20
732.440761
 11
1560.524371
 21
732.440761
  0
LINE
  8
0
  6
CONTINUOUS
 62
1
 10
1560.524371
 20
732.440761
 11
1560.524371
 21
1487.440761
  0
LINE
  8
0
  6
CONTINUOUS
 62
1
 10
1560.524371
 20
1487.440761
 11
660.524371
 21
1487.440761
  0
LINE
  8
0
  6
CONTINUOUS
 62
1
 10
660.524371
 20
1487.440761
 11
660.524371
 21
732.440761
  0
LINE
  8
0
  6
CONTINUOUS
 62
1
 10
660.524371
 20
747.440761
 11
1560.524371
 21
747.440761
  0
LINE
  8
0
  6
CONTINUOUS
 62
1
 10
1440.524371
 20
1299.932216
 11
1440.524371
 21
747.440761
  0
LINE
  8
0
  6
CONTINUOUS
 62
1
 10
1440.524371
 20
865.330166
 11
660.524371
 21
865.330166
  0
LINE
  8
0
  6
CONTINUOUS
 62
1
 10
660.524371
 20
887.440761
 11
1420.524371
 21
887.440761
  0
LINE
  8
0
  6
CONTINUOUS
 62
1
 10
1420.524371
 20
887.440761
 11
1420.524371
 21
1288.239834
  0
LINE
  8
0
  6
CONTINUOUS
 62
1
 10
1420.524371
 20
1288.239834
 11
660.524371
 21
1288.239834
  0
ARC
  8
0
  6
CONTINUOUS
 62
1
 10
1340.524371
 20
1390.939785
 40
25.000000
 50
180.000000
 51
0.000000
  0
ARC
  8
0
  6
CONTINUOUS
 62
1
 10
1340.524371
 20
1390.939785
 40
25.000000
 50
0.000000
 51
180.000000
  0
ARC
  8
0
  6
CONTINUOUS
 62
1
 10
1500.524371
 20
1195.440761
 40
25.000000
 50
180.000000
 51
0.000000
  0
ARC
  8
0
  6
CONTINUOUS
 62
1
 10
1500.524371
 20
1195.440761
 40
25.000000
 50
0.000000
 51
180.000000
  0
LINE
  8
0
  6
CONTINUOUS
 62
1
 10
1365.019268
 20
1395.939785
 11
1316.029473
 21
1395.939785
  0
LINE
  8
0
  6
CONTINUOUS
 62
1
 10
1365.019268
 20
1385.939785
 11
1316.029473
 21
1385.939785
  0
LINE
  8
0
  6
CONTINUOUS
 62
1
 10
1525.019268
 20
1200.440761
 11
1476.029473
 21
1200.440761
  0
LINE
  8
0
  6
CONTINUOUS
 62
1
 10
1525.019268
 20
1190.440761
 11
1476.029473
 21
1190.440761
  0
LINE
  8
0
  6
CONTINUOUS
 62
1
 10
766.524371
 20
588.440761
 11
755.524371
 21
592.440746
  0
LINE
  8
0
  6
CONTINUOUS
 62
1
 10
714.524371
 20
588.440761
 11
725.524371
 21
592.440746
  0
LINE
  8
0
  6
CONTINUOUS
 62
1
 10
714.524371
 20
588.440761
 11
714.524371
 21
587.440761
  0
LINE
  8
0
  6
CONTINUOUS
 62
1
 10
766.524371
 20
588.440761
 11
714.524371
 21
588.440761
  0
LINE
  8
0
  6
CONTINUOUS
 62
1
 10
755.524371
 20
592.440746
 11
725.555315
 21
592.440746
  0
LINE
  8
0
  6
CONTINUOUS
 62
1
 10
766.524371
 20
587.440761
 11
714.524371
 21
587.440761
  0
LINE
  8
0
  6
CONTINUOUS
 62
1
 10
766.524371
 20
588.440761
 11
766.524371
 21
587.440761
  0
LINE
  8
0
  6
CONTINUOUS
 62
1
 10
785.024371
 20
732.440761
 11
696.024371
 21
732.440761
  0
LINE
  8
0
  6
CONTINUOUS
 62
1
 10
785.024371
 20
722.440761
 11
696.024371
 21
722.440761
  0
LINE
  8
0
  6
CENTER
 62
4
 10
706.024371
 20
732.440761
 11
706.024371
 21
716.528301
  0
LINE
  8
0
  6
CONTINUOUS
 62
1
 10
696.024371
 20
732.440761
 11
696.024371
 21
722.440761
  0
LINE
  8
0
  6
CONTINUOUS
 62
1
 10
718.086222
 20
716.503261
 11
719.056277
 21
623.378254
  0
ARC
  8
0
  6
CONTINUOUS
 62
1
 10
712.086550
 20
716.440761
 40
6.000000
 50
0.596809
 51
90.000000
  0
ARC
  8
0
  6
CONTINUOUS
 62
1
 10
768.962206
 20
716.440761
 40
6.000000
 50
90.000000
 51
179.403198
  0
LINE
  8
0
  6
CENTER
 62
4
 10
775.024371
 20
732.440761
 11
775.024371
 21
716.677067
  0
LINE
  8
0
  6
CONTINUOUS
 62
1
 10
785.024371
 20
732.440761
 11
785.024371
 21
722.440761
  0
ARC
  8
0
  6
CONTINUOUS
 62
1
 10
755.992800
 20
623.440754
 40
5.999996
 50
269.999969
 51
359.403160
  0
ARC
  8
0
  6
CONTINUOUS
 62
1
 10
725.055956
 20
623.440754
 40
6.000000
 50
180.596802
 51
270.000000
  0
LINE
  8
0
  6
CONTINUOUS
 62
1
 10
762.962527
 20
716.503261
 11
761.992480
 21
623.378254
  0
LINE
  8
0
  6
CONTINUOUS
 62
1
 10
755.992800
 20
617.440754
 11
725.055956
 21
617.440754
  0
LINE
  8
0
  6
CONTINUOUS
 62
1
 10
1506.524371
 20
588.440761
 11
1495.524371
 21
592.440746
  0
LINE
  8
0
  6
CONTINUOUS
 62
1
 10
1454.524371
 20
588.440761
 11
1465.524371
 21
592.440746
  0
LINE
  8
0
  6
CONTINUOUS
 62
1
 10
1454.524371
 20
588.440761
 11
1454.524371
 21
587.440761
  0
LINE
  8
0
  6
CONTINUOUS
 62
1
 10
1506.524371
 20
588.440761
 11
1454.524371
 21
588.440761
  0
LINE
  8
0
  6
CONTINUOUS
 62
1
 10
1495.524371
 20
592.440746
 11
1465.555315
 21
592.440746
  0
LINE
  8
0
  6
CONTINUOUS
 62
1
 10
1506.524371
 20
587.440761
 11
1454.524371
 21
587.440761
  0
LINE
  8
0
  6
CONTINUOUS
 62
1
 10
1506.524371
 20
588.440761
 11
1506.524371
 21
587.440761
  0
LINE
  8
0
  6
CONTINUOUS
 62
1
 10
1525.024371
 20
732.440761
 11
1436.024371
 21
732.440761
  0
LINE
  8
0
  6
CONTINUOUS
 62
1
 10
1525.024371
 20
722.440761
 11
1436.024371
 21
722.440761
  0
LINE
  8
0
  6
CENTER
 62
4
 10
1446.024371
 20
732.440761
 11
1446.024371
 21
716.528301
  0
LINE
  8
0
  6
CONTINUOUS
 62
1
 10
1436.024371
 20
732.440761
 11
1436.024371
 21
722.440761
  0
LINE
  8
0
  6
CONTINUOUS
 62
1
 10
1458.086222
 20
716.503261
 11
1459.056277
 21
623.378254
  0
ARC
  8
0
  6
CONTINUOUS
 62
1
 10
1452.086550
 20
716.440761
 40
6.000000
 50
0.596809
 51
90.000000
  0
ARC
  8
0
  6
CONTINUOUS
 62
1
 10
1508.962206
 20
716.440761
 40
6.000000
 50
90.000000
 51
179.403198
  0
LINE
  8
0
  6
CENTER
 62
4
 10
1515.024371
 20
732.440761
 11
1515.024371
 21
716.677067
  0
LINE
  8
0
  6
CONTINUOUS
 62
1
 10
1525.024371
 20
732.440761
 11
1525.024371
 21
722.440761
  0
ARC
  8
0
  6
CONTINUOUS
 62
1
 10
1495.992800
 20
623.440754
 40
5.999996
 50
269.999969
 51
359.403160
  0
ARC
  8
0
  6
CONTINUOUS
 62
1
 10
1465.055956
 20
623.440754
 40
6.000000
 50
180.596802
 51
270.000000
  0
LINE
  8
0
  6
CONTINUOUS
 62
1
 10
1502.962527
 20
716.503261
 11
1501.992480
 21
623.378254
  0
LINE
  8
0
  6
CONTINUOUS
 62
1
 10
1495.992800
 20
617.440754
 11
1465.055956
 21
617.440754
  0
LINE
  8
0
  6
CONTINUOUS
 62
1
 10
725.046388
 20
617.440761
 11
725.524371
 21
592.440746
  0
LINE
  8
0
  6
CONTINUOUS
 62
1
 10
755.999129
 20
617.440761
 11
755.524371
 21
592.440746
  0
LINE
  8
0
  6
CONTINUOUS
 62
1
 10
1465.055956
 20
617.440754
 11
1465.524371
 21
592.440746
  0
LINE
  8
0
  6
CONTINUOUS
 62
1
 10
1495.992797
 20
617.440758
 11
1495.524371
 21
592.440746
  0
LINE
  8
0
  6
CONTINUOUS
 62
1
 10
1558.024371
 20
1523.788897
 11
1558.024371
 21
1487.440761
  0
LINE
  8
0
  6
CONTINUOUS
 62
1
 10
663.024371
 20
1523.788897
 11
663.024371
 21
1487.440761
  0
LINE
  8
0
  6
CONTINUOUS
 62
1
 10
670.985301
 20
1487.884937
 11
669.008675
 21
1523.788897
  0
LINE
  8
0
  6
CONTINUOUS
 62
1
 10
714.421465
 20
1487.848428
 11
717.723094
 21
1523.788897
  0
LINE
  8
0
  6
CONTINUOUS
 62
1
 10
789.409893
 20
1487.678440
 11
786.425615
 21
1523.788897
  0
LINE
  8
0
  6
CONTINUOUS
 62
1
 10
771.638848
 20
1487.678440
 11
774.623126
 21
1523.788897
  0
LINE
  8
0
  6
CONTINUOUS
 62
1
 10
849.409893
 20
1487.678440
 11
846.425615
 21
1523.788897
  0
LINE
  8
0
  6
CONTINUOUS
 62
1
 10
831.638848
 20
1487.678440
 11
834.623126
 21
1523.788897
  0
LINE
  8
0
  6
CONTINUOUS
 62
1
 10
909.409893
 20
1487.678440
 11
906.425615
 21
1523.788897
  0
LINE
  8
0
  6
CONTINUOUS
 62
1
 10
891.638848
 20
1487.678440
 11
894.623126
 21
1523.788897
  0
LINE
  8
0
  6
CONTINUOUS
 62
1
 10
966.425615
 20
1523.788897
 11
954.623126
 21
1523.788897
  0
LINE
  8
0
  6
CONTINUOUS
 62
1
 10
969.409893
 20
1487.678440
 11
966.425615
 21
1523.788897
  0
LINE
  8
0
  6
CONTINUOUS
 62
1
 10
951.638848
 20
1487.678440
 11
954.623126
 21
1523.788897
  0
LINE
  8
0
  6
CONTINUOUS
 62
1
 10
1026.425615
 20
1523.788897
 11
1014.623126
 21
1523.788897
  0
LINE
  8
0
  6
CONTINUOUS
 62
1
 10
1029.409893
 20
1487.678440
 11
1026.425615
 21
1523.788897
  0
LINE
  8
0
  6
CONTINUOUS
 62
1
 10
1011.638848
 20
1487.678440
 11
1014.623126
 21
1523.788897
  0
LINE
  8
0
  6
CONTINUOUS
 62
1
 10
1086.425615
 20
1523.788897
 11
1074.623126
 21
1523.788897
  0
LINE
  8
0
  6
CONTINUOUS
 62
1
 10
1089.409893
 20
1487.678440
 11
1086.425615
 21
1523.788897
  0
LINE
  8
0
  6
CONTINUOUS
 62
1
 10
1071.638848
 20
1487.678440
 11
1074.623126
 21
1523.788897
  0
LINE
  8
0
  6
CONTINUOUS
 62
1
 10
1146.425615
 20
1523.788897
 11
1134.623126
 21
1523.788897
  0
LINE
  8
0
  6
CONTINUOUS
 62
1
 10
1149.409893
 20
1487.678440
 11
1146.425615
 21
1523.788897
  0
LINE
  8
0
  6
CONTINUOUS
 62
1
 10
1131.638848
 20
1487.678440
 11
1134.623126
 21
1523.788897
  0
LINE
  8
0
  6
CONTINUOUS
 62
1
 10
1206.425615
 20
1523.788897
 11
1194.623126
 21
1523.788897
  0
LINE
  8
0
  6
CONTINUOUS
 62
1
 10
1209.409893
 20
1487.678440
 11
1206.425615
 21
1523.788897
  0
LINE
  8
0
  6
CONTINUOUS
 62
1
 10
1191.638848
 20
1487.678440
 11
1194.623126
 21
1523.788897
  0
LINE
  8
0
  6
CONTINUOUS
 62
1
 10
1266.425615
 20
1523.788897
 11
1254.623126
 21
1523.788897
  0
LINE
  8
0
  6
CONTINUOUS
 62
1
 10
1269.409893
 20
1487.678440
 11
1266.425615
 21
1523.788897
  0
LINE
  8
0
  6
CONTINUOUS
 62
1
 10
1251.638848
 20
1487.678440
 11
1254.623126
 21
1523.788897
  0
LINE
  8
0
  6
CONTINUOUS
 62
1
 10
1311.638848
 20
1487.678440
 11
1314.623126
 21
1523.788897
  0
LINE
  8
0
  6
CONTINUOUS
 62
1
 10
1389.409893
 20
1487.678440
 11
1386.425615
 21
1523.788897
  0
LINE
  8
0
  6
CONTINUOUS
 62
1
 10
1371.638848
 20
1487.678440
 11
1374.623126
 21
1523.788897
  0
LINE
  8
0
  6
CONTINUOUS
 62
1
 10
1449.409893
 20
1487.678440
 11
1446.425615
 21
1523.788897
  0
LINE
  8
0
  6
CONTINUOUS
 62
1
 10
1431.638848
 20
1487.678440
 11
1434.623126
 21
1523.788897
  0
LINE
  8
0
  6
CONTINUOUS
 62
1
 10
1506.452892
 20
1487.848428
 11
1503.151263
 21
1523.788897
  0
LINE
  8
0
  6
CONTINUOUS
 62
1
 10
1491.638848
 20
1487.678440
 11
1494.623126
 21
1523.788897
  0
LINE
  8
0
  6
CONTINUOUS
 62
1
 10
1550.595849
 20
1487.848428
 11
1553.897478
 21
1523.788897
  0
LINE
  8
0
  6
CONTINUOUS
 62
1
 10
1314.623126
 20
1523.788897
 11
1326.425615
 21
1523.788897
  0
LINE
  8
0
  6
CONTINUOUS
 62
1
 10
1374.623126
 20
1523.788897
 11
1386.425615
 21
1523.788897
  0
LINE
  8
0
  6
CONTINUOUS
 62
1
 10
1434.623126
 20
1523.788897
 11
1446.425615
 21
1523.788897
  0
LINE
  8
0
  6
CONTINUOUS
 62
1
 10
1494.623126
 20
1523.788897
 11
1503.151263
 21
1523.788897
  0
LINE
  8
0
  6
CONTINUOUS
 62
1
 10
1553.897478
 20
1523.788897
 11
1558.024371
 21
1523.788897
  0
LINE
  8
0
  6
CONTINUOUS
 62
1
 10
663.024371
 20
1523.788897
 11
669.008675
 21
1523.788897
  0
LINE
  8
0
  6
CONTINUOUS
 62
1
 10
717.723094
 20
1523.788897
 11
726.425615
 21
1523.788897
  0
LINE
  8
0
  6
CONTINUOUS
 62
1
 10
774.623126
 20
1523.788897
 11
786.425615
 21
1523.788897
  0
LINE
  8
0
  6
CONTINUOUS
 62
1
 10
834.623126
 20
1523.788897
 11
846.425615
 21
1523.788897
  0
LINE
  8
0
  6
CONTINUOUS
 62
1
 10
894.623126
 20
1523.788897
 11
906.425615
 21
1523.788897
  0
LINE
  8
0
  6
CONTINUOUS
 62
1
 10
729.409893
 20
1487.678440
 11
726.425615
 21
1523.788897
  0
LINE
  8
0
  6
CONTINUOUS
 62
1
 10
1326.425615
 20
1523.788897
 11
1329.409893
 21
1487.678440
  0
LINE
  8
0
  6
CONTINUOUS
 62
1
 10
1440.524371
 20
852.330166
 11
660.524371
 21
852.330166
  0
LINE
  8
0
  6
CONTINUOUS
 62
1
 10
1440.524371
 20
814.330166
 11
660.524371
 21
814.330166
  0
LINE
  8
0
  6
CONTINUOUS
 62
1
 10
1560.524371
 20
1299.932216
 11
660.524371
 21
1299.932216
  0
LINE
  8
0
  6
CONTINUOUS
 62
1
 10
1560.524371
 20
1324.932216
 11
660.524371
 21
1324.932216
  0
LINE
  8
0
  6
CONTINUOUS
 62
1
 10
1560.524371
 20
1439.439785
 11
660.524371
 21
1439.439785
  0
CIRCLE
  8
0
  6
CONTINUOUS
 62
1
 10
1501.182640
 20
991.440761
 40
38.000000
  0
CIRCLE
  8
0
  6
CONTINUOUS
 62
1
 10
1500.524371
 20
1195.440761
 40
27.000000
  0
CIRCLE
  8
0
  6
CONTINUOUS
 62
1
 10
1340.524371
 20
1390.939785
 40
27.000000
  0
ARC
  8
0
  6
CONTINUOUS
 62
1
 10
1501.182640
 20
991.440761
 40
25.000000
 50
180.000000
 51
0.000000
  0
ARC
  8
0
  6
CONTINUOUS
 62
1
 10
1501.182640
 20
991.440761
 40
25.000000
 50
0.000000
 51
180.000000
  0
LINE
  8
0
  6
CONTINUOUS
 62
1
 10
1525.677537
 20
996.440761
 11
1476.687742
 21
996.440761
  0
LINE
  8
0
  6
CONTINUOUS
 62
1
 10
1525.677537
 20
986.440761
 11
1476.687742
 21
986.440761
  0
CIRCLE
  8
0
  6
CONTINUOUS
 62
1
 10
1501.182640
 20
991.440761
 40
27.000000
  0
LINE
  8
0
  6
CONTINUOUS
 62
1
 10
715.524371
 20
1258.239834
 11
715.524371
 21
1218.239834
  0
LINE
  8
0
  6
CONTINUOUS
 62
1
 10
690.524371
 20
1254.082745
 11
690.524371
 21
1222.396922
  0
LINE
  8
0
  6
CONTINUOUS
 62
1
 10
715.524371
 20
1218.239834
 11
693.367363
 21
1219.401033
  0
LINE
  8
0
  6
CONTINUOUS
 62
1
 10
715.524371
 20
1258.239834
 11
693.367363
 21
1257.078634
  0
ARC
  8
0
  6
CONTINUOUS
 62
1
 10
693.524371
 20
1254.082745
 40
3.000000
 50
93.000000
 51
180.000000
  0
ARC
  8
0
  6
CONTINUOUS
 62
1
 10
693.524371
 20
1222.396922
 40
3.000000
 50
180.000000
 51
267.000000
  0
LINE
  8
0
  6
CONTINUOUS
 62
1
 10
1365.524371
 20
1258.239834
 11
1365.524371
 21
1218.239834
  0
LINE
  8
0
  6
CONTINUOUS
 62
1
 10
1390.524371
 20
1254.082745
 11
1390.524371
 21
1222.396922
  0
LINE
  8
0
  6
CONTINUOUS
 62
1
 10
1365.524371
 20
1218.239834
 11
1387.681378
 21
1219.401033
  0
LINE
  8
0
  6
CONTINUOUS
 62
1
 10
1365.524371
 20
1258.239834
 11
1387.681378
 21
1257.078634
  0
ARC
  8
0
  6
CONTINUOUS
 62
1
 10
1387.524371
 20
1254.082745
 40
3.000000
 50
0.000000
 51
87.000000
  0
ARC
  8
0
  6
CONTINUOUS
 62
1
 10
1387.524371
 20
1222.396922
 40
3.000000
 50
273.000000
 51
0.000000
  0
LINE
  8
0
  6
CONTINUOUS
 62
1
 10
715.524371
 20
1218.239834
 11
1365.524371
 21
1218.239834
  0
LINE
  8
0
  6
CONTINUOUS
 62
1
 10
715.524371
 20
1258.239834
 11
1365.524371
 21
1258.239834
  0
ENDSEC
  0
EOF
