  0
SECTION
  2
HEADER
  9
$LIMMIN
 10
0.000000
 20
0.000000
  9
$LIMMAX
 10
4000.000000
 20
2500.000000
  9
$EXTMIN
 10
0.000000
 20
0.000000
  9
$EXTMAX
 10
4000.000000
 20
2500.000000
  9
$ANGBASE
 50
0.0
  9
$ANGDIR
 70
0
  9
$DIMRND
 40
0.100000
  9
$DIMSE1
 70
0
  9
$DIMSE2
 70
0
  9
$DIMTXT
 40
3.500000
  9
$LTSCALE
 40
1.000000
  9
$LUPREC
 70
5
  9
$AUPREC
 70
5
  9
$PDMODE
 70
2
  9
$PDSIZE
 40
20.000000
  0
ENDSEC
  0
SECTION
  2
TABLES
  0
TABLE
  2
VPORT
  70
1
  0
VPORT
  2
*ACTIVE
 70
0
  10
0.0
 20
0.0
 11
1.0
 21
1.0
 12
594.0
 22
420.0
 13
0.0
 23
0.0
 14
10.0
 24
10.0
 15
10.0
 25
10.0
 16
0.0
 26
0.0
 36
1.0
 17
594.0
 27
420.0
 37
100.0
 40
1000.0
 41
1.0
 42
50.0
 43
0.0
 44
0.0
 50
0.0
 51
0.0
 71
0
 72
2000
 73
1
 74
3
 75
0
 76
0
 77
0
 78
1
  0
ENDTAB
  0
TABLE
  2
LTYPE
 70
4
  0
LTYPE
  2
CONTINUOUS
 70
0
  3
Solid line
 72
65
 73
0
 40
0.0
  0
LTYPE
  2
DASHED
 70
0
  3
Dashed line
 72
65
 73
2
 40
6.000000
 49
3.000000
 49
-3.000000
  0
LTYPE
  2
CENTER
 70
0
  3
Chain line
 72
65
 73
4
 40
24.000000
 49
15.000000
 49
-3.000000
 49
3.000000
 49
-3.000000
  0
LTYPE
  2
RANDOM
 70
0
  3
Random line
 72
65
 73
4
 40
22.500000
 49
6.000000
 49
-3.000000
 49
4.500000
 49
-9.000000
  0
ENDTAB
  0
TABLE
  2
STYLE
 70
9
  0
STYLE
  2
STANDARD
 40
0
 41
1.0
 50
0.0
 71
0
 42
0
  3
simplex
  4

 70
0
  0
ENDTAB
  0
TABLE
  2
LAYER
 70
2
  0
LAYER
  2
0
 70
0
 62
7
  6
CONTINUOUS
  0
LAYER
  2
0
 62
1
  6
CONTINUOUS
 70
0
  0
ENDTAB
  0
ENDSEC
  0
SECTION
  2
BLOCKS
  0
ENDSEC
  0
SECTION
  2
ENTITIES
  0
LINE
  8
0
  6
CONTINUOUS
 62
1
 10
714.267705
 20
1261.213666
 11
1614.267705
 21
1261.213666
  0
LINE
  8
0
  6
CONTINUOUS
 62
1
 10
1614.267705
 20
1261.213666
 11
1614.267705
 21
2016.213666
  0
LINE
  8
0
  6
CONTINUOUS
 62
1
 10
1614.267705
 20
2016.213666
 11
714.267705
 21
2016.213666
  0
LINE
  8
0
  6
CONTINUOUS
 62
1
 10
714.267705
 20
2016.213666
 11
714.267705
 21
1261.213666
  0
LINE
  8
0
  6
CONTINUOUS
 62
1
 10
714.267705
 20
1276.213666
 11
1614.267705
 21
1276.213666
  0
LINE
  8
0
  6
CONTINUOUS
 62
1
 10
1614.267705
 20
1966.213666
 11
714.267705
 21
1966.213666
  0
LINE
  8
0
  6
CONTINUOUS
 62
1
 10
820.267705
 20
1117.213666
 11
809.267705
 21
1121.213651
  0
LINE
  8
0
  6
CONTINUOUS
 62
1
 10
768.267705
 20
1117.213666
 11
779.267705
 21
1121.213651
  0
LINE
  8
0
  6
CONTINUOUS
 62
1
 10
768.267705
 20
1117.213666
 11
768.267705
 21
1116.213666
  0
LINE
  8
0
  6
CONTINUOUS
 62
1
 10
820.267705
 20
1117.213666
 11
768.267705
 21
1117.213666
  0
LINE
  8
0
  6
CONTINUOUS
 62
1
 10
809.267705
 20
1121.213651
 11
779.298649
 21
1121.213651
  0
LINE
  8
0
  6
CONTINUOUS
 62
1
 10
820.267705
 20
1116.213666
 11
768.267705
 21
1116.213666
  0
LINE
  8
0
  6
CONTINUOUS
 62
1
 10
820.267705
 20
1117.213666
 11
820.267705
 21
1116.213666
  0
LINE
  8
0
  6
CONTINUOUS
 62
1
 10
838.767705
 20
1261.213666
 11
749.767705
 21
1261.213666
  0
LINE
  8
0
  6
CONTINUOUS
 62
1
 10
838.767705
 20
1251.213666
 11
749.767705
 21
1251.213666
  0
LINE
  8
0
  6
CENTER
 62
4
 10
759.767705
 20
1261.213666
 11
759.767705
 21
1245.301206
  0
LINE
  8
0
  6
CONTINUOUS
 62
1
 10
749.767705
 20
1261.213666
 11
749.767705
 21
1251.213666
  0
LINE
  8
0
  6
CONTINUOUS
 62
1
 10
771.829556
 20
1245.276166
 11
772.799611
 21
1152.151159
  0
ARC
  8
0
  6
CONTINUOUS
 62
1
 10
765.829884
 20
1245.213666
 40
6.000000
 50
0.596809
 51
90.000000
  0
ARC
  8
0
  6
CONTINUOUS
 62
1
 10
822.705540
 20
1245.213666
 40
6.000000
 50
90.000000
 51
179.403198
  0
LINE
  8
0
  6
CENTER
 62
4
 10
828.767705
 20
1261.213666
 11
828.767705
 21
1245.449971
  0
LINE
  8
0
  6
CONTINUOUS
 62
1
 10
838.767705
 20
1261.213666
 11
838.767705
 21
1251.213666
  0
ARC
  8
0
  6
CONTINUOUS
 62
1
 10
809.736134
 20
1152.213659
 40
5.999996
 50
269.999969
 51
359.403160
  0
ARC
  8
0
  6
CONTINUOUS
 62
1
 10
778.799290
 20
1152.213659
 40
6.000000
 50
180.596802
 51
270.000000
  0
LINE
  8
0
  6
CONTINUOUS
 62
1
 10
816.705861
 20
1245.276166
 11
815.735814
 21
1152.151159
  0
LINE
  8
0
  6
CONTINUOUS
 62
1
 10
809.736134
 20
1146.213659
 11
778.799290
 21
1146.213659
  0
LINE
  8
0
  6
CONTINUOUS
 62
1
 10
1560.267705
 20
1117.213666
 11
1549.267705
 21
1121.213651
  0
LINE
  8
0
  6
CONTINUOUS
 62
1
 10
1508.267705
 20
1117.213666
 11
1519.267705
 21
1121.213651
  0
LINE
  8
0
  6
CONTINUOUS
 62
1
 10
1508.267705
 20
1117.213666
 11
1508.267705
 21
1116.213666
  0
LINE
  8
0
  6
CONTINUOUS
 62
1
 10
1560.267705
 20
1117.213666
 11
1508.267705
 21
1117.213666
  0
LINE
  8
0
  6
CONTINUOUS
 62
1
 10
1549.267705
 20
1121.213651
 11
1519.298649
 21
1121.213651
  0
LINE
  8
0
  6
CONTINUOUS
 62
1
 10
1560.267705
 20
1116.213666
 11
1508.267705
 21
1116.213666
  0
LINE
  8
0
  6
CONTINUOUS
 62
1
 10
1560.267705
 20
1117.213666
 11
1560.267705
 21
1116.213666
  0
LINE
  8
0
  6
CONTINUOUS
 62
1
 10
1578.767705
 20
1261.213666
 11
1489.767705
 21
1261.213666
  0
LINE
  8
0
  6
CONTINUOUS
 62
1
 10
1578.767705
 20
1251.213666
 11
1489.767705
 21
1251.213666
  0
LINE
  8
0
  6
CENTER
 62
4
 10
1499.767705
 20
1261.213666
 11
1499.767705
 21
1245.301206
  0
LINE
  8
0
  6
CONTINUOUS
 62
1
 10
1489.767705
 20
1261.213666
 11
1489.767705
 21
1251.213666
  0
LINE
  8
0
  6
CONTINUOUS
 62
1
 10
1511.829556
 20
1245.276166
 11
1512.799611
 21
1152.151159
  0
ARC
  8
0
  6
CONTINUOUS
 62
1
 10
1505.829884
 20
1245.213666
 40
6.000000
 50
0.596809
 51
90.000000
  0
ARC
  8
0
  6
CONTINUOUS
 62
1
 10
1562.705540
 20
1245.213666
 40
6.000000
 50
90.000000
 51
179.403198
  0
LINE
  8
0
  6
CENTER
 62
4
 10
1568.767705
 20
1261.213666
 11
1568.767705
 21
1245.449971
  0
LINE
  8
0
  6
CONTINUOUS
 62
1
 10
1578.767705
 20
1261.213666
 11
1578.767705
 21
1251.213666
  0
ARC
  8
0
  6
CONTINUOUS
 62
1
 10
1549.736134
 20
1152.213659
 40
5.999996
 50
269.999969
 51
359.403160
  0
ARC
  8
0
  6
CONTINUOUS
 62
1
 10
1518.799290
 20
1152.213659
 40
6.000000
 50
180.596802
 51
270.000000
  0
LINE
  8
0
  6
CONTINUOUS
 62
1
 10
1556.705861
 20
1245.276166
 11
1555.735814
 21
1152.151159
  0
LINE
  8
0
  6
CONTINUOUS
 62
1
 10
1549.736134
 20
1146.213659
 11
1518.799290
 21
1146.213659
  0
LINE
  8
0
  6
CONTINUOUS
 62
1
 10
778.789722
 20
1146.213666
 11
779.267705
 21
1121.213651
  0
LINE
  8
0
  6
CONTINUOUS
 62
1
 10
809.742463
 20
1146.213666
 11
809.267705
 21
1121.213651
  0
LINE
  8
0
  6
CONTINUOUS
 62
1
 10
1518.799290
 20
1146.213659
 11
1519.267705
 21
1121.213651
  0
LINE
  8
0
  6
CONTINUOUS
 62
1
 10
1549.736131
 20
1146.213663
 11
1549.267705
 21
1121.213651
  0
LINE
  8
0
  6
CONTINUOUS
 62
1
 10
1611.767705
 20
2052.561801
 11
1611.767705
 21
2016.213666
  0
LINE
  8
0
  6
CONTINUOUS
 62
1
 10
716.767705
 20
2052.561801
 11
716.767705
 21
2016.213666
  0
LINE
  8
0
  6
CONTINUOUS
 62
1
 10
724.728635
 20
2016.657842
 11
722.752009
 21
2052.561801
  0
LINE
  8
0
  6
CONTINUOUS
 62
1
 10
768.164799
 20
2016.621333
 11
771.466428
 21
2052.561801
  0
LINE
  8
0
  6
CONTINUOUS
 62
1
 10
843.153227
 20
2016.451344
 11
840.168949
 21
2052.561801
  0
LINE
  8
0
  6
CONTINUOUS
 62
1
 10
825.382182
 20
2016.451344
 11
828.366460
 21
2052.561801
  0
LINE
  8
0
  6
CONTINUOUS
 62
1
 10
903.153227
 20
2016.451344
 11
900.168949
 21
2052.561801
  0
LINE
  8
0
  6
CONTINUOUS
 62
1
 10
885.382182
 20
2016.451344
 11
888.366460
 21
2052.561801
  0
LINE
  8
0
  6
CONTINUOUS
 62
1
 10
963.153227
 20
2016.451344
 11
960.168949
 21
2052.561801
  0
LINE
  8
0
  6
CONTINUOUS
 62
1
 10
945.382182
 20
2016.451344
 11
948.366460
 21
2052.561801
  0
LINE
  8
0
  6
CONTINUOUS
 62
1
 10
1020.168949
 20
2052.561801
 11
1008.366460
 21
2052.561801
  0
LINE
  8
0
  6
CONTINUOUS
 62
1
 10
1023.153227
 20
2016.451344
 11
1020.168949
 21
2052.561801
  0
LINE
  8
0
  6
CONTINUOUS
 62
1
 10
1005.382182
 20
2016.451344
 11
1008.366460
 21
2052.561801
  0
LINE
  8
0
  6
CONTINUOUS
 62
1
 10
1080.168949
 20
2052.561801
 11
1068.366460
 21
2052.561801
  0
LINE
  8
0
  6
CONTINUOUS
 62
1
 10
1083.153227
 20
2016.451344
 11
1080.168949
 21
2052.561801
  0
LINE
  8
0
  6
CONTINUOUS
 62
1
 10
1065.382182
 20
2016.451344
 11
1068.366460
 21
2052.561801
  0
LINE
  8
0
  6
CONTINUOUS
 62
1
 10
1140.168949
 20
2052.561801
 11
1128.366460
 21
2052.561801
  0
LINE
  8
0
  6
CONTINUOUS
 62
1
 10
1143.153227
 20
2016.451344
 11
1140.168949
 21
2052.561801
  0
LINE
  8
0
  6
CONTINUOUS
 62
1
 10
1125.382182
 20
2016.451344
 11
1128.366460
 21
2052.561801
  0
LINE
  8
0
  6
CONTINUOUS
 62
1
 10
1200.168949
 20
2052.561801
 11
1188.366460
 21
2052.561801
  0
LINE
  8
0
  6
CONTINUOUS
 62
1
 10
1203.153227
 20
2016.451344
 11
1200.168949
 21
2052.561801
  0
LINE
  8
0
  6
CONTINUOUS
 62
1
 10
1185.382182
 20
2016.451344
 11
1188.366460
 21
2052.561801
  0
LINE
  8
0
  6
CONTINUOUS
 62
1
 10
1260.168949
 20
2052.561801
 11
1248.366460
 21
2052.561801
  0
LINE
  8
0
  6
CONTINUOUS
 62
1
 10
1263.153227
 20
2016.451344
 11
1260.168949
 21
2052.561801
  0
LINE
  8
0
  6
CONTINUOUS
 62
1
 10
1245.382182
 20
2016.451344
 11
1248.366460
 21
2052.561801
  0
LINE
  8
0
  6
CONTINUOUS
 62
1
 10
1320.168949
 20
2052.561801
 11
1308.366460
 21
2052.561801
  0
LINE
  8
0
  6
CONTINUOUS
 62
1
 10
1323.153227
 20
2016.451344
 11
1320.168949
 21
2052.561801
  0
LINE
  8
0
  6
CONTINUOUS
 62
1
 10
1305.382182
 20
2016.451344
 11
1308.366460
 21
2052.561801
  0
LINE
  8
0
  6
CONTINUOUS
 62
1
 10
1365.382182
 20
2016.451344
 11
1368.366460
 21
2052.561801
  0
LINE
  8
0
  6
CONTINUOUS
 62
1
 10
1443.153227
 20
2016.451344
 11
1440.168949
 21
2052.561801
  0
LINE
  8
0
  6
CONTINUOUS
 62
1
 10
1425.382182
 20
2016.451344
 11
1428.366460
 21
2052.561801
  0
LINE
  8
0
  6
CONTINUOUS
 62
1
 10
1503.153227
 20
2016.451344
 11
1500.168949
 21
2052.561801
  0
LINE
  8
0
  6
CONTINUOUS
 62
1
 10
1485.382182
 20
2016.451344
 11
1488.366460
 21
2052.561801
  0
LINE
  8
0
  6
CONTINUOUS
 62
1
 10
1560.196226
 20
2016.621333
 11
1556.894597
 21
2052.561801
  0
LINE
  8
0
  6
CONTINUOUS
 62
1
 10
1545.382182
 20
2016.451344
 11
1548.366460
 21
2052.561801
  0
LINE
  8
0
  6
CONTINUOUS
 62
1
 10
1604.339183
 20
2016.621333
 11
1607.640812
 21
2052.561801
  0
LINE
  8
0
  6
CONTINUOUS
 62
1
 10
1368.366460
 20
2052.561801
 11
1380.168949
 21
2052.561801
  0
LINE
  8
0
  6
CONTINUOUS
 62
1
 10
1428.366460
 20
2052.561801
 11
1440.168949
 21
2052.561801
  0
LINE
  8
0
  6
CONTINUOUS
 62
1
 10
1488.366460
 20
2052.561801
 11
1500.168949
 21
2052.561801
  0
LINE
  8
0
  6
CONTINUOUS
 62
1
 10
1548.366460
 20
2052.561801
 11
1556.894597
 21
2052.561801
  0
LINE
  8
0
  6
CONTINUOUS
 62
1
 10
1607.640812
 20
2052.561801
 11
1611.767705
 21
2052.561801
  0
LINE
  8
0
  6
CONTINUOUS
 62
1
 10
716.767705
 20
2052.561801
 11
722.752009
 21
2052.561801
  0
LINE
  8
0
  6
CONTINUOUS
 62
1
 10
771.466428
 20
2052.561801
 11
780.168949
 21
2052.561801
  0
LINE
  8
0
  6
CONTINUOUS
 62
1
 10
828.366460
 20
2052.561801
 11
840.168949
 21
2052.561801
  0
LINE
  8
0
  6
CONTINUOUS
 62
1
 10
888.366460
 20
2052.561801
 11
900.168949
 21
2052.561801
  0
LINE
  8
0
  6
CONTINUOUS
 62
1
 10
948.366460
 20
2052.561801
 11
960.168949
 21
2052.561801
  0
LINE
  8
0
  6
CONTINUOUS
 62
1
 10
783.153227
 20
2016.451344
 11
780.168949
 21
2052.561801
  0
LINE
  8
0
  6
CONTINUOUS
 62
1
 10
1380.168949
 20
2052.561801
 11
1383.153227
 21
2016.451344
  0
LINE
  8
0
  6
CONTINUOUS
 62
1
 10
1494.267705
 20
1826.706098
 11
1494.267705
 21
1274.214643
  0
LINE
  8
0
  6
CONTINUOUS
 62
1
 10
1494.267705
 20
1392.104047
 11
714.267705
 21
1392.104047
  0
LINE
  8
0
  6
CONTINUOUS
 62
1
 10
714.267705
 20
1414.214643
 11
1474.267705
 21
1414.214643
  0
LINE
  8
0
  6
CONTINUOUS
 62
1
 10
1474.267705
 20
1414.214643
 11
1474.267705
 21
1815.013715
  0
LINE
  8
0
  6
CONTINUOUS
 62
1
 10
1474.267705
 20
1815.013715
 11
714.267705
 21
1815.013715
  0
ARC
  8
0
  6
CONTINUOUS
 62
1
 10
1394.267705
 20
1917.713666
 40
25.000000
 50
180.000000
 51
0.000000
  0
ARC
  8
0
  6
CONTINUOUS
 62
1
 10
1394.267705
 20
1917.713666
 40
25.000000
 50
0.000000
 51
180.000000
  0
ARC
  8
0
  6
CONTINUOUS
 62
1
 10
1554.267705
 20
1722.214643
 40
25.000000
 50
180.000000
 51
0.000000
  0
ARC
  8
0
  6
CONTINUOUS
 62
1
 10
1554.267705
 20
1722.214643
 40
25.000000
 50
0.000000
 51
180.000000
  0
LINE
  8
0
  6
CONTINUOUS
 62
1
 10
1418.762602
 20
1922.713666
 11
1369.772807
 21
1922.713666
  0
LINE
  8
0
  6
CONTINUOUS
 62
1
 10
1418.762602
 20
1912.713666
 11
1369.772807
 21
1912.713666
  0
LINE
  8
0
  6
CONTINUOUS
 62
1
 10
1578.762602
 20
1727.214643
 11
1529.772807
 21
1727.214643
  0
LINE
  8
0
  6
CONTINUOUS
 62
1
 10
1578.762602
 20
1717.214643
 11
1529.772807
 21
1717.214643
  0
LINE
  8
0
  6
CONTINUOUS
 62
1
 10
1494.267705
 20
1379.104047
 11
714.267705
 21
1379.104047
  0
LINE
  8
0
  6
CONTINUOUS
 62
1
 10
1494.267705
 20
1341.104047
 11
714.267705
 21
1341.104047
  0
LINE
  8
0
  6
CONTINUOUS
 62
1
 10
1614.267705
 20
1826.706098
 11
714.267705
 21
1826.706098
  0
LINE
  8
0
  6
CONTINUOUS
 62
1
 10
1614.267705
 20
1851.706098
 11
714.267705
 21
1851.706098
  0
LINE
  8
0
  6
CONTINUOUS
 62
1
 10
1614.267705
 20
1966.213666
 11
714.267705
 21
1966.213666
  0
CIRCLE
  8
0
  6
CONTINUOUS
 62
1
 10
1554.925974
 20
1518.214643
 40
38.000000
  0
CIRCLE
  8
0
  6
CONTINUOUS
 62
1
 10
1554.267705
 20
1722.214643
 40
27.000000
  0
CIRCLE
  8
0
  6
CONTINUOUS
 62
1
 10
1394.267705
 20
1917.713666
 40
27.000000
  0
ARC
  8
0
  6
CONTINUOUS
 62
1
 10
1554.925974
 20
1518.214643
 40
25.000000
 50
180.000000
 51
0.000000
  0
ARC
  8
0
  6
CONTINUOUS
 62
1
 10
1554.925974
 20
1518.214643
 40
25.000000
 50
0.000000
 51
180.000000
  0
LINE
  8
0
  6
CONTINUOUS
 62
1
 10
1579.420871
 20
1523.214643
 11
1530.431076
 21
1523.214643
  0
LINE
  8
0
  6
CONTINUOUS
 62
1
 10
1579.420871
 20
1513.214643
 11
1530.431076
 21
1513.214643
  0
CIRCLE
  8
0
  6
CONTINUOUS
 62
1
 10
1554.925974
 20
1518.214643
 40
27.000000
  0
LINE
  8
0
  6
CONTINUOUS
 62
1
 10
769.267705
 20
1785.013715
 11
769.267705
 21
1745.013715
  0
LINE
  8
0
  6
CONTINUOUS
 62
1
 10
744.267705
 20
1780.856627
 11
744.267705
 21
1749.170803
  0
LINE
  8
0
  6
CONTINUOUS
 62
1
 10
769.267705
 20
1745.013715
 11
747.110697
 21
1746.174915
  0
LINE
  8
0
  6
CONTINUOUS
 62
1
 10
769.267705
 20
1785.013715
 11
747.110697
 21
1783.852515
  0
ARC
  8
0
  6
CONTINUOUS
 62
1
 10
747.267705
 20
1780.856627
 40
3.000000
 50
93.000000
 51
180.000000
  0
ARC
  8
0
  6
CONTINUOUS
 62
1
 10
747.267705
 20
1749.170803
 40
3.000000
 50
180.000000
 51
267.000000
  0
LINE
  8
0
  6
CONTINUOUS
 62
1
 10
1419.267705
 20
1785.013715
 11
1419.267705
 21
1745.013715
  0
LINE
  8
0
  6
CONTINUOUS
 62
1
 10
1444.267705
 20
1780.856627
 11
1444.267705
 21
1749.170803
  0
LINE
  8
0
  6
CONTINUOUS
 62
1
 10
1419.267705
 20
1745.013715
 11
1441.424712
 21
1746.174915
  0
LINE
  8
0
  6
CONTINUOUS
 62
1
 10
1419.267705
 20
1785.013715
 11
1441.424712
 21
1783.852515
  0
ARC
  8
0
  6
CONTINUOUS
 62
1
 10
1441.267705
 20
1780.856627
 40
3.000000
 50
0.000000
 51
87.000000
  0
ARC
  8
0
  6
CONTINUOUS
 62
1
 10
1441.267705
 20
1749.170803
 40
3.000000
 50
273.000000
 51
0.000000
  0
LINE
  8
0
  6
CONTINUOUS
 62
1
 10
769.267705
 20
1745.013715
 11
1419.267705
 21
1745.013715
  0
LINE
  8
0
  6
CONTINUOUS
 62
1
 10
769.267705
 20
1785.013715
 11
1419.267705
 21
1785.013715
  0
ARC
  8
0
  6
CONTINUOUS
 62
1
 10
934.267705
 20
1917.713666
 40
25.000000
 50
180.000000
 51
0.000000
  0
ARC
  8
0
  6
CONTINUOUS
 62
1
 10
934.267705
 20
1917.713666
 40
25.000000
 50
0.000000
 51
180.000000
  0
LINE
  8
0
  6
CONTINUOUS
 62
1
 10
958.762602
 20
1922.713666
 11
909.772807
 21
1922.713666
  0
LINE
  8
0
  6
CONTINUOUS
 62
1
 10
958.762602
 20
1912.713666
 11
909.772807
 21
1912.713666
  0
CIRCLE
  8
0
  6
CONTINUOUS
 62
1
 10
934.267705
 20
1917.713666
 40
27.000000
  0
ENDSEC
  0
EOF
