  0
SECTION
  2
HEADER
  9
$LIMMIN
 10
0.000000
 20
0.000000
  9
$LIMMAX
 10
4000.000000
 20
2500.000000
  9
$EXTMIN
 10
0.000000
 20
0.000000
  9
$EXTMAX
 10
4000.000000
 20
2500.000000
  9
$ANGBASE
 50
0.0
  9
$ANGDIR
 70
0
  9
$DIMRND
 40
0.100000
  9
$DIMSE1
 70
0
  9
$DIMSE2
 70
0
  9
$DIMTXT
 40
3.500000
  9
$LTSCALE
 40
1.000000
  9
$LUPREC
 70
5
  9
$AUPREC
 70
5
  9
$PDMODE
 70
2
  9
$PDSIZE
 40
20.000000
  0
ENDSEC
  0
SECTION
  2
TABLES
  0
TABLE
  2
VPORT
  70
1
  0
VPORT
  2
*ACTIVE
 70
0
  10
0.0
 20
0.0
 11
1.0
 21
1.0
 12
594.0
 22
420.0
 13
0.0
 23
0.0
 14
10.0
 24
10.0
 15
10.0
 25
10.0
 16
0.0
 26
0.0
 36
1.0
 17
594.0
 27
420.0
 37
100.0
 40
1000.0
 41
1.0
 42
50.0
 43
0.0
 44
0.0
 50
0.0
 51
0.0
 71
0
 72
2000
 73
1
 74
3
 75
0
 76
0
 77
0
 78
1
  0
ENDTAB
  0
TABLE
  2
LTYPE
 70
4
  0
LTYPE
  2
CONTINUOUS
 70
0
  3
Solid line
 72
65
 73
0
 40
0.0
  0
LTYPE
  2
DASHED
 70
0
  3
Dashed line
 72
65
 73
2
 40
6.000000
 49
3.000000
 49
-3.000000
  0
LTYPE
  2
CENTER
 70
0
  3
Chain line
 72
65
 73
4
 40
24.000000
 49
15.000000
 49
-3.000000
 49
3.000000
 49
-3.000000
  0
LTYPE
  2
RANDOM
 70
0
  3
Random line
 72
65
 73
4
 40
22.500000
 49
6.000000
 49
-3.000000
 49
4.500000
 49
-9.000000
  0
ENDTAB
  0
TABLE
  2
STYLE
 70
9
  0
STYLE
  2
STANDARD
 40
0
 41
1.0
 50
0.0
 71
0
 42
0
  3
simplex
  4

 70
0
  0
ENDTAB
  0
TABLE
  2
LAYER
 70
2
  0
LAYER
  2
0
 70
0
 62
7
  6
CONTINUOUS
  0
LAYER
  2
0
 62
1
  6
CONTINUOUS
 70
0
  0
ENDTAB
  0
ENDSEC
  0
SECTION
  2
BLOCKS
  0
ENDSEC
  0
SECTION
  2
ENTITIES
  0
LINE
  8
0
  6
CONTINUOUS
 62
1
 10
717.047119
 20
1327.873403
 11
717.047119
 21
390.873403
  0
LINE
  8
0
  6
CONTINUOUS
 62
1
 10
1617.047119
 20
435.873403
 11
1617.047119
 21
1327.873403
  0
LINE
  8
0
  6
CONTINUOUS
 62
1
 10
1617.047119
 20
1327.873403
 11
717.047119
 21
1327.873403
  0
LINE
  8
0
  6
CONTINUOUS
 62
1
 10
717.047119
 20
581.873403
 11
1617.047119
 21
581.873403
  0
LINE
  8
0
  6
CONTINUOUS
 62
1
 10
721.047058
 20
585.373403
 11
1166.047119
 21
585.373403
  0
LINE
  8
0
  6
CONTINUOUS
 62
1
 10
721.047058
 20
585.373403
 11
721.047058
 21
890.373403
  0
LINE
  8
0
  6
CONTINUOUS
 62
1
 10
1166.047119
 20
585.373403
 11
1166.047119
 21
890.373403
  0
LINE
  8
0
  6
CONTINUOUS
 62
1
 10
721.047058
 20
890.373403
 11
826.125808
 21
890.373403
  0
LINE
  8
0
  6
CONTINUOUS
 62
1
 10
1060.968308
 20
890.373403
 11
1166.047119
 21
890.373403
  0
ARC
  8
0
  6
CONTINUOUS
 62
1
 10
943.547058
 20
817.873403
 40
142.000000
 50
149.298636
 51
0.000000
  0
ARC
  8
0
  6
CONTINUOUS
 62
1
 10
943.547058
 20
817.873403
 40
142.000000
 50
0.000000
 51
30.701364
  0
LINE
  8
0
  6
CONTINUOUS
 62
1
 10
1613.047180
 20
585.373403
 11
1168.047119
 21
585.373403
  0
LINE
  8
0
  6
CONTINUOUS
 62
1
 10
1168.047119
 20
585.373403
 11
1168.047119
 21
890.373403
  0
LINE
  8
0
  6
CONTINUOUS
 62
1
 10
1613.047180
 20
890.373403
 11
1507.968430
 21
890.373403
  0
LINE
  8
0
  6
CONTINUOUS
 62
1
 10
1273.125930
 20
890.373403
 11
1168.047119
 21
890.373403
  0
ARC
  8
0
  6
CONTINUOUS
 62
1
 10
1390.547180
 20
817.873403
 40
142.000000
 50
180.000000
 51
30.701364
  0
ARC
  8
0
  6
CONTINUOUS
 62
1
 10
1390.547180
 20
817.873403
 40
142.000000
 50
149.298636
 51
180.000000
  0
LINE
  8
0
  6
CONTINUOUS
 62
1
 10
1617.047119
 20
606.873403
 11
1617.047119
 21
390.873403
  0
LINE
  8
0
  6
CONTINUOUS
 62
1
 10
717.047119
 20
581.873403
 11
1617.047119
 21
581.873403
  0
LINE
  8
0
  6
CONTINUOUS
 62
1
 10
1617.047119
 20
1198.873403
 11
1617.047119
 21
581.873403
  0
LINE
  8
0
  6
CONTINUOUS
 62
1
 10
1614.047119
 20
1198.873403
 11
1617.047119
 21
1198.873403
  0
LINE
  8
0
  6
CONTINUOUS
 62
1
 10
1617.047119
 20
1198.873403
 11
717.047119
 21
1198.873403
  0
LINE
  8
0
  6
CONTINUOUS
 62
1
 10
717.047119
 20
1327.873403
 11
1617.047119
 21
1327.873403
  0
LINE
  8
0
  6
CONTINUOUS
 62
1
 10
717.047119
 20
1327.873403
 11
717.047119
 21
1173.873403
  0
LINE
  8
0
  6
CONTINUOUS
 62
1
 10
1617.047119
 20
1327.873403
 11
1617.047119
 21
1173.873403
  0
LINE
  8
0
  6
CONTINUOUS
 62
1
 10
717.047119
 20
1198.873403
 11
717.047119
 21
454.873403
  0
LINE
  8
0
  6
CONTINUOUS
 62
1
 10
720.047119
 20
581.873403
 11
717.047119
 21
581.873403
  0
LINE
  8
0
  6
CONTINUOUS
 62
1
 10
720.047119
 20
1198.873403
 11
717.047119
 21
1198.873403
  0
CIRCLE
  8
0
  6
CONTINUOUS
 62
1
 10
943.547058
 20
817.873403
 40
86.000000
  0
CIRCLE
  8
0
  6
CONTINUOUS
 62
1
 10
1390.547180
 20
817.873403
 40
86.000000
  0
LINE
  8
0
  6
CONTINUOUS
 62
1
 10
1166.047119
 20
890.373403
 11
1166.047119
 21
1195.373403
  0
ARC
  8
0
  6
CONTINUOUS
 62
1
 10
943.547058
 20
817.873403
 40
142.000000
 50
30.701364
 51
149.298636
  0
LINE
  8
0
  6
CONTINUOUS
 62
1
 10
1168.047119
 20
1195.373403
 11
1613.047180
 21
1195.373403
  0
LINE
  8
0
  6
CONTINUOUS
 62
1
 10
1613.047180
 20
585.373403
 11
1613.047180
 21
1195.373403
  0
LINE
  8
0
  6
CONTINUOUS
 62
1
 10
1168.047119
 20
890.373403
 11
1168.047119
 21
1195.373403
  0
ARC
  8
0
  6
CONTINUOUS
 62
1
 10
1390.547180
 20
817.873403
 40
142.000000
 50
31.644542
 51
149.298636
  0
CIRCLE
  8
0
  6
CONTINUOUS
 62
1
 10
943.547058
 20
817.873403
 40
6.500000
  0
CIRCLE
  8
0
  6
CONTINUOUS
 62
1
 10
1390.547180
 20
817.873403
 40
6.500000
  0
LINE
  8
0
  6
CONTINUOUS
 62
1
 10
721.047058
 20
890.373403
 11
721.047058
 21
1195.373403
  0
LINE
  8
0
  6
CONTINUOUS
 62
1
 10
1166.047119
 20
1195.373403
 11
721.047058
 21
1195.373403
  0
LINE
  8
0
  6
CONTINUOUS
 62
1
 10
1617.047119
 20
390.873403
 11
717.047119
 21
390.873403
  0
ARC
  8
0
  6
CONTINUOUS
 62
1
 10
943.547058
 20
817.873403
 40
138.000000
 50
31.692638
 51
148.307362
  0
ARC
  8
0
  6
CONTINUOUS
 62
1
 10
943.547058
 20
817.873403
 40
138.000000
 50
148.307362
 51
31.692638
  0
ARC
  8
0
  6
CONTINUOUS
 62
1
 10
1390.547180
 20
817.873403
 40
138.000000
 50
31.692638
 51
148.307362
  0
ARC
  8
0
  6
CONTINUOUS
 62
1
 10
1390.547180
 20
817.873403
 40
138.000000
 50
149.298636
 51
31.692638
  0
CIRCLE
  8
0
  6
CONTINUOUS
 62
1
 10
943.547058
 20
817.873403
 40
94.000000
  0
CIRCLE
  8
0
  6
CONTINUOUS
 62
1
 10
1390.547180
 20
817.873403
 40
94.000000
  0
LINE
  8
0
  6
CONTINUOUS
 62
1
 10
1168.047119
 20
1195.373403
 11
1166.047119
 21
1195.373403
  0
LINE
  8
0
  6
CONTINUOUS
 62
1
 10
790.046576
 20
1213.983966
 11
824.046576
 21
1213.977806
  0
ARC
  8
0
  6
CONTINUOUS
 62
1
 10
824.047119
 20
1216.977806
 40
3.000000
 50
269.989620
 51
0.000000
  0
ARC
  8
0
  6
CONTINUOUS
 62
1
 10
790.047119
 20
1216.983966
 40
3.000000
 50
180.000000
 51
269.989620
  0
LINE
  8
0
  6
CONTINUOUS
 62
1
 10
850.046576
 20
1213.983966
 11
884.046576
 21
1213.977806
  0
ARC
  8
0
  6
CONTINUOUS
 62
1
 10
884.047119
 20
1216.977806
 40
3.000000
 50
269.989620
 51
0.000000
  0
ARC
  8
0
  6
CONTINUOUS
 62
1
 10
850.047119
 20
1216.983966
 40
3.000000
 50
180.000000
 51
269.989620
  0
LINE
  8
0
  6
CONTINUOUS
 62
1
 10
910.046576
 20
1213.983966
 11
944.046576
 21
1213.977806
  0
ARC
  8
0
  6
CONTINUOUS
 62
1
 10
944.047119
 20
1216.977806
 40
3.000000
 50
269.989620
 51
0.000000
  0
ARC
  8
0
  6
CONTINUOUS
 62
1
 10
910.047119
 20
1216.983966
 40
3.000000
 50
180.000000
 51
269.989620
  0
LINE
  8
0
  6
CONTINUOUS
 62
1
 10
970.046576
 20
1213.983966
 11
1004.046576
 21
1213.977806
  0
ARC
  8
0
  6
CONTINUOUS
 62
1
 10
1004.047119
 20
1216.977806
 40
3.000000
 50
269.989620
 51
0.000000
  0
ARC
  8
0
  6
CONTINUOUS
 62
1
 10
970.047119
 20
1216.983966
 40
3.000000
 50
180.000000
 51
269.989620
  0
LINE
  8
0
  6
CONTINUOUS
 62
1
 10
1030.046576
 20
1213.983966
 11
1064.046576
 21
1213.977806
  0
ARC
  8
0
  6
CONTINUOUS
 62
1
 10
1064.047119
 20
1216.977806
 40
3.000000
 50
269.989620
 51
0.000000
  0
ARC
  8
0
  6
CONTINUOUS
 62
1
 10
1030.047119
 20
1216.983966
 40
3.000000
 50
180.000000
 51
269.989620
  0
LINE
  8
0
  6
CONTINUOUS
 62
1
 10
1090.046576
 20
1213.983966
 11
1124.046576
 21
1213.977806
  0
ARC
  8
0
  6
CONTINUOUS
 62
1
 10
1124.047119
 20
1216.977806
 40
3.000000
 50
269.989620
 51
0.000000
  0
ARC
  8
0
  6
CONTINUOUS
 62
1
 10
1090.047119
 20
1216.983966
 40
3.000000
 50
180.000000
 51
269.989620
  0
LINE
  8
0
  6
CONTINUOUS
 62
1
 10
1150.046576
 20
1213.983966
 11
1184.046576
 21
1213.977806
  0
ARC
  8
0
  6
CONTINUOUS
 62
1
 10
1184.047119
 20
1216.977806
 40
3.000000
 50
269.989620
 51
0.000000
  0
ARC
  8
0
  6
CONTINUOUS
 62
1
 10
1150.047119
 20
1216.983966
 40
3.000000
 50
180.000000
 51
269.989620
  0
LINE
  8
0
  6
CONTINUOUS
 62
1
 10
1210.046576
 20
1213.983966
 11
1244.046576
 21
1213.977806
  0
ARC
  8
0
  6
CONTINUOUS
 62
1
 10
1244.047119
 20
1216.977806
 40
3.000000
 50
269.989620
 51
0.000000
  0
ARC
  8
0
  6
CONTINUOUS
 62
1
 10
1210.047119
 20
1216.983966
 40
3.000000
 50
180.000000
 51
269.989620
  0
LINE
  8
0
  6
CONTINUOUS
 62
1
 10
1270.046576
 20
1213.983966
 11
1304.046576
 21
1213.977806
  0
ARC
  8
0
  6
CONTINUOUS
 62
1
 10
1304.047119
 20
1216.977806
 40
3.000000
 50
269.989620
 51
0.000000
  0
ARC
  8
0
  6
CONTINUOUS
 62
1
 10
1270.047119
 20
1216.983966
 40
3.000000
 50
180.000000
 51
269.989620
  0
LINE
  8
0
  6
CONTINUOUS
 62
1
 10
1330.046576
 20
1213.983966
 11
1364.046576
 21
1213.977806
  0
ARC
  8
0
  6
CONTINUOUS
 62
1
 10
1364.047119
 20
1216.977806
 40
3.000000
 50
269.989620
 51
0.000000
  0
ARC
  8
0
  6
CONTINUOUS
 62
1
 10
1330.047119
 20
1216.983966
 40
3.000000
 50
180.000000
 51
269.989620
  0
LINE
  8
0
  6
CONTINUOUS
 62
1
 10
1390.046576
 20
1213.983966
 11
1424.046576
 21
1213.977806
  0
ARC
  8
0
  6
CONTINUOUS
 62
1
 10
1424.047119
 20
1216.977806
 40
3.000000
 50
269.989620
 51
0.000000
  0
ARC
  8
0
  6
CONTINUOUS
 62
1
 10
1390.047119
 20
1216.983966
 40
3.000000
 50
180.000000
 51
269.989620
  0
LINE
  8
0
  6
CONTINUOUS
 62
1
 10
1450.046576
 20
1213.983966
 11
1484.046576
 21
1213.977806
  0
ARC
  8
0
  6
CONTINUOUS
 62
1
 10
1484.047119
 20
1216.977806
 40
3.000000
 50
269.989620
 51
0.000000
  0
ARC
  8
0
  6
CONTINUOUS
 62
1
 10
1450.047119
 20
1216.983966
 40
3.000000
 50
180.000000
 51
269.989620
  0
LINE
  8
0
  6
CONTINUOUS
 62
1
 10
1510.046576
 20
1213.983966
 11
1544.046576
 21
1213.977806
  0
ARC
  8
0
  6
CONTINUOUS
 62
1
 10
1544.047119
 20
1216.977806
 40
3.000000
 50
269.989620
 51
0.000000
  0
ARC
  8
0
  6
CONTINUOUS
 62
1
 10
1510.047119
 20
1216.983966
 40
3.000000
 50
180.000000
 51
269.989620
  0
LINE
  8
0
  6
CONTINUOUS
 62
1
 10
790.046576
 20
1311.981409
 11
824.046576
 21
1311.987569
  0
ARC
  8
0
  6
CONTINUOUS
 62
1
 10
824.047119
 20
1308.987569
 40
3.000000
 50
0.000000
 51
90.010380
  0
ARC
  8
0
  6
CONTINUOUS
 62
1
 10
790.047119
 20
1308.981409
 40
3.000000
 50
90.010380
 51
180.000000
  0
LINE
  8
0
  6
CONTINUOUS
 62
1
 10
850.046576
 20
1311.981409
 11
884.046576
 21
1311.987569
  0
ARC
  8
0
  6
CONTINUOUS
 62
1
 10
884.047119
 20
1308.987569
 40
3.000000
 50
0.000000
 51
90.010380
  0
ARC
  8
0
  6
CONTINUOUS
 62
1
 10
850.047119
 20
1308.981409
 40
3.000000
 50
90.010380
 51
180.000000
  0
LINE
  8
0
  6
CONTINUOUS
 62
1
 10
910.046576
 20
1311.981409
 11
944.046576
 21
1311.987569
  0
ARC
  8
0
  6
CONTINUOUS
 62
1
 10
944.047119
 20
1308.987569
 40
3.000000
 50
0.000000
 51
90.010380
  0
ARC
  8
0
  6
CONTINUOUS
 62
1
 10
910.047119
 20
1308.981409
 40
3.000000
 50
90.010380
 51
180.000000
  0
LINE
  8
0
  6
CONTINUOUS
 62
1
 10
970.046576
 20
1311.981409
 11
1004.046576
 21
1311.987569
  0
ARC
  8
0
  6
CONTINUOUS
 62
1
 10
1004.047119
 20
1308.987569
 40
3.000000
 50
0.000000
 51
90.010380
  0
ARC
  8
0
  6
CONTINUOUS
 62
1
 10
970.047119
 20
1308.981409
 40
3.000000
 50
90.010380
 51
180.000000
  0
LINE
  8
0
  6
CONTINUOUS
 62
1
 10
1030.046576
 20
1311.981409
 11
1064.046576
 21
1311.987569
  0
ARC
  8
0
  6
CONTINUOUS
 62
1
 10
1064.047119
 20
1308.987569
 40
3.000000
 50
0.000000
 51
90.010380
  0
ARC
  8
0
  6
CONTINUOUS
 62
1
 10
1030.047119
 20
1308.981409
 40
3.000000
 50
90.010380
 51
180.000000
  0
LINE
  8
0
  6
CONTINUOUS
 62
1
 10
1090.046576
 20
1311.981409
 11
1124.046576
 21
1311.987569
  0
ARC
  8
0
  6
CONTINUOUS
 62
1
 10
1124.047119
 20
1308.987569
 40
3.000000
 50
0.000000
 51
90.010380
  0
ARC
  8
0
  6
CONTINUOUS
 62
1
 10
1090.047119
 20
1308.981409
 40
3.000000
 50
90.010380
 51
180.000000
  0
LINE
  8
0
  6
CONTINUOUS
 62
1
 10
1150.046576
 20
1311.981409
 11
1184.046576
 21
1311.987569
  0
ARC
  8
0
  6
CONTINUOUS
 62
1
 10
1184.047119
 20
1308.987569
 40
3.000000
 50
0.000000
 51
90.010380
  0
ARC
  8
0
  6
CONTINUOUS
 62
1
 10
1150.047119
 20
1308.981409
 40
3.000000
 50
90.010380
 51
180.000000
  0
LINE
  8
0
  6
CONTINUOUS
 62
1
 10
1210.046576
 20
1311.981409
 11
1244.046576
 21
1311.987569
  0
ARC
  8
0
  6
CONTINUOUS
 62
1
 10
1244.047119
 20
1308.987569
 40
3.000000
 50
0.000000
 51
90.010380
  0
ARC
  8
0
  6
CONTINUOUS
 62
1
 10
1210.047119
 20
1308.981409
 40
3.000000
 50
90.010380
 51
180.000000
  0
LINE
  8
0
  6
CONTINUOUS
 62
1
 10
1270.046576
 20
1311.981409
 11
1304.046576
 21
1311.987569
  0
ARC
  8
0
  6
CONTINUOUS
 62
1
 10
1304.047119
 20
1308.987569
 40
3.000000
 50
0.000000
 51
90.010380
  0
ARC
  8
0
  6
CONTINUOUS
 62
1
 10
1270.047119
 20
1308.981409
 40
3.000000
 50
90.010380
 51
180.000000
  0
LINE
  8
0
  6
CONTINUOUS
 62
1
 10
1330.046576
 20
1311.981409
 11
1364.046576
 21
1311.987569
  0
LINE
  8
0
  6
CONTINUOUS
 62
1
 10
1390.046576
 20
1311.981409
 11
1424.046576
 21
1311.987569
  0
LINE
  8
0
  6
CONTINUOUS
 62
1
 10
1450.046576
 20
1311.981409
 11
1484.046576
 21
1311.987569
  0
LINE
  8
0
  6
CONTINUOUS
 62
1
 10
1510.046576
 20
1311.981409
 11
1544.046576
 21
1311.987569
  0
ARC
  8
0
  6
CONTINUOUS
 62
1
 10
1330.047119
 20
1308.981409
 40
3.000000
 50
90.010380
 51
180.000000
  0
ARC
  8
0
  6
CONTINUOUS
 62
1
 10
1364.047119
 20
1308.987569
 40
3.000000
 50
0.000000
 51
90.010380
  0
ARC
  8
0
  6
CONTINUOUS
 62
1
 10
1390.047119
 20
1308.981409
 40
3.000000
 50
90.010380
 51
180.000000
  0
ARC
  8
0
  6
CONTINUOUS
 62
1
 10
1424.047119
 20
1308.987569
 40
3.000000
 50
0.000000
 51
90.010380
  0
ARC
  8
0
  6
CONTINUOUS
 62
1
 10
1450.047119
 20
1308.981409
 40
3.000000
 50
90.010380
 51
180.000000
  0
ARC
  8
0
  6
CONTINUOUS
 62
1
 10
1484.047119
 20
1308.987569
 40
3.000000
 50
0.000000
 51
90.010380
  0
ARC
  8
0
  6
CONTINUOUS
 62
1
 10
1510.047119
 20
1308.981409
 40
3.000000
 50
90.010380
 51
180.000000
  0
ARC
  8
0
  6
CONTINUOUS
 62
1
 10
1544.047119
 20
1308.987569
 40
3.000000
 50
0.000000
 51
90.010380
  0
ARC
  8
0
  6
CONTINUOUS
 62
1
 10
728.797645
 20
1322.873403
 40
5.000000
 50
90.000000
 51
180.000000
  0
ARC
  8
0
  6
CONTINUOUS
 62
1
 10
1609.547119
 20
1322.873403
 40
5.000000
 50
0.000000
 51
90.000000
  0
LINE
  8
0
  6
CONTINUOUS
 62
1
 10
1614.547119
 20
1197.931627
 11
719.547119
 21
1198.093773
  0
LINE
  8
0
  6
CONTINUOUS
 62
1
 10
1609.547119
 20
1327.873403
 11
724.547119
 21
1327.873403
  0
LINE
  8
0
  6
CONTINUOUS
 62
1
 10
1614.547119
 20
1197.931627
 11
1614.547119
 21
1322.873403
  0
LINE
  8
0
  6
CONTINUOUS
 62
1
 10
719.547119
 20
1198.093773
 11
719.547119
 21
1322.873403
  0
LINE
  8
0
  6
CONTINUOUS
 62
1
 10
728.047119
 20
1327.873403
 11
728.047119
 21
1198.091971
  0
LINE
  8
0
  6
CONTINUOUS
 62
1
 10
1603.047119
 20
1327.873403
 11
1603.047119
 21
1197.931627
  0
LINE
  8
0
  6
CONTINUOUS
 62
1
 10
770.047119
 20
1198.084765
 11
770.047119
 21
1327.873403
  0
LINE
  8
0
  6
CONTINUOUS
 62
1
 10
787.047119
 20
1327.873403
 11
787.047119
 21
1198.093773
  0
LINE
  8
0
  6
CONTINUOUS
 62
1
 10
827.047119
 20
1198.084765
 11
827.047119
 21
1327.873403
  0
LINE
  8
0
  6
CONTINUOUS
 62
1
 10
847.047119
 20
1327.873403
 11
847.047119
 21
1198.093773
  0
LINE
  8
0
  6
CONTINUOUS
 62
1
 10
887.047119
 20
1198.084765
 11
887.047119
 21
1327.873403
  0
LINE
  8
0
  6
CONTINUOUS
 62
1
 10
907.047119
 20
1327.873403
 11
907.047119
 21
1198.093773
  0
LINE
  8
0
  6
CONTINUOUS
 62
1
 10
947.047119
 20
1198.084765
 11
947.047119
 21
1327.873403
  0
LINE
  8
0
  6
CONTINUOUS
 62
1
 10
967.047119
 20
1327.873403
 11
967.047119
 21
1198.093773
  0
LINE
  8
0
  6
CONTINUOUS
 62
1
 10
1007.047119
 20
1198.084765
 11
1007.047119
 21
1327.873403
  0
LINE
  8
0
  6
CONTINUOUS
 62
1
 10
1027.047119
 20
1327.873403
 11
1027.047119
 21
1198.093773
  0
LINE
  8
0
  6
CONTINUOUS
 62
1
 10
1067.047119
 20
1198.084765
 11
1067.047119
 21
1327.873403
  0
LINE
  8
0
  6
CONTINUOUS
 62
1
 10
1087.047119
 20
1327.873403
 11
1087.047119
 21
1198.093773
  0
LINE
  8
0
  6
CONTINUOUS
 62
1
 10
1127.047119
 20
1198.084765
 11
1127.047119
 21
1327.873403
  0
LINE
  8
0
  6
CONTINUOUS
 62
1
 10
1147.047119
 20
1327.873403
 11
1147.047119
 21
1198.093773
  0
LINE
  8
0
  6
CONTINUOUS
 62
1
 10
1187.047119
 20
1198.084765
 11
1187.047119
 21
1327.873403
  0
LINE
  8
0
  6
CONTINUOUS
 62
1
 10
1207.047119
 20
1327.873403
 11
1207.047119
 21
1198.093773
  0
LINE
  8
0
  6
CONTINUOUS
 62
1
 10
1247.047119
 20
1198.084765
 11
1247.047119
 21
1327.873403
  0
LINE
  8
0
  6
CONTINUOUS
 62
1
 10
1267.047119
 20
1327.873403
 11
1267.047119
 21
1198.093773
  0
LINE
  8
0
  6
CONTINUOUS
 62
1
 10
1307.047119
 20
1198.084765
 11
1307.047119
 21
1327.873403
  0
LINE
  8
0
  6
CONTINUOUS
 62
1
 10
1327.047119
 20
1327.873403
 11
1327.047119
 21
1198.093773
  0
LINE
  8
0
  6
CONTINUOUS
 62
1
 10
1367.047119
 20
1198.084765
 11
1367.047119
 21
1327.873403
  0
LINE
  8
0
  6
CONTINUOUS
 62
1
 10
1387.047119
 20
1327.873403
 11
1387.047119
 21
1198.093773
  0
LINE
  8
0
  6
CONTINUOUS
 62
1
 10
1427.047119
 20
1198.084765
 11
1427.047119
 21
1327.873403
  0
LINE
  8
0
  6
CONTINUOUS
 62
1
 10
1447.047119
 20
1327.873403
 11
1447.047119
 21
1198.093773
  0
LINE
  8
0
  6
CONTINUOUS
 62
1
 10
1487.047119
 20
1198.084765
 11
1487.047119
 21
1327.873403
  0
LINE
  8
0
  6
CONTINUOUS
 62
1
 10
1507.047119
 20
1327.873403
 11
1507.047119
 21
1198.093773
  0
LINE
  8
0
  6
CONTINUOUS
 62
1
 10
1547.047119
 20
1198.084765
 11
1547.047119
 21
1327.873403
  0
LINE
  8
0
  6
CONTINUOUS
 62
1
 10
1564.047119
 20
1327.873403
 11
1564.047119
 21
1198.093773
  0
LINE
  8
0
  6
CONTINUOUS
 62
1
 10
1157.047119
 20
1301.980886
 11
1157.047119
 21
1223.980886
  0
LINE
  8
0
  6
CONTINUOUS
 62
1
 10
1177.047119
 20
1301.980886
 11
1177.047119
 21
1223.980886
  0
ARC
  8
0
  6
CONTINUOUS
 62
1
 10
1167.047119
 20
1301.980886
 40
10.000000
 50
90.000000
 51
180.000000
  0
ARC
  8
0
  6
CONTINUOUS
 62
1
 10
1167.047119
 20
1301.980886
 40
10.000000
 50
0.000000
 51
90.000000
  0
ARC
  8
0
  6
CONTINUOUS
 62
1
 10
1167.047119
 20
1223.980886
 40
10.000000
 50
270.000000
 51
0.000000
  0
ARC
  8
0
  6
CONTINUOUS
 62
1
 10
1167.047119
 20
1223.980886
 40
10.000000
 50
180.000000
 51
270.000000
  0
LINE
  8
0
  6
CONTINUOUS
 62
1
 10
1217.047119
 20
1301.980886
 11
1217.047119
 21
1223.980886
  0
LINE
  8
0
  6
CONTINUOUS
 62
1
 10
1237.047119
 20
1301.980886
 11
1237.047119
 21
1223.980886
  0
ARC
  8
0
  6
CONTINUOUS
 62
1
 10
1227.047119
 20
1301.980886
 40
10.000000
 50
90.000000
 51
180.000000
  0
ARC
  8
0
  6
CONTINUOUS
 62
1
 10
1227.047119
 20
1301.980886
 40
10.000000
 50
0.000000
 51
90.000000
  0
ARC
  8
0
  6
CONTINUOUS
 62
1
 10
1227.047119
 20
1223.980886
 40
10.000000
 50
270.000000
 51
0.000000
  0
ARC
  8
0
  6
CONTINUOUS
 62
1
 10
1227.047119
 20
1223.980886
 40
10.000000
 50
180.000000
 51
270.000000
  0
LINE
  8
0
  6
CONTINUOUS
 62
1
 10
1277.047119
 20
1301.980886
 11
1277.047119
 21
1223.980886
  0
LINE
  8
0
  6
CONTINUOUS
 62
1
 10
1297.047119
 20
1301.980886
 11
1297.047119
 21
1223.980886
  0
ARC
  8
0
  6
CONTINUOUS
 62
1
 10
1287.047119
 20
1301.980886
 40
10.000000
 50
90.000000
 51
180.000000
  0
ARC
  8
0
  6
CONTINUOUS
 62
1
 10
1287.047119
 20
1301.980886
 40
10.000000
 50
0.000000
 51
90.000000
  0
ARC
  8
0
  6
CONTINUOUS
 62
1
 10
1287.047119
 20
1223.980886
 40
10.000000
 50
270.000000
 51
0.000000
  0
ARC
  8
0
  6
CONTINUOUS
 62
1
 10
1287.047119
 20
1223.980886
 40
10.000000
 50
180.000000
 51
270.000000
  0
LINE
  8
0
  6
CONTINUOUS
 62
1
 10
1097.047119
 20
1301.980886
 11
1097.047119
 21
1223.980886
  0
LINE
  8
0
  6
CONTINUOUS
 62
1
 10
1117.047119
 20
1301.980886
 11
1117.047119
 21
1223.980886
  0
ARC
  8
0
  6
CONTINUOUS
 62
1
 10
1107.047119
 20
1301.980886
 40
10.000000
 50
90.000000
 51
180.000000
  0
ARC
  8
0
  6
CONTINUOUS
 62
1
 10
1107.047119
 20
1301.980886
 40
10.000000
 50
0.000000
 51
90.000000
  0
ARC
  8
0
  6
CONTINUOUS
 62
1
 10
1107.047119
 20
1223.980886
 40
10.000000
 50
270.000000
 51
0.000000
  0
ARC
  8
0
  6
CONTINUOUS
 62
1
 10
1107.047119
 20
1223.980886
 40
10.000000
 50
180.000000
 51
270.000000
  0
LINE
  8
0
  6
CONTINUOUS
 62
1
 10
1057.047119
 20
1301.980886
 11
1057.047119
 21
1223.980886
  0
LINE
  8
0
  6
CONTINUOUS
 62
1
 10
1037.047119
 20
1301.980886
 11
1037.047119
 21
1223.980886
  0
ARC
  8
0
  6
CONTINUOUS
 62
1
 10
1047.047119
 20
1301.980886
 40
10.000000
 50
0.000000
 51
90.000000
  0
ARC
  8
0
  6
CONTINUOUS
 62
1
 10
1047.047119
 20
1301.980886
 40
10.000000
 50
90.000000
 51
180.000000
  0
ARC
  8
0
  6
CONTINUOUS
 62
1
 10
1047.047119
 20
1223.980886
 40
10.000000
 50
180.000000
 51
270.000000
  0
ARC
  8
0
  6
CONTINUOUS
 62
1
 10
1047.047119
 20
1223.980886
 40
10.000000
 50
270.000000
 51
0.000000
  0
LINE
  8
0
  6
CONTINUOUS
 62
1
 10
1337.047119
 20
1301.980886
 11
1337.047119
 21
1223.980886
  0
LINE
  8
0
  6
CONTINUOUS
 62
1
 10
1357.047119
 20
1301.980886
 11
1357.047119
 21
1223.980886
  0
ARC
  8
0
  6
CONTINUOUS
 62
1
 10
1347.047119
 20
1301.980886
 40
10.000000
 50
90.000000
 51
180.000000
  0
ARC
  8
0
  6
CONTINUOUS
 62
1
 10
1347.047119
 20
1301.980886
 40
10.000000
 50
0.000000
 51
90.000000
  0
ARC
  8
0
  6
CONTINUOUS
 62
1
 10
1347.047119
 20
1223.980886
 40
10.000000
 50
270.000000
 51
0.000000
  0
ARC
  8
0
  6
CONTINUOUS
 62
1
 10
1347.047119
 20
1223.980886
 40
10.000000
 50
180.000000
 51
270.000000
  0
LINE
  8
0
  6
CONTINUOUS
 62
1
 10
1397.047119
 20
1301.980886
 11
1397.047119
 21
1223.980886
  0
LINE
  8
0
  6
CONTINUOUS
 62
1
 10
1417.047119
 20
1301.980886
 11
1417.047119
 21
1223.980886
  0
ARC
  8
0
  6
CONTINUOUS
 62
1
 10
1407.047119
 20
1301.980886
 40
10.000000
 50
90.000000
 51
180.000000
  0
ARC
  8
0
  6
CONTINUOUS
 62
1
 10
1407.047119
 20
1301.980886
 40
10.000000
 50
0.000000
 51
90.000000
  0
ARC
  8
0
  6
CONTINUOUS
 62
1
 10
1407.047119
 20
1223.980886
 40
10.000000
 50
270.000000
 51
0.000000
  0
ARC
  8
0
  6
CONTINUOUS
 62
1
 10
1407.047119
 20
1223.980886
 40
10.000000
 50
180.000000
 51
270.000000
  0
LINE
  8
0
  6
CONTINUOUS
 62
1
 10
1457.047119
 20
1301.980886
 11
1457.047119
 21
1223.980886
  0
LINE
  8
0
  6
CONTINUOUS
 62
1
 10
1477.047119
 20
1301.980886
 11
1477.047119
 21
1223.980886
  0
ARC
  8
0
  6
CONTINUOUS
 62
1
 10
1467.047119
 20
1301.980886
 40
10.000000
 50
90.000000
 51
180.000000
  0
ARC
  8
0
  6
CONTINUOUS
 62
1
 10
1467.047119
 20
1301.980886
 40
10.000000
 50
0.000000
 51
90.000000
  0
ARC
  8
0
  6
CONTINUOUS
 62
1
 10
1467.047119
 20
1223.980886
 40
10.000000
 50
270.000000
 51
0.000000
  0
ARC
  8
0
  6
CONTINUOUS
 62
1
 10
1467.047119
 20
1223.980886
 40
10.000000
 50
180.000000
 51
270.000000
  0
LINE
  8
0
  6
CONTINUOUS
 62
1
 10
1517.047119
 20
1301.980886
 11
1517.047119
 21
1223.980886
  0
LINE
  8
0
  6
CONTINUOUS
 62
1
 10
1537.047119
 20
1301.980886
 11
1537.047119
 21
1223.980886
  0
ARC
  8
0
  6
CONTINUOUS
 62
1
 10
1527.047119
 20
1301.980886
 40
10.000000
 50
90.000000
 51
180.000000
  0
ARC
  8
0
  6
CONTINUOUS
 62
1
 10
1527.047119
 20
1301.980886
 40
10.000000
 50
0.000000
 51
90.000000
  0
ARC
  8
0
  6
CONTINUOUS
 62
1
 10
1527.047119
 20
1223.980886
 40
10.000000
 50
270.000000
 51
0.000000
  0
ARC
  8
0
  6
CONTINUOUS
 62
1
 10
1527.047119
 20
1223.980886
 40
10.000000
 50
180.000000
 51
270.000000
  0
LINE
  8
0
  6
CONTINUOUS
 62
1
 10
997.047119
 20
1301.980886
 11
997.047119
 21
1223.980886
  0
LINE
  8
0
  6
CONTINUOUS
 62
1
 10
977.047119
 20
1301.980886
 11
977.047119
 21
1223.980886
  0
ARC
  8
0
  6
CONTINUOUS
 62
1
 10
987.047119
 20
1301.980886
 40
10.000000
 50
0.000000
 51
90.000000
  0
ARC
  8
0
  6
CONTINUOUS
 62
1
 10
987.047119
 20
1301.980886
 40
10.000000
 50
90.000000
 51
180.000000
  0
ARC
  8
0
  6
CONTINUOUS
 62
1
 10
987.047119
 20
1223.980886
 40
10.000000
 50
180.000000
 51
270.000000
  0
ARC
  8
0
  6
CONTINUOUS
 62
1
 10
987.047119
 20
1223.980886
 40
10.000000
 50
270.000000
 51
0.000000
  0
LINE
  8
0
  6
CONTINUOUS
 62
1
 10
937.047119
 20
1301.980886
 11
937.047119
 21
1223.980886
  0
LINE
  8
0
  6
CONTINUOUS
 62
1
 10
917.047119
 20
1301.980886
 11
917.047119
 21
1223.980886
  0
ARC
  8
0
  6
CONTINUOUS
 62
1
 10
927.047119
 20
1301.980886
 40
10.000000
 50
0.000000
 51
90.000000
  0
ARC
  8
0
  6
CONTINUOUS
 62
1
 10
927.047119
 20
1301.980886
 40
10.000000
 50
90.000000
 51
180.000000
  0
ARC
  8
0
  6
CONTINUOUS
 62
1
 10
927.047119
 20
1223.980886
 40
10.000000
 50
180.000000
 51
270.000000
  0
ARC
  8
0
  6
CONTINUOUS
 62
1
 10
927.047119
 20
1223.980886
 40
10.000000
 50
270.000000
 51
0.000000
  0
LINE
  8
0
  6
CONTINUOUS
 62
1
 10
877.047119
 20
1301.980886
 11
877.047119
 21
1223.980886
  0
LINE
  8
0
  6
CONTINUOUS
 62
1
 10
857.047119
 20
1301.980886
 11
857.047119
 21
1223.980886
  0
ARC
  8
0
  6
CONTINUOUS
 62
1
 10
867.047119
 20
1301.980886
 40
10.000000
 50
0.000000
 51
90.000000
  0
ARC
  8
0
  6
CONTINUOUS
 62
1
 10
867.047119
 20
1301.980886
 40
10.000000
 50
90.000000
 51
180.000000
  0
ARC
  8
0
  6
CONTINUOUS
 62
1
 10
867.047119
 20
1223.980886
 40
10.000000
 50
180.000000
 51
270.000000
  0
ARC
  8
0
  6
CONTINUOUS
 62
1
 10
867.047119
 20
1223.980886
 40
10.000000
 50
270.000000
 51
0.000000
  0
LINE
  8
0
  6
CONTINUOUS
 62
1
 10
817.047119
 20
1301.980886
 11
817.047119
 21
1223.980886
  0
LINE
  8
0
  6
CONTINUOUS
 62
1
 10
797.047119
 20
1301.980886
 11
797.047119
 21
1223.980886
  0
ARC
  8
0
  6
CONTINUOUS
 62
1
 10
807.047119
 20
1301.980886
 40
10.000000
 50
0.000000
 51
90.000000
  0
ARC
  8
0
  6
CONTINUOUS
 62
1
 10
807.047119
 20
1301.980886
 40
10.000000
 50
90.000000
 51
180.000000
  0
ARC
  8
0
  6
CONTINUOUS
 62
1
 10
807.047119
 20
1223.980886
 40
10.000000
 50
180.000000
 51
270.000000
  0
ARC
  8
0
  6
CONTINUOUS
 62
1
 10
807.047119
 20
1223.980886
 40
10.000000
 50
270.000000
 51
0.000000
  0
CIRCLE
  8
0
  6
CONTINUOUS
 62
1
 10
744.047119
 20
1235.979164
 40
4.000000
  0
CIRCLE
  8
0
  6
CONTINUOUS
 62
1
 10
754.047119
 20
1305.979164
 40
4.000000
  0
CIRCLE
  8
0
  6
CONTINUOUS
 62
1
 10
744.047119
 20
1235.979164
 40
5.500000
  0
CIRCLE
  8
0
  6
CONTINUOUS
 62
1
 10
754.047119
 20
1305.979164
 40
5.500000
  0
LINE
  8
0
  6
CENTER
 62
4
 10
754.047119
 20
1313.479164
 11
754.047119
 21
1298.479164
  0
LINE
  8
0
  6
CENTER
 62
4
 10
746.547119
 20
1305.979164
 11
761.547119
 21
1305.979164
  0
LINE
  8
0
  6
CENTER
 62
4
 10
744.047119
 20
1243.479164
 11
744.047119
 21
1228.479164
  0
LINE
  8
0
  6
CENTER
 62
4
 10
736.547119
 20
1235.979164
 11
751.547119
 21
1235.979164
  0
CIRCLE
  8
0
  6
CONTINUOUS
 62
1
 10
1590.047119
 20
1235.879164
 40
4.000000
  0
CIRCLE
  8
0
  6
CONTINUOUS
 62
1
 10
1580.047119
 20
1305.879164
 40
4.000000
  0
CIRCLE
  8
0
  6
CONTINUOUS
 62
1
 10
1590.047119
 20
1235.879164
 40
5.500000
  0
CIRCLE
  8
0
  6
CONTINUOUS
 62
1
 10
1580.047119
 20
1305.879164
 40
5.500000
  0
LINE
  8
0
  6
CENTER
 62
4
 10
1580.047119
 20
1313.379164
 11
1580.047119
 21
1298.379164
  0
LINE
  8
0
  6
CENTER
 62
4
 10
1587.547119
 20
1305.879164
 11
1572.547119
 21
1305.879164
  0
LINE
  8
0
  6
CENTER
 62
4
 10
1590.047119
 20
1243.379164
 11
1590.047119
 21
1228.379164
  0
LINE
  8
0
  6
CENTER
 62
4
 10
1597.547119
 20
1235.879164
 11
1582.547119
 21
1235.879164
  0
LINE
  8
0
  6
CONTINUOUS
 62
1
 10
1167.047119
 20
1198.012700
 11
1167.047119
 21
1137.003599
  0
ENDSEC
  0
EOF
