  0
SECTION
  2
HEADER
  9
$LIMMIN
 10
0.000000
 20
0.000000
  9
$LIMMAX
 10
900.000000
 20
936.348000
  9
$EXTMIN
 10
0.000000
 20
0.000000
  9
$EXTMAX
 10
900.000000
 20
936.348000
  9
$ANGBASE
 50
0.0
  9
$ANGDIR
 70
0
  9
$DIMRND
 40
0.100000
  9
$DIMSE1
 70
0
  9
$DIMSE2
 70
0
  9
$DIMTXT
 40
3.500000
  9
$LTSCALE
 40
1.000000
  9
$LUPREC
 70
5
  9
$AUPREC
 70
5
  9
$PDMODE
 70
2
  9
$PDSIZE
 40
4.681740
  0
ENDSEC
  0
SECTION
  2
TABLES
  0
TABLE
  2
VPORT
  70
1
  0
VPORT
  2
*ACTIVE
 70
0
  10
0.0
 20
0.0
 11
1.0
 21
1.0
 12
594.0
 22
420.0
 13
0.0
 23
0.0
 14
10.0
 24
10.0
 15
10.0
 25
10.0
 16
0.0
 26
0.0
 36
1.0
 17
594.0
 27
420.0
 37
100.0
 40
1000.0
 41
1.0
 42
50.0
 43
0.0
 44
0.0
 50
0.0
 51
0.0
 71
0
 72
2000
 73
1
 74
3
 75
0
 76
0
 77
0
 78
1
  0
ENDTAB
  0
TABLE
  2
LTYPE
 70
4
  0
LTYPE
  2
CONTINUOUS
 70
0
  3
Solid line
 72
65
 73
0
 40
0.0
  0
LTYPE
  2
DASHED
 70
0
  3
Dashed line
 72
65
 73
2
 40
6.000000
 49
3.000000
 49
-3.000000
  0
LTYPE
  2
CENTER
 70
0
  3
Chain line
 72
65
 73
4
 40
24.000000
 49
15.000000
 49
-3.000000
 49
3.000000
 49
-3.000000
  0
LTYPE
  2
RANDOM
 70
0
  3
Random line
 72
65
 73
4
 40
22.500000
 49
6.000000
 49
-3.000000
 49
4.500000
 49
-9.000000
  0
ENDTAB
  0
TABLE
  2
STYLE
 70
9
  0
STYLE
  2
STANDARD
 40
0
 41
1.0
 50
0.0
 71
0
 42
0
  3
simplex
  4

 70
0
  0
ENDTAB
  0
TABLE
  2
LAYER
 70
4
  0
LAYER
  2
0
 70
0
 62
7
  6
CONTINUOUS
  0
LAYER
  2
0
 62
1
  6
CONTINUOUS
 70
0
  0
LAYER
  2
MODEL
 62
1
  6
CONTINUOUS
 70
0
  0
LAYER
  2
MODEL-0
 62
1
  6
CONTINUOUS
 70
0
  0
ENDTAB
  0
ENDSEC
  0
SECTION
  2
BLOCKS
  0
ENDSEC
  0
SECTION
  2
ENTITIES
  0
LINE
  8
MODEL-0
  6
CONTINUOUS
 62
1
 10
0.000000
 20
145.000000
 11
900.000000
 21
145.000000
  0
LINE
  8
MODEL-0
  6
CONTINUOUS
 62
1
 10
900.000000
 20
145.000000
 11
900.000000
 21
900.000000
  0
LINE
  8
MODEL-0
  6
CONTINUOUS
 62
1
 10
900.000000
 20
900.000000
 11
0.000000
 21
900.000000
  0
LINE
  8
MODEL-0
  6
CONTINUOUS
 62
1
 10
0.000000
 20
900.000000
 11
0.000000
 21
145.000000
  0
LINE
  8
MODEL-0
  6
CONTINUOUS
 62
1
 10
0.000000
 20
160.000000
 11
900.000000
 21
160.000000
  0
LINE
  8
MODEL-0
  6
CONTINUOUS
 62
1
 10
900.000000
 20
850.000000
 11
0.000000
 21
850.000000
  0
LINE
  8
MODEL-0
  6
CONTINUOUS
 62
1
 10
106.000000
 20
1.000000
 11
95.000000
 21
4.999985
  0
LINE
  8
MODEL-0
  6
CONTINUOUS
 62
1
 10
54.000000
 20
1.000000
 11
65.000000
 21
4.999985
  0
LINE
  8
MODEL-0
  6
CONTINUOUS
 62
1
 10
54.000000
 20
1.000000
 11
54.000000
 21
0.000000
  0
LINE
  8
MODEL-0
  6
CONTINUOUS
 62
1
 10
106.000000
 20
1.000000
 11
54.000000
 21
1.000000
  0
LINE
  8
MODEL-0
  6
CONTINUOUS
 62
1
 10
95.000000
 20
4.999985
 11
65.030945
 21
4.999985
  0
LINE
  8
MODEL-0
  6
CONTINUOUS
 62
1
 10
106.000000
 20
0.000000
 11
54.000000
 21
0.000000
  0
LINE
  8
MODEL-0
  6
CONTINUOUS
 62
1
 10
106.000000
 20
1.000000
 11
106.000000
 21
0.000000
  0
LINE
  8
MODEL-0
  6
CONTINUOUS
 62
1
 10
124.500000
 20
145.000000
 11
35.500000
 21
145.000000
  0
LINE
  8
MODEL-0
  6
CONTINUOUS
 62
1
 10
124.500000
 20
135.000000
 11
35.500000
 21
135.000000
  0
LINE
  8
MODEL-0
  6
CONTINUOUS
 62
1
 10
35.500000
 20
145.000000
 11
35.500000
 21
135.000000
  0
LINE
  8
MODEL-0
  6
CONTINUOUS
 62
1
 10
57.561852
 20
129.062500
 11
58.531906
 21
35.937493
  0
ARC
  8
MODEL-0
  6
CONTINUOUS
 62
1
 10
51.562180
 20
129.000000
 40
6.000000
 50
0.596809
 51
90.000000
  0
ARC
  8
MODEL-0
  6
CONTINUOUS
 62
1
 10
108.437836
 20
129.000000
 40
6.000000
 50
90.000000
 51
179.403198
  0
LINE
  8
MODEL-0
  6
CONTINUOUS
 62
1
 10
124.500000
 20
145.000000
 11
124.500000
 21
135.000000
  0
ARC
  8
MODEL-0
  6
CONTINUOUS
 62
1
 10
95.468430
 20
35.999993
 40
5.999996
 50
269.999969
 51
359.403160
  0
ARC
  8
MODEL-0
  6
CONTINUOUS
 62
1
 10
64.531586
 20
35.999993
 40
6.000000
 50
180.596802
 51
270.000000
  0
LINE
  8
MODEL-0
  6
CONTINUOUS
 62
1
 10
102.438156
 20
129.062500
 11
101.468109
 21
35.937493
  0
LINE
  8
MODEL-0
  6
CONTINUOUS
 62
1
 10
95.468430
 20
29.999993
 11
64.531586
 21
29.999993
  0
LINE
  8
MODEL-0
  6
CONTINUOUS
 62
1
 10
846.000000
 20
1.000000
 11
835.000000
 21
4.999985
  0
LINE
  8
MODEL-0
  6
CONTINUOUS
 62
1
 10
794.000000
 20
1.000000
 11
805.000000
 21
4.999985
  0
LINE
  8
MODEL-0
  6
CONTINUOUS
 62
1
 10
794.000000
 20
1.000000
 11
794.000000
 21
0.000000
  0
LINE
  8
MODEL-0
  6
CONTINUOUS
 62
1
 10
846.000000
 20
1.000000
 11
794.000000
 21
1.000000
  0
LINE
  8
MODEL-0
  6
CONTINUOUS
 62
1
 10
835.000000
 20
4.999985
 11
805.030945
 21
4.999985
  0
LINE
  8
MODEL-0
  6
CONTINUOUS
 62
1
 10
846.000000
 20
0.000000
 11
794.000000
 21
0.000000
  0
LINE
  8
MODEL-0
  6
CONTINUOUS
 62
1
 10
846.000000
 20
1.000000
 11
846.000000
 21
0.000000
  0
LINE
  8
MODEL-0
  6
CONTINUOUS
 62
1
 10
864.500000
 20
145.000000
 11
775.500000
 21
145.000000
  0
LINE
  8
MODEL-0
  6
CONTINUOUS
 62
1
 10
864.500000
 20
135.000000
 11
775.500000
 21
135.000000
  0
LINE
  8
MODEL-0
  6
CONTINUOUS
 62
1
 10
775.500000
 20
145.000000
 11
775.500000
 21
135.000000
  0
LINE
  8
MODEL-0
  6
CONTINUOUS
 62
1
 10
797.561852
 20
129.062500
 11
798.531906
 21
35.937493
  0
ARC
  8
MODEL-0
  6
CONTINUOUS
 62
1
 10
791.562180
 20
129.000000
 40
6.000000
 50
0.596809
 51
90.000000
  0
ARC
  8
MODEL-0
  6
CONTINUOUS
 62
1
 10
848.437836
 20
129.000000
 40
6.000000
 50
90.000000
 51
179.403198
  0
LINE
  8
MODEL-0
  6
CONTINUOUS
 62
1
 10
864.500000
 20
145.000000
 11
864.500000
 21
135.000000
  0
ARC
  8
MODEL-0
  6
CONTINUOUS
 62
1
 10
835.468430
 20
35.999993
 40
5.999996
 50
269.999969
 51
359.403160
  0
ARC
  8
MODEL-0
  6
CONTINUOUS
 62
1
 10
804.531586
 20
35.999993
 40
6.000000
 50
180.596802
 51
270.000000
  0
LINE
  8
MODEL-0
  6
CONTINUOUS
 62
1
 10
842.438156
 20
129.062500
 11
841.468109
 21
35.937493
  0
LINE
  8
MODEL-0
  6
CONTINUOUS
 62
1
 10
835.468430
 20
29.999993
 11
804.531586
 21
29.999993
  0
LINE
  8
MODEL-0
  6
CONTINUOUS
 62
1
 10
64.522018
 20
30.000000
 11
65.000000
 21
4.999985
  0
LINE
  8
MODEL-0
  6
CONTINUOUS
 62
1
 10
95.474758
 20
30.000000
 11
95.000000
 21
4.999985
  0
LINE
  8
MODEL-0
  6
CONTINUOUS
 62
1
 10
804.531586
 20
29.999993
 11
805.000000
 21
4.999985
  0
LINE
  8
MODEL-0
  6
CONTINUOUS
 62
1
 10
835.468426
 20
29.999997
 11
835.000000
 21
4.999985
  0
LINE
  8
MODEL-0
  6
CONTINUOUS
 62
1
 10
5.000000
 20
900.000000
 11
448.000007
 21
900.000000
  0
LINE
  8
MODEL-0
  6
CONTINUOUS
 62
1
 10
895.000000
 20
900.000000
 11
451.999993
 21
900.000000
  0
LINE
  8
MODEL-0
  6
CONTINUOUS
 62
1
 10
305.901245
 20
936.348136
 11
294.098756
 21
936.348136
  0
LINE
  8
MODEL-0
  6
CONTINUOUS
 62
1
 10
308.905166
 20
900.000000
 11
305.901245
 21
936.348136
  0
LINE
  8
MODEL-0
  6
CONTINUOUS
 62
1
 10
291.094834
 20
900.000000
 11
294.098756
 21
936.348136
  0
LINE
  8
MODEL-0
  6
CONTINUOUS
 62
1
 10
365.901245
 20
936.348136
 11
354.098756
 21
936.348136
  0
LINE
  8
MODEL-0
  6
CONTINUOUS
 62
1
 10
368.905165
 20
900.000000
 11
365.901245
 21
936.348136
  0
LINE
  8
MODEL-0
  6
CONTINUOUS
 62
1
 10
351.094834
 20
900.000000
 11
354.098756
 21
936.348136
  0
LINE
  8
MODEL-0
  6
CONTINUOUS
 62
1
 10
425.901245
 20
936.348136
 11
414.098756
 21
936.348136
  0
LINE
  8
MODEL-0
  6
CONTINUOUS
 62
1
 10
428.905166
 20
900.000000
 11
425.901245
 21
936.348136
  0
LINE
  8
MODEL-0
  6
CONTINUOUS
 62
1
 10
411.094834
 20
900.000000
 11
414.098756
 21
936.348136
  0
LINE
  8
MODEL-0
  6
CONTINUOUS
 62
1
 10
485.901245
 20
936.348136
 11
474.098756
 21
936.348136
  0
LINE
  8
MODEL-0
  6
CONTINUOUS
 62
1
 10
488.905166
 20
900.000000
 11
485.901245
 21
936.348136
  0
LINE
  8
MODEL-0
  6
CONTINUOUS
 62
1
 10
471.094835
 20
900.000000
 11
474.098756
 21
936.348136
  0
LINE
  8
MODEL-0
  6
CONTINUOUS
 62
1
 10
545.901245
 20
936.348136
 11
534.098756
 21
936.348136
  0
LINE
  8
MODEL-0
  6
CONTINUOUS
 62
1
 10
548.905165
 20
900.000000
 11
545.901245
 21
936.348136
  0
LINE
  8
MODEL-0
  6
CONTINUOUS
 62
1
 10
531.094834
 20
900.000000
 11
534.098756
 21
936.348136
  0
LINE
  8
MODEL-0
  6
CONTINUOUS
 62
1
 10
605.901245
 20
936.348136
 11
594.098756
 21
936.348136
  0
LINE
  8
MODEL-0
  6
CONTINUOUS
 62
1
 10
608.905165
 20
900.000000
 11
605.901245
 21
936.348136
  0
LINE
  8
MODEL-0
  6
CONTINUOUS
 62
1
 10
591.094834
 20
900.000000
 11
594.098756
 21
936.348136
  0
LINE
  8
MODEL-0
  6
CONTINUOUS
 62
1
 10
0.000000
 20
160.000000
 11
900.000000
 21
160.000000
  0
LINE
  8
MODEL-0
  6
CONTINUOUS
 62
1
 10
900.000000
 20
850.000000
 11
0.000000
 21
850.000000
  0
LINE
  8
MODEL-0
  6
CONTINUOUS
 62
1
 10
780.000000
 20
710.492432
 11
780.000000
 21
160.000000
  0
LINE
  8
MODEL-0
  6
CONTINUOUS
 62
1
 10
780.000000
 20
275.890381
 11
0.000000
 21
275.890381
  0
LINE
  8
MODEL-0
  6
CONTINUOUS
 62
1
 10
0.000000
 20
298.000977
 11
760.000000
 21
298.000977
  0
LINE
  8
MODEL-0
  6
CONTINUOUS
 62
1
 10
760.000000
 20
298.000977
 11
760.000000
 21
698.800049
  0
LINE
  8
MODEL-0
  6
CONTINUOUS
 62
1
 10
760.000000
 20
698.800049
 11
0.000000
 21
698.800049
  0
ARC
  8
MODEL-0
  6
CONTINUOUS
 62
1
 10
840.000000
 20
606.000977
 40
25.000000
 50
180.000000
 51
0.000000
  0
ARC
  8
MODEL-0
  6
CONTINUOUS
 62
1
 10
840.000000
 20
606.000977
 40
25.000000
 50
0.000000
 51
180.000000
  0
LINE
  8
MODEL-0
  6
CONTINUOUS
 62
1
 10
864.494898
 20
611.000977
 11
815.505103
 21
611.000977
  0
LINE
  8
MODEL-0
  6
CONTINUOUS
 62
1
 10
864.494898
 20
601.000977
 11
815.505103
 21
601.000977
  0
LINE
  8
MODEL-0
  6
CONTINUOUS
 62
1
 10
780.000000
 20
262.890381
 11
0.000000
 21
262.890381
  0
LINE
  8
MODEL-0
  6
CONTINUOUS
 62
1
 10
780.000000
 20
224.890381
 11
0.000000
 21
224.890381
  0
LINE
  8
MODEL-0
  6
CONTINUOUS
 62
1
 10
900.000000
 20
710.492432
 11
0.000000
 21
710.492432
  0
LINE
  8
MODEL-0
  6
CONTINUOUS
 62
1
 10
900.000000
 20
735.492432
 11
0.000000
 21
735.492432
  0
LINE
  8
MODEL-0
  6
CONTINUOUS
 62
1
 10
900.000000
 20
850.000000
 11
0.000000
 21
850.000000
  0
CIRCLE
  8
MODEL-0
  6
CONTINUOUS
 62
1
 10
840.658269
 20
402.000977
 40
38.000000
  0
CIRCLE
  8
MODEL-0
  6
CONTINUOUS
 62
1
 10
840.000000
 20
606.000977
 40
27.000000
  0
ARC
  8
MODEL-0
  6
CONTINUOUS
 62
1
 10
840.658269
 20
402.000977
 40
25.000000
 50
180.000000
 51
0.000000
  0
ARC
  8
MODEL-0
  6
CONTINUOUS
 62
1
 10
840.658269
 20
402.000977
 40
25.000000
 50
0.000000
 51
180.000000
  0
LINE
  8
MODEL-0
  6
CONTINUOUS
 62
1
 10
865.153167
 20
407.000977
 11
816.163372
 21
407.000977
  0
LINE
  8
MODEL-0
  6
CONTINUOUS
 62
1
 10
865.153167
 20
397.000977
 11
816.163372
 21
397.000977
  0
CIRCLE
  8
MODEL-0
  6
CONTINUOUS
 62
1
 10
840.658269
 20
402.000977
 40
27.000000
  0
LINE
  8
MODEL-0
  6
CONTINUOUS
 62
1
 10
55.000000
 20
668.800049
 11
55.000000
 21
628.800049
  0
LINE
  8
MODEL-0
  6
CONTINUOUS
 62
1
 10
30.000000
 20
664.642961
 11
30.000000
 21
632.957137
  0
LINE
  8
MODEL-0
  6
CONTINUOUS
 62
1
 10
55.000000
 20
628.800049
 11
32.842992
 21
629.961249
  0
LINE
  8
MODEL-0
  6
CONTINUOUS
 62
1
 10
55.000000
 20
668.800049
 11
32.842992
 21
667.638850
  0
ARC
  8
MODEL-0
  6
CONTINUOUS
 62
1
 10
33.000000
 20
664.642961
 40
3.000000
 50
93.000000
 51
180.000000
  0
ARC
  8
MODEL-0
  6
CONTINUOUS
 62
1
 10
33.000000
 20
632.957137
 40
3.000000
 50
180.000000
 51
267.000000
  0
LINE
  8
MODEL-0
  6
CONTINUOUS
 62
1
 10
705.000000
 20
668.800049
 11
705.000000
 21
628.800049
  0
LINE
  8
MODEL-0
  6
CONTINUOUS
 62
1
 10
730.000000
 20
664.642961
 11
730.000000
 21
632.957137
  0
LINE
  8
MODEL-0
  6
CONTINUOUS
 62
1
 10
705.000000
 20
628.800049
 11
727.157008
 21
629.961249
  0
LINE
  8
MODEL-0
  6
CONTINUOUS
 62
1
 10
705.000000
 20
668.800049
 11
727.157008
 21
667.638850
  0
ARC
  8
MODEL-0
  6
CONTINUOUS
 62
1
 10
727.000000
 20
664.642961
 40
3.000000
 50
0.000000
 51
87.000000
  0
ARC
  8
MODEL-0
  6
CONTINUOUS
 62
1
 10
727.000000
 20
632.957137
 40
3.000000
 50
273.000000
 51
0.000000
  0
LINE
  8
MODEL-0
  6
CONTINUOUS
 62
1
 10
55.000000
 20
628.800049
 11
705.000000
 21
628.800049
  0
LINE
  8
MODEL-0
  6
CONTINUOUS
 62
1
 10
55.000000
 20
668.800049
 11
705.000000
 21
668.800049
  0
ENDSEC
  0
EOF
