  0
SECTION
  2
HEADER
  9
$LIMMIN
 10
0.000000
 20
0.000000
  9
$LIMMAX
 10
3500.000000
 20
2500.000000
  9
$EXTMIN
 10
0.000000
 20
0.000000
  9
$EXTMAX
 10
3500.000000
 20
2500.000000
  9
$ANGBASE
 50
0.0
  9
$ANGDIR
 70
0
  9
$DIMRND
 40
0.100000
  9
$DIMSE1
 70
0
  9
$DIMSE2
 70
0
  9
$DIMTXT
 40
3.500000
  9
$LTSCALE
 40
1.000000
  9
$LUPREC
 70
5
  9
$AUPREC
 70
5
  9
$PDMODE
 70
2
  9
$PDSIZE
 40
17.500000
  0
ENDSEC
  0
SECTION
  2
TABLES
  0
TABLE
  2
VPORT
  70
1
  0
VPORT
  2
*ACTIVE
 70
0
  10
0.0
 20
0.0
 11
1.0
 21
1.0
 12
594.0
 22
420.0
 13
0.0
 23
0.0
 14
10.0
 24
10.0
 15
10.0
 25
10.0
 16
0.0
 26
0.0
 36
1.0
 17
594.0
 27
420.0
 37
100.0
 40
1000.0
 41
1.0
 42
50.0
 43
0.0
 44
0.0
 50
0.0
 51
0.0
 71
0
 72
2000
 73
1
 74
3
 75
0
 76
0
 77
0
 78
1
  0
ENDTAB
  0
TABLE
  2
LTYPE
 70
4
  0
LTYPE
  2
CONTINUOUS
 70
0
  3
Solid line
 72
65
 73
0
 40
0.0
  0
LTYPE
  2
DASHED
 70
0
  3
Dashed line
 72
65
 73
2
 40
6.000000
 49
3.000000
 49
-3.000000
  0
LTYPE
  2
CENTER
 70
0
  3
Chain line
 72
65
 73
4
 40
24.000000
 49
15.000000
 49
-3.000000
 49
3.000000
 49
-3.000000
  0
LTYPE
  2
RANDOM
 70
0
  3
Random line
 72
65
 73
4
 40
22.500000
 49
6.000000
 49
-3.000000
 49
4.500000
 49
-9.000000
  0
ENDTAB
  0
TABLE
  2
STYLE
 70
9
  0
STYLE
  2
STANDARD
 40
0
 41
1.0
 50
0.0
 71
0
 42
0
  3
simplex
  4

 70
0
  0
ENDTAB
  0
TABLE
  2
LAYER
 70
2
  0
LAYER
  2
0
 70
0
 62
7
  6
CONTINUOUS
  0
LAYER
  2
0
 62
1
  6
CONTINUOUS
 70
0
  0
ENDTAB
  0
ENDSEC
  0
SECTION
  2
BLOCKS
  0
ENDSEC
  0
SECTION
  2
ENTITIES
  0
LINE
  8
0
  6
CONTINUOUS
 62
1
 10
1700.280500
 20
1422.698759
 11
1700.280500
 21
717.698759
  0
LINE
  8
0
  6
CONTINUOUS
 62
1
 10
1700.280500
 20
717.698759
 11
1024.280500
 21
717.698759
  0
LINE
  8
0
  6
CONTINUOUS
 62
1
 10
1024.280500
 20
717.698759
 11
1024.280500
 21
1422.698759
  0
LINE
  8
0
  6
CONTINUOUS
 62
1
 10
1041.780500
 20
717.698759
 11
1041.780500
 21
707.698759
  0
LINE
  8
0
  6
CONTINUOUS
 62
1
 10
1041.780500
 20
707.698759
 11
1096.780500
 21
707.698759
  0
LINE
  8
0
  6
CONTINUOUS
 62
1
 10
1096.780500
 20
707.698759
 11
1096.780500
 21
717.698759
  0
LINE
  8
0
  6
CONTINUOUS
 62
1
 10
1641.780500
 20
717.698759
 11
1641.780500
 21
707.698759
  0
LINE
  8
0
  6
CONTINUOUS
 62
1
 10
1641.780500
 20
707.698759
 11
1696.780500
 21
707.698759
  0
LINE
  8
0
  6
CONTINUOUS
 62
1
 10
1696.780500
 20
707.698759
 11
1696.780500
 21
717.698759
  0
LINE
  8
0
  6
CONTINUOUS
 62
1
 10
1653.380256
 20
1472.697782
 11
1737.429698
 21
1472.697782
  0
LINE
  8
0
  6
CONTINUOUS
 62
1
 10
1647.380256
 20
1466.697782
 11
1647.380256
 21
1451.197782
  0
LINE
  8
0
  6
CONTINUOUS
 62
1
 10
1622.380256
 20
1448.197782
 11
1644.380256
 21
1448.197782
  0
ARC
  8
0
  6
CONTINUOUS
 62
1
 10
1644.380256
 20
1451.197782
 40
3.000000
 50
270.000000
 51
0.000000
  0
ARC
  8
0
  6
CONTINUOUS
 62
1
 10
1653.380256
 20
1466.697782
 40
6.000000
 50
90.000000
 51
180.000000
  0
LINE
  8
0
  6
CONTINUOUS
 62
1
 10
1647.380256
 20
1422.697782
 11
1700.280500
 21
1422.697782
  0
LINE
  8
0
  6
CONTINUOUS
 62
1
 10
1055.380500
 20
1448.197905
 11
1622.380256
 21
1448.197905
  0
LINE
  8
0
  6
CONTINUOUS
 62
1
 10
1030.380500
 20
1422.697782
 11
1647.380256
 21
1422.697782
  0
LINE
  8
0
  6
CONTINUOUS
 62
1
 10
1055.380500
 20
1448.197905
 11
907.280500
 21
1448.197905
  0
LINE
  8
0
  6
CONTINUOUS
 62
1
 10
901.280500
 20
1442.197905
 11
901.280500
 21
1424.697782
  0
LINE
  8
0
  6
CONTINUOUS
 62
1
 10
1055.380500
 20
1448.197905
 11
1622.380256
 21
1448.197905
  0
LINE
  8
0
  6
CONTINUOUS
 62
1
 10
921.280500
 20
1422.697782
 11
1647.380256
 21
1422.697782
  0
LINE
  8
0
  6
CONTINUOUS
 62
1
 10
1095.280500
 20
573.697782
 11
1084.280500
 21
577.697767
  0
LINE
  8
0
  6
CONTINUOUS
 62
1
 10
1043.280500
 20
573.697782
 11
1054.280500
 21
577.697767
  0
LINE
  8
0
  6
CONTINUOUS
 62
1
 10
1043.280500
 20
573.697782
 11
1043.280500
 21
572.697782
  0
LINE
  8
0
  6
CONTINUOUS
 62
1
 10
1095.280500
 20
573.697782
 11
1043.280500
 21
573.697782
  0
LINE
  8
0
  6
CONTINUOUS
 62
1
 10
1084.280500
 20
577.697767
 11
1054.311445
 21
577.697767
  0
LINE
  8
0
  6
CONTINUOUS
 62
1
 10
1095.280500
 20
572.697782
 11
1043.280500
 21
572.697782
  0
LINE
  8
0
  6
CONTINUOUS
 62
1
 10
1095.280500
 20
573.697782
 11
1095.280500
 21
572.697782
  0
LINE
  8
0
  6
CONTINUOUS
 62
1
 10
1046.842352
 20
701.761259
 11
1047.812406
 21
608.636251
  0
ARC
  8
0
  6
CONTINUOUS
 62
1
 10
1040.842680
 20
701.698759
 40
6.000000
 50
0.596809
 51
81.007603
  0
ARC
  8
0
  6
CONTINUOUS
 62
1
 10
1097.718336
 20
701.698759
 40
6.000000
 50
98.992545
 51
179.403198
  0
ARC
  8
0
  6
CONTINUOUS
 62
1
 10
1084.748930
 20
608.698751
 40
5.999996
 50
269.999969
 51
359.403160
  0
ARC
  8
0
  6
CONTINUOUS
 62
1
 10
1053.812086
 20
608.698751
 40
6.000000
 50
180.596802
 51
270.000000
  0
LINE
  8
0
  6
CONTINUOUS
 62
1
 10
1091.718656
 20
701.761259
 11
1090.748609
 21
608.636251
  0
LINE
  8
0
  6
CONTINUOUS
 62
1
 10
1084.748930
 20
602.698751
 11
1053.812086
 21
602.698751
  0
LINE
  8
0
  6
CONTINUOUS
 62
1
 10
1053.812086
 20
602.698751
 11
1054.280500
 21
577.697767
  0
LINE
  8
0
  6
CONTINUOUS
 62
1
 10
1084.748927
 20
602.698756
 11
1084.280500
 21
577.697767
  0
LINE
  8
0
  6
CONTINUOUS
 62
1
 10
1695.280500
 20
573.697782
 11
1684.280500
 21
577.697767
  0
LINE
  8
0
  6
CONTINUOUS
 62
1
 10
1643.280500
 20
573.697782
 11
1654.280500
 21
577.697767
  0
LINE
  8
0
  6
CONTINUOUS
 62
1
 10
1643.280500
 20
573.697782
 11
1643.280500
 21
572.697782
  0
LINE
  8
0
  6
CONTINUOUS
 62
1
 10
1695.280500
 20
573.697782
 11
1643.280500
 21
573.697782
  0
LINE
  8
0
  6
CONTINUOUS
 62
1
 10
1684.280500
 20
577.697767
 11
1654.311445
 21
577.697767
  0
LINE
  8
0
  6
CONTINUOUS
 62
1
 10
1695.280500
 20
572.697782
 11
1643.280500
 21
572.697782
  0
LINE
  8
0
  6
CONTINUOUS
 62
1
 10
1695.280500
 20
573.697782
 11
1695.280500
 21
572.697782
  0
LINE
  8
0
  6
CONTINUOUS
 62
1
 10
1646.842352
 20
701.761259
 11
1647.812406
 21
608.636251
  0
ARC
  8
0
  6
CONTINUOUS
 62
1
 10
1640.842680
 20
701.698759
 40
6.000000
 50
0.596809
 51
81.007603
  0
ARC
  8
0
  6
CONTINUOUS
 62
1
 10
1697.718336
 20
701.698759
 40
6.000000
 50
98.992545
 51
179.403198
  0
ARC
  8
0
  6
CONTINUOUS
 62
1
 10
1684.748930
 20
608.698751
 40
5.999996
 50
269.999969
 51
359.403160
  0
ARC
  8
0
  6
CONTINUOUS
 62
1
 10
1653.812086
 20
608.698751
 40
6.000000
 50
180.596802
 51
270.000000
  0
LINE
  8
0
  6
CONTINUOUS
 62
1
 10
1691.718656
 20
701.761259
 11
1690.748609
 21
608.636251
  0
LINE
  8
0
  6
CONTINUOUS
 62
1
 10
1684.748930
 20
602.698751
 11
1653.812086
 21
602.698751
  0
LINE
  8
0
  6
CONTINUOUS
 62
1
 10
1653.812086
 20
602.698751
 11
1654.280500
 21
577.697767
  0
LINE
  8
0
  6
CONTINUOUS
 62
1
 10
1684.748927
 20
602.698756
 11
1684.280500
 21
577.697767
  0
LINE
  8
0
  6
CONTINUOUS
 62
1
 10
1653.380256
 20
1472.697782
 11
1818.658589
 21
1472.697782
  0
ARC
  8
0
  6
CONTINUOUS
 62
1
 10
1653.380256
 20
1466.697782
 40
6.000000
 50
90.000000
 51
180.000000
  0
LINE
  8
0
  6
CONTINUOUS
 62
1
 10
901.280500
 20
1424.697782
 11
1811.060609
 21
1424.697782
  0
LINE
  8
0
  6
CONTINUOUS
 62
1
 10
1822.901229
 20
1470.940423
 11
1837.102239
 21
1456.739413
  0
LINE
  8
0
  6
CONTINUOUS
 62
1
 10
1815.303249
 20
1426.455142
 11
1837.102239
 21
1448.254132
  0
ARC
  8
0
  6
CONTINUOUS
 62
1
 10
1832.859599
 20
1452.496772
 40
6.000000
 50
315.000000
 51
45.000000
  0
ARC
  8
0
  6
CONTINUOUS
 62
1
 10
1818.658589
 20
1466.697782
 40
6.000000
 50
45.000000
 51
90.000000
  0
ARC
  8
0
  6
CONTINUOUS
 62
1
 10
1811.060609
 20
1430.697782
 40
6.000000
 50
270.000000
 51
315.000000
  0
LINE
  8
0
  6
CONTINUOUS
 62
1
 10
1034.880397
 20
1448.197905
 11
1034.880397
 21
1472.197913
  0
LINE
  8
0
  6
CONTINUOUS
 62
1
 10
1034.880397
 20
1448.197905
 11
1064.880393
 21
1448.197905
  0
LINE
  8
0
  6
CONTINUOUS
 62
1
 10
1064.880393
 20
1448.197905
 11
1064.880393
 21
1457.197907
  0
LINE
  8
0
  6
CONTINUOUS
 62
1
 10
1036.344876
 20
1475.733432
 11
1039.880374
 21
1477.197909
  0
LINE
  8
0
  6
CONTINUOUS
 62
1
 10
1034.880397
 20
1472.197937
 11
1036.344876
 21
1475.733432
  0
LINE
  8
0
  6
CONTINUOUS
 62
1
 10
1039.880374
 20
1477.197909
 11
1150.880352
 21
1477.197909
  0
LINE
  8
0
  6
CONTINUOUS
 62
1
 10
1077.015925
 20
1477.187744
 11
1126.159687
 21
1477.187744
  0
LINE
  8
0
  6
CONTINUOUS
 62
1
 10
1064.880393
 20
1457.197907
 11
1612.880363
 21
1457.197907
  0
LINE
  8
0
  6
CONTINUOUS
 62
1
 10
1034.880397
 20
1472.197913
 11
1183.446935
 21
1472.197913
  0
LINE
  8
0
  6
CONTINUOUS
 62
1
 10
1234.880348
 20
1477.097902
 11
1259.701066
 21
1477.097902
  0
LINE
  8
0
  6
CONTINUOUS
 62
1
 10
1234.880348
 20
1472.197913
 11
1234.880348
 21
1477.097902
  0
LINE
  8
0
  6
CONTINUOUS
 62
1
 10
1183.116188
 20
1477.197909
 11
1202.644512
 21
1477.197909
  0
LINE
  8
0
  6
CONTINUOUS
 62
1
 10
1182.997990
 20
1476.159825
 11
1183.446935
 21
1472.197913
  0
LINE
  8
0
  6
CONTINUOUS
 62
1
 10
1202.313765
 20
1472.197913
 11
1202.762744
 21
1476.159825
  0
LINE
  8
0
  6
CONTINUOUS
 62
1
 10
1182.997990
 20
1476.159905
 11
1183.116188
 21
1477.197909
  0
LINE
  8
0
  6
CONTINUOUS
 62
1
 10
1202.644512
 20
1477.197909
 11
1202.762744
 21
1476.159825
  0
LINE
  8
0
  6
CONTINUOUS
 62
1
 10
1259.701066
 20
1472.197913
 11
1259.701066
 21
1477.197909
  0
LINE
  8
0
  6
CONTINUOUS
 62
1
 10
1150.880352
 20
1472.197913
 11
1150.880352
 21
1477.197909
  0
LINE
  8
0
  6
CONTINUOUS
 62
1
 10
1183.446935
 20
1472.197913
 11
1202.313799
 21
1472.197913
  0
LINE
  8
0
  6
CONTINUOUS
 62
1
 10
1418.059638
 20
1472.197913
 11
1418.059638
 21
1477.197909
  0
LINE
  8
0
  6
CONTINUOUS
 62
1
 10
1368.915877
 20
1472.197913
 11
1368.915877
 21
1477.197909
  0
LINE
  8
0
  6
CONTINUOUS
 62
1
 10
1368.915877
 20
1477.197909
 11
1418.059638
 21
1477.197909
  0
LINE
  8
0
  6
CONTINUOUS
 62
1
 10
1308.844828
 20
1477.097902
 11
1368.915877
 21
1477.097902
  0
LINE
  8
0
  6
CONTINUOUS
 62
1
 10
1322.886214
 20
1472.197913
 11
1333.880341
 21
1477.097902
  0
LINE
  8
0
  6
CONTINUOUS
 62
1
 10
1343.880363
 20
1477.097902
 11
1354.874456
 21
1472.197921
  0
LINE
  8
0
  6
CONTINUOUS
 62
1
 10
1259.701066
 20
1477.197909
 11
1308.844828
 21
1477.197909
  0
LINE
  8
0
  6
CONTINUOUS
 62
1
 10
1308.844828
 20
1472.197913
 11
1308.844828
 21
1477.197909
  0
LINE
  8
0
  6
CONTINUOUS
 62
1
 10
1202.313799
 20
1472.197913
 11
1475.446939
 21
1472.197913
  0
LINE
  8
0
  6
CONTINUOUS
 62
1
 10
1475.116193
 20
1477.197909
 11
1494.644499
 21
1477.197909
  0
LINE
  8
0
  6
CONTINUOUS
 62
1
 10
1474.997978
 20
1476.159825
 11
1475.446939
 21
1472.197913
  0
LINE
  8
0
  6
CONTINUOUS
 62
1
 10
1494.313770
 20
1472.197913
 11
1494.762731
 21
1476.159825
  0
LINE
  8
0
  6
CONTINUOUS
 62
1
 10
1474.997995
 20
1476.159937
 11
1475.116193
 21
1477.197909
  0
LINE
  8
0
  6
CONTINUOUS
 62
1
 10
1494.644499
 20
1477.197909
 11
1494.762731
 21
1476.159825
  0
LINE
  8
0
  6
CONTINUOUS
 62
1
 10
1551.701053
 20
1472.197913
 11
1551.701053
 21
1477.197909
  0
LINE
  8
0
  6
CONTINUOUS
 62
1
 10
1526.780351
 20
1472.197913
 11
1526.780351
 21
1477.192782
  0
LINE
  8
0
  6
CONTINUOUS
 62
1
 10
1526.780351
 20
1477.192782
 11
1551.701053
 21
1477.192782
  0
LINE
  8
0
  6
CONTINUOUS
 62
1
 10
1442.880357
 20
1472.197913
 11
1442.880357
 21
1477.097902
  0
LINE
  8
0
  6
CONTINUOUS
 62
1
 10
1418.059638
 20
1477.097902
 11
1442.880357
 21
1477.097902
  0
LINE
  8
0
  6
CONTINUOUS
 62
1
 10
1475.446939
 20
1472.197913
 11
1494.313787
 21
1472.197913
  0
LINE
  8
0
  6
CONTINUOUS
 62
1
 10
1642.880350
 20
1448.197905
 11
1642.880350
 21
1472.197913
  0
LINE
  8
0
  6
CONTINUOUS
 62
1
 10
1612.880363
 20
1448.197905
 11
1612.880363
 21
1457.197907
  0
LINE
  8
0
  6
CONTINUOUS
 62
1
 10
1612.880363
 20
1448.197905
 11
1642.880359
 21
1448.197905
  0
LINE
  8
0
  6
CONTINUOUS
 62
1
 10
1551.701053
 20
1477.197909
 11
1600.844815
 21
1477.197909
  0
LINE
  8
0
  6
CONTINUOUS
 62
1
 10
1600.844815
 20
1472.197913
 11
1600.844815
 21
1477.197909
  0
LINE
  8
0
  6
CONTINUOUS
 62
1
 10
1637.780346
 20
1477.192782
 11
1641.315875
 21
1475.728305
  0
LINE
  8
0
  6
CONTINUOUS
 62
1
 10
1641.315875
 20
1475.728305
 11
1642.778214
 21
1472.197913
  0
LINE
  8
0
  6
CONTINUOUS
 62
1
 10
1600.844815
 20
1477.192782
 11
1637.780346
 21
1477.192782
  0
LINE
  8
0
  6
CONTINUOUS
 62
1
 10
1494.313787
 20
1472.197913
 11
1642.880350
 21
1472.197913
  0
ARC
  8
0
  6
CONTINUOUS
 62
1
 10
907.280500
 20
1442.197905
 40
6.000000
 50
90.000000
 51
180.000000
  0
LINE
  8
0
  6
CONTINUOUS
 62
1
 10
916.180448
 20
1509.749340
 11
1021.847634
 21
1493.405654
  0
LINE
  8
0
  6
CONTINUOUS
 62
1
 10
1029.910124
 20
1448.197905
 11
1003.317582
 21
1448.197905
  0
LINE
  8
0
  6
CONTINUOUS
 62
1
 10
901.858224
 20
1462.197905
 11
905.893622
 21
1501.127749
  0
POLYLINE
  8
0
  6
CONTINUOUS
 62
1
 66
1
 70
2
  0
VERTEX
  8
0
 10
905.827791
 20
1500.623575
 70
0
 42
-0.101146
  0
VERTEX
  8
0
 10
907.054963
 20
1504.497322
 70
0
 42
-0.100400
  0
VERTEX
  8
0
 10
909.707826
 20
1507.595189
 70
0
 42
-0.100727
  0
VERTEX
  8
0
 10
913.352624
 20
1509.410659
 70
0
 42
-0.101937
  0
VERTEX
  8
0
 10
917.393414
 20
1509.646894
 70
0
  0
SEQEND
  0
LINE
  8
0
  6
CONTINUOUS
 62
1
 10
901.858224
 20
1462.197905
 11
902.774764
 21
1449.110749
  0
LINE
  8
0
  6
CONTINUOUS
 62
1
 10
1032.033308
 20
1459.697905
 11
1030.922252
 21
1449.110749
  0
LINE
  8
0
  6
CONTINUOUS
 62
1
 10
930.110124
 20
1448.197905
 11
903.755025
 21
1448.197905
  0
POLYLINE
  8
0
  6
CONTINUOUS
 62
1
 66
1
 70
2
  0
VERTEX
  8
0
 10
902.774764
 20
1449.110749
 70
0
 42
0.395705
  0
VERTEX
  8
0
 10
903.755025
 20
1448.197905
 70
0
  0
SEQEND
  0
POLYLINE
  8
0
  6
CONTINUOUS
 62
1
 66
1
 70
2
  0
VERTEX
  8
0
 10
1029.910124
 20
1448.197905
 70
0
 42
0.382180
  0
VERTEX
  8
0
 10
1030.922252
 20
1449.110749
 70
0
  0
SEQEND
  0
LINE
  8
0
  6
CONTINUOUS
 62
1
 10
931.875151
 20
1456.285061
 11
931.122252
 21
1449.110749
  0
LINE
  8
0
  6
CONTINUOUS
 62
1
 10
1001.834878
 20
1456.285061
 11
1002.337321
 21
1449.110749
  0
POLYLINE
  8
0
  6
CONTINUOUS
 62
1
 66
1
 70
2
  0
VERTEX
  8
0
 10
930.110124
 20
1448.197905
 70
0
 42
0.382180
  0
VERTEX
  8
0
 10
931.122252
 20
1449.110749
 70
0
  0
SEQEND
  0
POLYLINE
  8
0
  6
CONTINUOUS
 62
1
 66
1
 70
2
  0
VERTEX
  8
0
 10
1003.317582
 20
1448.197905
 70
0
 42
-0.395705
  0
VERTEX
  8
0
 10
1002.337321
 20
1449.110749
 70
0
  0
SEQEND
  0
POLYLINE
  8
0
  6
CONTINUOUS
 62
1
 66
1
 70
2
  0
VERTEX
  8
0
 10
1000.854617
 20
1457.197905
 70
0
 42
-0.395705
  0
VERTEX
  8
0
 10
1001.834878
 20
1456.285061
 70
0
  0
SEQEND
  0
POLYLINE
  8
0
  6
CONTINUOUS
 62
1
 66
1
 70
2
  0
VERTEX
  8
0
 10
932.887280
 20
1457.197905
 70
0
 42
0.382180
  0
VERTEX
  8
0
 10
931.875151
 20
1456.285061
 70
0
  0
SEQEND
  0
LINE
  8
0
  6
CONTINUOUS
 62
1
 10
1032.033308
 20
1459.697905
 11
1030.294059
 21
1484.230349
  0
ARC
  8
0
  6
CONTINUOUS
 62
1
 10
1020.319096
 20
1483.523166
 40
10.000000
 50
4.055248
 51
81.207657
  0
LINE
  8
0
  6
CONTINUOUS
 62
1
 10
932.887280
 20
1457.197905
 11
1000.854617
 21
1457.197905
  0
LINE
  8
0
  6
CONTINUOUS
 62
1
 10
1700.280500
 20
1422.698759
 11
1700.280500
 21
717.698759
  0
LINE
  8
0
  6
CONTINUOUS
 62
1
 10
1700.280500
 20
717.698759
 11
1024.280500
 21
717.698759
  0
LINE
  8
0
  6
CONTINUOUS
 62
1
 10
1024.280500
 20
717.698759
 11
1024.280500
 21
1422.698759
  0
LINE
  8
0
  6
CONTINUOUS
 62
1
 10
921.280500
 20
1422.698759
 11
921.280500
 21
1312.698759
  0
LINE
  8
0
  6
CONTINUOUS
 62
1
 10
921.280500
 20
1312.698759
 11
1024.280500
 21
1312.698759
  0
LINE
  8
0
  6
CONTINUOUS
 62
1
 10
940.263187
 20
1312.698759
 11
940.263187
 21
1127.698759
  0
LINE
  8
0
  6
CONTINUOUS
 62
1
 10
940.263187
 20
1127.698759
 11
1024.280500
 21
1127.698759
  0
LINE
  8
0
  6
CONTINUOUS
 62
1
 10
1647.380256
 20
1422.697782
 11
1700.280500
 21
1422.697782
  0
LINE
  8
0
  6
CONTINUOUS
 62
1
 10
1030.380500
 20
1422.697782
 11
1647.380256
 21
1422.697782
  0
LINE
  8
0
  6
CONTINUOUS
 62
1
 10
1702.380354
 20
1311.597807
 11
1734.780378
 21
1311.597807
  0
ARC
  8
0
  6
CONTINUOUS
 62
1
 10
1734.780378
 20
1313.197782
 40
1.600000
 50
270.000000
 51
0.000000
  0
LINE
  8
0
  6
CONTINUOUS
 62
1
 10
1702.380354
 20
1311.597807
 11
1702.380354
 21
1424.697782
  0
LINE
  8
0
  6
CONTINUOUS
 62
1
 10
1736.380354
 20
1424.697782
 11
1736.380354
 21
1313.197782
  0
LINE
  8
0
  6
CONTINUOUS
 62
1
 10
1708.933088
 20
850.588163
 11
1730.333235
 21
850.588163
  0
LINE
  8
0
  6
CONTINUOUS
 62
1
 10
1708.933088
 20
730.588163
 11
1730.333235
 21
730.588163
  0
LINE
  8
0
  6
CONTINUOUS
 62
1
 10
1708.933088
 20
730.588163
 11
1708.933088
 21
850.588163
  0
LINE
  8
0
  6
CONTINUOUS
 62
1
 10
1730.933088
 20
837.588163
 11
1730.933088
 21
799.588163
  0
LINE
  8
0
  6
CONTINUOUS
 62
1
 10
1730.933088
 20
837.588163
 11
1733.333235
 21
837.588163
  0
ARC
  8
0
  6
CONTINUOUS
 62
1
 10
1733.333235
 20
839.188261
 40
1.600000
 50
270.000000
 51
0.000000
  0
LINE
  8
0
  6
CONTINUOUS
 62
1
 10
1734.933088
 20
837.588163
 11
1734.933088
 21
837.588285
  0
LINE
  8
0
  6
CONTINUOUS
 62
1
 10
1730.933088
 20
799.588163
 11
1733.333235
 21
799.588163
  0
ARC
  8
0
  6
CONTINUOUS
 62
1
 10
1733.333235
 20
797.988188
 40
1.600000
 50
0.000000
 51
90.000000
  0
LINE
  8
0
  6
CONTINUOUS
 62
1
 10
1734.933088
 20
799.588163
 11
1734.933088
 21
799.588285
  0
LINE
  8
0
  6
CONTINUOUS
 62
1
 10
1730.933088
 20
806.088163
 11
1730.933088
 21
806.088285
  0
LINE
  8
0
  6
CONTINUOUS
 62
1
 10
1733.333235
 20
848.988188
 11
1733.333235
 21
848.988310
  0
LINE
  8
0
  6
CONTINUOUS
 62
1
 10
1734.933088
 20
839.188261
 11
1734.933088
 21
845.988188
  0
ARC
  8
0
  6
CONTINUOUS
 62
1
 10
1730.333235
 20
845.988188
 40
4.600000
 50
0.000000
 51
90.000000
  0
LINE
  8
0
  6
CONTINUOUS
 62
1
 10
1734.933088
 20
850.588163
 11
1734.933088
 21
850.588285
  0
LINE
  8
0
  6
CONTINUOUS
 62
1
 10
1734.933088
 20
797.988188
 11
1734.933088
 21
735.188261
  0
ARC
  8
0
  6
CONTINUOUS
 62
1
 10
1730.333235
 20
735.188261
 40
4.600000
 50
270.000000
 51
0.000000
  0
LINE
  8
0
  6
CONTINUOUS
 62
1
 10
1734.933088
 20
730.588163
 11
1734.933088
 21
730.588285
  0
LINE
  8
0
  6
CONTINUOUS
 62
1
 10
1748.880598
 20
1285.190214
 11
1773.880598
 21
1310.190214
  0
LINE
  8
0
  6
CONTINUOUS
 62
1
 10
1700.280500
 20
1285.190214
 11
1748.880598
 21
1285.190214
  0
LINE
  8
0
  6
CONTINUOUS
 62
1
 10
1700.280500
 20
1310.190214
 11
1773.880598
 21
1310.190214
  0
LINE
  8
0
  6
CONTINUOUS
 62
1
 10
1708.664533
 20
961.597929
 11
1708.664533
 21
1270.097929
  0
LINE
  8
0
  6
DASHED
 62
1
 10
1708.664533
 20
961.597929
 11
1708.664533
 21
922.597929
  0
LINE
  8
0
  6
CONTINUOUS
 62
1
 10
1708.664533
 20
1273.497831
 11
1708.664533
 21
875.597807
  0
ARC
  8
0
  6
CONTINUOUS
 62
1
 10
1715.564680
 20
875.597807
 40
6.900000
 50
180.000000
 51
270.000000
  0
LINE
  8
0
  6
CONTINUOUS
 62
1
 10
1740.964582
 20
1272.597929
 11
1740.964582
 21
875.597807
  0
LINE
  8
0
  6
CONTINUOUS
 62
1
 10
1715.564680
 20
868.697905
 11
1734.064680
 21
868.697905
  0
ARC
  8
0
  6
CONTINUOUS
 62
1
 10
1734.064680
 20
875.597807
 40
6.900000
 50
270.000000
 51
0.000000
  0
LINE
  8
0
  6
DASHED
 62
1
 10
1709.564680
 20
869.597807
 11
1709.564680
 21
869.597929
  0
LINE
  8
0
  6
CONTINUOUS
 62
1
 10
1740.064680
 20
869.597807
 11
1740.064680
 21
869.597929
  0
LINE
  8
0
  6
CONTINUOUS
 62
1
 10
1708.664533
 20
1273.497831
 11
1740.064680
 21
1273.497831
  0
ARC
  8
0
  6
CONTINUOUS
 62
1
 10
1740.064680
 20
1272.597929
 40
0.900000
 50
0.000000
 51
90.000000
  0
LINE
  8
0
  6
CONTINUOUS
 62
1
 10
1700.280500
 20
1270.597929
 11
1708.664533
 21
1270.597929
  0
LINE
  8
0
  6
CONTINUOUS
 62
1
 10
1708.933088
 20
740.597807
 11
1700.280500
 21
740.597807
  0
LINE
  8
0
  6
CONTINUOUS
 62
1
 10
1729.280500
 20
869.597807
 11
1729.280500
 21
850.588163
  0
LINE
  8
0
  6
CONTINUOUS
 62
1
 10
1723.280500
 20
868.697905
 11
1723.280500
 21
850.588163
  0
LINE
  8
0
  6
CONTINUOUS
 62
1
 10
1751.780500
 20
1349.540565
 11
1751.780500
 21
1404.855011
  0
LINE
  8
0
  6
CONTINUOUS
 62
1
 10
1767.306669
 20
1350.354261
 11
1751.780500
 21
1349.540565
  0
ARC
  8
0
  6
CONTINUOUS
 62
1
 10
1767.280500
 20
1350.853575
 40
0.500000
 50
272.999969
 51
0.000000
  0
LINE
  8
0
  6
CONTINUOUS
 62
1
 10
1786.780500
 20
1371.865535
 11
1786.780500
 21
1380.774351
  0
ARC
  8
0
  6
CONTINUOUS
 62
1
 10
1785.280500
 20
1380.774351
 40
1.500000
 50
0.000000
 51
86.999992
  0
LINE
  8
0
  6
CONTINUOUS
 62
1
 10
1766.359007
 20
1404.090986
 11
1751.780500
 21
1404.855011
  0
ARC
  8
0
  6
CONTINUOUS
 62
1
 10
1766.280500
 20
1402.593046
 40
1.500000
 50
0.000000
 51
87.000023
  0
LINE
  8
0
  6
CONTINUOUS
 62
1
 10
1767.780500
 20
1388.887327
 11
1767.780500
 21
1402.593046
  0
LINE
  8
0
  6
CONTINUOUS
 62
1
 10
1785.359007
 20
1382.272291
 11
1773.466490
 21
1382.895552
  0
ARC
  8
0
  6
CONTINUOUS
 62
1
 10
1773.780500
 20
1388.887327
 40
5.999998
 50
180.000000
 51
267.000015
  0
LINE
  8
0
  6
CONTINUOUS
 62
1
 10
1786.280500
 20
1371.848074
 11
1786.280500
 21
1357.288241
  0
LINE
  8
0
  6
CONTINUOUS
 62
1
 10
1767.780500
 20
1350.848074
 11
1780.489897
 21
1351.291896
  0
LINE
  8
0
  6
CONTINUOUS
 62
1
 10
1786.780500
 20
1371.865535
 11
1772.482859
 21
1371.366250
  0
ARC
  8
0
  6
CONTINUOUS
 62
1
 10
1780.280500
 20
1357.288241
 40
6.000000
 50
272.000000
 51
0.000000
  0
LINE
  8
0
  6
CONTINUOUS
 62
1
 10
1786.280500
 20
1371.848074
 11
1786.280500
 21
1357.288241
  0
LINE
  8
0
  6
CONTINUOUS
 62
1
 10
1767.780500
 20
1350.848074
 11
1767.780500
 21
1365.508253
  0
LINE
  8
0
  6
CONTINUOUS
 62
1
 10
1767.780500
 20
1350.848074
 11
1780.489897
 21
1351.291896
  0
LINE
  8
0
  6
CONTINUOUS
 62
1
 10
1786.280500
 20
1371.848074
 11
1784.728151
 21
1371.793865
  0
ARC
  8
0
  6
CONTINUOUS
 62
1
 10
1780.280500
 20
1357.288241
 40
6.000000
 50
272.000000
 51
0.000000
  0
ARC
  8
0
  6
CONTINUOUS
 62
1
 10
1773.780500
 20
1365.508253
 40
6.000000
 50
102.490253
 51
180.000000
  0
LINE
  8
0
  6
CONTINUOUS
 62
1
 10
1736.380354
 20
1373.197782
 11
1751.780500
 21
1373.197782
  0
LINE
  8
0
  6
CONTINUOUS
 62
1
 10
1736.380354
 20
1379.197782
 11
1751.780500
 21
1379.197782
  0
LINE
  8
0
  6
CONTINUOUS
 62
1
 10
1751.780500
 20
1154.041541
 11
1751.780500
 21
1203.497831
  0
LINE
  8
0
  6
CONTINUOUS
 62
1
 10
1767.306669
 20
1154.855238
 11
1751.780500
 21
1154.041541
  0
ARC
  8
0
  6
CONTINUOUS
 62
1
 10
1767.280500
 20
1155.354551
 40
0.500000
 50
272.999969
 51
0.000000
  0
LINE
  8
0
  6
CONTINUOUS
 62
1
 10
1786.780500
 20
1176.366511
 11
1786.780500
 21
1185.275328
  0
ARC
  8
0
  6
CONTINUOUS
 62
1
 10
1785.280500
 20
1185.275328
 40
1.500000
 50
0.000000
 51
86.999992
  0
LINE
  8
0
  6
CONTINUOUS
 62
1
 10
1767.780500
 20
1193.388304
 11
1767.780500
 21
1203.497831
  0
LINE
  8
0
  6
CONTINUOUS
 62
1
 10
1785.359007
 20
1186.773268
 11
1773.466490
 21
1187.396528
  0
ARC
  8
0
  6
CONTINUOUS
 62
1
 10
1773.780500
 20
1193.388304
 40
5.999998
 50
180.000000
 51
267.000015
  0
LINE
  8
0
  6
CONTINUOUS
 62
1
 10
1786.280500
 20
1176.349051
 11
1786.280500
 21
1161.789218
  0
LINE
  8
0
  6
CONTINUOUS
 62
1
 10
1767.780500
 20
1155.349051
 11
1780.489897
 21
1155.792873
  0
LINE
  8
0
  6
CONTINUOUS
 62
1
 10
1786.780500
 20
1176.366511
 11
1772.482859
 21
1175.867226
  0
ARC
  8
0
  6
CONTINUOUS
 62
1
 10
1780.280500
 20
1161.789218
 40
6.000000
 50
272.000000
 51
0.000000
  0
LINE
  8
0
  6
CONTINUOUS
 62
1
 10
1786.280500
 20
1176.349051
 11
1786.280500
 21
1161.789218
  0
LINE
  8
0
  6
CONTINUOUS
 62
1
 10
1767.780500
 20
1155.349051
 11
1767.780500
 21
1170.009230
  0
LINE
  8
0
  6
CONTINUOUS
 62
1
 10
1767.780500
 20
1155.349051
 11
1780.489897
 21
1155.792873
  0
LINE
  8
0
  6
CONTINUOUS
 62
1
 10
1786.280500
 20
1176.349051
 11
1784.728151
 21
1176.294841
  0
ARC
  8
0
  6
CONTINUOUS
 62
1
 10
1780.280500
 20
1161.789218
 40
6.000000
 50
272.000000
 51
0.000000
  0
ARC
  8
0
  6
CONTINUOUS
 62
1
 10
1773.780500
 20
1170.009230
 40
6.000000
 50
102.490253
 51
180.000000
  0
LINE
  8
0
  6
CONTINUOUS
 62
1
 10
1740.964582
 20
1177.698759
 11
1751.780500
 21
1177.698759
  0
LINE
  8
0
  6
CONTINUOUS
 62
1
 10
1740.964582
 20
1183.698759
 11
1751.780500
 21
1183.698759
  0
LINE
  8
0
  6
CONTINUOUS
 62
1
 10
1740.964582
 20
938.698759
 11
1740.964582
 21
1014.698759
  0
LINE
  8
0
  6
CONTINUOUS
 62
1
 10
1743.693479
 20
938.841764
 11
1740.964582
 21
938.698759
  0
ARC
  8
0
  6
CONTINUOUS
 62
1
 10
1743.667310
 20
939.341093
 40
0.500002
 50
273.000153
 51
330.000137
  0
LINE
  8
0
  6
CONTINUOUS
 62
1
 10
1744.100324
 20
939.091093
 11
1749.986555
 21
949.286344
  0
ARC
  8
0
  6
CONTINUOUS
 62
1
 10
1750.419569
 20
949.036344
 40
0.500002
 50
93.000122
 51
150.000153
  0
LINE
  8
0
  6
CONTINUOUS
 62
1
 10
1756.490751
 20
949.855223
 11
1750.393400
 21
949.535673
  0
ARC
  8
0
  6
CONTINUOUS
 62
1
 10
1756.464582
 20
950.354521
 40
0.500000
 50
272.999969
 51
0.000000
  0
LINE
  8
0
  6
CONTINUOUS
 62
1
 10
1743.693479
 20
1014.555723
 11
1740.964582
 21
1014.698759
  0
ARC
  8
0
  6
CONTINUOUS
 62
1
 10
1743.667310
 20
1014.056425
 40
0.500000
 50
29.999809
 51
86.999770
  0
ARC
  8
0
  6
CONTINUOUS
 62
1
 10
1775.464582
 20
972.173246
 40
0.500000
 50
273.000046
 51
0.000000
  0
LINE
  8
0
  6
CONTINUOUS
 62
1
 10
1775.964582
 20
972.173246
 11
1775.964582
 21
980.275297
  0
ARC
  8
0
  6
CONTINUOUS
 62
1
 10
1750.419584
 20
1004.361143
 40
0.500002
 50
209.999863
 51
266.999863
  0
LINE
  8
0
  6
CONTINUOUS
 62
1
 10
1744.100324
 20
1014.306425
 11
1749.986570
 21
1004.111143
  0
ARC
  8
0
  6
CONTINUOUS
 62
1
 10
1774.464582
 20
980.275297
 40
1.500000
 50
0.000000
 51
86.999992
  0
LINE
  8
0
  6
CONTINUOUS
 62
1
 10
1755.543089
 20
1003.591948
 11
1750.393415
 21
1003.861845
  0
ARC
  8
0
  6
CONTINUOUS
 62
1
 10
1755.464582
 20
1002.093992
 40
1.500000
 50
0.000000
 51
87.000023
  0
LINE
  8
0
  6
CONTINUOUS
 62
1
 10
1756.964582
 20
988.388273
 11
1756.964582
 21
1002.093992
  0
LINE
  8
0
  6
CONTINUOUS
 62
1
 10
1774.543073
 20
981.773252
 11
1762.650572
 21
982.396513
  0
ARC
  8
0
  6
CONTINUOUS
 62
1
 10
1762.964582
 20
988.388273
 40
5.999998
 50
180.000000
 51
267.000015
  0
LINE
  8
0
  6
CONTINUOUS
 62
1
 10
1769.778608
 20
950.844084
 11
1756.964582
 21
950.172544
  0
ARC
  8
0
  6
CONTINUOUS
 62
1
 10
1769.464582
 20
956.835875
 40
6.000000
 50
273.000000
 51
0.000000
  0
LINE
  8
0
  6
CONTINUOUS
 62
1
 10
1775.464582
 20
956.835875
 11
1775.464582
 21
971.672544
  0
ARC
  8
0
  6
CONTINUOUS
 62
1
 10
1762.964582
 20
965.009214
 40
6.000000
 50
93.000000
 51
180.000000
  0
LINE
  8
0
  6
CONTINUOUS
 62
1
 10
1775.464582
 20
971.672544
 11
1762.650556
 21
971.000975
  0
LINE
  8
0
  6
DASHED
 62
1
 10
1756.964582
 20
965.009214
 11
1756.964582
 21
959.948759
  0
LINE
  8
0
  6
CONTINUOUS
 62
1
 10
1756.964582
 20
950.172544
 11
1756.964582
 21
965.009214
  0
LINE
  8
0
  6
CONTINUOUS
 62
1
 10
1749.986569
 20
1004.111143
 11
1749.986569
 21
949.286371
  0
LINE
  8
0
  6
CONTINUOUS
 62
1
 10
1810.805203
 20
1205.255191
 11
1819.006213
 21
1213.456201
  0
ARC
  8
0
  6
CONTINUOUS
 62
1
 10
1794.964582
 20
1237.497831
 40
6.000000
 50
45.000000
 51
90.000000
  0
ARC
  8
0
  6
CONTINUOUS
 62
1
 10
1814.763572
 20
1217.698841
 40
6.000000
 50
315.000000
 51
45.000000
  0
ARC
  8
0
  6
CONTINUOUS
 62
1
 10
1806.562562
 20
1209.497831
 40
6.000000
 50
270.000000
 51
315.000000
  0
LINE
  8
0
  6
CONTINUOUS
 62
1
 10
1740.964582
 20
1203.497831
 11
1806.562562
 21
1203.497831
  0
LINE
  8
0
  6
CONTINUOUS
 62
1
 10
1794.964582
 20
1243.497831
 11
1740.964582
 21
1243.497831
  0
LINE
  8
0
  6
CONTINUOUS
 62
1
 10
1740.964582
 20
1243.497831
 11
1740.964582
 21
1203.497831
  0
LINE
  8
0
  6
CONTINUOUS
 62
1
 10
1819.006213
 20
1221.941482
 11
1799.207223
 21
1241.740472
  0
ENDSEC
  0
EOF
