  0
SECTION
  2
HEADER
  9
$LIMMIN
 10
0.000000
 20
0.000000
  9
$LIMMAX
 10
3500.000000
 20
2500.000000
  9
$EXTMIN
 10
0.000000
 20
0.000000
  9
$EXTMAX
 10
3500.000000
 20
2500.000000
  9
$ANGBASE
 50
0.0
  9
$ANGDIR
 70
0
  9
$DIMRND
 40
0.100000
  9
$DIMSE1
 70
0
  9
$DIMSE2
 70
0
  9
$DIMTXT
 40
3.500000
  9
$LTSCALE
 40
1.000000
  9
$LUPREC
 70
5
  9
$AUPREC
 70
5
  9
$PDMODE
 70
2
  9
$PDSIZE
 40
17.500000
  0
ENDSEC
  0
SECTION
  2
TABLES
  0
TABLE
  2
VPORT
  70
1
  0
VPORT
  2
*ACTIVE
 70
0
  10
0.0
 20
0.0
 11
1.0
 21
1.0
 12
594.0
 22
420.0
 13
0.0
 23
0.0
 14
10.0
 24
10.0
 15
10.0
 25
10.0
 16
0.0
 26
0.0
 36
1.0
 17
594.0
 27
420.0
 37
100.0
 40
1000.0
 41
1.0
 42
50.0
 43
0.0
 44
0.0
 50
0.0
 51
0.0
 71
0
 72
2000
 73
1
 74
3
 75
0
 76
0
 77
0
 78
1
  0
ENDTAB
  0
TABLE
  2
LTYPE
 70
4
  0
LTYPE
  2
CONTINUOUS
 70
0
  3
Solid line
 72
65
 73
0
 40
0.0
  0
LTYPE
  2
DASHED
 70
0
  3
Dashed line
 72
65
 73
2
 40
6.000000
 49
3.000000
 49
-3.000000
  0
LTYPE
  2
CENTER
 70
0
  3
Chain line
 72
65
 73
4
 40
24.000000
 49
15.000000
 49
-3.000000
 49
3.000000
 49
-3.000000
  0
LTYPE
  2
RANDOM
 70
0
  3
Random line
 72
65
 73
4
 40
22.500000
 49
6.000000
 49
-3.000000
 49
4.500000
 49
-9.000000
  0
ENDTAB
  0
TABLE
  2
STYLE
 70
9
  0
STYLE
  2
STANDARD
 40
0
 41
1.0
 50
0.0
 71
0
 42
0
  3
simplex
  4

 70
0
  0
ENDTAB
  0
TABLE
  2
LAYER
 70
2
  0
LAYER
  2
0
 70
0
 62
7
  6
CONTINUOUS
  0
LAYER
  2
0
 62
1
  6
CONTINUOUS
 70
0
  0
ENDTAB
  0
ENDSEC
  0
SECTION
  2
BLOCKS
  0
ENDSEC
  0
SECTION
  2
ENTITIES
  0
LINE
  8
0
  6
CONTINUOUS
 62
1
 10
1131.271879
 20
1007.106451
 11
1644.271879
 21
1007.106451
  0
ARC
  8
0
  6
CONTINUOUS
 62
1
 10
1644.271879
 20
1047.106451
 40
40.000000
 50
270.000000
 51
0.000000
  0
LINE
  8
0
  6
CONTINUOUS
 62
1
 10
1684.271879
 20
1047.106451
 11
1684.271879
 21
1292.106451
  0
LINE
  8
0
  6
CONTINUOUS
 62
1
 10
1684.271879
 20
1292.106451
 11
1633.201879
 21
1452.466451
  0
ARC
  8
0
  6
CONTINUOUS
 62
1
 10
1594.561879
 20
1442.106451
 40
40.000000
 50
15.018000
 51
90.000000
  0
LINE
  8
0
  6
CONTINUOUS
 62
1
 10
1594.561879
 20
1482.106451
 11
1131.271879
 21
1482.106451
  0
LINE
  8
0
  6
CONTINUOUS
 62
1
 10
1131.271879
 20
1482.106451
 11
1131.271879
 21
1007.106451
  0
LINE
  8
0
  6
CONTINUOUS
 62
1
 10
1293.271879
 20
1482.106451
 11
1281.271879
 21
1512.106451
  0
LINE
  8
0
  6
CONTINUOUS
 62
1
 10
1281.271879
 20
1512.106451
 11
1181.271879
 21
1495.416451
  0
LINE
  8
0
  6
CONTINUOUS
 62
1
 10
1181.271879
 20
1495.416451
 11
1181.271879
 21
1482.106451
  0
LINE
  8
0
  6
CONTINUOUS
 62
1
 10
1596.271879
 20
1482.106451
 11
1596.271879
 21
1007.106451
  0
LINE
  8
0
  6
CONTINUOUS
 62
1
 10
1596.271879
 20
1292.106451
 11
1684.271879
 21
1292.106451
  0
LINE
  8
0
  6
CONTINUOUS
 62
1
 10
1682.741879
 20
1036.146451
 11
1713.261879
 21
1020.076451
  0
ARC
  8
0
  6
CONTINUOUS
 62
1
 10
1703.941879
 20
1002.376451
 40
20.000000
 50
346.489000
 51
62.239000
  0
LINE
  8
0
  6
CONTINUOUS
 62
1
 10
1723.391879
 20
997.706451
 11
1719.321879
 21
980.776451
  0
LINE
  8
0
  6
CONTINUOUS
 62
1
 10
1719.321879
 20
980.776451
 11
1689.801879
 21
980.776451
  0
LINE
  8
0
  6
CONTINUOUS
 62
1
 10
1689.801879
 20
980.776451
 11
1652.381879
 21
1007.936451
  0
LINE
  8
0
  6
CONTINUOUS
 62
1
 10
1686.451879
 20
904.486451
 11
1717.181879
 21
904.486451
  0
LINE
  8
0
  6
CONTINUOUS
 62
1
 10
1717.181879
 20
904.486451
 11
1717.181879
 21
974.956451
  0
LINE
  8
0
  6
CONTINUOUS
 62
1
 10
1717.181879
 20
974.956451
 11
1686.451879
 21
974.956451
  0
LINE
  8
0
  6
CONTINUOUS
 62
1
 10
1686.451879
 20
974.956451
 11
1686.451879
 21
904.486451
  0
ARC
  8
0
  6
CONTINUOUS
 62
1
 10
1731.581879
 20
941.616451
 40
8.250000
 50
180.000000
 51
0.000000
  0
ARC
  8
0
  6
CONTINUOUS
 62
1
 10
1731.581879
 20
941.616451
 40
8.250000
 50
0.000000
 51
180.000000
  0
LINE
  8
0
  6
CONTINUOUS
 62
1
 10
1684.271879
 20
1192.106451
 11
1724.271879
 21
1192.106451
  0
LINE
  8
0
  6
CONTINUOUS
 62
1
 10
1724.271879
 20
1192.106451
 11
1724.271879
 21
1232.106451
  0
LINE
  8
0
  6
CONTINUOUS
 62
1
 10
1724.271879
 20
1232.106451
 11
1684.271879
 21
1232.106451
  0
LINE
  8
0
  6
CONTINUOUS
 62
1
 10
1879.271879
 20
1082.186451
 11
1784.271879
 21
1148.436451
  0
LINE
  8
0
  6
CONTINUOUS
 62
1
 10
1784.271879
 20
1148.436451
 11
1767.111879
 21
1123.826451
  0
LINE
  8
0
  6
CONTINUOUS
 62
1
 10
1767.111879
 20
1123.826451
 11
1862.111879
 21
1057.576451
  0
LINE
  8
0
  6
CONTINUOUS
 62
1
 10
1862.111879
 20
1057.576451
 11
1879.271879
 21
1082.186451
  0
LINE
  8
0
  6
CONTINUOUS
 62
1
 10
1755.671879
 20
1107.426451
 11
1795.711879
 21
1164.836451
  0
LINE
  8
0
  6
CONTINUOUS
 62
1
 10
1795.711879
 20
1164.836451
 11
1789.971879
 21
1168.846451
  0
LINE
  8
0
  6
CONTINUOUS
 62
1
 10
1789.971879
 20
1168.846451
 11
1749.931879
 21
1111.426451
  0
LINE
  8
0
  6
CONTINUOUS
 62
1
 10
1749.931879
 20
1111.426451
 11
1755.671879
 21
1107.426451
  0
LINE
  8
0
  6
CONTINUOUS
 62
1
 10
1765.941879
 20
1134.396451
 11
1747.301879
 21
1147.396451
  0
LINE
  8
0
  6
CONTINUOUS
 62
1
 10
1747.301879
 20
1147.396451
 11
1684.271879
 21
1147.396451
  0
LINE
  8
0
  6
CONTINUOUS
 62
1
 10
1773.951879
 20
1145.876451
 11
1751.701879
 21
1161.396451
  0
LINE
  8
0
  6
CONTINUOUS
 62
1
 10
1751.701879
 20
1161.396451
 11
1684.271879
 21
1161.396451
  0
LINE
  8
0
  6
CONTINUOUS
 62
1
 10
1131.271879
 20
1065.106451
 11
1102.271879
 21
1065.106451
  0
ARC
  8
0
  6
CONTINUOUS
 62
1
 10
1102.271879
 20
1039.106451
 40
26.000000
 50
90.000000
 51
180.000000
  0
LINE
  8
0
  6
CONTINUOUS
 62
1
 10
1076.271879
 20
1039.106451
 11
1076.271879
 21
1022.386451
  0
LINE
  8
0
  6
CONTINUOUS
 62
1
 10
1076.271879
 20
1022.386451
 11
1092.271879
 21
1022.386451
  0
LINE
  8
0
  6
CONTINUOUS
 62
1
 10
1092.271879
 20
1022.386451
 11
1092.271879
 21
1039.106451
  0
ARC
  8
0
  6
CONTINUOUS
 62
1
 10
1102.271879
 20
1039.106451
 40
10.000000
 50
90.000000
 51
180.000000
  0
LINE
  8
0
  6
CONTINUOUS
 62
1
 10
1102.271879
 20
1049.106451
 11
1131.271879
 21
1049.106451
  0
LINE
  8
0
  6
CONTINUOUS
 62
1
 10
1131.271879
 20
1049.106451
 11
1131.271879
 21
1065.106451
  0
ENDSEC
  0
EOF
