  0
SECTION
  2
HEADER
  9
$LIMMIN
 10
0.000000
 20
0.000000
  9
$LIMMAX
 10
3500.000000
 20
2500.000000
  9
$EXTMIN
 10
0.000000
 20
0.000000
  9
$EXTMAX
 10
3500.000000
 20
2500.000000
  9
$ANGBASE
 50
0.0
  9
$ANGDIR
 70
0
  9
$DIMRND
 40
0.100000
  9
$DIMSE1
 70
0
  9
$DIMSE2
 70
0
  9
$DIMTXT
 40
3.500000
  9
$LTSCALE
 40
1.000000
  9
$LUPREC
 70
5
  9
$AUPREC
 70
5
  9
$PDMODE
 70
2
  9
$PDSIZE
 40
17.500000
  0
ENDSEC
  0
SECTION
  2
TABLES
  0
TABLE
  2
VPORT
  70
1
  0
VPORT
  2
*ACTIVE
 70
0
  10
0.0
 20
0.0
 11
1.0
 21
1.0
 12
594.0
 22
420.0
 13
0.0
 23
0.0
 14
10.0
 24
10.0
 15
10.0
 25
10.0
 16
0.0
 26
0.0
 36
1.0
 17
594.0
 27
420.0
 37
100.0
 40
1000.0
 41
1.0
 42
50.0
 43
0.0
 44
0.0
 50
0.0
 51
0.0
 71
0
 72
2000
 73
1
 74
3
 75
0
 76
0
 77
0
 78
1
  0
ENDTAB
  0
TABLE
  2
LTYPE
 70
4
  0
LTYPE
  2
CONTINUOUS
 70
0
  3
Solid line
 72
65
 73
0
 40
0.0
  0
LTYPE
  2
DASHED
 70
0
  3
Dashed line
 72
65
 73
2
 40
6.000000
 49
3.000000
 49
-3.000000
  0
LTYPE
  2
CENTER
 70
0
  3
Chain line
 72
65
 73
4
 40
24.000000
 49
15.000000
 49
-3.000000
 49
3.000000
 49
-3.000000
  0
LTYPE
  2
RANDOM
 70
0
  3
Random line
 72
65
 73
4
 40
22.500000
 49
6.000000
 49
-3.000000
 49
4.500000
 49
-9.000000
  0
ENDTAB
  0
TABLE
  2
STYLE
 70
9
  0
STYLE
  2
STANDARD
 40
0
 41
1.0
 50
0.0
 71
0
 42
0
  3
simplex
  4

 70
0
  0
ENDTAB
  0
TABLE
  2
LAYER
 70
2
  0
LAYER
  2
0
 70
0
 62
7
  6
CONTINUOUS
  0
LAYER
  2
0
 62
1
  6
CONTINUOUS
 70
0
  0
ENDTAB
  0
ENDSEC
  0
SECTION
  2
BLOCKS
  0
ENDSEC
  0
SECTION
  2
ENTITIES
  0
LINE
  8
0
  6
CONTINUOUS
 62
1
 10
1162.695052
 20
1375.466035
 11
1094.695072
 21
1375.466035
  0
LINE
  8
0
  6
CONTINUOUS
 62
1
 10
1094.695072
 20
1375.466035
 11
1094.695072
 21
1637.821294
  0
LINE
  8
0
  6
CONTINUOUS
 62
1
 10
1044.695087
 20
1337.466046
 11
1044.695087
 21
655.466251
  0
LINE
  8
0
  6
CONTINUOUS
 62
1
 10
1044.695087
 20
655.466251
 11
1075.125078
 21
655.466251
  0
LINE
  8
0
  6
CONTINUOUS
 62
1
 10
1075.125078
 20
655.466251
 11
1075.125078
 21
645.466254
  0
LINE
  8
0
  6
CONTINUOUS
 62
1
 10
1075.125078
 20
645.466254
 11
1099.695071
 21
645.466254
  0
LINE
  8
0
  6
CONTINUOUS
 62
1
 10
1099.695071
 20
645.466254
 11
1104.695069
 21
535.466287
  0
LINE
  8
0
  6
CONTINUOUS
 62
1
 10
1104.695069
 20
535.466287
 11
1109.695068
 21
535.466287
  0
LINE
  8
0
  6
CONTINUOUS
 62
1
 10
1109.695068
 20
535.466287
 11
1109.695068
 21
515.466293
  0
LINE
  8
0
  6
CONTINUOUS
 62
1
 10
1109.695068
 20
515.466293
 11
1099.695071
 21
505.466296
  0
LINE
  8
0
  6
CONTINUOUS
 62
1
 10
1099.695071
 20
505.466296
 11
1149.695056
 21
505.466296
  0
LINE
  8
0
  6
CONTINUOUS
 62
1
 10
1149.695056
 20
505.466296
 11
1139.695059
 21
515.466293
  0
LINE
  8
0
  6
CONTINUOUS
 62
1
 10
1139.695059
 20
515.466293
 11
1139.695059
 21
535.466287
  0
LINE
  8
0
  6
CONTINUOUS
 62
1
 10
1139.695059
 20
535.466287
 11
1144.695057
 21
535.466287
  0
LINE
  8
0
  6
CONTINUOUS
 62
1
 10
1144.695057
 20
535.466287
 11
1149.695056
 21
645.466254
  0
LINE
  8
0
  6
CONTINUOUS
 62
1
 10
1149.695056
 20
645.466254
 11
1165.125051
 21
645.466254
  0
LINE
  8
0
  6
CONTINUOUS
 62
1
 10
1165.125051
 20
645.466254
 11
1165.125051
 21
655.466251
  0
LINE
  8
0
  6
CONTINUOUS
 62
1
 10
1165.125051
 20
655.466251
 11
1655.294904
 21
655.466251
  0
LINE
  8
0
  6
CONTINUOUS
 62
1
 10
1655.294904
 20
655.466251
 11
1655.294904
 21
645.466254
  0
LINE
  8
0
  6
CONTINUOUS
 62
1
 10
1655.294904
 20
645.466254
 11
1675.294898
 21
645.466254
  0
LINE
  8
0
  6
CONTINUOUS
 62
1
 10
1675.294898
 20
645.466254
 11
1680.294897
 21
535.466287
  0
LINE
  8
0
  6
CONTINUOUS
 62
1
 10
1680.294897
 20
535.466287
 11
1685.294895
 21
535.466287
  0
LINE
  8
0
  6
CONTINUOUS
 62
1
 10
1685.294895
 20
535.466287
 11
1685.294895
 21
515.466293
  0
LINE
  8
0
  6
CONTINUOUS
 62
1
 10
1685.294895
 20
515.466293
 11
1675.294898
 21
505.466296
  0
LINE
  8
0
  6
CONTINUOUS
 62
1
 10
1675.294898
 20
505.466296
 11
1725.294883
 21
505.466296
  0
LINE
  8
0
  6
CONTINUOUS
 62
1
 10
1725.294883
 20
505.466296
 11
1715.294886
 21
515.466293
  0
LINE
  8
0
  6
CONTINUOUS
 62
1
 10
1715.294886
 20
515.466293
 11
1715.294886
 21
535.466287
  0
LINE
  8
0
  6
CONTINUOUS
 62
1
 10
1715.294886
 20
535.466287
 11
1720.294885
 21
535.466287
  0
LINE
  8
0
  6
CONTINUOUS
 62
1
 10
1720.294885
 20
535.466287
 11
1725.294883
 21
645.466254
  0
LINE
  8
0
  6
CONTINUOUS
 62
1
 10
1725.294883
 20
645.466254
 11
1745.294877
 21
645.466254
  0
LINE
  8
0
  6
CONTINUOUS
 62
1
 10
1745.294877
 20
645.466254
 11
1745.294877
 21
1190.466090
  0
LINE
  8
0
  6
CONTINUOUS
 62
1
 10
1745.294877
 20
1190.466090
 11
1805.294859
 21
1190.466090
  0
LINE
  8
0
  6
CONTINUOUS
 62
1
 10
1815.294856
 20
1320.908881
 11
1815.294856
 21
1347.799023
  0
LINE
  8
0
  6
CONTINUOUS
 62
1
 10
1789.715921
 20
1375.466035
 11
1162.695052
 21
1375.466035
  0
LINE
  8
0
  6
CONTINUOUS
 62
1
 10
1792.774863
 20
1182.466093
 11
1755.294874
 21
1182.466093
  0
LINE
  8
0
  6
CONTINUOUS
 62
1
 10
1755.294874
 20
1182.466093
 11
1755.294874
 21
655.466251
  0
LINE
  8
0
  6
CONTINUOUS
 62
1
 10
1755.294874
 20
655.466251
 11
1792.774863
 21
655.466251
  0
LINE
  8
0
  6
CONTINUOUS
 62
1
 10
1792.774863
 20
655.466251
 11
1792.774863
 21
1117.466112
  0
LINE
  8
0
  6
CONTINUOUS
 62
1
 10
1792.774863
 20
1117.466112
 11
1851.294846
 21
1132.466108
  0
LINE
  8
0
  6
CONTINUOUS
 62
1
 10
1851.294846
 20
1132.466108
 11
1835.294850
 21
1157.466100
  0
LINE
  8
0
  6
CONTINUOUS
 62
1
 10
1835.294850
 20
1157.466100
 11
1792.774863
 21
1157.466100
  0
LINE
  8
0
  6
CONTINUOUS
 62
1
 10
1792.774863
 20
1157.466100
 11
1792.774863
 21
1182.466093
  0
LINE
  8
0
  6
CONTINUOUS
 62
1
 10
1745.294877
 20
1337.466046
 11
950.333350
 21
1337.466046
  0
LINE
  8
0
  6
CONTINUOUS
 62
1
 10
1745.294877
 20
1190.466090
 11
1745.294877
 21
1337.466046
  0
LINE
  8
0
  6
CONTINUOUS
 62
1
 10
1792.774863
 20
1157.466100
 11
1792.774863
 21
1117.466112
  0
LINE
  8
0
  6
CONTINUOUS
 62
1
 10
1745.294877
 20
655.466251
 11
1655.294904
 21
655.466251
  0
LINE
  8
0
  6
CONTINUOUS
 62
1
 10
1165.125051
 20
655.466251
 11
1075.125078
 21
655.466251
  0
LINE
  8
0
  6
CONTINUOUS
 62
1
 10
1099.695071
 20
645.466254
 11
1149.695056
 21
645.466254
  0
LINE
  8
0
  6
CONTINUOUS
 62
1
 10
1675.294898
 20
645.466254
 11
1725.294883
 21
645.466254
  0
LINE
  8
0
  6
CONTINUOUS
 62
1
 10
1715.294886
 20
535.466287
 11
1685.294895
 21
535.466287
  0
LINE
  8
0
  6
CONTINUOUS
 62
1
 10
1139.695059
 20
535.466287
 11
1109.695068
 21
535.466287
  0
LINE
  8
0
  6
CONTINUOUS
 62
1
 10
1109.695068
 20
515.466293
 11
1139.695059
 21
515.466293
  0
LINE
  8
0
  6
CONTINUOUS
 62
1
 10
1685.294895
 20
515.466293
 11
1715.294886
 21
515.466293
  0
LINE
  8
0
  6
CONTINUOUS
 62
1
 10
1094.695072
 20
1437.966016
 11
950.333350
 21
1437.966016
  0
LINE
  8
0
  6
CONTINUOUS
 62
1
 10
1805.294859
 20
1190.466090
 11
1799.329131
 21
1218.156770
  0
LINE
  8
0
  6
CONTINUOUS
 62
1
 10
1044.695087
 20
723.153273
 11
1024.695093
 21
723.153273
  0
LINE
  8
0
  6
CONTINUOUS
 62
1
 10
1024.695093
 20
723.153273
 11
1024.695093
 21
693.153282
  0
LINE
  8
0
  6
CONTINUOUS
 62
1
 10
1024.695093
 20
693.153282
 11
1044.695087
 21
693.153282
  0
LINE
  8
0
  6
CENTER
 62
4
 10
1018.980809
 20
708.153278
 11
1050.409371
 21
708.153278
  0
LINE
  8
0
  6
CONTINUOUS
 62
1
 10
1094.695072
 20
1637.821294
 11
950.333350
 21
1676.317754
  0
LINE
  8
0
  6
CONTINUOUS
 62
1
 10
950.333350
 20
1676.317754
 11
950.333350
 21
1337.466046
  0
LINE
  8
0
  6
CONTINUOUS
 62
1
 10
1815.294856
 20
1320.908881
 11
1745.294877
 21
1320.908881
  0
LINE
  8
0
  6
CONTINUOUS
 62
1
 10
1790.061115
 20
1375.092661
 11
1814.874248
 21
1348.253966
  0
LINE
  8
0
  6
CONTINUOUS
 62
1
 10
1777.192036
 20
1320.908881
 11
1777.192036
 21
1218.156770
  0
LINE
  8
0
  6
CONTINUOUS
 62
1
 10
1777.192036
 20
1218.156770
 11
1799.329131
 21
1218.156770
  0
ENDSEC
  0
EOF
