  0
SECTION
  2
HEADER
  9
$LIMMIN
 10
0.000000
 20
0.000000
  9
$LIMMAX
 10
3500.000000
 20
2500.000000
  9
$EXTMIN
 10
0.000000
 20
0.000000
  9
$EXTMAX
 10
3500.000000
 20
2500.000000
  9
$ANGBASE
 50
0.0
  9
$ANGDIR
 70
0
  9
$DIMRND
 40
0.100000
  9
$DIMSE1
 70
0
  9
$DIMSE2
 70
0
  9
$DIMTXT
 40
3.500000
  9
$LTSCALE
 40
1.000000
  9
$LUPREC
 70
5
  9
$AUPREC
 70
5
  9
$PDMODE
 70
2
  9
$PDSIZE
 40
17.500000
  0
ENDSEC
  0
SECTION
  2
TABLES
  0
TABLE
  2
VPORT
  70
1
  0
VPORT
  2
*ACTIVE
 70
0
  10
0.0
 20
0.0
 11
1.0
 21
1.0
 12
594.0
 22
420.0
 13
0.0
 23
0.0
 14
10.0
 24
10.0
 15
10.0
 25
10.0
 16
0.0
 26
0.0
 36
1.0
 17
594.0
 27
420.0
 37
100.0
 40
1000.0
 41
1.0
 42
50.0
 43
0.0
 44
0.0
 50
0.0
 51
0.0
 71
0
 72
2000
 73
1
 74
3
 75
0
 76
0
 77
0
 78
1
  0
ENDTAB
  0
TABLE
  2
LTYPE
 70
4
  0
LTYPE
  2
CONTINUOUS
 70
0
  3
Solid line
 72
65
 73
0
 40
0.0
  0
LTYPE
  2
DASHED
 70
0
  3
Dashed line
 72
65
 73
2
 40
6.000000
 49
3.000000
 49
-3.000000
  0
LTYPE
  2
CENTER
 70
0
  3
Chain line
 72
65
 73
4
 40
24.000000
 49
15.000000
 49
-3.000000
 49
3.000000
 49
-3.000000
  0
LTYPE
  2
RANDOM
 70
0
  3
Random line
 72
65
 73
4
 40
22.500000
 49
6.000000
 49
-3.000000
 49
4.500000
 49
-9.000000
  0
ENDTAB
  0
TABLE
  2
STYLE
 70
9
  0
STYLE
  2
STANDARD
 40
0
 41
1.0
 50
0.0
 71
0
 42
0
  3
simplex
  4

 70
0
  0
ENDTAB
  0
TABLE
  2
LAYER
 70
2
  0
LAYER
  2
0
 70
0
 62
7
  6
CONTINUOUS
  0
LAYER
  2
0
 62
1
  6
CONTINUOUS
 70
0
  0
ENDTAB
  0
ENDSEC
  0
SECTION
  2
BLOCKS
  0
ENDSEC
  0
SECTION
  2
ENTITIES
  0
LINE
  8
0
  6
CONTINUOUS
 62
1
 10
1282.380397
 20
1375.456064
 11
982.380577
 21
1375.456064
  0
LINE
  8
0
  6
CONTINUOUS
 62
1
 10
982.380577
 20
1337.456075
 11
1282.380397
 21
1337.456075
  0
LINE
  8
0
  6
CONTINUOUS
 62
1
 10
982.380577
 20
1230.456107
 11
1282.380397
 21
1230.456107
  0
LINE
  8
0
  6
CONTINUOUS
 62
1
 10
1282.380397
 20
1190.456119
 11
982.380577
 21
1190.456119
  0
LINE
  8
0
  6
CONTINUOUS
 62
1
 10
982.380577
 20
1182.456122
 11
1282.380397
 21
1182.456122
  0
LINE
  8
0
  6
CONTINUOUS
 62
1
 10
1177.380491
 20
1132.456137
 11
1177.380491
 21
1117.456141
  0
LINE
  8
0
  6
CONTINUOUS
 62
1
 10
1177.380491
 20
1117.456141
 11
1197.380485
 21
1117.456141
  0
LINE
  8
0
  6
CONTINUOUS
 62
1
 10
1197.380485
 20
1117.456141
 11
1197.380485
 21
1132.456137
  0
LINE
  8
0
  6
CONTINUOUS
 62
1
 10
1027.380563
 20
1132.456137
 11
1027.380563
 21
1117.456141
  0
LINE
  8
0
  6
CONTINUOUS
 62
1
 10
1027.380563
 20
1117.456141
 11
1007.380569
 21
1117.456141
  0
LINE
  8
0
  6
CONTINUOUS
 62
1
 10
1007.380569
 20
1117.456141
 11
1007.380569
 21
1132.456137
  0
LINE
  8
0
  6
CONTINUOUS
 62
1
 10
1007.380569
 20
1132.456137
 11
1197.380485
 21
1132.456137
  0
LINE
  8
0
  6
CONTINUOUS
 62
1
 10
1197.380485
 20
1132.456137
 11
1197.380485
 21
1157.456129
  0
LINE
  8
0
  6
CONTINUOUS
 62
1
 10
1197.380485
 20
1157.456129
 11
1007.380569
 21
1157.456129
  0
LINE
  8
0
  6
CONTINUOUS
 62
1
 10
1007.380569
 20
1157.456129
 11
1007.380569
 21
1132.456137
  0
LINE
  8
0
  6
CONTINUOUS
 62
1
 10
992.380574
 20
655.466280
 11
1272.380400
 21
655.466280
  0
LINE
  8
0
  6
CONTINUOUS
 62
1
 10
1262.380403
 20
645.466283
 11
1212.380508
 21
645.466283
  0
LINE
  8
0
  6
CONTINUOUS
 62
1
 10
1212.380508
 20
645.466283
 11
1022.380580
 21
645.466283
  0
LINE
  8
0
  6
CONTINUOUS
 62
1
 10
1022.380580
 20
645.466283
 11
1002.380571
 21
645.466283
  0
LINE
  8
0
  6
CONTINUOUS
 62
1
 10
1002.380571
 20
645.466283
 11
997.380572
 21
645.456283
  0
LINE
  8
0
  6
CONTINUOUS
 62
1
 10
997.380572
 20
645.456283
 11
992.380574
 21
655.466280
  0
LINE
  8
0
  6
CONTINUOUS
 62
1
 10
992.380574
 20
655.466280
 11
982.380577
 21
655.466280
  0
LINE
  8
0
  6
CONTINUOUS
 62
1
 10
982.380577
 20
655.466280
 11
982.380577
 21
1675.470610
  0
LINE
  8
0
  6
CONTINUOUS
 62
1
 10
1282.380397
 20
1675.470610
 11
1282.380397
 21
655.466280
  0
LINE
  8
0
  6
CONTINUOUS
 62
1
 10
1282.380397
 20
655.466280
 11
1272.380400
 21
655.466280
  0
LINE
  8
0
  6
CONTINUOUS
 62
1
 10
1272.380400
 20
655.466280
 11
1267.380401
 21
645.466283
  0
LINE
  8
0
  6
CONTINUOUS
 62
1
 10
1267.380401
 20
645.466283
 11
1262.380403
 21
645.466283
  0
LINE
  8
0
  6
CONTINUOUS
 62
1
 10
1007.380584
 20
645.466283
 11
1012.380583
 21
535.466316
  0
LINE
  8
0
  6
CONTINUOUS
 62
1
 10
1012.380583
 20
535.466316
 11
1017.380581
 21
535.466316
  0
LINE
  8
0
  6
CONTINUOUS
 62
1
 10
1017.380581
 20
535.466316
 11
1017.380581
 21
515.456322
  0
LINE
  8
0
  6
CONTINUOUS
 62
1
 10
1017.380581
 20
515.456322
 11
1007.380584
 21
505.456325
  0
LINE
  8
0
  6
CONTINUOUS
 62
1
 10
1007.380584
 20
505.456325
 11
1057.380569
 21
505.466325
  0
LINE
  8
0
  6
CONTINUOUS
 62
1
 10
1057.380569
 20
505.466325
 11
1047.380572
 21
515.466322
  0
LINE
  8
0
  6
CONTINUOUS
 62
1
 10
1047.380572
 20
515.466322
 11
1047.380572
 21
535.466316
  0
LINE
  8
0
  6
CONTINUOUS
 62
1
 10
1047.380572
 20
535.466316
 11
1052.380571
 21
535.466316
  0
LINE
  8
0
  6
CONTINUOUS
 62
1
 10
1052.380571
 20
535.466316
 11
1057.380569
 21
645.466283
  0
LINE
  8
0
  6
CONTINUOUS
 62
1
 10
1047.380572
 20
515.466322
 11
1017.380581
 21
515.456322
  0
LINE
  8
0
  6
CONTINUOUS
 62
1
 10
1017.380581
 20
535.466316
 11
1047.380572
 21
535.466316
  0
ARC
  8
0
  6
CONTINUOUS
 62
1
 10
1121.869943
 20
1285.456091
 40
24.999992
 50
180.000000
 51
0.000000
  0
ARC
  8
0
  6
CONTINUOUS
 62
1
 10
1121.869943
 20
1285.456091
 40
24.999993
 50
0.000000
 51
180.000000
  0
ARC
  8
0
  6
CONTINUOUS
 62
1
 10
1121.869943
 20
1285.456091
 40
17.999995
 50
180.000000
 51
0.000000
  0
ARC
  8
0
  6
CONTINUOUS
 62
1
 10
1121.869943
 20
1285.456091
 40
17.999995
 50
0.000000
 51
180.000000
  0
LINE
  8
0
  6
CONTINUOUS
 62
1
 10
1121.869943
 20
1303.456085
 11
1113.869946
 21
1273.346094
  0
LINE
  8
0
  6
CONTINUOUS
 62
1
 10
1113.869946
 20
1273.346094
 11
1129.869941
 21
1273.346094
  0
LINE
  8
0
  6
CONTINUOUS
 62
1
 10
1129.869941
 20
1273.346094
 11
1121.869943
 21
1303.456085
  0
LINE
  8
0
  6
CONTINUOUS
 62
1
 10
1282.380397
 20
1637.821294
 11
982.380577
 21
1637.821294
  0
LINE
  8
0
  6
CONTINUOUS
 62
1
 10
1282.380397
 20
1675.470610
 11
982.380577
 21
1675.470610
  0
LINE
  8
0
  6
CONTINUOUS
 62
1
 10
1282.380397
 20
1437.966016
 11
982.380577
 21
1437.966016
  0
LINE
  8
0
  6
CONTINUOUS
 62
1
 10
1152.380436
 20
750.466251
 11
1152.380436
 21
715.466262
  0
LINE
  8
0
  6
CONTINUOUS
 62
1
 10
1152.380436
 20
715.466262
 11
1257.380404
 21
715.466262
  0
LINE
  8
0
  6
CONTINUOUS
 62
1
 10
1257.380404
 20
715.466262
 11
1257.380404
 21
750.466251
  0
LINE
  8
0
  6
CONTINUOUS
 62
1
 10
1257.380404
 20
750.466251
 11
1152.380436
 21
750.466251
  0
LINE
  8
0
  6
CONTINUOUS
 62
1
 10
1257.380389
 20
645.466283
 11
1252.380391
 21
535.466316
  0
LINE
  8
0
  6
CONTINUOUS
 62
1
 10
1252.380391
 20
535.466316
 11
1247.380392
 21
535.466316
  0
LINE
  8
0
  6
CONTINUOUS
 62
1
 10
1247.380392
 20
535.466316
 11
1247.380392
 21
515.456322
  0
LINE
  8
0
  6
CONTINUOUS
 62
1
 10
1247.380392
 20
515.456322
 11
1257.380389
 21
505.456325
  0
LINE
  8
0
  6
CONTINUOUS
 62
1
 10
1257.380389
 20
505.456325
 11
1207.380404
 21
505.466325
  0
LINE
  8
0
  6
CONTINUOUS
 62
1
 10
1207.380404
 20
505.466325
 11
1217.380401
 21
515.466322
  0
LINE
  8
0
  6
CONTINUOUS
 62
1
 10
1217.380401
 20
515.466322
 11
1217.380401
 21
535.466316
  0
LINE
  8
0
  6
CONTINUOUS
 62
1
 10
1217.380401
 20
535.466316
 11
1212.380403
 21
535.466316
  0
LINE
  8
0
  6
CONTINUOUS
 62
1
 10
1212.380403
 20
535.466316
 11
1207.380404
 21
645.466283
  0
LINE
  8
0
  6
CONTINUOUS
 62
1
 10
1217.380401
 20
515.466322
 11
1247.380392
 21
515.456322
  0
LINE
  8
0
  6
CONTINUOUS
 62
1
 10
1247.380392
 20
535.466316
 11
1217.380401
 21
535.466316
  0
ENDSEC
  0
EOF
