  0
SECTION
  2
HEADER
  9
$LIMMIN
 10
0.000000
 20
0.000000
  9
$LIMMAX
 10
3500.000000
 20
2500.000000
  9
$EXTMIN
 10
0.000000
 20
0.000000
  9
$EXTMAX
 10
3500.000000
 20
2500.000000
  9
$ANGBASE
 50
0.0
  9
$ANGDIR
 70
0
  9
$DIMRND
 40
0.100000
  9
$DIMSE1
 70
0
  9
$DIMSE2
 70
0
  9
$DIMTXT
 40
3.500000
  9
$LTSCALE
 40
1.000000
  9
$LUPREC
 70
5
  9
$AUPREC
 70
5
  9
$PDMODE
 70
2
  9
$PDSIZE
 40
17.500000
  0
ENDSEC
  0
SECTION
  2
TABLES
  0
TABLE
  2
VPORT
  70
1
  0
VPORT
  2
*ACTIVE
 70
0
  10
0.0
 20
0.0
 11
1.0
 21
1.0
 12
594.0
 22
420.0
 13
0.0
 23
0.0
 14
10.0
 24
10.0
 15
10.0
 25
10.0
 16
0.0
 26
0.0
 36
1.0
 17
594.0
 27
420.0
 37
100.0
 40
1000.0
 41
1.0
 42
50.0
 43
0.0
 44
0.0
 50
0.0
 51
0.0
 71
0
 72
2000
 73
1
 74
3
 75
0
 76
0
 77
0
 78
1
  0
ENDTAB
  0
TABLE
  2
LTYPE
 70
4
  0
LTYPE
  2
CONTINUOUS
 70
0
  3
Solid line
 72
65
 73
0
 40
0.0
  0
LTYPE
  2
DASHED
 70
0
  3
Dashed line
 72
65
 73
2
 40
6.000000
 49
3.000000
 49
-3.000000
  0
LTYPE
  2
CENTER
 70
0
  3
Chain line
 72
65
 73
4
 40
24.000000
 49
15.000000
 49
-3.000000
 49
3.000000
 49
-3.000000
  0
LTYPE
  2
RANDOM
 70
0
  3
Random line
 72
65
 73
4
 40
22.500000
 49
6.000000
 49
-3.000000
 49
4.500000
 49
-9.000000
  0
ENDTAB
  0
TABLE
  2
STYLE
 70
9
  0
STYLE
  2
STANDARD
 40
0
 41
1.0
 50
0.0
 71
0
 42
0
  3
simplex
  4

 70
0
  0
ENDTAB
  0
TABLE
  2
LAYER
 70
2
  0
LAYER
  2
0
 70
0
 62
7
  6
CONTINUOUS
  0
LAYER
  2
0
 62
1
  6
CONTINUOUS
 70
0
  0
ENDTAB
  0
ENDSEC
  0
SECTION
  2
BLOCKS
  0
ENDSEC
  0
SECTION
  2
ENTITIES
  0
LINE
  8
0
  6
CONTINUOUS
 62
1
 10
1544.396643
 20
854.843841
 11
1544.396643
 21
1719.129296
  0
LINE
  8
0
  6
CONTINUOUS
 62
1
 10
1244.396823
 20
1719.129296
 11
1244.396823
 21
854.843841
  0
LINE
  8
0
  6
CONTINUOUS
 62
1
 10
1244.396823
 20
854.843841
 11
1544.396643
 21
854.843841
  0
LINE
  8
0
  6
CONTINUOUS
 62
1
 10
1529.396647
 20
854.843841
 11
1529.396647
 21
1574.843625
  0
LINE
  8
0
  6
CONTINUOUS
 62
1
 10
1259.396818
 20
1574.843625
 11
1259.396818
 21
854.843841
  0
LINE
  8
0
  6
CONTINUOUS
 62
1
 10
1269.396815
 20
854.843841
 11
1269.396815
 21
818.843852
  0
LINE
  8
0
  6
CONTINUOUS
 62
1
 10
1269.396815
 20
818.843852
 11
1459.396731
 21
818.843852
  0
LINE
  8
0
  6
CONTINUOUS
 62
1
 10
1459.396731
 20
818.843852
 11
1459.396731
 21
854.843841
  0
LINE
  8
0
  6
CONTINUOUS
 62
1
 10
1289.396809
 20
854.843841
 11
1289.396809
 21
834.843847
  0
LINE
  8
0
  6
CONTINUOUS
 62
1
 10
1289.396809
 20
834.843847
 11
1439.396737
 21
834.843847
  0
LINE
  8
0
  6
CONTINUOUS
 62
1
 10
1439.396737
 20
834.843847
 11
1439.396737
 21
854.843841
  0
LINE
  8
0
  6
CONTINUOUS
 62
1
 10
1259.396818
 20
934.843817
 11
1529.396647
 21
934.843817
  0
LINE
  8
0
  6
CONTINUOUS
 62
1
 10
1544.396643
 20
1574.843625
 11
1244.396823
 21
1574.843625
  0
LINE
  8
0
  6
CONTINUOUS
 62
1
 10
1284.396811
 20
934.843817
 11
1284.396811
 21
1521.843641
  0
LINE
  8
0
  6
CONTINUOUS
 62
1
 10
1504.396655
 20
1521.843641
 11
1504.396655
 21
934.843817
  0
LINE
  8
0
  6
CONTINUOUS
 62
1
 10
1504.396655
 20
1521.843641
 11
1284.396811
 21
1521.843641
  0
LINE
  8
0
  6
CONTINUOUS
 62
1
 10
1284.396811
 20
1058.296110
 11
1504.396655
 21
1058.296110
  0
LINE
  8
0
  6
CONTINUOUS
 62
1
 10
1244.396823
 20
1719.129296
 11
1544.396643
 21
1719.129296
  0
LINE
  8
0
  6
CONTINUOUS
 62
1
 10
1284.396733
 20
1061.843641
 11
1504.396733
 21
1061.843641
  0
LINE
  8
0
  6
CONTINUOUS
 62
1
 10
1504.396733
 20
1061.843641
 11
1504.396733
 21
1521.843641
  0
LINE
  8
0
  6
CONTINUOUS
 62
1
 10
1504.396733
 20
1521.843641
 11
1284.396733
 21
1521.843641
  0
LINE
  8
0
  6
CONTINUOUS
 62
1
 10
1284.396733
 20
1521.843641
 11
1284.396733
 21
1061.843641
  0
LINE
  8
0
  6
CONTINUOUS
 62
1
 10
1380.396733
 20
1061.843641
 11
1380.396733
 21
936.623641
  0
LINE
  8
0
  6
CONTINUOUS
 62
1
 10
1380.396733
 20
936.623641
 11
1408.396733
 21
936.623641
  0
LINE
  8
0
  6
CONTINUOUS
 62
1
 10
1408.396733
 20
936.623641
 11
1408.396733
 21
1061.843641
  0
LINE
  8
0
  6
CONTINUOUS
 62
1
 10
1408.396733
 20
1061.843641
 11
1380.396733
 21
1061.843641
  0
LINE
  8
0
  6
CONTINUOUS
 62
1
 10
1504.396733
 20
1066.843641
 11
1284.396733
 21
1066.843641
  0
LINE
  8
0
  6
CONTINUOUS
 62
1
 10
1284.396733
 20
1084.843641
 11
1504.396733
 21
1084.843641
  0
LINE
  8
0
  6
CONTINUOUS
 62
1
 10
1504.396733
 20
1102.843641
 11
1284.396733
 21
1102.843641
  0
LINE
  8
0
  6
CONTINUOUS
 62
1
 10
1284.396733
 20
1120.843641
 11
1504.396733
 21
1120.843641
  0
LINE
  8
0
  6
CONTINUOUS
 62
1
 10
1504.396733
 20
1138.843641
 11
1481.496733
 21
1138.843641
  0
LINE
  8
0
  6
CONTINUOUS
 62
1
 10
1284.396733
 20
1156.843641
 11
1371.376733
 21
1152.553641
  0
LINE
  8
0
  6
CONTINUOUS
 62
1
 10
1504.396733
 20
1174.843641
 11
1486.956733
 21
1174.843641
  0
LINE
  8
0
  6
CONTINUOUS
 62
1
 10
1284.396733
 20
1192.843641
 11
1347.196733
 21
1192.843641
  0
LINE
  8
0
  6
CONTINUOUS
 62
1
 10
1504.396733
 20
1210.843641
 11
1492.416733
 21
1210.843641
  0
LINE
  8
0
  6
CONTINUOUS
 62
1
 10
1284.396733
 20
1228.843641
 11
1325.596733
 21
1228.843641
  0
LINE
  8
0
  6
CONTINUOUS
 62
1
 10
1504.396733
 20
1246.843641
 11
1497.886733
 21
1246.843641
  0
LINE
  8
0
  6
CONTINUOUS
 62
1
 10
1284.396733
 20
1264.843641
 11
1308.706733
 21
1264.843641
  0
LINE
  8
0
  6
CONTINUOUS
 62
1
 10
1284.396733
 20
1300.843641
 11
1304.206733
 21
1300.843641
  0
LINE
  8
0
  6
CONTINUOUS
 62
1
 10
1284.396733
 20
1336.843641
 11
1299.706733
 21
1336.843641
  0
LINE
  8
0
  6
CONTINUOUS
 62
1
 10
1284.396733
 20
1372.843641
 11
1295.206733
 21
1372.843641
  0
LINE
  8
0
  6
CONTINUOUS
 62
1
 10
1284.396733
 20
1408.843641
 11
1290.706733
 21
1408.843641
  0
LINE
  8
0
  6
CONTINUOUS
 62
1
 10
1484.396733
 20
1061.843641
 11
1484.396733
 21
1157.973641
  0
LINE
  8
0
  6
CONTINUOUS
 62
1
 10
1436.396733
 20
1061.843641
 11
1436.396733
 21
1135.743641
  0
LINE
  8
0
  6
CONTINUOUS
 62
1
 10
1388.396733
 20
1061.843641
 11
1388.396733
 21
1148.153641
  0
LINE
  8
0
  6
CONTINUOUS
 62
1
 10
1340.396733
 20
1061.843641
 11
1340.396733
 21
1204.183641
  0
LINE
  8
0
  6
CONTINUOUS
 62
1
 10
1292.396733
 20
1061.843641
 11
1292.396733
 21
1395.323641
  0
LINE
  8
0
  6
CONTINUOUS
 62
1
 10
1424.386733
 20
1138.843641
 11
1284.396733
 21
1138.843641
  0
LINE
  8
0
  6
CONTINUOUS
 62
1
 10
1484.126733
 20
1156.193641
 11
1504.396733
 21
1156.843641
  0
LINE
  8
0
  6
CONTINUOUS
 62
1
 10
1357.996733
 20
1174.843641
 11
1284.396733
 21
1174.843641
  0
LINE
  8
0
  6
CONTINUOUS
 62
1
 10
1489.686733
 20
1192.843641
 11
1504.396733
 21
1192.843641
  0
LINE
  8
0
  6
CONTINUOUS
 62
1
 10
1336.396733
 20
1210.843641
 11
1284.396733
 21
1210.843641
  0
LINE
  8
0
  6
CONTINUOUS
 62
1
 10
1314.796733
 20
1246.843641
 11
1284.396733
 21
1246.843641
  0
LINE
  8
0
  6
CONTINUOUS
 62
1
 10
1306.456733
 20
1282.843641
 11
1284.396733
 21
1282.843641
  0
LINE
  8
0
  6
CONTINUOUS
 62
1
 10
1301.956733
 20
1318.843641
 11
1284.396733
 21
1318.843641
  0
LINE
  8
0
  6
CONTINUOUS
 62
1
 10
1297.456733
 20
1354.843641
 11
1284.396733
 21
1354.843641
  0
LINE
  8
0
  6
CONTINUOUS
 62
1
 10
1460.396733
 20
1129.533641
 11
1460.396733
 21
1061.843641
  0
LINE
  8
0
  6
CONTINUOUS
 62
1
 10
1412.396733
 20
1141.943641
 11
1412.396733
 21
1061.843641
  0
LINE
  8
0
  6
CONTINUOUS
 62
1
 10
1364.396733
 20
1164.183641
 11
1364.396733
 21
1061.843641
  0
LINE
  8
0
  6
CONTINUOUS
 62
1
 10
1316.396733
 20
1244.183641
 11
1316.396733
 21
1061.843641
  0
ENDSEC
  0
EOF
