  0
SECTION
  2
HEADER
  9
$LIMMIN
 10
0.000000
 20
0.000000
  9
$LIMMAX
 10
3500.000000
 20
2500.000000
  9
$EXTMIN
 10
0.000000
 20
0.000000
  9
$EXTMAX
 10
3500.000000
 20
2500.000000
  9
$ANGBASE
 50
0.0
  9
$ANGDIR
 70
0
  9
$DIMRND
 40
0.100000
  9
$DIMSE1
 70
0
  9
$DIMSE2
 70
0
  9
$DIMTXT
 40
3.500000
  9
$LTSCALE
 40
1.000000
  9
$LUPREC
 70
5
  9
$AUPREC
 70
5
  9
$PDMODE
 70
2
  9
$PDSIZE
 40
17.500000
  0
ENDSEC
  0
SECTION
  2
TABLES
  0
TABLE
  2
VPORT
  70
1
  0
VPORT
  2
*ACTIVE
 70
0
  10
0.0
 20
0.0
 11
1.0
 21
1.0
 12
594.0
 22
420.0
 13
0.0
 23
0.0
 14
10.0
 24
10.0
 15
10.0
 25
10.0
 16
0.0
 26
0.0
 36
1.0
 17
594.0
 27
420.0
 37
100.0
 40
1000.0
 41
1.0
 42
50.0
 43
0.0
 44
0.0
 50
0.0
 51
0.0
 71
0
 72
2000
 73
1
 74
3
 75
0
 76
0
 77
0
 78
1
  0
ENDTAB
  0
TABLE
  2
LTYPE
 70
4
  0
LTYPE
  2
CONTINUOUS
 70
0
  3
Solid line
 72
65
 73
0
 40
0.0
  0
LTYPE
  2
DASHED
 70
0
  3
Dashed line
 72
65
 73
2
 40
6.000000
 49
3.000000
 49
-3.000000
  0
LTYPE
  2
CENTER
 70
0
  3
Chain line
 72
65
 73
4
 40
24.000000
 49
15.000000
 49
-3.000000
 49
3.000000
 49
-3.000000
  0
LTYPE
  2
RANDOM
 70
0
  3
Random line
 72
65
 73
4
 40
22.500000
 49
6.000000
 49
-3.000000
 49
4.500000
 49
-9.000000
  0
ENDTAB
  0
TABLE
  2
STYLE
 70
9
  0
STYLE
  2
STANDARD
 40
0
 41
1.0
 50
0.0
 71
0
 42
0
  3
simplex
  4

 70
0
  0
ENDTAB
  0
TABLE
  2
LAYER
 70
2
  0
LAYER
  2
0
 70
0
 62
7
  6
CONTINUOUS
  0
LAYER
  2
0
 62
1
  6
CONTINUOUS
 70
0
  0
ENDTAB
  0
ENDSEC
  0
SECTION
  2
BLOCKS
  0
ENDSEC
  0
SECTION
  2
ENTITIES
  0
LINE
  8
0
  6
CONTINUOUS
 62
1
 10
1857.876133
 20
1441.841403
 11
1257.876313
 21
1441.841403
  0
LINE
  8
0
  6
CONTINUOUS
 62
1
 10
1257.876313
 20
1403.841414
 11
1857.876133
 21
1403.841414
  0
LINE
  8
0
  6
CONTINUOUS
 62
1
 10
1257.876313
 20
1296.841446
 11
1857.876133
 21
1296.841446
  0
LINE
  8
0
  6
CONTINUOUS
 62
1
 10
1857.876133
 20
1256.841458
 11
1257.876313
 21
1256.841458
  0
LINE
  8
0
  6
CONTINUOUS
 62
1
 10
1257.876313
 20
1248.841461
 11
1857.876133
 21
1248.841461
  0
LINE
  8
0
  6
CONTINUOUS
 62
1
 10
1542.876227
 20
1198.841476
 11
1542.876227
 21
1183.841480
  0
LINE
  8
0
  6
CONTINUOUS
 62
1
 10
1542.876227
 20
1183.841480
 11
1562.876221
 21
1183.841480
  0
LINE
  8
0
  6
CONTINUOUS
 62
1
 10
1562.876221
 20
1183.841480
 11
1562.876221
 21
1198.841476
  0
LINE
  8
0
  6
CONTINUOUS
 62
1
 10
1302.876299
 20
1198.841476
 11
1302.876299
 21
1183.841480
  0
LINE
  8
0
  6
CONTINUOUS
 62
1
 10
1302.876299
 20
1183.841480
 11
1282.876305
 21
1183.841480
  0
LINE
  8
0
  6
CONTINUOUS
 62
1
 10
1282.876305
 20
1183.841480
 11
1282.876305
 21
1198.841476
  0
LINE
  8
0
  6
CONTINUOUS
 62
1
 10
1282.876305
 20
1198.841476
 11
1562.876221
 21
1198.841476
  0
LINE
  8
0
  6
CONTINUOUS
 62
1
 10
1562.876221
 20
1198.841476
 11
1562.876221
 21
1223.841468
  0
LINE
  8
0
  6
CONTINUOUS
 62
1
 10
1562.876221
 20
1223.841468
 11
1282.876305
 21
1223.841468
  0
LINE
  8
0
  6
CONTINUOUS
 62
1
 10
1282.876305
 20
1223.841468
 11
1282.876305
 21
1198.841476
  0
LINE
  8
0
  6
CONTINUOUS
 62
1
 10
1267.876310
 20
721.851619
 11
1847.876136
 21
721.851619
  0
LINE
  8
0
  6
CONTINUOUS
 62
1
 10
1837.876139
 20
711.851622
 11
1487.876244
 21
711.851622
  0
LINE
  8
0
  6
CONTINUOUS
 62
1
 10
1487.876244
 20
711.851622
 11
1327.876292
 21
711.851622
  0
LINE
  8
0
  6
CONTINUOUS
 62
1
 10
1327.876292
 20
711.851622
 11
1277.876307
 21
711.851622
  0
LINE
  8
0
  6
CONTINUOUS
 62
1
 10
1277.876307
 20
711.851622
 11
1272.876308
 21
711.841622
  0
LINE
  8
0
  6
CONTINUOUS
 62
1
 10
1272.876308
 20
711.841622
 11
1267.876310
 21
721.851619
  0
LINE
  8
0
  6
CONTINUOUS
 62
1
 10
1267.876310
 20
721.851619
 11
1257.876313
 21
721.851619
  0
LINE
  8
0
  6
CONTINUOUS
 62
1
 10
1257.876313
 20
721.851619
 11
1257.876313
 21
1741.855949
  0
LINE
  8
0
  6
CONTINUOUS
 62
1
 10
1857.876133
 20
1741.855949
 11
1857.876133
 21
721.851619
  0
LINE
  8
0
  6
CONTINUOUS
 62
1
 10
1857.876133
 20
721.851619
 11
1847.876136
 21
721.851619
  0
LINE
  8
0
  6
CONTINUOUS
 62
1
 10
1847.876136
 20
721.851619
 11
1842.876137
 21
711.851622
  0
LINE
  8
0
  6
CONTINUOUS
 62
1
 10
1842.876137
 20
711.851622
 11
1837.876139
 21
711.851622
  0
LINE
  8
0
  6
CONTINUOUS
 62
1
 10
1312.876296
 20
711.851622
 11
1317.876295
 21
601.851655
  0
LINE
  8
0
  6
CONTINUOUS
 62
1
 10
1317.876295
 20
601.851655
 11
1322.876293
 21
601.851655
  0
LINE
  8
0
  6
CONTINUOUS
 62
1
 10
1322.876293
 20
601.851655
 11
1322.876293
 21
581.841661
  0
LINE
  8
0
  6
CONTINUOUS
 62
1
 10
1322.876293
 20
581.841661
 11
1312.876296
 21
571.841664
  0
LINE
  8
0
  6
CONTINUOUS
 62
1
 10
1312.876296
 20
571.841664
 11
1362.876281
 21
571.851664
  0
LINE
  8
0
  6
CONTINUOUS
 62
1
 10
1362.876281
 20
571.851664
 11
1352.876284
 21
581.851661
  0
LINE
  8
0
  6
CONTINUOUS
 62
1
 10
1352.876284
 20
581.851661
 11
1352.876284
 21
601.851655
  0
LINE
  8
0
  6
CONTINUOUS
 62
1
 10
1352.876284
 20
601.851655
 11
1357.876283
 21
601.851655
  0
LINE
  8
0
  6
CONTINUOUS
 62
1
 10
1357.876283
 20
601.851655
 11
1362.876281
 21
711.851622
  0
LINE
  8
0
  6
CONTINUOUS
 62
1
 10
1352.876284
 20
581.851661
 11
1322.876293
 21
581.841661
  0
LINE
  8
0
  6
CONTINUOUS
 62
1
 10
1322.876293
 20
601.851655
 11
1352.876284
 21
601.851655
  0
LINE
  8
0
  6
CONTINUOUS
 62
1
 10
1802.876149
 20
711.841622
 11
1797.876151
 21
601.841655
  0
LINE
  8
0
  6
CONTINUOUS
 62
1
 10
1797.876151
 20
601.841655
 11
1792.876152
 21
601.841655
  0
LINE
  8
0
  6
CONTINUOUS
 62
1
 10
1792.876152
 20
601.841655
 11
1792.876152
 21
581.841661
  0
LINE
  8
0
  6
CONTINUOUS
 62
1
 10
1792.876152
 20
581.841661
 11
1802.876149
 21
571.841664
  0
LINE
  8
0
  6
CONTINUOUS
 62
1
 10
1802.876149
 20
571.841664
 11
1752.876164
 21
571.841664
  0
LINE
  8
0
  6
CONTINUOUS
 62
1
 10
1752.876164
 20
571.841664
 11
1762.876161
 21
581.841661
  0
LINE
  8
0
  6
CONTINUOUS
 62
1
 10
1762.876161
 20
581.841661
 11
1762.876161
 21
601.841655
  0
LINE
  8
0
  6
CONTINUOUS
 62
1
 10
1762.876161
 20
601.841655
 11
1757.876163
 21
601.841655
  0
LINE
  8
0
  6
CONTINUOUS
 62
1
 10
1757.876163
 20
601.841655
 11
1752.876164
 21
711.841622
  0
LINE
  8
0
  6
CONTINUOUS
 62
1
 10
1762.876161
 20
581.841661
 11
1792.876152
 21
581.841661
  0
LINE
  8
0
  6
CONTINUOUS
 62
1
 10
1792.876152
 20
601.841655
 11
1762.876161
 21
601.841655
  0
ARC
  8
0
  6
CONTINUOUS
 62
1
 10
1397.365679
 20
1351.841430
 40
24.999992
 50
180.000000
 51
0.000000
  0
ARC
  8
0
  6
CONTINUOUS
 62
1
 10
1397.365679
 20
1351.841430
 40
24.999993
 50
0.000000
 51
180.000000
  0
ARC
  8
0
  6
CONTINUOUS
 62
1
 10
1397.365679
 20
1351.841430
 40
17.999995
 50
180.000000
 51
0.000000
  0
ARC
  8
0
  6
CONTINUOUS
 62
1
 10
1397.365679
 20
1351.841430
 40
17.999995
 50
0.000000
 51
180.000000
  0
LINE
  8
0
  6
CONTINUOUS
 62
1
 10
1397.365679
 20
1369.841424
 11
1389.365682
 21
1339.731433
  0
LINE
  8
0
  6
CONTINUOUS
 62
1
 10
1389.365682
 20
1339.731433
 11
1405.365677
 21
1339.731433
  0
LINE
  8
0
  6
CONTINUOUS
 62
1
 10
1405.365677
 20
1339.731433
 11
1397.365679
 21
1369.841424
  0
LINE
  8
0
  6
CONTINUOUS
 62
1
 10
1857.876133
 20
1704.206633
 11
1257.876313
 21
1704.206633
  0
LINE
  8
0
  6
CONTINUOUS
 62
1
 10
1857.876133
 20
1741.855949
 11
1257.876313
 21
1741.855949
  0
LINE
  8
0
  6
CONTINUOUS
 62
1
 10
1857.876133
 20
1504.351355
 11
1257.876313
 21
1504.351355
  0
LINE
  8
0
  6
CONTINUOUS
 62
1
 10
1727.876172
 20
816.851590
 11
1727.876172
 21
781.851601
  0
LINE
  8
0
  6
CONTINUOUS
 62
1
 10
1727.876172
 20
781.851601
 11
1832.876140
 21
781.851601
  0
LINE
  8
0
  6
CONTINUOUS
 62
1
 10
1832.876140
 20
781.851601
 11
1832.876140
 21
816.851590
  0
LINE
  8
0
  6
CONTINUOUS
 62
1
 10
1832.876140
 20
816.851590
 11
1727.876172
 21
816.851590
  0
ENDSEC
  0
EOF
