  0
SECTION
  2
HEADER
  9
$LIMMIN
 10
0.000000
 20
0.000000
  9
$LIMMAX
 10
3500.000000
 20
2500.000000
  9
$EXTMIN
 10
0.000000
 20
0.000000
  9
$EXTMAX
 10
3500.000000
 20
2500.000000
  9
$ANGBASE
 50
0.0
  9
$ANGDIR
 70
0
  9
$DIMRND
 40
0.100000
  9
$DIMSE1
 70
0
  9
$DIMSE2
 70
0
  9
$DIMTXT
 40
3.500000
  9
$LTSCALE
 40
1.000000
  9
$LUPREC
 70
5
  9
$AUPREC
 70
5
  9
$PDMODE
 70
2
  9
$PDSIZE
 40
17.500000
  0
ENDSEC
  0
SECTION
  2
TABLES
  0
TABLE
  2
VPORT
  70
1
  0
VPORT
  2
*ACTIVE
 70
0
  10
0.0
 20
0.0
 11
1.0
 21
1.0
 12
594.0
 22
420.0
 13
0.0
 23
0.0
 14
10.0
 24
10.0
 15
10.0
 25
10.0
 16
0.0
 26
0.0
 36
1.0
 17
594.0
 27
420.0
 37
100.0
 40
1000.0
 41
1.0
 42
50.0
 43
0.0
 44
0.0
 50
0.0
 51
0.0
 71
0
 72
2000
 73
1
 74
3
 75
0
 76
0
 77
0
 78
1
  0
ENDTAB
  0
TABLE
  2
LTYPE
 70
4
  0
LTYPE
  2
CONTINUOUS
 70
0
  3
Solid line
 72
65
 73
0
 40
0.0
  0
LTYPE
  2
DASHED
 70
0
  3
Dashed line
 72
65
 73
2
 40
6.000000
 49
3.000000
 49
-3.000000
  0
LTYPE
  2
CENTER
 70
0
  3
Chain line
 72
65
 73
4
 40
24.000000
 49
15.000000
 49
-3.000000
 49
3.000000
 49
-3.000000
  0
LTYPE
  2
RANDOM
 70
0
  3
Random line
 72
65
 73
4
 40
22.500000
 49
6.000000
 49
-3.000000
 49
4.500000
 49
-9.000000
  0
ENDTAB
  0
TABLE
  2
STYLE
 70
9
  0
STYLE
  2
STANDARD
 40
0
 41
1.0
 50
0.0
 71
0
 42
0
  3
simplex
  4

 70
0
  0
ENDTAB
  0
TABLE
  2
LAYER
 70
2
  0
LAYER
  2
0
 70
0
 62
7
  6
CONTINUOUS
  0
LAYER
  2
0
 62
1
  6
CONTINUOUS
 70
0
  0
ENDTAB
  0
ENDSEC
  0
SECTION
  2
BLOCKS
  0
ENDSEC
  0
SECTION
  2
ENTITIES
  0
LINE
  8
0
  6
CONTINUOUS
 62
1
 10
1686.797803
 20
588.767995
 11
1686.797803
 21
1453.053450
  0
LINE
  8
0
  6
DASHED
 62
7
 10
1686.797803
 20
1358.767764
 11
1086.797983
 21
1358.767764
  0
LINE
  8
0
  6
CONTINUOUS
 62
1
 10
1086.797983
 20
1453.053450
 11
1086.797983
 21
588.767995
  0
LINE
  8
0
  6
CONTINUOUS
 62
1
 10
1086.797983
 20
588.767995
 11
1686.797803
 21
588.767995
  0
LINE
  8
0
  6
CONTINUOUS
 62
1
 10
1671.797807
 20
588.767995
 11
1671.797807
 21
1308.767779
  0
LINE
  8
0
  6
CONTINUOUS
 62
1
 10
1101.797978
 20
1308.767779
 11
1101.797978
 21
588.767995
  0
LINE
  8
0
  6
CONTINUOUS
 62
1
 10
1111.797975
 20
588.767995
 11
1111.797975
 21
552.768006
  0
LINE
  8
0
  6
CONTINUOUS
 62
1
 10
1111.797975
 20
552.768006
 11
1391.797891
 21
552.768006
  0
LINE
  8
0
  6
CONTINUOUS
 62
1
 10
1391.797891
 20
552.768006
 11
1391.797891
 21
588.767995
  0
LINE
  8
0
  6
CONTINUOUS
 62
1
 10
1131.797969
 20
588.767995
 11
1131.797969
 21
568.768001
  0
LINE
  8
0
  6
CONTINUOUS
 62
1
 10
1131.797969
 20
568.768001
 11
1371.797897
 21
568.768001
  0
LINE
  8
0
  6
CONTINUOUS
 62
1
 10
1371.797897
 20
568.768001
 11
1371.797897
 21
588.767995
  0
LINE
  8
0
  6
CONTINUOUS
 62
1
 10
1101.797978
 20
668.767971
 11
1671.797807
 21
668.767971
  0
LINE
  8
0
  6
CONTINUOUS
 62
1
 10
1686.797803
 20
1308.767779
 11
1086.797983
 21
1308.767779
  0
LINE
  8
0
  6
CONTINUOUS
 62
1
 10
1646.797815
 20
1255.767795
 11
1406.797887
 21
1255.767795
  0
LINE
  8
0
  6
CONTINUOUS
 62
1
 10
1126.797971
 20
668.767971
 11
1126.797971
 21
1255.767795
  0
LINE
  8
0
  6
CONTINUOUS
 62
1
 10
1646.797815
 20
1255.767795
 11
1646.797815
 21
668.767971
  0
LINE
  8
0
  6
CONTINUOUS
 62
1
 10
1366.797899
 20
668.767971
 11
1366.797899
 21
1255.767795
  0
LINE
  8
0
  6
CONTINUOUS
 62
1
 10
1406.797887
 20
668.767971
 11
1406.797887
 21
1255.767795
  0
LINE
  8
0
  6
CONTINUOUS
 62
1
 10
1366.797899
 20
1255.767795
 11
1126.797971
 21
1255.767795
  0
LINE
  8
0
  6
CONTINUOUS
 62
1
 10
1126.797971
 20
792.220264
 11
1366.797899
 21
792.220264
  0
LINE
  8
0
  6
CONTINUOUS
 62
1
 10
1406.797887
 20
792.220264
 11
1646.797815
 21
792.220264
  0
LINE
  8
0
  6
DASHED
 62
7
 10
1343.940764
 20
1381.624900
 11
1343.940764
 21
1352.767766
  0
LINE
  8
0
  6
DASHED
 62
7
 10
1629.654964
 20
1381.624900
 11
1629.654964
 21
1352.767766
  0
LINE
  8
0
  6
DASHED
 62
7
 10
1326.797912
 20
1358.767764
 11
1326.797912
 21
1375.910616
  0
LINE
  8
0
  6
DASHED
 62
7
 10
1361.083616
 20
1358.767764
 11
1361.083616
 21
1375.910616
  0
LINE
  8
0
  6
DASHED
 62
7
 10
1612.512112
 20
1358.767764
 11
1612.512112
 21
1375.910616
  0
LINE
  8
0
  6
DASHED
 62
7
 10
1646.797816
 20
1358.767764
 11
1646.797816
 21
1375.910616
  0
LINE
  8
0
  6
DASHED
 62
7
 10
1326.797912
 20
1375.910616
 11
1361.083616
 21
1375.910616
  0
LINE
  8
0
  6
DASHED
 62
7
 10
1612.512112
 20
1375.910616
 11
1646.797816
 21
1375.910616
  0
LINE
  8
0
  6
CONTINUOUS
 62
1
 10
1086.797983
 20
1453.053450
 11
1686.797803
 21
1453.053450
  0
LINE
  8
0
  6
CONTINUOUS
 62
1
 10
1136.797935
 20
795.767795
 11
1356.797935
 21
795.767795
  0
LINE
  8
0
  6
CONTINUOUS
 62
1
 10
1356.797935
 20
795.767795
 11
1356.797935
 21
1255.767795
  0
LINE
  8
0
  6
CONTINUOUS
 62
1
 10
1356.797935
 20
1255.767795
 11
1136.797935
 21
1255.767795
  0
LINE
  8
0
  6
CONTINUOUS
 62
1
 10
1136.797935
 20
1255.767795
 11
1136.797935
 21
795.767795
  0
LINE
  8
0
  6
CONTINUOUS
 62
1
 10
1232.797935
 20
795.767795
 11
1232.797935
 21
670.547795
  0
LINE
  8
0
  6
CONTINUOUS
 62
1
 10
1232.797935
 20
670.547795
 11
1260.797935
 21
670.547795
  0
LINE
  8
0
  6
CONTINUOUS
 62
1
 10
1260.797935
 20
670.547795
 11
1260.797935
 21
795.767795
  0
LINE
  8
0
  6
CONTINUOUS
 62
1
 10
1260.797935
 20
795.767795
 11
1232.797935
 21
795.767795
  0
LINE
  8
0
  6
CONTINUOUS
 62
1
 10
1356.797935
 20
800.767795
 11
1136.797935
 21
800.767795
  0
LINE
  8
0
  6
CONTINUOUS
 62
1
 10
1136.797935
 20
818.767795
 11
1356.797935
 21
818.767795
  0
LINE
  8
0
  6
CONTINUOUS
 62
1
 10
1356.797935
 20
836.767795
 11
1136.797935
 21
836.767795
  0
LINE
  8
0
  6
CONTINUOUS
 62
1
 10
1136.797935
 20
854.767795
 11
1356.797935
 21
854.767795
  0
LINE
  8
0
  6
CONTINUOUS
 62
1
 10
1356.797935
 20
872.767795
 11
1333.897935
 21
872.767795
  0
LINE
  8
0
  6
CONTINUOUS
 62
1
 10
1136.797935
 20
890.767795
 11
1223.777935
 21
886.477795
  0
LINE
  8
0
  6
CONTINUOUS
 62
1
 10
1356.797935
 20
908.767795
 11
1339.357935
 21
908.767795
  0
LINE
  8
0
  6
CONTINUOUS
 62
1
 10
1136.797935
 20
926.767795
 11
1199.597935
 21
926.767795
  0
LINE
  8
0
  6
CONTINUOUS
 62
1
 10
1356.797935
 20
944.767795
 11
1344.817935
 21
944.767795
  0
LINE
  8
0
  6
CONTINUOUS
 62
1
 10
1136.797935
 20
962.767795
 11
1177.997935
 21
962.767795
  0
LINE
  8
0
  6
CONTINUOUS
 62
1
 10
1356.797935
 20
980.767795
 11
1350.287935
 21
980.767795
  0
LINE
  8
0
  6
CONTINUOUS
 62
1
 10
1136.797935
 20
998.767795
 11
1161.107935
 21
998.767795
  0
LINE
  8
0
  6
CONTINUOUS
 62
1
 10
1136.797935
 20
1034.767795
 11
1156.607935
 21
1034.767795
  0
LINE
  8
0
  6
CONTINUOUS
 62
1
 10
1136.797935
 20
1070.767795
 11
1152.107935
 21
1070.767795
  0
LINE
  8
0
  6
CONTINUOUS
 62
1
 10
1136.797935
 20
1106.767795
 11
1147.607935
 21
1106.767795
  0
LINE
  8
0
  6
CONTINUOUS
 62
1
 10
1136.797935
 20
1142.767795
 11
1143.107935
 21
1142.767795
  0
LINE
  8
0
  6
CONTINUOUS
 62
1
 10
1336.797935
 20
795.767795
 11
1336.797935
 21
891.897795
  0
LINE
  8
0
  6
CONTINUOUS
 62
1
 10
1288.797935
 20
795.767795
 11
1288.797935
 21
869.667795
  0
LINE
  8
0
  6
CONTINUOUS
 62
1
 10
1240.797935
 20
795.767795
 11
1240.797935
 21
882.077795
  0
LINE
  8
0
  6
CONTINUOUS
 62
1
 10
1192.797935
 20
795.767795
 11
1192.797935
 21
938.107795
  0
LINE
  8
0
  6
CONTINUOUS
 62
1
 10
1144.797935
 20
795.767795
 11
1144.797935
 21
1129.247795
  0
LINE
  8
0
  6
CONTINUOUS
 62
1
 10
1276.787935
 20
872.767795
 11
1136.797935
 21
872.767795
  0
LINE
  8
0
  6
CONTINUOUS
 62
1
 10
1336.527935
 20
890.117795
 11
1356.797935
 21
890.767795
  0
LINE
  8
0
  6
CONTINUOUS
 62
1
 10
1210.397935
 20
908.767795
 11
1136.797935
 21
908.767795
  0
LINE
  8
0
  6
CONTINUOUS
 62
1
 10
1342.087935
 20
926.767795
 11
1356.797935
 21
926.767795
  0
LINE
  8
0
  6
CONTINUOUS
 62
1
 10
1188.797935
 20
944.767795
 11
1136.797935
 21
944.767795
  0
LINE
  8
0
  6
CONTINUOUS
 62
1
 10
1167.197935
 20
980.767795
 11
1136.797935
 21
980.767795
  0
LINE
  8
0
  6
CONTINUOUS
 62
1
 10
1158.857935
 20
1016.767795
 11
1136.797935
 21
1016.767795
  0
LINE
  8
0
  6
CONTINUOUS
 62
1
 10
1154.357935
 20
1052.767795
 11
1136.797935
 21
1052.767795
  0
LINE
  8
0
  6
CONTINUOUS
 62
1
 10
1149.857935
 20
1088.767795
 11
1136.797935
 21
1088.767795
  0
LINE
  8
0
  6
CONTINUOUS
 62
1
 10
1312.797935
 20
863.457795
 11
1312.797935
 21
795.767795
  0
LINE
  8
0
  6
CONTINUOUS
 62
1
 10
1264.797935
 20
875.867795
 11
1264.797935
 21
795.767795
  0
LINE
  8
0
  6
CONTINUOUS
 62
1
 10
1216.797935
 20
898.107795
 11
1216.797935
 21
795.767795
  0
LINE
  8
0
  6
CONTINUOUS
 62
1
 10
1168.797935
 20
978.107795
 11
1168.797935
 21
795.767795
  0
LINE
  8
0
  6
CONTINUOUS
 62
1
 10
1416.797851
 20
795.767795
 11
1636.797851
 21
795.767795
  0
LINE
  8
0
  6
CONTINUOUS
 62
1
 10
1636.797851
 20
795.767795
 11
1636.797851
 21
1255.767795
  0
LINE
  8
0
  6
CONTINUOUS
 62
1
 10
1636.797851
 20
1255.767795
 11
1416.797851
 21
1255.767795
  0
LINE
  8
0
  6
CONTINUOUS
 62
1
 10
1416.797851
 20
1255.767795
 11
1416.797851
 21
795.767795
  0
LINE
  8
0
  6
CONTINUOUS
 62
1
 10
1512.797851
 20
795.767795
 11
1512.797851
 21
670.547795
  0
LINE
  8
0
  6
CONTINUOUS
 62
1
 10
1512.797851
 20
670.547795
 11
1540.797851
 21
670.547795
  0
LINE
  8
0
  6
CONTINUOUS
 62
1
 10
1540.797851
 20
670.547795
 11
1540.797851
 21
795.767795
  0
LINE
  8
0
  6
CONTINUOUS
 62
1
 10
1540.797851
 20
795.767795
 11
1512.797851
 21
795.767795
  0
LINE
  8
0
  6
CONTINUOUS
 62
1
 10
1636.797851
 20
800.767795
 11
1416.797851
 21
800.767795
  0
LINE
  8
0
  6
CONTINUOUS
 62
1
 10
1416.797851
 20
818.767795
 11
1636.797851
 21
818.767795
  0
LINE
  8
0
  6
CONTINUOUS
 62
1
 10
1636.797851
 20
836.767795
 11
1416.797851
 21
836.767795
  0
LINE
  8
0
  6
CONTINUOUS
 62
1
 10
1416.797851
 20
854.767795
 11
1636.797851
 21
854.767795
  0
LINE
  8
0
  6
CONTINUOUS
 62
1
 10
1636.797851
 20
872.767795
 11
1613.897851
 21
872.767795
  0
LINE
  8
0
  6
CONTINUOUS
 62
1
 10
1416.797851
 20
890.767795
 11
1503.777851
 21
886.477795
  0
LINE
  8
0
  6
CONTINUOUS
 62
1
 10
1636.797851
 20
908.767795
 11
1619.357851
 21
908.767795
  0
LINE
  8
0
  6
CONTINUOUS
 62
1
 10
1416.797851
 20
926.767795
 11
1479.597851
 21
926.767795
  0
LINE
  8
0
  6
CONTINUOUS
 62
1
 10
1636.797851
 20
944.767795
 11
1624.817851
 21
944.767795
  0
LINE
  8
0
  6
CONTINUOUS
 62
1
 10
1416.797851
 20
962.767795
 11
1457.997851
 21
962.767795
  0
LINE
  8
0
  6
CONTINUOUS
 62
1
 10
1636.797851
 20
980.767795
 11
1630.287851
 21
980.767795
  0
LINE
  8
0
  6
CONTINUOUS
 62
1
 10
1416.797851
 20
998.767795
 11
1441.107851
 21
998.767795
  0
LINE
  8
0
  6
CONTINUOUS
 62
1
 10
1416.797851
 20
1034.767795
 11
1436.607851
 21
1034.767795
  0
LINE
  8
0
  6
CONTINUOUS
 62
1
 10
1416.797851
 20
1070.767795
 11
1432.107851
 21
1070.767795
  0
LINE
  8
0
  6
CONTINUOUS
 62
1
 10
1416.797851
 20
1106.767795
 11
1427.607851
 21
1106.767795
  0
LINE
  8
0
  6
CONTINUOUS
 62
1
 10
1416.797851
 20
1142.767795
 11
1423.107851
 21
1142.767795
  0
LINE
  8
0
  6
CONTINUOUS
 62
1
 10
1616.797851
 20
795.767795
 11
1616.797851
 21
891.897795
  0
LINE
  8
0
  6
CONTINUOUS
 62
1
 10
1568.797851
 20
795.767795
 11
1568.797851
 21
869.667795
  0
LINE
  8
0
  6
CONTINUOUS
 62
1
 10
1520.797851
 20
795.767795
 11
1520.797851
 21
882.077795
  0
LINE
  8
0
  6
CONTINUOUS
 62
1
 10
1472.797851
 20
795.767795
 11
1472.797851
 21
938.107795
  0
LINE
  8
0
  6
CONTINUOUS
 62
1
 10
1424.797851
 20
795.767795
 11
1424.797851
 21
1129.247795
  0
LINE
  8
0
  6
CONTINUOUS
 62
1
 10
1556.787851
 20
872.767795
 11
1416.797851
 21
872.767795
  0
LINE
  8
0
  6
CONTINUOUS
 62
1
 10
1616.527851
 20
890.117795
 11
1636.797851
 21
890.767795
  0
LINE
  8
0
  6
CONTINUOUS
 62
1
 10
1490.397851
 20
908.767795
 11
1416.797851
 21
908.767795
  0
LINE
  8
0
  6
CONTINUOUS
 62
1
 10
1622.087851
 20
926.767795
 11
1636.797851
 21
926.767795
  0
LINE
  8
0
  6
CONTINUOUS
 62
1
 10
1468.797851
 20
944.767795
 11
1416.797851
 21
944.767795
  0
LINE
  8
0
  6
CONTINUOUS
 62
1
 10
1447.197851
 20
980.767795
 11
1416.797851
 21
980.767795
  0
LINE
  8
0
  6
CONTINUOUS
 62
1
 10
1438.857851
 20
1016.767795
 11
1416.797851
 21
1016.767795
  0
LINE
  8
0
  6
CONTINUOUS
 62
1
 10
1434.357851
 20
1052.767795
 11
1416.797851
 21
1052.767795
  0
LINE
  8
0
  6
CONTINUOUS
 62
1
 10
1429.857851
 20
1088.767795
 11
1416.797851
 21
1088.767795
  0
LINE
  8
0
  6
CONTINUOUS
 62
1
 10
1592.797851
 20
863.457795
 11
1592.797851
 21
795.767795
  0
LINE
  8
0
  6
CONTINUOUS
 62
1
 10
1544.797851
 20
875.867795
 11
1544.797851
 21
795.767795
  0
LINE
  8
0
  6
CONTINUOUS
 62
1
 10
1496.797851
 20
898.107795
 11
1496.797851
 21
795.767795
  0
LINE
  8
0
  6
CONTINUOUS
 62
1
 10
1448.797851
 20
978.107795
 11
1448.797851
 21
795.767795
  0
LINE
  8
0
  6
CONTINUOUS
 62
1
 10
1416.797851
 20
795.767795
 11
1636.797851
 21
795.767795
  0
LINE
  8
0
  6
CONTINUOUS
 62
1
 10
1636.797851
 20
795.767795
 11
1636.797851
 21
1255.767795
  0
LINE
  8
0
  6
CONTINUOUS
 62
1
 10
1636.797851
 20
1255.767795
 11
1416.797851
 21
1255.767795
  0
LINE
  8
0
  6
CONTINUOUS
 62
1
 10
1416.797851
 20
1255.767795
 11
1416.797851
 21
795.767795
  0
LINE
  8
0
  6
CONTINUOUS
 62
1
 10
1512.797851
 20
795.767795
 11
1512.797851
 21
670.547795
  0
LINE
  8
0
  6
CONTINUOUS
 62
1
 10
1512.797851
 20
670.547795
 11
1540.797851
 21
670.547795
  0
LINE
  8
0
  6
CONTINUOUS
 62
1
 10
1540.797851
 20
670.547795
 11
1540.797851
 21
795.767795
  0
LINE
  8
0
  6
CONTINUOUS
 62
1
 10
1540.797851
 20
795.767795
 11
1512.797851
 21
795.767795
  0
LINE
  8
0
  6
CONTINUOUS
 62
1
 10
1636.797851
 20
800.767795
 11
1416.797851
 21
800.767795
  0
LINE
  8
0
  6
CONTINUOUS
 62
1
 10
1416.797851
 20
818.767795
 11
1636.797851
 21
818.767795
  0
LINE
  8
0
  6
CONTINUOUS
 62
1
 10
1636.797851
 20
836.767795
 11
1416.797851
 21
836.767795
  0
LINE
  8
0
  6
CONTINUOUS
 62
1
 10
1416.797851
 20
854.767795
 11
1636.797851
 21
854.767795
  0
LINE
  8
0
  6
CONTINUOUS
 62
1
 10
1636.797851
 20
872.767795
 11
1613.897851
 21
872.767795
  0
LINE
  8
0
  6
CONTINUOUS
 62
1
 10
1416.797851
 20
890.767795
 11
1503.777851
 21
886.477795
  0
LINE
  8
0
  6
CONTINUOUS
 62
1
 10
1636.797851
 20
908.767795
 11
1619.357851
 21
908.767795
  0
LINE
  8
0
  6
CONTINUOUS
 62
1
 10
1416.797851
 20
926.767795
 11
1479.597851
 21
926.767795
  0
LINE
  8
0
  6
CONTINUOUS
 62
1
 10
1636.797851
 20
944.767795
 11
1624.817851
 21
944.767795
  0
LINE
  8
0
  6
CONTINUOUS
 62
1
 10
1416.797851
 20
962.767795
 11
1457.997851
 21
962.767795
  0
LINE
  8
0
  6
CONTINUOUS
 62
1
 10
1636.797851
 20
980.767795
 11
1630.287851
 21
980.767795
  0
LINE
  8
0
  6
CONTINUOUS
 62
1
 10
1416.797851
 20
998.767795
 11
1441.107851
 21
998.767795
  0
LINE
  8
0
  6
CONTINUOUS
 62
1
 10
1416.797851
 20
1034.767795
 11
1436.607851
 21
1034.767795
  0
LINE
  8
0
  6
CONTINUOUS
 62
1
 10
1416.797851
 20
1070.767795
 11
1432.107851
 21
1070.767795
  0
LINE
  8
0
  6
CONTINUOUS
 62
1
 10
1416.797851
 20
1106.767795
 11
1427.607851
 21
1106.767795
  0
LINE
  8
0
  6
CONTINUOUS
 62
1
 10
1416.797851
 20
1142.767795
 11
1423.107851
 21
1142.767795
  0
LINE
  8
0
  6
CONTINUOUS
 62
1
 10
1616.797851
 20
795.767795
 11
1616.797851
 21
891.897795
  0
LINE
  8
0
  6
CONTINUOUS
 62
1
 10
1568.797851
 20
795.767795
 11
1568.797851
 21
869.667795
  0
LINE
  8
0
  6
CONTINUOUS
 62
1
 10
1520.797851
 20
795.767795
 11
1520.797851
 21
882.077795
  0
LINE
  8
0
  6
CONTINUOUS
 62
1
 10
1472.797851
 20
795.767795
 11
1472.797851
 21
938.107795
  0
LINE
  8
0
  6
CONTINUOUS
 62
1
 10
1424.797851
 20
795.767795
 11
1424.797851
 21
1129.247795
  0
LINE
  8
0
  6
CONTINUOUS
 62
1
 10
1556.787851
 20
872.767795
 11
1416.797851
 21
872.767795
  0
LINE
  8
0
  6
CONTINUOUS
 62
1
 10
1616.527851
 20
890.117795
 11
1636.797851
 21
890.767795
  0
LINE
  8
0
  6
CONTINUOUS
 62
1
 10
1490.397851
 20
908.767795
 11
1416.797851
 21
908.767795
  0
LINE
  8
0
  6
CONTINUOUS
 62
1
 10
1622.087851
 20
926.767795
 11
1636.797851
 21
926.767795
  0
LINE
  8
0
  6
CONTINUOUS
 62
1
 10
1468.797851
 20
944.767795
 11
1416.797851
 21
944.767795
  0
LINE
  8
0
  6
CONTINUOUS
 62
1
 10
1447.197851
 20
980.767795
 11
1416.797851
 21
980.767795
  0
LINE
  8
0
  6
CONTINUOUS
 62
1
 10
1438.857851
 20
1016.767795
 11
1416.797851
 21
1016.767795
  0
LINE
  8
0
  6
CONTINUOUS
 62
1
 10
1434.357851
 20
1052.767795
 11
1416.797851
 21
1052.767795
  0
LINE
  8
0
  6
CONTINUOUS
 62
1
 10
1429.857851
 20
1088.767795
 11
1416.797851
 21
1088.767795
  0
LINE
  8
0
  6
CONTINUOUS
 62
1
 10
1592.797851
 20
863.457795
 11
1592.797851
 21
795.767795
  0
LINE
  8
0
  6
CONTINUOUS
 62
1
 10
1544.797851
 20
875.867795
 11
1544.797851
 21
795.767795
  0
LINE
  8
0
  6
CONTINUOUS
 62
1
 10
1496.797851
 20
898.107795
 11
1496.797851
 21
795.767795
  0
LINE
  8
0
  6
CONTINUOUS
 62
1
 10
1448.797851
 20
978.107795
 11
1448.797851
 21
795.767795
  0
ENDSEC
  0
EOF
