  0
SECTION
  2
HEADER
  9
$LIMMIN
 10
0.000000
 20
0.000000
  9
$LIMMAX
 10
900.000000
 20
923.000000
  9
$EXTMIN
 10
0.000000
 20
0.000000
  9
$EXTMAX
 10
900.000000
 20
923.000000
  9
$ANGBASE
 50
0.0
  9
$ANGDIR
 70
0
  9
$DIMRND
 40
0.100000
  9
$DIMSE1
 70
0
  9
$DIMSE2
 70
0
  9
$DIMTXT
 40
3.500000
  9
$LTSCALE
 40
1.000000
  9
$LUPREC
 70
5
  9
$AUPREC
 70
5
  9
$PDMODE
 70
2
  9
$PDSIZE
 40
4.615000
  0
ENDSEC
  0
SECTION
  2
TABLES
  0
TABLE
  2
VPORT
  70
1
  0
VPORT
  2
*ACTIVE
 70
0
  10
0.0
 20
0.0
 11
1.0
 21
1.0
 12
594.0
 22
420.0
 13
0.0
 23
0.0
 14
10.0
 24
10.0
 15
10.0
 25
10.0
 16
0.0
 26
0.0
 36
1.0
 17
594.0
 27
420.0
 37
100.0
 40
1000.0
 41
1.0
 42
50.0
 43
0.0
 44
0.0
 50
0.0
 51
0.0
 71
0
 72
2000
 73
1
 74
3
 75
0
 76
0
 77
0
 78
1
  0
ENDTAB
  0
TABLE
  2
LTYPE
 70
4
  0
LTYPE
  2
CONTINUOUS
 70
0
  3
Solid line
 72
65
 73
0
 40
0.0
  0
LTYPE
  2
DASHED
 70
0
  3
Dashed line
 72
65
 73
2
 40
6.000000
 49
3.000000
 49
-3.000000
  0
LTYPE
  2
CENTER
 70
0
  3
Chain line
 72
65
 73
4
 40
24.000000
 49
15.000000
 49
-3.000000
 49
3.000000
 49
-3.000000
  0
LTYPE
  2
RANDOM
 70
0
  3
Random line
 72
65
 73
4
 40
22.500000
 49
6.000000
 49
-3.000000
 49
4.500000
 49
-9.000000
  0
ENDTAB
  0
TABLE
  2
STYLE
 70
9
  0
STYLE
  2
STANDARD
 40
0
 41
1.0
 50
0.0
 71
0
 42
0
  3
simplex
  4

 70
0
  0
ENDTAB
  0
TABLE
  2
LAYER
 70
4
  0
LAYER
  2
0
 70
0
 62
7
  6
CONTINUOUS
  0
LAYER
  2
0
 62
1
  6
CONTINUOUS
 70
0
  0
LAYER
  2
MODEL
 62
1
  6
CONTINUOUS
 70
0
  0
LAYER
  2
MODEL-0
 62
1
  6
CONTINUOUS
 70
0
  0
ENDTAB
  0
ENDSEC
  0
SECTION
  2
BLOCKS
  0
ENDSEC
  0
SECTION
  2
ENTITIES
  0
LINE
  8
MODEL-0
  6
CONTINUOUS
 62
1
 10
790.000000
 20
94.000000
 11
790.000000
 21
150.000000
  0
LINE
  8
MODEL-0
  6
CONTINUOUS
 62
1
 10
30.000000
 20
84.472215
 11
128.000000
 21
84.472215
  0
LINE
  8
MODEL-0
  6
CONTINUOUS
 62
1
 10
128.000000
 20
84.472215
 11
128.000000
 21
161.472215
  0
LINE
  8
MODEL-0
  6
CONTINUOUS
 62
1
 10
128.000000
 20
161.472215
 11
30.000000
 21
161.472215
  0
LINE
  8
MODEL-0
  6
CONTINUOUS
 62
1
 10
30.000000
 20
161.472215
 11
30.000000
 21
84.472215
  0
LINE
  8
MODEL-0
  6
CONTINUOUS
 62
1
 10
0.000000
 20
165.000000
 11
900.000000
 21
165.000000
  0
LINE
  8
MODEL-0
  6
CONTINUOUS
 62
1
 10
0.000000
 20
60.000000
 11
900.000000
 21
60.000000
  0
LINE
  8
MODEL-0
  6
CONTINUOUS
 62
1
 10
0.000000
 20
75.000000
 11
900.000000
 21
75.000000
  0
LINE
  8
MODEL-0
  6
CONTINUOUS
 62
1
 10
885.000000
 20
0.000000
 11
15.000000
 21
0.000000
  0
LINE
  8
MODEL-0
  6
CONTINUOUS
 62
1
 10
15.000000
 20
0.000000
 11
15.000000
 21
15.000000
  0
LINE
  8
MODEL-0
  6
CONTINUOUS
 62
1
 10
15.000000
 20
15.000000
 11
15.000000
 21
0.000000
  0
LINE
  8
MODEL-0
  6
CONTINUOUS
 62
1
 10
15.000000
 20
0.000000
 11
15.000000
 21
15.000000
  0
LINE
  8
MODEL-0
  6
CONTINUOUS
 62
1
 10
15.000000
 20
15.000000
 11
0.000000
 21
15.000000
  0
LINE
  8
MODEL-0
  6
CONTINUOUS
 62
1
 10
0.000000
 20
15.000000
 11
0.000000
 21
165.000000
  0
LINE
  8
MODEL-0
  6
CONTINUOUS
 62
1
 10
0.000000
 20
165.000000
 11
0.000000
 21
690.000000
  0
LINE
  8
MODEL-0
  6
CONTINUOUS
 62
1
 10
0.000000
 20
690.000000
 11
0.000000
 21
908.000000
  0
LINE
  8
MODEL-0
  6
CONTINUOUS
 62
1
 10
900.000000
 20
908.000000
 11
900.000000
 21
15.000000
  0
LINE
  8
MODEL-0
  6
CONTINUOUS
 62
1
 10
900.000000
 20
15.000000
 11
885.000000
 21
15.000000
  0
LINE
  8
MODEL-0
  6
CONTINUOUS
 62
1
 10
885.000000
 20
15.000000
 11
885.000000
 21
0.000000
  0
LINE
  8
MODEL-0
  6
CONTINUOUS
 62
1
 10
885.000000
 20
0.000000
 11
885.000000
 21
15.000000
  0
LINE
  8
MODEL-0
  6
CONTINUOUS
 62
1
 10
885.000000
 20
15.000000
 11
885.000000
 21
0.000000
  0
LINE
  8
MODEL-0
  6
CONTINUOUS
 62
1
 10
790.000000
 20
645.000000
 11
410.000000
 21
645.000000
  0
LINE
  8
MODEL-0
  6
CONTINUOUS
 62
1
 10
410.000000
 20
645.000000
 11
410.000000
 21
175.000000
  0
LINE
  8
MODEL-0
  6
CONTINUOUS
 62
1
 10
410.000000
 20
175.000000
 11
790.000000
 21
175.000000
  0
LINE
  8
MODEL-0
  6
CONTINUOUS
 62
1
 10
790.000000
 20
175.000000
 11
790.000000
 21
645.000000
  0
LINE
  8
MODEL-0
  6
CONTINUOUS
 62
1
 10
390.000000
 20
645.000000
 11
10.000000
 21
645.000000
  0
LINE
  8
MODEL-0
  6
CONTINUOUS
 62
1
 10
10.000000
 20
645.000000
 11
10.000000
 21
175.000000
  0
LINE
  8
MODEL-0
  6
CONTINUOUS
 62
1
 10
10.000000
 20
175.000000
 11
390.000000
 21
175.000000
  0
LINE
  8
MODEL-0
  6
CONTINUOUS
 62
1
 10
390.000000
 20
175.000000
 11
390.000000
 21
645.000000
  0
LINE
  8
MODEL-0
  6
CONTINUOUS
 62
1
 10
295.000000
 20
595.000000
 11
95.000000
 21
595.000000
  0
ARC
  8
MODEL-0
  6
CONTINUOUS
 62
1
 10
95.000000
 20
560.000000
 40
35.000000
 50
90.000000
 51
180.000000
  0
LINE
  8
MODEL-0
  6
CONTINUOUS
 62
1
 10
60.000000
 20
560.000000
 11
60.000000
 21
260.000000
  0
ARC
  8
MODEL-0
  6
CONTINUOUS
 62
1
 10
95.000000
 20
260.000000
 40
35.000000
 50
180.000000
 51
270.000000
  0
LINE
  8
MODEL-0
  6
CONTINUOUS
 62
1
 10
95.000000
 20
225.000000
 11
295.000000
 21
225.000000
  0
ARC
  8
MODEL-0
  6
CONTINUOUS
 62
1
 10
295.000000
 20
260.000000
 40
35.000000
 50
270.000000
 51
0.000000
  0
LINE
  8
MODEL-0
  6
CONTINUOUS
 62
1
 10
330.000000
 20
260.000000
 11
330.000000
 21
560.000000
  0
ARC
  8
MODEL-0
  6
CONTINUOUS
 62
1
 10
295.000000
 20
560.000000
 40
35.000000
 50
0.000000
 51
90.000000
  0
ARC
  8
MODEL-0
  6
CONTINUOUS
 62
1
 10
505.000000
 20
560.000000
 40
35.000000
 50
90.001000
 51
180.001000
  0
LINE
  8
MODEL-0
  6
CONTINUOUS
 62
1
 10
470.000000
 20
560.000000
 11
470.000000
 21
260.000000
  0
ARC
  8
MODEL-0
  6
CONTINUOUS
 62
1
 10
505.000000
 20
260.000000
 40
35.000000
 50
180.000000
 51
270.000000
  0
LINE
  8
MODEL-0
  6
CONTINUOUS
 62
1
 10
505.000000
 20
225.000000
 11
705.000000
 21
225.000000
  0
ARC
  8
MODEL-0
  6
CONTINUOUS
 62
1
 10
705.000000
 20
260.000000
 40
35.000000
 50
270.000000
 51
0.000000
  0
LINE
  8
MODEL-0
  6
CONTINUOUS
 62
1
 10
740.000000
 20
260.000000
 11
740.000000
 21
560.000000
  0
ARC
  8
MODEL-0
  6
CONTINUOUS
 62
1
 10
705.000000
 20
560.000000
 40
35.000000
 50
0.000000
 51
90.000000
  0
LINE
  8
MODEL-0
  6
CONTINUOUS
 62
1
 10
705.000000
 20
595.000000
 11
505.000000
 21
595.000000
  0
LINE
  8
MODEL-0
  6
CONTINUOUS
 62
1
 10
770.000000
 20
94.000000
 11
770.000000
 21
150.000000
  0
LINE
  8
MODEL-0
  6
CONTINUOUS
 62
1
 10
750.000000
 20
150.000000
 11
750.000000
 21
94.000000
  0
LINE
  8
MODEL-0
  6
CONTINUOUS
 62
1
 10
730.000000
 20
94.000000
 11
730.000000
 21
150.000000
  0
LINE
  8
MODEL-0
  6
CONTINUOUS
 62
1
 10
710.000000
 20
150.000000
 11
710.000000
 21
94.000000
  0
LINE
  8
MODEL-0
  6
CONTINUOUS
 62
1
 10
690.000000
 20
94.000000
 11
690.000000
 21
150.000000
  0
LINE
  8
MODEL-0
  6
CONTINUOUS
 62
1
 10
670.000000
 20
150.000000
 11
670.000000
 21
94.000000
  0
LINE
  8
MODEL-0
  6
CONTINUOUS
 62
1
 10
650.000000
 20
94.000000
 11
650.000000
 21
150.000000
  0
LINE
  8
MODEL-0
  6
CONTINUOUS
 62
1
 10
630.000000
 20
150.000000
 11
630.000000
 21
94.000000
  0
LINE
  8
MODEL-0
  6
CONTINUOUS
 62
1
 10
610.000000
 20
94.000000
 11
610.000000
 21
150.000000
  0
LINE
  8
MODEL-0
  6
CONTINUOUS
 62
1
 10
590.000000
 20
150.000000
 11
590.000000
 21
94.000000
  0
LINE
  8
MODEL-0
  6
CONTINUOUS
 62
1
 10
570.000000
 20
94.000000
 11
570.000000
 21
150.000000
  0
LINE
  8
MODEL-0
  6
CONTINUOUS
 62
1
 10
550.000000
 20
150.000000
 11
550.000000
 21
94.000000
  0
LINE
  8
MODEL-0
  6
CONTINUOUS
 62
1
 10
530.000000
 20
94.000000
 11
530.000000
 21
150.000000
  0
LINE
  8
MODEL-0
  6
CONTINUOUS
 62
1
 10
510.000000
 20
150.000000
 11
510.000000
 21
94.000000
  0
LINE
  8
MODEL-0
  6
CONTINUOUS
 62
1
 10
490.000000
 20
94.000000
 11
490.000000
 21
150.000000
  0
LINE
  8
MODEL-0
  6
CONTINUOUS
 62
1
 10
470.000000
 20
150.000000
 11
470.000000
 21
94.000000
  0
LINE
  8
MODEL-0
  6
CONTINUOUS
 62
1
 10
450.000000
 20
94.000000
 11
450.000000
 21
150.000000
  0
LINE
  8
MODEL-0
  6
CONTINUOUS
 62
1
 10
430.000000
 20
150.000000
 11
430.000000
 21
94.000000
  0
LINE
  8
MODEL-0
  6
CONTINUOUS
 62
1
 10
410.000000
 20
94.000000
 11
410.000000
 21
150.000000
  0
LINE
  8
MODEL-0
  6
CONTINUOUS
 62
1
 10
390.000000
 20
150.000000
 11
390.000000
 21
94.000000
  0
LINE
  8
MODEL-0
  6
CONTINUOUS
 62
1
 10
370.000000
 20
94.000000
 11
370.000000
 21
150.000000
  0
LINE
  8
MODEL-0
  6
CONTINUOUS
 62
1
 10
350.000000
 20
150.000000
 11
350.000000
 21
94.000000
  0
LINE
  8
MODEL-0
  6
CONTINUOUS
 62
1
 10
330.000000
 20
94.000000
 11
330.000000
 21
150.000000
  0
LINE
  8
MODEL-0
  6
CONTINUOUS
 62
1
 10
310.000000
 20
150.000000
 11
310.000000
 21
94.000000
  0
LINE
  8
MODEL-0
  6
CONTINUOUS
 62
1
 10
290.000000
 20
94.000000
 11
290.000000
 21
150.000000
  0
LINE
  8
MODEL-0
  6
CONTINUOUS
 62
1
 10
270.000000
 20
150.000000
 11
270.000000
 21
94.000000
  0
LINE
  8
MODEL-0
  6
CONTINUOUS
 62
1
 10
250.000000
 20
94.000000
 11
250.000000
 21
150.000000
  0
LINE
  8
MODEL-0
  6
CONTINUOUS
 62
1
 10
230.000000
 20
150.000000
 11
230.000000
 21
94.000000
  0
LINE
  8
MODEL-0
  6
CONTINUOUS
 62
1
 10
210.000000
 20
94.000000
 11
210.000000
 21
150.000000
  0
LINE
  8
MODEL-0
  6
CONTINUOUS
 62
1
 10
190.000000
 20
150.000000
 11
190.000000
 21
94.000000
  0
LINE
  8
MODEL-0
  6
CONTINUOUS
 62
1
 10
170.000000
 20
94.000000
 11
170.000000
 21
150.000000
  0
LINE
  8
MODEL-0
  6
CONTINUOUS
 62
1
 10
150.000000
 20
150.000000
 11
150.000000
 21
94.000000
  0
LINE
  8
MODEL-0
  6
CONTINUOUS
 62
1
 10
130.000000
 20
94.000000
 11
130.000000
 21
150.000000
  0
LINE
  8
MODEL-0
  6
CONTINUOUS
 62
1
 10
30.000000
 20
150.000000
 11
30.000000
 21
94.000000
  0
LINE
  8
MODEL-0
  6
CONTINUOUS
 62
1
 10
15.000000
 20
15.000000
 11
885.000000
 21
15.000000
  0
LINE
  8
MODEL-0
  6
CONTINUOUS
 62
1
 10
0.999855
 20
664.099012
 11
897.199837
 21
664.099012
  0
LINE
  8
MODEL-0
  6
CONTINUOUS
 62
1
 10
898.099861
 20
694.843941
 11
0.099846
 21
694.843941
  0
LINE
  8
MODEL-0
  6
CONTINUOUS
 62
1
 10
0.000000
 20
922.999926
 11
0.000000
 21
832.000000
  0
LINE
  8
MODEL-0
  6
CONTINUOUS
 62
1
 10
900.000015
 20
832.000000
 11
0.000000
 21
832.000000
  0
LINE
  8
MODEL-0
  6
CONTINUOUS
 62
1
 10
900.000015
 20
870.000000
 11
0.899994
 21
870.000000
  0
LINE
  8
MODEL-0
  6
CONTINUOUS
 62
1
 10
900.000015
 20
832.000000
 11
900.000015
 21
922.999926
  0
LINE
  8
MODEL-0
  6
CONTINUOUS
 62
1
 10
0.899994
 20
841.500000
 11
900.000015
 21
841.500000
  0
LINE
  8
MODEL-0
  6
CONTINUOUS
 62
1
 10
900.000015
 20
922.999926
 11
0.000000
 21
922.999926
  0
LINE
  8
MODEL-0
  6
CONTINUOUS
 62
1
 10
900.000015
 20
907.962707
 11
0.000000
 21
907.962707
  0
LINE
  8
MODEL-0
  6
CONTINUOUS
 62
1
 10
847.499831
 20
921.023685
 11
821.499831
 21
921.023685
  0
LINE
  8
MODEL-0
  6
CONTINUOUS
 62
1
 10
847.499831
 20
915.187213
 11
821.499831
 21
915.187213
  0
LINE
  8
MODEL-0
  6
CONTINUOUS
 62
1
 10
50.499831
 20
915.187213
 11
50.499831
 21
921.023685
  0
LINE
  8
MODEL-0
  6
CONTINUOUS
 62
1
 10
76.499831
 20
915.187213
 11
76.499831
 21
921.023685
  0
LINE
  8
MODEL-0
  6
CONTINUOUS
 62
1
 10
821.499831
 20
915.187213
 11
821.499831
 21
921.023685
  0
LINE
  8
MODEL-0
  6
CONTINUOUS
 62
1
 10
847.499831
 20
915.187213
 11
847.499831
 21
921.023685
  0
LINE
  8
MODEL-0
  6
CONTINUOUS
 62
1
 10
76.499831
 20
915.187213
 11
50.499831
 21
915.187213
  0
LINE
  8
MODEL-0
  6
CONTINUOUS
 62
1
 10
76.499831
 20
921.023685
 11
50.499831
 21
921.023685
  0
LINE
  8
MODEL-0
  6
CONTINUOUS
 62
1
 10
101.798598
 20
922.324136
 11
117.334470
 21
922.324136
  0
LINE
  8
MODEL-0
  6
CONTINUOUS
 62
1
 10
379.474470
 20
919.724136
 11
365.258598
 21
919.724136
  0
LINE
  8
MODEL-0
  6
CONTINUOUS
 62
1
 10
100.470589
 20
920.187278
 11
99.810589
 21
921.747278
  0
LINE
  8
MODEL-0
  6
CONTINUOUS
 62
1
 10
118.662479
 20
920.187278
 11
119.322479
 21
921.747278
  0
LINE
  8
MODEL-0
  6
CONTINUOUS
 62
1
 10
189.398598
 20
922.324136
 11
204.934470
 21
922.324136
  0
LINE
  8
MODEL-0
  6
CONTINUOUS
 62
1
 10
211.958598
 20
922.324136
 11
226.174470
 21
922.324136
  0
LINE
  8
MODEL-0
  6
CONTINUOUS
 62
1
 10
233.198598
 20
922.324136
 11
248.734470
 21
922.324136
  0
LINE
  8
MODEL-0
  6
CONTINUOUS
 62
1
 10
255.758598
 20
922.324136
 11
269.974470
 21
922.324136
  0
LINE
  8
MODEL-0
  6
CONTINUOUS
 62
1
 10
276.998598
 20
922.324136
 11
292.534470
 21
922.324136
  0
LINE
  8
MODEL-0
  6
CONTINUOUS
 62
1
 10
299.558598
 20
922.324136
 11
313.774470
 21
922.324136
  0
LINE
  8
MODEL-0
  6
CONTINUOUS
 62
1
 10
320.798598
 20
922.324136
 11
336.334470
 21
922.324136
  0
LINE
  8
MODEL-0
  6
CONTINUOUS
 62
1
 10
343.358598
 20
922.324136
 11
357.574470
 21
922.324136
  0
LINE
  8
MODEL-0
  6
CONTINUOUS
 62
1
 10
364.598598
 20
922.324136
 11
380.134470
 21
922.324136
  0
LINE
  8
MODEL-0
  6
CONTINUOUS
 62
1
 10
188.070589
 20
920.187278
 11
187.410589
 21
921.747278
  0
LINE
  8
MODEL-0
  6
CONTINUOUS
 62
1
 10
231.870589
 20
920.187278
 11
231.210589
 21
921.747278
  0
LINE
  8
MODEL-0
  6
CONTINUOUS
 62
1
 10
275.670589
 20
920.187278
 11
275.010589
 21
921.747278
  0
LINE
  8
MODEL-0
  6
CONTINUOUS
 62
1
 10
319.470589
 20
920.187278
 11
318.810589
 21
921.747278
  0
LINE
  8
MODEL-0
  6
CONTINUOUS
 62
1
 10
363.270589
 20
920.187278
 11
362.610589
 21
921.747278
  0
LINE
  8
MODEL-0
  6
CONTINUOUS
 62
1
 10
206.262479
 20
920.187278
 11
206.922479
 21
921.747278
  0
LINE
  8
MODEL-0
  6
CONTINUOUS
 62
1
 10
250.062479
 20
920.187278
 11
250.722479
 21
921.747278
  0
LINE
  8
MODEL-0
  6
CONTINUOUS
 62
1
 10
293.862479
 20
920.187278
 11
294.522479
 21
921.747278
  0
LINE
  8
MODEL-0
  6
CONTINUOUS
 62
1
 10
337.662479
 20
920.187278
 11
338.322479
 21
921.747278
  0
LINE
  8
MODEL-0
  6
CONTINUOUS
 62
1
 10
381.462479
 20
920.187278
 11
382.122479
 21
921.747278
  0
LINE
  8
MODEL-0
  6
CONTINUOUS
 62
1
 10
140.562479
 20
921.860993
 11
141.222479
 21
920.300993
  0
LINE
  8
MODEL-0
  6
CONTINUOUS
 62
1
 10
209.970589
 20
921.860993
 11
209.310589
 21
920.300993
  0
LINE
  8
MODEL-0
  6
CONTINUOUS
 62
1
 10
228.162479
 20
921.860993
 11
228.822479
 21
920.300993
  0
LINE
  8
MODEL-0
  6
CONTINUOUS
 62
1
 10
253.770589
 20
921.860993
 11
253.110589
 21
920.300993
  0
LINE
  8
MODEL-0
  6
CONTINUOUS
 62
1
 10
271.962479
 20
921.860993
 11
272.622479
 21
920.300993
  0
LINE
  8
MODEL-0
  6
CONTINUOUS
 62
1
 10
297.570589
 20
921.860993
 11
296.910589
 21
920.300993
  0
LINE
  8
MODEL-0
  6
CONTINUOUS
 62
1
 10
315.762479
 20
921.860993
 11
316.422479
 21
920.300993
  0
LINE
  8
MODEL-0
  6
CONTINUOUS
 62
1
 10
341.370589
 20
921.860993
 11
340.710589
 21
920.300993
  0
LINE
  8
MODEL-0
  6
CONTINUOUS
 62
1
 10
359.562479
 20
921.860993
 11
360.222479
 21
920.300993
  0
LINE
  8
MODEL-0
  6
CONTINUOUS
 62
1
 10
116.674470
 20
919.724136
 11
102.458598
 21
919.724136
  0
LINE
  8
MODEL-0
  6
CONTINUOUS
 62
1
 10
139.234470
 20
919.724136
 11
123.698598
 21
919.724136
  0
LINE
  8
MODEL-0
  6
CONTINUOUS
 62
1
 10
204.274470
 20
919.724136
 11
190.058598
 21
919.724136
  0
LINE
  8
MODEL-0
  6
CONTINUOUS
 62
1
 10
226.834470
 20
919.724136
 11
211.298598
 21
919.724136
  0
LINE
  8
MODEL-0
  6
CONTINUOUS
 62
1
 10
248.074470
 20
919.724136
 11
233.858598
 21
919.724136
  0
LINE
  8
MODEL-0
  6
CONTINUOUS
 62
1
 10
270.634470
 20
919.724136
 11
255.098598
 21
919.724136
  0
LINE
  8
MODEL-0
  6
CONTINUOUS
 62
1
 10
291.874470
 20
919.724136
 11
277.658598
 21
919.724136
  0
LINE
  8
MODEL-0
  6
CONTINUOUS
 62
1
 10
314.434470
 20
919.724136
 11
298.898598
 21
919.724136
  0
LINE
  8
MODEL-0
  6
CONTINUOUS
 62
1
 10
335.674470
 20
919.724136
 11
321.458598
 21
919.724136
  0
LINE
  8
MODEL-0
  6
CONTINUOUS
 62
1
 10
358.234470
 20
919.724136
 11
342.698598
 21
919.724136
  0
ARC
  8
MODEL-0
  6
CONTINUOUS
 62
1
 10
101.705158
 20
916.629426
 40
5.695477
 50
89.059963
 51
104.189015
  0
ARC
  8
MODEL-0
  6
CONTINUOUS
 62
1
 10
100.265966
 20
921.694786
 40
0.458393
 50
84.603874
 51
173.424416
  0
ARC
  8
MODEL-0
  6
CONTINUOUS
 62
1
 10
102.063224
 20
922.525293
 40
2.828922
 50
235.737653
 51
278.034035
  0
ARC
  8
MODEL-0
  6
CONTINUOUS
 62
1
 10
117.069844
 20
922.525293
 40
2.828922
 50
261.965965
 51
304.262347
  0
ARC
  8
MODEL-0
  6
CONTINUOUS
 62
1
 10
118.867102
 20
921.694786
 40
0.458393
 50
6.575584
 51
95.396126
  0
ARC
  8
MODEL-0
  6
CONTINUOUS
 62
1
 10
117.427910
 20
916.629426
 40
5.695477
 50
75.810985
 51
90.940037
  0
ARC
  8
MODEL-0
  6
CONTINUOUS
 62
1
 10
123.963225
 20
919.522979
 40
2.828922
 50
81.965993
 51
124.262375
  0
ARC
  8
MODEL-0
  6
CONTINUOUS
 62
1
 10
138.969843
 20
919.522979
 40
2.828922
 50
55.737625
 51
98.034007
  0
ARC
  8
MODEL-0
  6
CONTINUOUS
 62
1
 10
140.767102
 20
920.353485
 40
0.458393
 50
264.603874
 51
353.424416
  0
ARC
  8
MODEL-0
  6
CONTINUOUS
 62
1
 10
139.327914
 20
925.418846
 40
5.695477
 50
269.059925
 51
284.188977
  0
ARC
  8
MODEL-0
  6
CONTINUOUS
 62
1
 10
123.605154
 20
925.418846
 40
5.695477
 50
255.811023
 51
270.940075
  0
ARC
  8
MODEL-0
  6
CONTINUOUS
 62
1
 10
122.165966
 20
920.353485
 40
0.458393
 50
186.575584
 51
275.396126
  0
ARC
  8
MODEL-0
  6
CONTINUOUS
 62
1
 10
189.305158
 20
916.629426
 40
5.695477
 50
89.059963
 51
104.189015
  0
ARC
  8
MODEL-0
  6
CONTINUOUS
 62
1
 10
187.865966
 20
921.694786
 40
0.458393
 50
84.603874
 51
173.424416
  0
ARC
  8
MODEL-0
  6
CONTINUOUS
 62
1
 10
189.663224
 20
922.525293
 40
2.828922
 50
235.737653
 51
278.034035
  0
ARC
  8
MODEL-0
  6
CONTINUOUS
 62
1
 10
204.669844
 20
922.525293
 40
2.828922
 50
261.965965
 51
304.262347
  0
ARC
  8
MODEL-0
  6
CONTINUOUS
 62
1
 10
206.467102
 20
921.694786
 40
0.458393
 50
6.575584
 51
95.396126
  0
ARC
  8
MODEL-0
  6
CONTINUOUS
 62
1
 10
205.027910
 20
916.629426
 40
5.695477
 50
75.810985
 51
90.940037
  0
ARC
  8
MODEL-0
  6
CONTINUOUS
 62
1
 10
211.563225
 20
919.522979
 40
2.828922
 50
81.965993
 51
124.262375
  0
ARC
  8
MODEL-0
  6
CONTINUOUS
 62
1
 10
226.569843
 20
919.522979
 40
2.828922
 50
55.737625
 51
98.034007
  0
ARC
  8
MODEL-0
  6
CONTINUOUS
 62
1
 10
228.367102
 20
920.353485
 40
0.458393
 50
264.603874
 51
353.424416
  0
ARC
  8
MODEL-0
  6
CONTINUOUS
 62
1
 10
226.927914
 20
925.418846
 40
5.695477
 50
269.059925
 51
284.188977
  0
ARC
  8
MODEL-0
  6
CONTINUOUS
 62
1
 10
211.205154
 20
925.418846
 40
5.695477
 50
255.811023
 51
270.940075
  0
ARC
  8
MODEL-0
  6
CONTINUOUS
 62
1
 10
209.765966
 20
920.353485
 40
0.458393
 50
186.575584
 51
275.396126
  0
ARC
  8
MODEL-0
  6
CONTINUOUS
 62
1
 10
233.463224
 20
922.525293
 40
2.828922
 50
235.737653
 51
278.034035
  0
ARC
  8
MODEL-0
  6
CONTINUOUS
 62
1
 10
248.469844
 20
922.525293
 40
2.828922
 50
261.965965
 51
304.262347
  0
ARC
  8
MODEL-0
  6
CONTINUOUS
 62
1
 10
250.267102
 20
921.694786
 40
0.458393
 50
6.575584
 51
95.396126
  0
ARC
  8
MODEL-0
  6
CONTINUOUS
 62
1
 10
248.827910
 20
916.629426
 40
5.695477
 50
75.810985
 51
90.940037
  0
ARC
  8
MODEL-0
  6
CONTINUOUS
 62
1
 10
233.105158
 20
916.629426
 40
5.695477
 50
89.059963
 51
104.189015
  0
ARC
  8
MODEL-0
  6
CONTINUOUS
 62
1
 10
231.665966
 20
921.694786
 40
0.458393
 50
84.603874
 51
173.424416
  0
ARC
  8
MODEL-0
  6
CONTINUOUS
 62
1
 10
255.363225
 20
919.522979
 40
2.828922
 50
81.965993
 51
124.262375
  0
ARC
  8
MODEL-0
  6
CONTINUOUS
 62
1
 10
253.565966
 20
920.353485
 40
0.458393
 50
186.575584
 51
275.396126
  0
ARC
  8
MODEL-0
  6
CONTINUOUS
 62
1
 10
255.005154
 20
925.418846
 40
5.695477
 50
255.811023
 51
270.940075
  0
ARC
  8
MODEL-0
  6
CONTINUOUS
 62
1
 10
270.727914
 20
925.418846
 40
5.695477
 50
269.059925
 51
284.188977
  0
ARC
  8
MODEL-0
  6
CONTINUOUS
 62
1
 10
272.167102
 20
920.353485
 40
0.458393
 50
264.603874
 51
353.424416
  0
ARC
  8
MODEL-0
  6
CONTINUOUS
 62
1
 10
270.369843
 20
919.522979
 40
2.828922
 50
55.737625
 51
98.034007
  0
ARC
  8
MODEL-0
  6
CONTINUOUS
 62
1
 10
275.465966
 20
921.694786
 40
0.458393
 50
84.603874
 51
173.424416
  0
ARC
  8
MODEL-0
  6
CONTINUOUS
 62
1
 10
276.905158
 20
916.629426
 40
5.695477
 50
89.059963
 51
104.189015
  0
ARC
  8
MODEL-0
  6
CONTINUOUS
 62
1
 10
292.627910
 20
916.629426
 40
5.695477
 50
75.810985
 51
90.940037
  0
ARC
  8
MODEL-0
  6
CONTINUOUS
 62
1
 10
294.067102
 20
921.694786
 40
0.458393
 50
6.575584
 51
95.396126
  0
ARC
  8
MODEL-0
  6
CONTINUOUS
 62
1
 10
292.269844
 20
922.525293
 40
2.828922
 50
261.965965
 51
304.262347
  0
ARC
  8
MODEL-0
  6
CONTINUOUS
 62
1
 10
277.263224
 20
922.525293
 40
2.828922
 50
235.737653
 51
278.034035
  0
ARC
  8
MODEL-0
  6
CONTINUOUS
 62
1
 10
297.365966
 20
920.353485
 40
0.458393
 50
186.575584
 51
275.396126
  0
ARC
  8
MODEL-0
  6
CONTINUOUS
 62
1
 10
298.805154
 20
925.418846
 40
5.695477
 50
255.811023
 51
270.940075
  0
ARC
  8
MODEL-0
  6
CONTINUOUS
 62
1
 10
314.527914
 20
925.418846
 40
5.695477
 50
269.059925
 51
284.188977
  0
ARC
  8
MODEL-0
  6
CONTINUOUS
 62
1
 10
315.967102
 20
920.353485
 40
0.458393
 50
264.603874
 51
353.424416
  0
ARC
  8
MODEL-0
  6
CONTINUOUS
 62
1
 10
314.169843
 20
919.522979
 40
2.828922
 50
55.737625
 51
98.034007
  0
ARC
  8
MODEL-0
  6
CONTINUOUS
 62
1
 10
299.163225
 20
919.522979
 40
2.828922
 50
81.965993
 51
124.262375
  0
ARC
  8
MODEL-0
  6
CONTINUOUS
 62
1
 10
320.705158
 20
916.629426
 40
5.695477
 50
89.059963
 51
104.189015
  0
ARC
  8
MODEL-0
  6
CONTINUOUS
 62
1
 10
319.265966
 20
921.694786
 40
0.458393
 50
84.603874
 51
173.424416
  0
ARC
  8
MODEL-0
  6
CONTINUOUS
 62
1
 10
321.063224
 20
922.525293
 40
2.828922
 50
235.737653
 51
278.034035
  0
ARC
  8
MODEL-0
  6
CONTINUOUS
 62
1
 10
336.069844
 20
922.525293
 40
2.828922
 50
261.965965
 51
304.262347
  0
ARC
  8
MODEL-0
  6
CONTINUOUS
 62
1
 10
337.867102
 20
921.694786
 40
0.458393
 50
6.575584
 51
95.396126
  0
ARC
  8
MODEL-0
  6
CONTINUOUS
 62
1
 10
336.427910
 20
916.629426
 40
5.695477
 50
75.810985
 51
90.940037
  0
ARC
  8
MODEL-0
  6
CONTINUOUS
 62
1
 10
342.963225
 20
919.522979
 40
2.828922
 50
81.965993
 51
124.262375
  0
ARC
  8
MODEL-0
  6
CONTINUOUS
 62
1
 10
341.165966
 20
920.353485
 40
0.458393
 50
186.575584
 51
275.396126
  0
ARC
  8
MODEL-0
  6
CONTINUOUS
 62
1
 10
342.605154
 20
925.418846
 40
5.695477
 50
255.811023
 51
270.940075
  0
ARC
  8
MODEL-0
  6
CONTINUOUS
 62
1
 10
358.327914
 20
925.418846
 40
5.695477
 50
269.059925
 51
284.188977
  0
ARC
  8
MODEL-0
  6
CONTINUOUS
 62
1
 10
359.767102
 20
920.353485
 40
0.458393
 50
264.603874
 51
353.424416
  0
ARC
  8
MODEL-0
  6
CONTINUOUS
 62
1
 10
357.969843
 20
919.522979
 40
2.828922
 50
55.737625
 51
98.034007
  0
ARC
  8
MODEL-0
  6
CONTINUOUS
 62
1
 10
364.505158
 20
916.629426
 40
5.695477
 50
89.059963
 51
104.189015
  0
ARC
  8
MODEL-0
  6
CONTINUOUS
 62
1
 10
363.065966
 20
921.694786
 40
0.458393
 50
84.603874
 51
173.424416
  0
ARC
  8
MODEL-0
  6
CONTINUOUS
 62
1
 10
364.863224
 20
922.525293
 40
2.828922
 50
235.737653
 51
278.034035
  0
ARC
  8
MODEL-0
  6
CONTINUOUS
 62
1
 10
379.869844
 20
922.525293
 40
2.828922
 50
261.965965
 51
304.262347
  0
ARC
  8
MODEL-0
  6
CONTINUOUS
 62
1
 10
381.667102
 20
921.694786
 40
0.458393
 50
6.575584
 51
95.396126
  0
ARC
  8
MODEL-0
  6
CONTINUOUS
 62
1
 10
380.227910
 20
916.629426
 40
5.695477
 50
75.810985
 51
90.940037
  0
LINE
  8
MODEL-0
  6
CONTINUOUS
 62
1
 10
368.524470
 20
918.944136
 11
354.308598
 21
918.944136
  0
LINE
  8
MODEL-0
  6
CONTINUOUS
 62
1
 10
157.208598
 20
916.344136
 11
171.424470
 21
916.344136
  0
LINE
  8
MODEL-0
  6
CONTINUOUS
 62
1
 10
201.008598
 20
916.344136
 11
215.224470
 21
916.344136
  0
LINE
  8
MODEL-0
  6
CONTINUOUS
 62
1
 10
222.248598
 20
916.344136
 11
237.784470
 21
916.344136
  0
LINE
  8
MODEL-0
  6
CONTINUOUS
 62
1
 10
244.808598
 20
916.344136
 11
259.024470
 21
916.344136
  0
LINE
  8
MODEL-0
  6
CONTINUOUS
 62
1
 10
266.048598
 20
916.344136
 11
281.584470
 21
916.344136
  0
LINE
  8
MODEL-0
  6
CONTINUOUS
 62
1
 10
288.608598
 20
916.344136
 11
302.824470
 21
916.344136
  0
LINE
  8
MODEL-0
  6
CONTINUOUS
 62
1
 10
309.848598
 20
916.344136
 11
325.384470
 21
916.344136
  0
LINE
  8
MODEL-0
  6
CONTINUOUS
 62
1
 10
332.408598
 20
916.344136
 11
346.624470
 21
916.344136
  0
LINE
  8
MODEL-0
  6
CONTINUOUS
 62
1
 10
353.648598
 20
916.344136
 11
369.184470
 21
916.344136
  0
LINE
  8
MODEL-0
  6
CONTINUOUS
 62
1
 10
177.120589
 20
918.480993
 11
176.460589
 21
916.920993
  0
LINE
  8
MODEL-0
  6
CONTINUOUS
 62
1
 10
220.920589
 20
918.480993
 11
220.260589
 21
916.920993
  0
LINE
  8
MODEL-0
  6
CONTINUOUS
 62
1
 10
264.720589
 20
918.480993
 11
264.060589
 21
916.920993
  0
LINE
  8
MODEL-0
  6
CONTINUOUS
 62
1
 10
308.520589
 20
918.480993
 11
307.860589
 21
916.920993
  0
LINE
  8
MODEL-0
  6
CONTINUOUS
 62
1
 10
352.320589
 20
918.480993
 11
351.660589
 21
916.920993
  0
LINE
  8
MODEL-0
  6
CONTINUOUS
 62
1
 10
195.312479
 20
918.480993
 11
195.972479
 21
916.920993
  0
LINE
  8
MODEL-0
  6
CONTINUOUS
 62
1
 10
239.112479
 20
918.480993
 11
239.772479
 21
916.920993
  0
LINE
  8
MODEL-0
  6
CONTINUOUS
 62
1
 10
282.912479
 20
918.480993
 11
283.572479
 21
916.920993
  0
LINE
  8
MODEL-0
  6
CONTINUOUS
 62
1
 10
326.712479
 20
918.480993
 11
327.372479
 21
916.920993
  0
LINE
  8
MODEL-0
  6
CONTINUOUS
 62
1
 10
370.512479
 20
918.480993
 11
371.172479
 21
916.920993
  0
LINE
  8
MODEL-0
  6
CONTINUOUS
 62
1
 10
155.220589
 20
916.807278
 11
154.560589
 21
918.367278
  0
LINE
  8
MODEL-0
  6
CONTINUOUS
 62
1
 10
199.020589
 20
916.807278
 11
198.360589
 21
918.367278
  0
LINE
  8
MODEL-0
  6
CONTINUOUS
 62
1
 10
217.212479
 20
916.807278
 11
217.872479
 21
918.367278
  0
LINE
  8
MODEL-0
  6
CONTINUOUS
 62
1
 10
242.820589
 20
916.807278
 11
242.160589
 21
918.367278
  0
LINE
  8
MODEL-0
  6
CONTINUOUS
 62
1
 10
261.012479
 20
916.807278
 11
261.672479
 21
918.367278
  0
LINE
  8
MODEL-0
  6
CONTINUOUS
 62
1
 10
286.620589
 20
916.807278
 11
285.960589
 21
918.367278
  0
LINE
  8
MODEL-0
  6
CONTINUOUS
 62
1
 10
304.812479
 20
916.807278
 11
305.472479
 21
918.367278
  0
LINE
  8
MODEL-0
  6
CONTINUOUS
 62
1
 10
330.420589
 20
916.807278
 11
329.760589
 21
918.367278
  0
LINE
  8
MODEL-0
  6
CONTINUOUS
 62
1
 10
348.612479
 20
916.807278
 11
349.272479
 21
918.367278
  0
LINE
  8
MODEL-0
  6
CONTINUOUS
 62
1
 10
172.084470
 20
918.944136
 11
156.548598
 21
918.944136
  0
LINE
  8
MODEL-0
  6
CONTINUOUS
 62
1
 10
193.324470
 20
918.944136
 11
179.108598
 21
918.944136
  0
LINE
  8
MODEL-0
  6
CONTINUOUS
 62
1
 10
215.884470
 20
918.944136
 11
200.348598
 21
918.944136
  0
LINE
  8
MODEL-0
  6
CONTINUOUS
 62
1
 10
237.124470
 20
918.944136
 11
222.908598
 21
918.944136
  0
LINE
  8
MODEL-0
  6
CONTINUOUS
 62
1
 10
259.684470
 20
918.944136
 11
244.148598
 21
918.944136
  0
LINE
  8
MODEL-0
  6
CONTINUOUS
 62
1
 10
280.924470
 20
918.944136
 11
266.708598
 21
918.944136
  0
LINE
  8
MODEL-0
  6
CONTINUOUS
 62
1
 10
303.484470
 20
918.944136
 11
287.948598
 21
918.944136
  0
LINE
  8
MODEL-0
  6
CONTINUOUS
 62
1
 10
324.724470
 20
918.944136
 11
310.508598
 21
918.944136
  0
LINE
  8
MODEL-0
  6
CONTINUOUS
 62
1
 10
347.284470
 20
918.944136
 11
331.748598
 21
918.944136
  0
ARC
  8
MODEL-0
  6
CONTINUOUS
 62
1
 10
156.813224
 20
919.145293
 40
2.828922
 50
235.737653
 51
278.034035
  0
ARC
  8
MODEL-0
  6
CONTINUOUS
 62
1
 10
171.819844
 20
919.145293
 40
2.828922
 50
261.965965
 51
304.262347
  0
ARC
  8
MODEL-0
  6
CONTINUOUS
 62
1
 10
173.617102
 20
918.314786
 40
0.458393
 50
6.575584
 51
95.396126
  0
ARC
  8
MODEL-0
  6
CONTINUOUS
 62
1
 10
172.177910
 20
913.249426
 40
5.695477
 50
75.810985
 51
90.940037
  0
ARC
  8
MODEL-0
  6
CONTINUOUS
 62
1
 10
156.455158
 20
913.249426
 40
5.695477
 50
89.059963
 51
104.189015
  0
ARC
  8
MODEL-0
  6
CONTINUOUS
 62
1
 10
155.015966
 20
918.314786
 40
0.458393
 50
84.603874
 51
173.424416
  0
ARC
  8
MODEL-0
  6
CONTINUOUS
 62
1
 10
178.355154
 20
922.038846
 40
5.695477
 50
255.811023
 51
270.940075
  0
ARC
  8
MODEL-0
  6
CONTINUOUS
 62
1
 10
176.915966
 20
916.973485
 40
0.458393
 50
186.575584
 51
275.396126
  0
ARC
  8
MODEL-0
  6
CONTINUOUS
 62
1
 10
178.713225
 20
916.142979
 40
2.828922
 50
81.965993
 51
124.262375
  0
ARC
  8
MODEL-0
  6
CONTINUOUS
 62
1
 10
193.719843
 20
916.142979
 40
2.828922
 50
55.737625
 51
98.034007
  0
ARC
  8
MODEL-0
  6
CONTINUOUS
 62
1
 10
195.517102
 20
916.973485
 40
0.458393
 50
264.603874
 51
353.424416
  0
ARC
  8
MODEL-0
  6
CONTINUOUS
 62
1
 10
194.077914
 20
922.038846
 40
5.695477
 50
269.059925
 51
284.188977
  0
ARC
  8
MODEL-0
  6
CONTINUOUS
 62
1
 10
200.613224
 20
919.145293
 40
2.828922
 50
235.737653
 51
278.034035
  0
ARC
  8
MODEL-0
  6
CONTINUOUS
 62
1
 10
215.619844
 20
919.145293
 40
2.828922
 50
261.965965
 51
304.262347
  0
ARC
  8
MODEL-0
  6
CONTINUOUS
 62
1
 10
217.417102
 20
918.314786
 40
0.458393
 50
6.575584
 51
95.396126
  0
ARC
  8
MODEL-0
  6
CONTINUOUS
 62
1
 10
215.977910
 20
913.249426
 40
5.695477
 50
75.810985
 51
90.940037
  0
ARC
  8
MODEL-0
  6
CONTINUOUS
 62
1
 10
200.255158
 20
913.249426
 40
5.695477
 50
89.059963
 51
104.189015
  0
ARC
  8
MODEL-0
  6
CONTINUOUS
 62
1
 10
198.815966
 20
918.314786
 40
0.458393
 50
84.603874
 51
173.424416
  0
ARC
  8
MODEL-0
  6
CONTINUOUS
 62
1
 10
222.513225
 20
916.142979
 40
2.828922
 50
81.965993
 51
124.262375
  0
ARC
  8
MODEL-0
  6
CONTINUOUS
 62
1
 10
237.519843
 20
916.142979
 40
2.828922
 50
55.737625
 51
98.034007
  0
ARC
  8
MODEL-0
  6
CONTINUOUS
 62
1
 10
239.317102
 20
916.973485
 40
0.458393
 50
264.603874
 51
353.424416
  0
ARC
  8
MODEL-0
  6
CONTINUOUS
 62
1
 10
237.877914
 20
922.038846
 40
5.695477
 50
269.059925
 51
284.188977
  0
ARC
  8
MODEL-0
  6
CONTINUOUS
 62
1
 10
222.155154
 20
922.038846
 40
5.695477
 50
255.811023
 51
270.940075
  0
ARC
  8
MODEL-0
  6
CONTINUOUS
 62
1
 10
220.715966
 20
916.973485
 40
0.458393
 50
186.575584
 51
275.396126
  0
ARC
  8
MODEL-0
  6
CONTINUOUS
 62
1
 10
244.413224
 20
919.145293
 40
2.828922
 50
235.737653
 51
278.034035
  0
ARC
  8
MODEL-0
  6
CONTINUOUS
 62
1
 10
242.615966
 20
918.314786
 40
0.458393
 50
84.603874
 51
173.424416
  0
ARC
  8
MODEL-0
  6
CONTINUOUS
 62
1
 10
244.055158
 20
913.249426
 40
5.695477
 50
89.059963
 51
104.189015
  0
ARC
  8
MODEL-0
  6
CONTINUOUS
 62
1
 10
259.777910
 20
913.249426
 40
5.695477
 50
75.810985
 51
90.940037
  0
ARC
  8
MODEL-0
  6
CONTINUOUS
 62
1
 10
261.217102
 20
918.314786
 40
0.458393
 50
6.575584
 51
95.396126
  0
ARC
  8
MODEL-0
  6
CONTINUOUS
 62
1
 10
259.419844
 20
919.145293
 40
2.828922
 50
261.965965
 51
304.262347
  0
ARC
  8
MODEL-0
  6
CONTINUOUS
 62
1
 10
264.515966
 20
916.973485
 40
0.458393
 50
186.575584
 51
275.396126
  0
ARC
  8
MODEL-0
  6
CONTINUOUS
 62
1
 10
265.955154
 20
922.038846
 40
5.695477
 50
255.811023
 51
270.940075
  0
ARC
  8
MODEL-0
  6
CONTINUOUS
 62
1
 10
281.677914
 20
922.038846
 40
5.695477
 50
269.059925
 51
284.188977
  0
ARC
  8
MODEL-0
  6
CONTINUOUS
 62
1
 10
283.117102
 20
916.973485
 40
0.458393
 50
264.603874
 51
353.424416
  0
ARC
  8
MODEL-0
  6
CONTINUOUS
 62
1
 10
281.319843
 20
916.142979
 40
2.828922
 50
55.737625
 51
98.034007
  0
ARC
  8
MODEL-0
  6
CONTINUOUS
 62
1
 10
266.313225
 20
916.142979
 40
2.828922
 50
81.965993
 51
124.262375
  0
ARC
  8
MODEL-0
  6
CONTINUOUS
 62
1
 10
286.415966
 20
918.314786
 40
0.458393
 50
84.603874
 51
173.424416
  0
ARC
  8
MODEL-0
  6
CONTINUOUS
 62
1
 10
287.855158
 20
913.249426
 40
5.695477
 50
89.059963
 51
104.189015
  0
ARC
  8
MODEL-0
  6
CONTINUOUS
 62
1
 10
303.577910
 20
913.249426
 40
5.695477
 50
75.810985
 51
90.940037
  0
ARC
  8
MODEL-0
  6
CONTINUOUS
 62
1
 10
305.017102
 20
918.314786
 40
0.458393
 50
6.575584
 51
95.396126
  0
ARC
  8
MODEL-0
  6
CONTINUOUS
 62
1
 10
303.219844
 20
919.145293
 40
2.828922
 50
261.965965
 51
304.262347
  0
ARC
  8
MODEL-0
  6
CONTINUOUS
 62
1
 10
288.213224
 20
919.145293
 40
2.828922
 50
235.737653
 51
278.034035
  0
ARC
  8
MODEL-0
  6
CONTINUOUS
 62
1
 10
309.755154
 20
922.038846
 40
5.695477
 50
255.811023
 51
270.940075
  0
ARC
  8
MODEL-0
  6
CONTINUOUS
 62
1
 10
308.315966
 20
916.973485
 40
0.458393
 50
186.575584
 51
275.396126
  0
ARC
  8
MODEL-0
  6
CONTINUOUS
 62
1
 10
310.113225
 20
916.142979
 40
2.828922
 50
81.965993
 51
124.262375
  0
ARC
  8
MODEL-0
  6
CONTINUOUS
 62
1
 10
325.119843
 20
916.142979
 40
2.828922
 50
55.737625
 51
98.034007
  0
ARC
  8
MODEL-0
  6
CONTINUOUS
 62
1
 10
326.917102
 20
916.973485
 40
0.458393
 50
264.603874
 51
353.424416
  0
ARC
  8
MODEL-0
  6
CONTINUOUS
 62
1
 10
325.477914
 20
922.038846
 40
5.695477
 50
269.059925
 51
284.188977
  0
ARC
  8
MODEL-0
  6
CONTINUOUS
 62
1
 10
332.013224
 20
919.145293
 40
2.828922
 50
235.737653
 51
278.034035
  0
ARC
  8
MODEL-0
  6
CONTINUOUS
 62
1
 10
330.215966
 20
918.314786
 40
0.458393
 50
84.603874
 51
173.424416
  0
ARC
  8
MODEL-0
  6
CONTINUOUS
 62
1
 10
331.655158
 20
913.249426
 40
5.695477
 50
89.059963
 51
104.189015
  0
ARC
  8
MODEL-0
  6
CONTINUOUS
 62
1
 10
347.377910
 20
913.249426
 40
5.695477
 50
75.810985
 51
90.940037
  0
ARC
  8
MODEL-0
  6
CONTINUOUS
 62
1
 10
348.817102
 20
918.314786
 40
0.458393
 50
6.575584
 51
95.396126
  0
ARC
  8
MODEL-0
  6
CONTINUOUS
 62
1
 10
347.019844
 20
919.145293
 40
2.828922
 50
261.965965
 51
304.262347
  0
ARC
  8
MODEL-0
  6
CONTINUOUS
 62
1
 10
353.555154
 20
922.038846
 40
5.695477
 50
255.811023
 51
270.940075
  0
ARC
  8
MODEL-0
  6
CONTINUOUS
 62
1
 10
352.115966
 20
916.973485
 40
0.458393
 50
186.575584
 51
275.396126
  0
ARC
  8
MODEL-0
  6
CONTINUOUS
 62
1
 10
353.913225
 20
916.142979
 40
2.828922
 50
81.965993
 51
124.262375
  0
ARC
  8
MODEL-0
  6
CONTINUOUS
 62
1
 10
368.919843
 20
916.142979
 40
2.828922
 50
55.737625
 51
98.034007
  0
ARC
  8
MODEL-0
  6
CONTINUOUS
 62
1
 10
370.717102
 20
916.973485
 40
0.458393
 50
264.603874
 51
353.424416
  0
ARC
  8
MODEL-0
  6
CONTINUOUS
 62
1
 10
369.277914
 20
922.038846
 40
5.695477
 50
269.059925
 51
284.188977
  0
LINE
  8
MODEL-0
  6
CONTINUOUS
 62
1
 10
122.370589
 20
921.860993
 11
121.710589
 21
920.300993
  0
LINE
  8
MODEL-0
  6
CONTINUOUS
 62
1
 10
124.358598
 20
922.324136
 11
138.574470
 21
922.324136
  0
LINE
  8
MODEL-0
  6
CONTINUOUS
 62
1
 10
173.412479
 20
916.807278
 11
174.072479
 21
918.367278
  0
LINE
  8
MODEL-0
  6
CONTINUOUS
 62
1
 10
178.448598
 20
916.344136
 11
193.984470
 21
916.344136
  0
LINE
  8
MODEL-0
  6
CONTINUOUS
 62
1
 10
485.675069
 20
918.944136
 11
499.890942
 21
918.944136
  0
LINE
  8
MODEL-0
  6
CONTINUOUS
 62
1
 10
521.790942
 20
916.344136
 11
507.575069
 21
916.344136
  0
LINE
  8
MODEL-0
  6
CONTINUOUS
 62
1
 10
500.550942
 20
916.344136
 11
485.015069
 21
916.344136
  0
LINE
  8
MODEL-0
  6
CONTINUOUS
 62
1
 10
501.878950
 20
918.480993
 11
502.538950
 21
916.920993
  0
LINE
  8
MODEL-0
  6
CONTINUOUS
 62
1
 10
483.687060
 20
918.480993
 11
483.027060
 21
916.920993
  0
LINE
  8
MODEL-0
  6
CONTINUOUS
 62
1
 10
523.778950
 20
916.807278
 11
524.438950
 21
918.367278
  0
LINE
  8
MODEL-0
  6
CONTINUOUS
 62
1
 10
505.587060
 20
916.807278
 11
504.927060
 21
918.367278
  0
LINE
  8
MODEL-0
  6
CONTINUOUS
 62
1
 10
506.915069
 20
918.944136
 11
522.450942
 21
918.944136
  0
ARC
  8
MODEL-0
  6
CONTINUOUS
 62
1
 10
522.186315
 20
919.145291
 40
2.828921
 50
261.965972
 51
304.262354
  0
ARC
  8
MODEL-0
  6
CONTINUOUS
 62
1
 10
523.983573
 20
918.314786
 40
0.458393
 50
6.575584
 51
95.396126
  0
ARC
  8
MODEL-0
  6
CONTINUOUS
 62
1
 10
522.544382
 20
913.249429
 40
5.695473
 50
75.810981
 51
90.940033
  0
ARC
  8
MODEL-0
  6
CONTINUOUS
 62
1
 10
506.821629
 20
913.249426
 40
5.695477
 50
89.059963
 51
104.189015
  0
ARC
  8
MODEL-0
  6
CONTINUOUS
 62
1
 10
505.382437
 20
918.314786
 40
0.458393
 50
84.603874
 51
173.424416
  0
ARC
  8
MODEL-0
  6
CONTINUOUS
 62
1
 10
507.179695
 20
919.145293
 40
2.828922
 50
235.737653
 51
278.034035
  0
ARC
  8
MODEL-0
  6
CONTINUOUS
 62
1
 10
500.644385
 20
922.038842
 40
5.695473
 50
269.059929
 51
284.188981
  0
ARC
  8
MODEL-0
  6
CONTINUOUS
 62
1
 10
502.083573
 20
916.973485
 40
0.458393
 50
264.603874
 51
353.424416
  0
ARC
  8
MODEL-0
  6
CONTINUOUS
 62
1
 10
500.286314
 20
916.142980
 40
2.828921
 50
55.737619
 51
98.034001
  0
ARC
  8
MODEL-0
  6
CONTINUOUS
 62
1
 10
485.279696
 20
916.142979
 40
2.828922
 50
81.965993
 51
124.262375
  0
ARC
  8
MODEL-0
  6
CONTINUOUS
 62
1
 10
483.482437
 20
916.973485
 40
0.458393
 50
186.575584
 51
275.396126
  0
ARC
  8
MODEL-0
  6
CONTINUOUS
 62
1
 10
484.921625
 20
922.038846
 40
5.695477
 50
255.811023
 51
270.940075
  0
LINE
  8
MODEL-0
  6
CONTINUOUS
 62
1
 10
477.990942
 20
916.344136
 11
463.775069
 21
916.344136
  0
LINE
  8
MODEL-0
  6
CONTINUOUS
 62
1
 10
479.978950
 20
916.807278
 11
480.638950
 21
918.367278
  0
LINE
  8
MODEL-0
  6
CONTINUOUS
 62
1
 10
461.787060
 20
916.807278
 11
461.127060
 21
918.367278
  0
LINE
  8
MODEL-0
  6
CONTINUOUS
 62
1
 10
463.115069
 20
918.944136
 11
478.650942
 21
918.944136
  0
ARC
  8
MODEL-0
  6
CONTINUOUS
 62
1
 10
478.386315
 20
919.145291
 40
2.828921
 50
261.965972
 51
304.262354
  0
ARC
  8
MODEL-0
  6
CONTINUOUS
 62
1
 10
480.183573
 20
918.314786
 40
0.458393
 50
6.575584
 51
95.396126
  0
ARC
  8
MODEL-0
  6
CONTINUOUS
 62
1
 10
478.744382
 20
913.249429
 40
5.695473
 50
75.810981
 51
90.940033
  0
ARC
  8
MODEL-0
  6
CONTINUOUS
 62
1
 10
463.021629
 20
913.249426
 40
5.695477
 50
89.059963
 51
104.189015
  0
ARC
  8
MODEL-0
  6
CONTINUOUS
 62
1
 10
461.582437
 20
918.314786
 40
0.458393
 50
84.603874
 51
173.424416
  0
ARC
  8
MODEL-0
  6
CONTINUOUS
 62
1
 10
463.379695
 20
919.145293
 40
2.828922
 50
235.737653
 51
278.034035
  0
LINE
  8
MODEL-0
  6
CONTINUOUS
 62
1
 10
529.475069
 20
918.944136
 11
543.690942
 21
918.944136
  0
LINE
  8
MODEL-0
  6
CONTINUOUS
 62
1
 10
740.790942
 20
916.344136
 11
726.575069
 21
916.344136
  0
LINE
  8
MODEL-0
  6
CONTINUOUS
 62
1
 10
696.990942
 20
916.344136
 11
682.775069
 21
916.344136
  0
LINE
  8
MODEL-0
  6
CONTINUOUS
 62
1
 10
675.750942
 20
916.344136
 11
660.215069
 21
916.344136
  0
LINE
  8
MODEL-0
  6
CONTINUOUS
 62
1
 10
653.190942
 20
916.344136
 11
638.975069
 21
916.344136
  0
LINE
  8
MODEL-0
  6
CONTINUOUS
 62
1
 10
631.950942
 20
916.344136
 11
616.415069
 21
916.344136
  0
LINE
  8
MODEL-0
  6
CONTINUOUS
 62
1
 10
609.390942
 20
916.344136
 11
595.175069
 21
916.344136
  0
LINE
  8
MODEL-0
  6
CONTINUOUS
 62
1
 10
588.150942
 20
916.344136
 11
572.615069
 21
916.344136
  0
LINE
  8
MODEL-0
  6
CONTINUOUS
 62
1
 10
565.590942
 20
916.344136
 11
551.375069
 21
916.344136
  0
LINE
  8
MODEL-0
  6
CONTINUOUS
 62
1
 10
544.350942
 20
916.344136
 11
528.815069
 21
916.344136
  0
LINE
  8
MODEL-0
  6
CONTINUOUS
 62
1
 10
720.878950
 20
918.480993
 11
721.538950
 21
916.920993
  0
LINE
  8
MODEL-0
  6
CONTINUOUS
 62
1
 10
677.078950
 20
918.480993
 11
677.738950
 21
916.920993
  0
LINE
  8
MODEL-0
  6
CONTINUOUS
 62
1
 10
633.278950
 20
918.480993
 11
633.938950
 21
916.920993
  0
LINE
  8
MODEL-0
  6
CONTINUOUS
 62
1
 10
589.478950
 20
918.480993
 11
590.138950
 21
916.920993
  0
LINE
  8
MODEL-0
  6
CONTINUOUS
 62
1
 10
545.678950
 20
918.480993
 11
546.338950
 21
916.920993
  0
LINE
  8
MODEL-0
  6
CONTINUOUS
 62
1
 10
702.687060
 20
918.480993
 11
702.027060
 21
916.920993
  0
LINE
  8
MODEL-0
  6
CONTINUOUS
 62
1
 10
658.887060
 20
918.480993
 11
658.227060
 21
916.920993
  0
LINE
  8
MODEL-0
  6
CONTINUOUS
 62
1
 10
615.087060
 20
918.480993
 11
614.427060
 21
916.920993
  0
LINE
  8
MODEL-0
  6
CONTINUOUS
 62
1
 10
571.287060
 20
918.480993
 11
570.627060
 21
916.920993
  0
LINE
  8
MODEL-0
  6
CONTINUOUS
 62
1
 10
527.487060
 20
918.480993
 11
526.827060
 21
916.920993
  0
LINE
  8
MODEL-0
  6
CONTINUOUS
 62
1
 10
742.778950
 20
916.807278
 11
743.438950
 21
918.367278
  0
LINE
  8
MODEL-0
  6
CONTINUOUS
 62
1
 10
698.978950
 20
916.807278
 11
699.638950
 21
918.367278
  0
LINE
  8
MODEL-0
  6
CONTINUOUS
 62
1
 10
680.787060
 20
916.807278
 11
680.127060
 21
918.367278
  0
LINE
  8
MODEL-0
  6
CONTINUOUS
 62
1
 10
655.178950
 20
916.807278
 11
655.838950
 21
918.367278
  0
LINE
  8
MODEL-0
  6
CONTINUOUS
 62
1
 10
636.987060
 20
916.807278
 11
636.327060
 21
918.367278
  0
LINE
  8
MODEL-0
  6
CONTINUOUS
 62
1
 10
611.378950
 20
916.807278
 11
612.038950
 21
918.367278
  0
LINE
  8
MODEL-0
  6
CONTINUOUS
 62
1
 10
593.187060
 20
916.807278
 11
592.527060
 21
918.367278
  0
LINE
  8
MODEL-0
  6
CONTINUOUS
 62
1
 10
567.578950
 20
916.807278
 11
568.238950
 21
918.367278
  0
LINE
  8
MODEL-0
  6
CONTINUOUS
 62
1
 10
549.387060
 20
916.807278
 11
548.727060
 21
918.367278
  0
LINE
  8
MODEL-0
  6
CONTINUOUS
 62
1
 10
725.915069
 20
918.944136
 11
741.450942
 21
918.944136
  0
LINE
  8
MODEL-0
  6
CONTINUOUS
 62
1
 10
704.675069
 20
918.944136
 11
718.890942
 21
918.944136
  0
LINE
  8
MODEL-0
  6
CONTINUOUS
 62
1
 10
682.115069
 20
918.944136
 11
697.650942
 21
918.944136
  0
LINE
  8
MODEL-0
  6
CONTINUOUS
 62
1
 10
660.875069
 20
918.944136
 11
675.090942
 21
918.944136
  0
LINE
  8
MODEL-0
  6
CONTINUOUS
 62
1
 10
638.315069
 20
918.944136
 11
653.850942
 21
918.944136
  0
LINE
  8
MODEL-0
  6
CONTINUOUS
 62
1
 10
617.075069
 20
918.944136
 11
631.290942
 21
918.944136
  0
LINE
  8
MODEL-0
  6
CONTINUOUS
 62
1
 10
594.515069
 20
918.944136
 11
610.050942
 21
918.944136
  0
LINE
  8
MODEL-0
  6
CONTINUOUS
 62
1
 10
573.275069
 20
918.944136
 11
587.490942
 21
918.944136
  0
LINE
  8
MODEL-0
  6
CONTINUOUS
 62
1
 10
550.715069
 20
918.944136
 11
566.250942
 21
918.944136
  0
ARC
  8
MODEL-0
  6
CONTINUOUS
 62
1
 10
741.186315
 20
919.145291
 40
2.828921
 50
261.965972
 51
304.262354
  0
ARC
  8
MODEL-0
  6
CONTINUOUS
 62
1
 10
726.179695
 20
919.145293
 40
2.828922
 50
235.737653
 51
278.034035
  0
ARC
  8
MODEL-0
  6
CONTINUOUS
 62
1
 10
724.382437
 20
918.314786
 40
0.458393
 50
84.603874
 51
173.424416
  0
ARC
  8
MODEL-0
  6
CONTINUOUS
 62
1
 10
725.821629
 20
913.249426
 40
5.695477
 50
89.059963
 51
104.189015
  0
ARC
  8
MODEL-0
  6
CONTINUOUS
 62
1
 10
741.544382
 20
913.249429
 40
5.695473
 50
75.810981
 51
90.940033
  0
ARC
  8
MODEL-0
  6
CONTINUOUS
 62
1
 10
742.983573
 20
918.314786
 40
0.458393
 50
6.575584
 51
95.396126
  0
ARC
  8
MODEL-0
  6
CONTINUOUS
 62
1
 10
719.644385
 20
922.038842
 40
5.695473
 50
269.059929
 51
284.188981
  0
ARC
  8
MODEL-0
  6
CONTINUOUS
 62
1
 10
721.083573
 20
916.973485
 40
0.458393
 50
264.603874
 51
353.424416
  0
ARC
  8
MODEL-0
  6
CONTINUOUS
 62
1
 10
719.286314
 20
916.142980
 40
2.828921
 50
55.737619
 51
98.034001
  0
ARC
  8
MODEL-0
  6
CONTINUOUS
 62
1
 10
704.279696
 20
916.142979
 40
2.828922
 50
81.965993
 51
124.262375
  0
ARC
  8
MODEL-0
  6
CONTINUOUS
 62
1
 10
702.482437
 20
916.973485
 40
0.458393
 50
186.575584
 51
275.396126
  0
ARC
  8
MODEL-0
  6
CONTINUOUS
 62
1
 10
703.921625
 20
922.038846
 40
5.695477
 50
255.811023
 51
270.940075
  0
ARC
  8
MODEL-0
  6
CONTINUOUS
 62
1
 10
697.386315
 20
919.145291
 40
2.828921
 50
261.965972
 51
304.262354
  0
ARC
  8
MODEL-0
  6
CONTINUOUS
 62
1
 10
682.379695
 20
919.145293
 40
2.828922
 50
235.737653
 51
278.034035
  0
ARC
  8
MODEL-0
  6
CONTINUOUS
 62
1
 10
680.582437
 20
918.314786
 40
0.458393
 50
84.603874
 51
173.424416
  0
ARC
  8
MODEL-0
  6
CONTINUOUS
 62
1
 10
682.021629
 20
913.249426
 40
5.695477
 50
89.059963
 51
104.189015
  0
ARC
  8
MODEL-0
  6
CONTINUOUS
 62
1
 10
697.744382
 20
913.249429
 40
5.695473
 50
75.810981
 51
90.940033
  0
ARC
  8
MODEL-0
  6
CONTINUOUS
 62
1
 10
699.183573
 20
918.314786
 40
0.458393
 50
6.575584
 51
95.396126
  0
ARC
  8
MODEL-0
  6
CONTINUOUS
 62
1
 10
675.486314
 20
916.142980
 40
2.828921
 50
55.737619
 51
98.034001
  0
ARC
  8
MODEL-0
  6
CONTINUOUS
 62
1
 10
660.479696
 20
916.142979
 40
2.828922
 50
81.965993
 51
124.262375
  0
ARC
  8
MODEL-0
  6
CONTINUOUS
 62
1
 10
658.682437
 20
916.973485
 40
0.458393
 50
186.575584
 51
275.396126
  0
ARC
  8
MODEL-0
  6
CONTINUOUS
 62
1
 10
660.121625
 20
922.038846
 40
5.695477
 50
255.811023
 51
270.940075
  0
ARC
  8
MODEL-0
  6
CONTINUOUS
 62
1
 10
675.844385
 20
922.038842
 40
5.695473
 50
269.059929
 51
284.188981
  0
ARC
  8
MODEL-0
  6
CONTINUOUS
 62
1
 10
677.283573
 20
916.973485
 40
0.458393
 50
264.603874
 51
353.424416
  0
ARC
  8
MODEL-0
  6
CONTINUOUS
 62
1
 10
653.586315
 20
919.145291
 40
2.828921
 50
261.965972
 51
304.262354
  0
ARC
  8
MODEL-0
  6
CONTINUOUS
 62
1
 10
655.383573
 20
918.314786
 40
0.458393
 50
6.575584
 51
95.396126
  0
ARC
  8
MODEL-0
  6
CONTINUOUS
 62
1
 10
653.944382
 20
913.249429
 40
5.695473
 50
75.810981
 51
90.940033
  0
ARC
  8
MODEL-0
  6
CONTINUOUS
 62
1
 10
638.221629
 20
913.249426
 40
5.695477
 50
89.059963
 51
104.189015
  0
ARC
  8
MODEL-0
  6
CONTINUOUS
 62
1
 10
636.782437
 20
918.314786
 40
0.458393
 50
84.603874
 51
173.424416
  0
ARC
  8
MODEL-0
  6
CONTINUOUS
 62
1
 10
638.579695
 20
919.145293
 40
2.828922
 50
235.737653
 51
278.034035
  0
ARC
  8
MODEL-0
  6
CONTINUOUS
 62
1
 10
633.483573
 20
916.973485
 40
0.458393
 50
264.603874
 51
353.424416
  0
ARC
  8
MODEL-0
  6
CONTINUOUS
 62
1
 10
632.044385
 20
922.038842
 40
5.695473
 50
269.059929
 51
284.188981
  0
ARC
  8
MODEL-0
  6
CONTINUOUS
 62
1
 10
616.321625
 20
922.038846
 40
5.695477
 50
255.811023
 51
270.940075
  0
ARC
  8
MODEL-0
  6
CONTINUOUS
 62
1
 10
614.882437
 20
916.973485
 40
0.458393
 50
186.575584
 51
275.396126
  0
ARC
  8
MODEL-0
  6
CONTINUOUS
 62
1
 10
616.679696
 20
916.142979
 40
2.828922
 50
81.965993
 51
124.262375
  0
ARC
  8
MODEL-0
  6
CONTINUOUS
 62
1
 10
631.686314
 20
916.142980
 40
2.828921
 50
55.737619
 51
98.034001
  0
ARC
  8
MODEL-0
  6
CONTINUOUS
 62
1
 10
611.583573
 20
918.314786
 40
0.458393
 50
6.575584
 51
95.396126
  0
ARC
  8
MODEL-0
  6
CONTINUOUS
 62
1
 10
610.144382
 20
913.249429
 40
5.695473
 50
75.810981
 51
90.940033
  0
ARC
  8
MODEL-0
  6
CONTINUOUS
 62
1
 10
594.421629
 20
913.249426
 40
5.695477
 50
89.059963
 51
104.189015
  0
ARC
  8
MODEL-0
  6
CONTINUOUS
 62
1
 10
592.982437
 20
918.314786
 40
0.458393
 50
84.603874
 51
173.424416
  0
ARC
  8
MODEL-0
  6
CONTINUOUS
 62
1
 10
594.779695
 20
919.145293
 40
2.828922
 50
235.737653
 51
278.034035
  0
ARC
  8
MODEL-0
  6
CONTINUOUS
 62
1
 10
609.786315
 20
919.145291
 40
2.828921
 50
261.965972
 51
304.262354
  0
ARC
  8
MODEL-0
  6
CONTINUOUS
 62
1
 10
588.244385
 20
922.038842
 40
5.695473
 50
269.059929
 51
284.188981
  0
ARC
  8
MODEL-0
  6
CONTINUOUS
 62
1
 10
589.683573
 20
916.973485
 40
0.458393
 50
264.603874
 51
353.424416
  0
ARC
  8
MODEL-0
  6
CONTINUOUS
 62
1
 10
587.886314
 20
916.142980
 40
2.828921
 50
55.737619
 51
98.034001
  0
ARC
  8
MODEL-0
  6
CONTINUOUS
 62
1
 10
572.879696
 20
916.142979
 40
2.828922
 50
81.965993
 51
124.262375
  0
ARC
  8
MODEL-0
  6
CONTINUOUS
 62
1
 10
571.082437
 20
916.973485
 40
0.458393
 50
186.575584
 51
275.396126
  0
ARC
  8
MODEL-0
  6
CONTINUOUS
 62
1
 10
572.521625
 20
922.038846
 40
5.695477
 50
255.811023
 51
270.940075
  0
ARC
  8
MODEL-0
  6
CONTINUOUS
 62
1
 10
565.986315
 20
919.145291
 40
2.828921
 50
261.965972
 51
304.262354
  0
ARC
  8
MODEL-0
  6
CONTINUOUS
 62
1
 10
567.783573
 20
918.314786
 40
0.458393
 50
6.575584
 51
95.396126
  0
ARC
  8
MODEL-0
  6
CONTINUOUS
 62
1
 10
566.344382
 20
913.249429
 40
5.695473
 50
75.810981
 51
90.940033
  0
ARC
  8
MODEL-0
  6
CONTINUOUS
 62
1
 10
550.621629
 20
913.249426
 40
5.695477
 50
89.059963
 51
104.189015
  0
ARC
  8
MODEL-0
  6
CONTINUOUS
 62
1
 10
549.182437
 20
918.314786
 40
0.458393
 50
84.603874
 51
173.424416
  0
ARC
  8
MODEL-0
  6
CONTINUOUS
 62
1
 10
550.979695
 20
919.145293
 40
2.828922
 50
235.737653
 51
278.034035
  0
ARC
  8
MODEL-0
  6
CONTINUOUS
 62
1
 10
544.444385
 20
922.038842
 40
5.695473
 50
269.059929
 51
284.188981
  0
ARC
  8
MODEL-0
  6
CONTINUOUS
 62
1
 10
545.883573
 20
916.973485
 40
0.458393
 50
264.603874
 51
353.424416
  0
ARC
  8
MODEL-0
  6
CONTINUOUS
 62
1
 10
544.086314
 20
916.142980
 40
2.828921
 50
55.737619
 51
98.034001
  0
ARC
  8
MODEL-0
  6
CONTINUOUS
 62
1
 10
529.079696
 20
916.142979
 40
2.828922
 50
81.965993
 51
124.262375
  0
ARC
  8
MODEL-0
  6
CONTINUOUS
 62
1
 10
527.282437
 20
916.973485
 40
0.458393
 50
186.575584
 51
275.396126
  0
ARC
  8
MODEL-0
  6
CONTINUOUS
 62
1
 10
528.721625
 20
922.038846
 40
5.695477
 50
255.811023
 51
270.940075
  0
LINE
  8
MODEL-0
  6
CONTINUOUS
 62
1
 10
724.587060
 20
916.807278
 11
723.927060
 21
918.367278
  0
LINE
  8
MODEL-0
  6
CONTINUOUS
 62
1
 10
719.550942
 20
916.344136
 11
704.015069
 21
916.344136
  0
LINE
  8
MODEL-0
  6
CONTINUOUS
 62
1
 10
510.874470
 20
919.724136
 11
496.658598
 21
919.724136
  0
LINE
  8
MODEL-0
  6
CONTINUOUS
 62
1
 10
474.758598
 20
922.324136
 11
488.974470
 21
922.324136
  0
LINE
  8
MODEL-0
  6
CONTINUOUS
 62
1
 10
495.998598
 20
922.324136
 11
511.534470
 21
922.324136
  0
LINE
  8
MODEL-0
  6
CONTINUOUS
 62
1
 10
494.670589
 20
920.187278
 11
494.010589
 21
921.747278
  0
LINE
  8
MODEL-0
  6
CONTINUOUS
 62
1
 10
512.862479
 20
920.187278
 11
513.522479
 21
921.747278
  0
LINE
  8
MODEL-0
  6
CONTINUOUS
 62
1
 10
472.770589
 20
921.860993
 11
472.110589
 21
920.300993
  0
LINE
  8
MODEL-0
  6
CONTINUOUS
 62
1
 10
490.962479
 20
921.860993
 11
491.622479
 21
920.300993
  0
LINE
  8
MODEL-0
  6
CONTINUOUS
 62
1
 10
489.634470
 20
919.724136
 11
474.098598
 21
919.724136
  0
ARC
  8
MODEL-0
  6
CONTINUOUS
 62
1
 10
474.363225
 20
919.522979
 40
2.828922
 50
81.965993
 51
124.262375
  0
ARC
  8
MODEL-0
  6
CONTINUOUS
 62
1
 10
472.565966
 20
920.353485
 40
0.458393
 50
186.575584
 51
275.396126
  0
ARC
  8
MODEL-0
  6
CONTINUOUS
 62
1
 10
474.005154
 20
925.418846
 40
5.695477
 50
255.811023
 51
270.940075
  0
ARC
  8
MODEL-0
  6
CONTINUOUS
 62
1
 10
489.727914
 20
925.418846
 40
5.695477
 50
269.059925
 51
284.188977
  0
ARC
  8
MODEL-0
  6
CONTINUOUS
 62
1
 10
491.167102
 20
920.353485
 40
0.458393
 50
264.603874
 51
353.424416
  0
ARC
  8
MODEL-0
  6
CONTINUOUS
 62
1
 10
489.369843
 20
919.522979
 40
2.828922
 50
55.737625
 51
98.034007
  0
ARC
  8
MODEL-0
  6
CONTINUOUS
 62
1
 10
495.905158
 20
916.629426
 40
5.695477
 50
89.059963
 51
104.189015
  0
ARC
  8
MODEL-0
  6
CONTINUOUS
 62
1
 10
494.465966
 20
921.694786
 40
0.458393
 50
84.603874
 51
173.424416
  0
ARC
  8
MODEL-0
  6
CONTINUOUS
 62
1
 10
496.263224
 20
922.525293
 40
2.828922
 50
235.737653
 51
278.034035
  0
ARC
  8
MODEL-0
  6
CONTINUOUS
 62
1
 10
511.269844
 20
922.525293
 40
2.828922
 50
261.965965
 51
304.262347
  0
ARC
  8
MODEL-0
  6
CONTINUOUS
 62
1
 10
513.067102
 20
921.694786
 40
0.458393
 50
6.575584
 51
95.396126
  0
ARC
  8
MODEL-0
  6
CONTINUOUS
 62
1
 10
511.627910
 20
916.629426
 40
5.695477
 50
75.810985
 51
90.940037
  0
LINE
  8
MODEL-0
  6
CONTINUOUS
 62
1
 10
554.674470
 20
919.724136
 11
540.458598
 21
919.724136
  0
LINE
  8
MODEL-0
  6
CONTINUOUS
 62
1
 10
518.558598
 20
922.324136
 11
532.774470
 21
922.324136
  0
LINE
  8
MODEL-0
  6
CONTINUOUS
 62
1
 10
539.798598
 20
922.324136
 11
555.334470
 21
922.324136
  0
LINE
  8
MODEL-0
  6
CONTINUOUS
 62
1
 10
538.470589
 20
920.187278
 11
537.810589
 21
921.747278
  0
LINE
  8
MODEL-0
  6
CONTINUOUS
 62
1
 10
556.662479
 20
920.187278
 11
557.322479
 21
921.747278
  0
LINE
  8
MODEL-0
  6
CONTINUOUS
 62
1
 10
516.570589
 20
921.860993
 11
515.910589
 21
920.300993
  0
LINE
  8
MODEL-0
  6
CONTINUOUS
 62
1
 10
534.762479
 20
921.860993
 11
535.422479
 21
920.300993
  0
LINE
  8
MODEL-0
  6
CONTINUOUS
 62
1
 10
533.434470
 20
919.724136
 11
517.898598
 21
919.724136
  0
ARC
  8
MODEL-0
  6
CONTINUOUS
 62
1
 10
518.163225
 20
919.522979
 40
2.828922
 50
81.965993
 51
124.262375
  0
ARC
  8
MODEL-0
  6
CONTINUOUS
 62
1
 10
516.365966
 20
920.353485
 40
0.458393
 50
186.575584
 51
275.396126
  0
ARC
  8
MODEL-0
  6
CONTINUOUS
 62
1
 10
517.805154
 20
925.418846
 40
5.695477
 50
255.811023
 51
270.940075
  0
ARC
  8
MODEL-0
  6
CONTINUOUS
 62
1
 10
533.527914
 20
925.418846
 40
5.695477
 50
269.059925
 51
284.188977
  0
ARC
  8
MODEL-0
  6
CONTINUOUS
 62
1
 10
534.967102
 20
920.353485
 40
0.458393
 50
264.603874
 51
353.424416
  0
ARC
  8
MODEL-0
  6
CONTINUOUS
 62
1
 10
533.169843
 20
919.522979
 40
2.828922
 50
55.737625
 51
98.034007
  0
ARC
  8
MODEL-0
  6
CONTINUOUS
 62
1
 10
539.705158
 20
916.629426
 40
5.695477
 50
89.059963
 51
104.189015
  0
ARC
  8
MODEL-0
  6
CONTINUOUS
 62
1
 10
538.265966
 20
921.694786
 40
0.458393
 50
84.603874
 51
173.424416
  0
ARC
  8
MODEL-0
  6
CONTINUOUS
 62
1
 10
540.063224
 20
922.525293
 40
2.828922
 50
235.737653
 51
278.034035
  0
ARC
  8
MODEL-0
  6
CONTINUOUS
 62
1
 10
555.069844
 20
922.525293
 40
2.828922
 50
261.965965
 51
304.262347
  0
ARC
  8
MODEL-0
  6
CONTINUOUS
 62
1
 10
556.867102
 20
921.694786
 40
0.458393
 50
6.575584
 51
95.396126
  0
ARC
  8
MODEL-0
  6
CONTINUOUS
 62
1
 10
555.427910
 20
916.629426
 40
5.695477
 50
75.810985
 51
90.940037
  0
LINE
  8
MODEL-0
  6
CONTINUOUS
 62
1
 10
598.474470
 20
919.724136
 11
584.258598
 21
919.724136
  0
LINE
  8
MODEL-0
  6
CONTINUOUS
 62
1
 10
562.358598
 20
922.324136
 11
576.574470
 21
922.324136
  0
LINE
  8
MODEL-0
  6
CONTINUOUS
 62
1
 10
583.598598
 20
922.324136
 11
599.134470
 21
922.324136
  0
LINE
  8
MODEL-0
  6
CONTINUOUS
 62
1
 10
582.270589
 20
920.187278
 11
581.610589
 21
921.747278
  0
LINE
  8
MODEL-0
  6
CONTINUOUS
 62
1
 10
600.462479
 20
920.187278
 11
601.122479
 21
921.747278
  0
LINE
  8
MODEL-0
  6
CONTINUOUS
 62
1
 10
560.370589
 20
921.860993
 11
559.710589
 21
920.300993
  0
LINE
  8
MODEL-0
  6
CONTINUOUS
 62
1
 10
578.562479
 20
921.860993
 11
579.222479
 21
920.300993
  0
LINE
  8
MODEL-0
  6
CONTINUOUS
 62
1
 10
577.234470
 20
919.724136
 11
561.698598
 21
919.724136
  0
ARC
  8
MODEL-0
  6
CONTINUOUS
 62
1
 10
561.963225
 20
919.522979
 40
2.828922
 50
81.965993
 51
124.262375
  0
ARC
  8
MODEL-0
  6
CONTINUOUS
 62
1
 10
560.165966
 20
920.353485
 40
0.458393
 50
186.575584
 51
275.396126
  0
ARC
  8
MODEL-0
  6
CONTINUOUS
 62
1
 10
561.605154
 20
925.418846
 40
5.695477
 50
255.811023
 51
270.940075
  0
ARC
  8
MODEL-0
  6
CONTINUOUS
 62
1
 10
577.327914
 20
925.418846
 40
5.695477
 50
269.059925
 51
284.188977
  0
ARC
  8
MODEL-0
  6
CONTINUOUS
 62
1
 10
578.767102
 20
920.353485
 40
0.458393
 50
264.603874
 51
353.424416
  0
ARC
  8
MODEL-0
  6
CONTINUOUS
 62
1
 10
576.969843
 20
919.522979
 40
2.828922
 50
55.737625
 51
98.034007
  0
ARC
  8
MODEL-0
  6
CONTINUOUS
 62
1
 10
583.505158
 20
916.629426
 40
5.695477
 50
89.059963
 51
104.189015
  0
ARC
  8
MODEL-0
  6
CONTINUOUS
 62
1
 10
582.065966
 20
921.694786
 40
0.458393
 50
84.603874
 51
173.424416
  0
ARC
  8
MODEL-0
  6
CONTINUOUS
 62
1
 10
583.863224
 20
922.525293
 40
2.828922
 50
235.737653
 51
278.034035
  0
ARC
  8
MODEL-0
  6
CONTINUOUS
 62
1
 10
598.869844
 20
922.525293
 40
2.828922
 50
261.965965
 51
304.262347
  0
ARC
  8
MODEL-0
  6
CONTINUOUS
 62
1
 10
600.667102
 20
921.694786
 40
0.458393
 50
6.575584
 51
95.396126
  0
ARC
  8
MODEL-0
  6
CONTINUOUS
 62
1
 10
599.227910
 20
916.629426
 40
5.695477
 50
75.810985
 51
90.940037
  0
LINE
  8
MODEL-0
  6
CONTINUOUS
 62
1
 10
642.274470
 20
919.724136
 11
628.058598
 21
919.724136
  0
LINE
  8
MODEL-0
  6
CONTINUOUS
 62
1
 10
606.158598
 20
922.324136
 11
620.374470
 21
922.324136
  0
LINE
  8
MODEL-0
  6
CONTINUOUS
 62
1
 10
627.398598
 20
922.324136
 11
642.934470
 21
922.324136
  0
LINE
  8
MODEL-0
  6
CONTINUOUS
 62
1
 10
626.070589
 20
920.187278
 11
625.410589
 21
921.747278
  0
LINE
  8
MODEL-0
  6
CONTINUOUS
 62
1
 10
644.262479
 20
920.187278
 11
644.922479
 21
921.747278
  0
LINE
  8
MODEL-0
  6
CONTINUOUS
 62
1
 10
604.170589
 20
921.860993
 11
603.510589
 21
920.300993
  0
LINE
  8
MODEL-0
  6
CONTINUOUS
 62
1
 10
622.362479
 20
921.860993
 11
623.022479
 21
920.300993
  0
LINE
  8
MODEL-0
  6
CONTINUOUS
 62
1
 10
621.034470
 20
919.724136
 11
605.498598
 21
919.724136
  0
ARC
  8
MODEL-0
  6
CONTINUOUS
 62
1
 10
605.763225
 20
919.522979
 40
2.828922
 50
81.965993
 51
124.262375
  0
ARC
  8
MODEL-0
  6
CONTINUOUS
 62
1
 10
603.965966
 20
920.353485
 40
0.458393
 50
186.575584
 51
275.396126
  0
ARC
  8
MODEL-0
  6
CONTINUOUS
 62
1
 10
605.405154
 20
925.418846
 40
5.695477
 50
255.811023
 51
270.940075
  0
ARC
  8
MODEL-0
  6
CONTINUOUS
 62
1
 10
621.127914
 20
925.418846
 40
5.695477
 50
269.059925
 51
284.188977
  0
ARC
  8
MODEL-0
  6
CONTINUOUS
 62
1
 10
622.567102
 20
920.353485
 40
0.458393
 50
264.603874
 51
353.424416
  0
ARC
  8
MODEL-0
  6
CONTINUOUS
 62
1
 10
620.769843
 20
919.522979
 40
2.828922
 50
55.737625
 51
98.034007
  0
ARC
  8
MODEL-0
  6
CONTINUOUS
 62
1
 10
627.305158
 20
916.629426
 40
5.695477
 50
89.059963
 51
104.189015
  0
ARC
  8
MODEL-0
  6
CONTINUOUS
 62
1
 10
625.865966
 20
921.694786
 40
0.458393
 50
84.603874
 51
173.424416
  0
ARC
  8
MODEL-0
  6
CONTINUOUS
 62
1
 10
627.663224
 20
922.525293
 40
2.828922
 50
235.737653
 51
278.034035
  0
ARC
  8
MODEL-0
  6
CONTINUOUS
 62
1
 10
642.669844
 20
922.525293
 40
2.828922
 50
261.965965
 51
304.262347
  0
ARC
  8
MODEL-0
  6
CONTINUOUS
 62
1
 10
644.467102
 20
921.694786
 40
0.458393
 50
6.575584
 51
95.396126
  0
ARC
  8
MODEL-0
  6
CONTINUOUS
 62
1
 10
643.027910
 20
916.629426
 40
5.695477
 50
75.810985
 51
90.940037
  0
LINE
  8
MODEL-0
  6
CONTINUOUS
 62
1
 10
686.074470
 20
919.724136
 11
671.858598
 21
919.724136
  0
LINE
  8
MODEL-0
  6
CONTINUOUS
 62
1
 10
649.958598
 20
922.324136
 11
664.174470
 21
922.324136
  0
LINE
  8
MODEL-0
  6
CONTINUOUS
 62
1
 10
671.198598
 20
922.324136
 11
686.734470
 21
922.324136
  0
LINE
  8
MODEL-0
  6
CONTINUOUS
 62
1
 10
669.870589
 20
920.187278
 11
669.210589
 21
921.747278
  0
LINE
  8
MODEL-0
  6
CONTINUOUS
 62
1
 10
688.062479
 20
920.187278
 11
688.722479
 21
921.747278
  0
LINE
  8
MODEL-0
  6
CONTINUOUS
 62
1
 10
647.970589
 20
921.860993
 11
647.310589
 21
920.300993
  0
LINE
  8
MODEL-0
  6
CONTINUOUS
 62
1
 10
666.162479
 20
921.860993
 11
666.822479
 21
920.300993
  0
LINE
  8
MODEL-0
  6
CONTINUOUS
 62
1
 10
664.834470
 20
919.724136
 11
649.298598
 21
919.724136
  0
ARC
  8
MODEL-0
  6
CONTINUOUS
 62
1
 10
649.563225
 20
919.522979
 40
2.828922
 50
81.965993
 51
124.262375
  0
ARC
  8
MODEL-0
  6
CONTINUOUS
 62
1
 10
647.765966
 20
920.353485
 40
0.458393
 50
186.575584
 51
275.396126
  0
ARC
  8
MODEL-0
  6
CONTINUOUS
 62
1
 10
649.205154
 20
925.418846
 40
5.695477
 50
255.811023
 51
270.940075
  0
ARC
  8
MODEL-0
  6
CONTINUOUS
 62
1
 10
664.927914
 20
925.418846
 40
5.695477
 50
269.059925
 51
284.188977
  0
ARC
  8
MODEL-0
  6
CONTINUOUS
 62
1
 10
666.367102
 20
920.353485
 40
0.458393
 50
264.603874
 51
353.424416
  0
ARC
  8
MODEL-0
  6
CONTINUOUS
 62
1
 10
664.569843
 20
919.522979
 40
2.828922
 50
55.737625
 51
98.034007
  0
ARC
  8
MODEL-0
  6
CONTINUOUS
 62
1
 10
671.105158
 20
916.629426
 40
5.695477
 50
89.059963
 51
104.189015
  0
ARC
  8
MODEL-0
  6
CONTINUOUS
 62
1
 10
669.665966
 20
921.694786
 40
0.458393
 50
84.603874
 51
173.424416
  0
ARC
  8
MODEL-0
  6
CONTINUOUS
 62
1
 10
671.463224
 20
922.525293
 40
2.828922
 50
235.737653
 51
278.034035
  0
ARC
  8
MODEL-0
  6
CONTINUOUS
 62
1
 10
686.469844
 20
922.525293
 40
2.828922
 50
261.965965
 51
304.262347
  0
ARC
  8
MODEL-0
  6
CONTINUOUS
 62
1
 10
688.267102
 20
921.694786
 40
0.458393
 50
6.575584
 51
95.396126
  0
ARC
  8
MODEL-0
  6
CONTINUOUS
 62
1
 10
686.827910
 20
916.629426
 40
5.695477
 50
75.810985
 51
90.940037
  0
LINE
  8
MODEL-0
  6
CONTINUOUS
 62
1
 10
729.874470
 20
919.724136
 11
715.658598
 21
919.724136
  0
LINE
  8
MODEL-0
  6
CONTINUOUS
 62
1
 10
693.758598
 20
922.324136
 11
707.974470
 21
922.324136
  0
LINE
  8
MODEL-0
  6
CONTINUOUS
 62
1
 10
714.998598
 20
922.324136
 11
730.534470
 21
922.324136
  0
LINE
  8
MODEL-0
  6
CONTINUOUS
 62
1
 10
713.670589
 20
920.187278
 11
713.010589
 21
921.747278
  0
LINE
  8
MODEL-0
  6
CONTINUOUS
 62
1
 10
731.862479
 20
920.187278
 11
732.522479
 21
921.747278
  0
LINE
  8
MODEL-0
  6
CONTINUOUS
 62
1
 10
691.770589
 20
921.860993
 11
691.110589
 21
920.300993
  0
LINE
  8
MODEL-0
  6
CONTINUOUS
 62
1
 10
709.962479
 20
921.860993
 11
710.622479
 21
920.300993
  0
LINE
  8
MODEL-0
  6
CONTINUOUS
 62
1
 10
708.634470
 20
919.724136
 11
693.098598
 21
919.724136
  0
ARC
  8
MODEL-0
  6
CONTINUOUS
 62
1
 10
693.363225
 20
919.522979
 40
2.828922
 50
81.965993
 51
124.262375
  0
ARC
  8
MODEL-0
  6
CONTINUOUS
 62
1
 10
691.565966
 20
920.353485
 40
0.458393
 50
186.575584
 51
275.396126
  0
ARC
  8
MODEL-0
  6
CONTINUOUS
 62
1
 10
693.005154
 20
925.418846
 40
5.695477
 50
255.811023
 51
270.940075
  0
ARC
  8
MODEL-0
  6
CONTINUOUS
 62
1
 10
708.727914
 20
925.418846
 40
5.695477
 50
269.059925
 51
284.188977
  0
ARC
  8
MODEL-0
  6
CONTINUOUS
 62
1
 10
710.167102
 20
920.353485
 40
0.458393
 50
264.603874
 51
353.424416
  0
ARC
  8
MODEL-0
  6
CONTINUOUS
 62
1
 10
708.369843
 20
919.522979
 40
2.828922
 50
55.737625
 51
98.034007
  0
ARC
  8
MODEL-0
  6
CONTINUOUS
 62
1
 10
714.905158
 20
916.629426
 40
5.695477
 50
89.059963
 51
104.189015
  0
ARC
  8
MODEL-0
  6
CONTINUOUS
 62
1
 10
713.465966
 20
921.694786
 40
0.458393
 50
84.603874
 51
173.424416
  0
ARC
  8
MODEL-0
  6
CONTINUOUS
 62
1
 10
715.263224
 20
922.525293
 40
2.828922
 50
235.737653
 51
278.034035
  0
ARC
  8
MODEL-0
  6
CONTINUOUS
 62
1
 10
730.269844
 20
922.525293
 40
2.828922
 50
261.965965
 51
304.262347
  0
ARC
  8
MODEL-0
  6
CONTINUOUS
 62
1
 10
732.067102
 20
921.694786
 40
0.458393
 50
6.575584
 51
95.396126
  0
ARC
  8
MODEL-0
  6
CONTINUOUS
 62
1
 10
730.627910
 20
916.629426
 40
5.695477
 50
75.810985
 51
90.940037
  0
LINE
  8
MODEL-0
  6
CONTINUOUS
 62
1
 10
737.558598
 20
922.324136
 11
751.774470
 21
922.324136
  0
LINE
  8
MODEL-0
  6
CONTINUOUS
 62
1
 10
735.570589
 20
921.860993
 11
734.910589
 21
920.300993
  0
LINE
  8
MODEL-0
  6
CONTINUOUS
 62
1
 10
753.762479
 20
921.860993
 11
754.422479
 21
920.300993
  0
LINE
  8
MODEL-0
  6
CONTINUOUS
 62
1
 10
752.434470
 20
919.724136
 11
736.898598
 21
919.724136
  0
ARC
  8
MODEL-0
  6
CONTINUOUS
 62
1
 10
737.163225
 20
919.522979
 40
2.828922
 50
81.965993
 51
124.262375
  0
ARC
  8
MODEL-0
  6
CONTINUOUS
 62
1
 10
735.365966
 20
920.353485
 40
0.458393
 50
186.575584
 51
275.396126
  0
ARC
  8
MODEL-0
  6
CONTINUOUS
 62
1
 10
736.805154
 20
925.418846
 40
5.695477
 50
255.811023
 51
270.940075
  0
ARC
  8
MODEL-0
  6
CONTINUOUS
 62
1
 10
752.527914
 20
925.418846
 40
5.695477
 50
269.059925
 51
284.188977
  0
ARC
  8
MODEL-0
  6
CONTINUOUS
 62
1
 10
753.967102
 20
920.353485
 40
0.458393
 50
264.603874
 51
353.424416
  0
ARC
  8
MODEL-0
  6
CONTINUOUS
 62
1
 10
752.169843
 20
919.522979
 40
2.828922
 50
55.737625
 51
98.034007
  0
LINE
  8
MODEL-0
  6
CONTINUOUS
 62
1
 10
784.590942
 20
916.344136
 11
770.375069
 21
916.344136
  0
LINE
  8
MODEL-0
  6
CONTINUOUS
 62
1
 10
764.678950
 20
918.480993
 11
765.338950
 21
916.920993
  0
LINE
  8
MODEL-0
  6
CONTINUOUS
 62
1
 10
746.487060
 20
918.480993
 11
745.827060
 21
916.920993
  0
LINE
  8
MODEL-0
  6
CONTINUOUS
 62
1
 10
786.578950
 20
916.807278
 11
787.238950
 21
918.367278
  0
LINE
  8
MODEL-0
  6
CONTINUOUS
 62
1
 10
769.715069
 20
918.944136
 11
785.250942
 21
918.944136
  0
LINE
  8
MODEL-0
  6
CONTINUOUS
 62
1
 10
748.475069
 20
918.944136
 11
762.690942
 21
918.944136
  0
ARC
  8
MODEL-0
  6
CONTINUOUS
 62
1
 10
784.986315
 20
919.145291
 40
2.828921
 50
261.965972
 51
304.262354
  0
ARC
  8
MODEL-0
  6
CONTINUOUS
 62
1
 10
769.979695
 20
919.145293
 40
2.828922
 50
235.737653
 51
278.034035
  0
ARC
  8
MODEL-0
  6
CONTINUOUS
 62
1
 10
768.182437
 20
918.314786
 40
0.458393
 50
84.603874
 51
173.424416
  0
ARC
  8
MODEL-0
  6
CONTINUOUS
 62
1
 10
769.621629
 20
913.249426
 40
5.695477
 50
89.059963
 51
104.189015
  0
ARC
  8
MODEL-0
  6
CONTINUOUS
 62
1
 10
785.344382
 20
913.249429
 40
5.695473
 50
75.810981
 51
90.940033
  0
ARC
  8
MODEL-0
  6
CONTINUOUS
 62
1
 10
786.783573
 20
918.314786
 40
0.458393
 50
6.575584
 51
95.396126
  0
ARC
  8
MODEL-0
  6
CONTINUOUS
 62
1
 10
763.444385
 20
922.038842
 40
5.695473
 50
269.059929
 51
284.188981
  0
ARC
  8
MODEL-0
  6
CONTINUOUS
 62
1
 10
764.883573
 20
916.973485
 40
0.458393
 50
264.603874
 51
353.424416
  0
ARC
  8
MODEL-0
  6
CONTINUOUS
 62
1
 10
763.086314
 20
916.142980
 40
2.828921
 50
55.737619
 51
98.034001
  0
ARC
  8
MODEL-0
  6
CONTINUOUS
 62
1
 10
748.079696
 20
916.142979
 40
2.828922
 50
81.965993
 51
124.262375
  0
ARC
  8
MODEL-0
  6
CONTINUOUS
 62
1
 10
746.282437
 20
916.973485
 40
0.458393
 50
186.575584
 51
275.396126
  0
ARC
  8
MODEL-0
  6
CONTINUOUS
 62
1
 10
747.721625
 20
922.038846
 40
5.695477
 50
255.811023
 51
270.940075
  0
LINE
  8
MODEL-0
  6
CONTINUOUS
 62
1
 10
768.387060
 20
916.807278
 11
767.727060
 21
918.367278
  0
LINE
  8
MODEL-0
  6
CONTINUOUS
 62
1
 10
763.350942
 20
916.344136
 11
747.815069
 21
916.344136
  0
LINE
  8
MODEL-0
  6
CONTINUOUS
 62
1
 10
773.674470
 20
919.724136
 11
759.458598
 21
919.724136
  0
LINE
  8
MODEL-0
  6
CONTINUOUS
 62
1
 10
758.798598
 20
922.324136
 11
774.334470
 21
922.324136
  0
LINE
  8
MODEL-0
  6
CONTINUOUS
 62
1
 10
757.470589
 20
920.187278
 11
756.810589
 21
921.747278
  0
LINE
  8
MODEL-0
  6
CONTINUOUS
 62
1
 10
775.662479
 20
920.187278
 11
776.322479
 21
921.747278
  0
ARC
  8
MODEL-0
  6
CONTINUOUS
 62
1
 10
758.705158
 20
916.629426
 40
5.695477
 50
89.059963
 51
104.189015
  0
ARC
  8
MODEL-0
  6
CONTINUOUS
 62
1
 10
757.265966
 20
921.694786
 40
0.458393
 50
84.603874
 51
173.424416
  0
ARC
  8
MODEL-0
  6
CONTINUOUS
 62
1
 10
759.063224
 20
922.525293
 40
2.828922
 50
235.737653
 51
278.034035
  0
ARC
  8
MODEL-0
  6
CONTINUOUS
 62
1
 10
774.069844
 20
922.525293
 40
2.828922
 50
261.965965
 51
304.262347
  0
ARC
  8
MODEL-0
  6
CONTINUOUS
 62
1
 10
775.867102
 20
921.694786
 40
0.458393
 50
6.575584
 51
95.396126
  0
ARC
  8
MODEL-0
  6
CONTINUOUS
 62
1
 10
774.427910
 20
916.629426
 40
5.695477
 50
75.810985
 51
90.940037
  0
LINE
  8
MODEL-0
  6
CONTINUOUS
 62
1
 10
781.358598
 20
922.324136
 11
795.574470
 21
922.324136
  0
LINE
  8
MODEL-0
  6
CONTINUOUS
 62
1
 10
779.370589
 20
921.860993
 11
778.710589
 21
920.300993
  0
LINE
  8
MODEL-0
  6
CONTINUOUS
 62
1
 10
797.562479
 20
921.860993
 11
798.222479
 21
920.300993
  0
LINE
  8
MODEL-0
  6
CONTINUOUS
 62
1
 10
796.234470
 20
919.724136
 11
780.698598
 21
919.724136
  0
ARC
  8
MODEL-0
  6
CONTINUOUS
 62
1
 10
780.963225
 20
919.522979
 40
2.828922
 50
81.965993
 51
124.262375
  0
ARC
  8
MODEL-0
  6
CONTINUOUS
 62
1
 10
779.165966
 20
920.353485
 40
0.458393
 50
186.575584
 51
275.396126
  0
ARC
  8
MODEL-0
  6
CONTINUOUS
 62
1
 10
780.605154
 20
925.418846
 40
5.695477
 50
255.811023
 51
270.940075
  0
ARC
  8
MODEL-0
  6
CONTINUOUS
 62
1
 10
796.327914
 20
925.418846
 40
5.695477
 50
269.059925
 51
284.188977
  0
ARC
  8
MODEL-0
  6
CONTINUOUS
 62
1
 10
797.767102
 20
920.353485
 40
0.458393
 50
264.603874
 51
353.424416
  0
ARC
  8
MODEL-0
  6
CONTINUOUS
 62
1
 10
795.969843
 20
919.522979
 40
2.828922
 50
55.737625
 51
98.034007
  0
LINE
  8
MODEL-0
  6
CONTINUOUS
 62
1
 10
808.478950
 20
918.480993
 11
809.138950
 21
916.920993
  0
LINE
  8
MODEL-0
  6
CONTINUOUS
 62
1
 10
790.287060
 20
918.480993
 11
789.627060
 21
916.920993
  0
LINE
  8
MODEL-0
  6
CONTINUOUS
 62
1
 10
792.275069
 20
918.944136
 11
806.490942
 21
918.944136
  0
ARC
  8
MODEL-0
  6
CONTINUOUS
 62
1
 10
807.244385
 20
922.038842
 40
5.695473
 50
269.059929
 51
284.188981
  0
ARC
  8
MODEL-0
  6
CONTINUOUS
 62
1
 10
808.683573
 20
916.973485
 40
0.458393
 50
264.603874
 51
353.424416
  0
ARC
  8
MODEL-0
  6
CONTINUOUS
 62
1
 10
806.886314
 20
916.142980
 40
2.828921
 50
55.737619
 51
98.034001
  0
ARC
  8
MODEL-0
  6
CONTINUOUS
 62
1
 10
791.879696
 20
916.142979
 40
2.828922
 50
81.965993
 51
124.262375
  0
ARC
  8
MODEL-0
  6
CONTINUOUS
 62
1
 10
790.082437
 20
916.973485
 40
0.458393
 50
186.575584
 51
275.396126
  0
ARC
  8
MODEL-0
  6
CONTINUOUS
 62
1
 10
791.521625
 20
922.038846
 40
5.695477
 50
255.811023
 51
270.940075
  0
LINE
  8
MODEL-0
  6
CONTINUOUS
 62
1
 10
807.150942
 20
916.344136
 11
791.615069
 21
916.344136
  0
LINE
  8
MODEL-0
  6
CONTINUOUS
 62
1
 10
145.598598
 20
922.324136
 11
161.134470
 21
922.324136
  0
LINE
  8
MODEL-0
  6
CONTINUOUS
 62
1
 10
168.158598
 20
922.324136
 11
182.374470
 21
922.324136
  0
LINE
  8
MODEL-0
  6
CONTINUOUS
 62
1
 10
144.270589
 20
920.187278
 11
143.610589
 21
921.747278
  0
LINE
  8
MODEL-0
  6
CONTINUOUS
 62
1
 10
162.462479
 20
920.187278
 11
163.122479
 21
921.747278
  0
LINE
  8
MODEL-0
  6
CONTINUOUS
 62
1
 10
166.170589
 20
921.860993
 11
165.510589
 21
920.300993
  0
LINE
  8
MODEL-0
  6
CONTINUOUS
 62
1
 10
184.362479
 20
921.860993
 11
185.022479
 21
920.300993
  0
LINE
  8
MODEL-0
  6
CONTINUOUS
 62
1
 10
160.474470
 20
919.724136
 11
146.258598
 21
919.724136
  0
LINE
  8
MODEL-0
  6
CONTINUOUS
 62
1
 10
183.034470
 20
919.724136
 11
167.498598
 21
919.724136
  0
ARC
  8
MODEL-0
  6
CONTINUOUS
 62
1
 10
145.505158
 20
916.629426
 40
5.695477
 50
89.059963
 51
104.189015
  0
ARC
  8
MODEL-0
  6
CONTINUOUS
 62
1
 10
144.065966
 20
921.694786
 40
0.458393
 50
84.603874
 51
173.424416
  0
ARC
  8
MODEL-0
  6
CONTINUOUS
 62
1
 10
145.863224
 20
922.525293
 40
2.828922
 50
235.737653
 51
278.034035
  0
ARC
  8
MODEL-0
  6
CONTINUOUS
 62
1
 10
160.869844
 20
922.525293
 40
2.828922
 50
261.965965
 51
304.262347
  0
ARC
  8
MODEL-0
  6
CONTINUOUS
 62
1
 10
162.667102
 20
921.694786
 40
0.458393
 50
6.575584
 51
95.396126
  0
ARC
  8
MODEL-0
  6
CONTINUOUS
 62
1
 10
161.227910
 20
916.629426
 40
5.695477
 50
75.810985
 51
90.940037
  0
ARC
  8
MODEL-0
  6
CONTINUOUS
 62
1
 10
167.763225
 20
919.522979
 40
2.828922
 50
81.965993
 51
124.262375
  0
ARC
  8
MODEL-0
  6
CONTINUOUS
 62
1
 10
182.769843
 20
919.522979
 40
2.828922
 50
55.737625
 51
98.034007
  0
ARC
  8
MODEL-0
  6
CONTINUOUS
 62
1
 10
184.567102
 20
920.353485
 40
0.458393
 50
264.603874
 51
353.424416
  0
ARC
  8
MODEL-0
  6
CONTINUOUS
 62
1
 10
183.127914
 20
925.418846
 40
5.695477
 50
269.059925
 51
284.188977
  0
ARC
  8
MODEL-0
  6
CONTINUOUS
 62
1
 10
167.405154
 20
925.418846
 40
5.695477
 50
255.811023
 51
270.940075
  0
ARC
  8
MODEL-0
  6
CONTINUOUS
 62
1
 10
165.965966
 20
920.353485
 40
0.458393
 50
186.575584
 51
275.396126
  0
LINE
  8
MODEL-0
  6
CONTINUOUS
 62
1
 10
112.748598
 20
918.944136
 11
128.284470
 21
918.944136
  0
LINE
  8
MODEL-0
  6
CONTINUOUS
 62
1
 10
135.308598
 20
918.944136
 11
149.524470
 21
918.944136
  0
LINE
  8
MODEL-0
  6
CONTINUOUS
 62
1
 10
111.420589
 20
916.807278
 11
110.760589
 21
918.367278
  0
LINE
  8
MODEL-0
  6
CONTINUOUS
 62
1
 10
129.612479
 20
916.807278
 11
130.272479
 21
918.367278
  0
LINE
  8
MODEL-0
  6
CONTINUOUS
 62
1
 10
133.320589
 20
918.480993
 11
132.660589
 21
916.920993
  0
LINE
  8
MODEL-0
  6
CONTINUOUS
 62
1
 10
151.512479
 20
918.480993
 11
152.172479
 21
916.920993
  0
LINE
  8
MODEL-0
  6
CONTINUOUS
 62
1
 10
127.624470
 20
916.344136
 11
113.408598
 21
916.344136
  0
LINE
  8
MODEL-0
  6
CONTINUOUS
 62
1
 10
150.184470
 20
916.344136
 11
134.648598
 21
916.344136
  0
ARC
  8
MODEL-0
  6
CONTINUOUS
 62
1
 10
112.655158
 20
913.249426
 40
5.695477
 50
89.059963
 51
104.189015
  0
ARC
  8
MODEL-0
  6
CONTINUOUS
 62
1
 10
111.215966
 20
918.314786
 40
0.458393
 50
84.603874
 51
173.424416
  0
ARC
  8
MODEL-0
  6
CONTINUOUS
 62
1
 10
113.013224
 20
919.145293
 40
2.828922
 50
235.737653
 51
278.034035
  0
ARC
  8
MODEL-0
  6
CONTINUOUS
 62
1
 10
128.019844
 20
919.145293
 40
2.828922
 50
261.965965
 51
304.262347
  0
ARC
  8
MODEL-0
  6
CONTINUOUS
 62
1
 10
129.817102
 20
918.314786
 40
0.458393
 50
6.575584
 51
95.396126
  0
ARC
  8
MODEL-0
  6
CONTINUOUS
 62
1
 10
128.377910
 20
913.249426
 40
5.695477
 50
75.810985
 51
90.940037
  0
ARC
  8
MODEL-0
  6
CONTINUOUS
 62
1
 10
134.913225
 20
916.142979
 40
2.828922
 50
81.965993
 51
124.262375
  0
ARC
  8
MODEL-0
  6
CONTINUOUS
 62
1
 10
149.919843
 20
916.142979
 40
2.828922
 50
55.737625
 51
98.034007
  0
ARC
  8
MODEL-0
  6
CONTINUOUS
 62
1
 10
151.717102
 20
916.973485
 40
0.458393
 50
264.603874
 51
353.424416
  0
ARC
  8
MODEL-0
  6
CONTINUOUS
 62
1
 10
150.277914
 20
922.038846
 40
5.695477
 50
269.059925
 51
284.188977
  0
ARC
  8
MODEL-0
  6
CONTINUOUS
 62
1
 10
134.555154
 20
922.038846
 40
5.695477
 50
255.811023
 51
270.940075
  0
ARC
  8
MODEL-0
  6
CONTINUOUS
 62
1
 10
133.115966
 20
916.973485
 40
0.458393
 50
186.575584
 51
275.396126
  0
LINE
  8
MODEL-0
  6
CONTINUOUS
 62
1
 10
91.508598
 20
918.944136
 11
105.724470
 21
918.944136
  0
LINE
  8
MODEL-0
  6
CONTINUOUS
 62
1
 10
89.520589
 20
918.480993
 11
88.860589
 21
916.920993
  0
LINE
  8
MODEL-0
  6
CONTINUOUS
 62
1
 10
107.712479
 20
918.480993
 11
108.372479
 21
916.920993
  0
LINE
  8
MODEL-0
  6
CONTINUOUS
 62
1
 10
106.384470
 20
916.344136
 11
90.848598
 21
916.344136
  0
ARC
  8
MODEL-0
  6
CONTINUOUS
 62
1
 10
91.113225
 20
916.142979
 40
2.828922
 50
81.965993
 51
124.262375
  0
ARC
  8
MODEL-0
  6
CONTINUOUS
 62
1
 10
106.119843
 20
916.142979
 40
2.828922
 50
55.737625
 51
98.034007
  0
ARC
  8
MODEL-0
  6
CONTINUOUS
 62
1
 10
107.917102
 20
916.973485
 40
0.458393
 50
264.603874
 51
353.424416
  0
ARC
  8
MODEL-0
  6
CONTINUOUS
 62
1
 10
106.477914
 20
922.038846
 40
5.695477
 50
269.059925
 51
284.188977
  0
ARC
  8
MODEL-0
  6
CONTINUOUS
 62
1
 10
90.755154
 20
922.038846
 40
5.695477
 50
255.811023
 51
270.940075
  0
ARC
  8
MODEL-0
  6
CONTINUOUS
 62
1
 10
89.315966
 20
916.973485
 40
0.458393
 50
186.575584
 51
275.396126
  0
LINE
  8
MODEL-0
  6
CONTINUOUS
 62
1
 10
423.274470
 20
912.964136
 11
409.058598
 21
912.964136
  0
LINE
  8
MODEL-0
  6
CONTINUOUS
 62
1
 10
387.158598
 20
915.564136
 11
401.374470
 21
915.564136
  0
LINE
  8
MODEL-0
  6
CONTINUOUS
 62
1
 10
408.398598
 20
915.564136
 11
423.934470
 21
915.564136
  0
LINE
  8
MODEL-0
  6
CONTINUOUS
 62
1
 10
407.070589
 20
913.427278
 11
406.410589
 21
914.987278
  0
LINE
  8
MODEL-0
  6
CONTINUOUS
 62
1
 10
425.262479
 20
913.427278
 11
425.922479
 21
914.987278
  0
LINE
  8
MODEL-0
  6
CONTINUOUS
 62
1
 10
385.170589
 20
915.100993
 11
384.510589
 21
913.540993
  0
LINE
  8
MODEL-0
  6
CONTINUOUS
 62
1
 10
403.362479
 20
915.100993
 11
404.022479
 21
913.540993
  0
LINE
  8
MODEL-0
  6
CONTINUOUS
 62
1
 10
402.034470
 20
912.964136
 11
386.498598
 21
912.964136
  0
ARC
  8
MODEL-0
  6
CONTINUOUS
 62
1
 10
386.763225
 20
912.762979
 40
2.828922
 50
81.965993
 51
124.262375
  0
ARC
  8
MODEL-0
  6
CONTINUOUS
 62
1
 10
384.965966
 20
913.593485
 40
0.458393
 50
186.575584
 51
275.396126
  0
ARC
  8
MODEL-0
  6
CONTINUOUS
 62
1
 10
386.405154
 20
918.658846
 40
5.695477
 50
255.811023
 51
270.940075
  0
ARC
  8
MODEL-0
  6
CONTINUOUS
 62
1
 10
402.127914
 20
918.658846
 40
5.695477
 50
269.059925
 51
284.188977
  0
ARC
  8
MODEL-0
  6
CONTINUOUS
 62
1
 10
403.567102
 20
913.593485
 40
0.458393
 50
264.603874
 51
353.424416
  0
ARC
  8
MODEL-0
  6
CONTINUOUS
 62
1
 10
401.769843
 20
912.762979
 40
2.828922
 50
55.737625
 51
98.034007
  0
ARC
  8
MODEL-0
  6
CONTINUOUS
 62
1
 10
408.305158
 20
909.869426
 40
5.695477
 50
89.059963
 51
104.189015
  0
ARC
  8
MODEL-0
  6
CONTINUOUS
 62
1
 10
406.865966
 20
914.934786
 40
0.458393
 50
84.603874
 51
173.424416
  0
ARC
  8
MODEL-0
  6
CONTINUOUS
 62
1
 10
408.663224
 20
915.765293
 40
2.828922
 50
235.737653
 51
278.034035
  0
ARC
  8
MODEL-0
  6
CONTINUOUS
 62
1
 10
423.669844
 20
915.765293
 40
2.828922
 50
261.965965
 51
304.262347
  0
ARC
  8
MODEL-0
  6
CONTINUOUS
 62
1
 10
425.467102
 20
914.934786
 40
0.458393
 50
6.575584
 51
95.396126
  0
ARC
  8
MODEL-0
  6
CONTINUOUS
 62
1
 10
424.027910
 20
909.869426
 40
5.695477
 50
75.810985
 51
90.940037
  0
LINE
  8
MODEL-0
  6
CONTINUOUS
 62
1
 10
467.074470
 20
912.964136
 11
452.858598
 21
912.964136
  0
LINE
  8
MODEL-0
  6
CONTINUOUS
 62
1
 10
430.958598
 20
915.564136
 11
445.174470
 21
915.564136
  0
LINE
  8
MODEL-0
  6
CONTINUOUS
 62
1
 10
452.198598
 20
915.564136
 11
467.734470
 21
915.564136
  0
LINE
  8
MODEL-0
  6
CONTINUOUS
 62
1
 10
450.870589
 20
913.427278
 11
450.210589
 21
914.987278
  0
LINE
  8
MODEL-0
  6
CONTINUOUS
 62
1
 10
469.062479
 20
913.427278
 11
469.722479
 21
914.987278
  0
LINE
  8
MODEL-0
  6
CONTINUOUS
 62
1
 10
428.970589
 20
915.100993
 11
428.310589
 21
913.540993
  0
LINE
  8
MODEL-0
  6
CONTINUOUS
 62
1
 10
447.162479
 20
915.100993
 11
447.822479
 21
913.540993
  0
LINE
  8
MODEL-0
  6
CONTINUOUS
 62
1
 10
445.834470
 20
912.964136
 11
430.298598
 21
912.964136
  0
ARC
  8
MODEL-0
  6
CONTINUOUS
 62
1
 10
430.563225
 20
912.762979
 40
2.828922
 50
81.965993
 51
124.262375
  0
ARC
  8
MODEL-0
  6
CONTINUOUS
 62
1
 10
428.765966
 20
913.593485
 40
0.458393
 50
186.575584
 51
275.396126
  0
ARC
  8
MODEL-0
  6
CONTINUOUS
 62
1
 10
430.205154
 20
918.658846
 40
5.695477
 50
255.811023
 51
270.940075
  0
ARC
  8
MODEL-0
  6
CONTINUOUS
 62
1
 10
445.927914
 20
918.658846
 40
5.695477
 50
269.059925
 51
284.188977
  0
ARC
  8
MODEL-0
  6
CONTINUOUS
 62
1
 10
447.367102
 20
913.593485
 40
0.458393
 50
264.603874
 51
353.424416
  0
ARC
  8
MODEL-0
  6
CONTINUOUS
 62
1
 10
445.569843
 20
912.762979
 40
2.828922
 50
55.737625
 51
98.034007
  0
ARC
  8
MODEL-0
  6
CONTINUOUS
 62
1
 10
452.105158
 20
909.869426
 40
5.695477
 50
89.059963
 51
104.189015
  0
ARC
  8
MODEL-0
  6
CONTINUOUS
 62
1
 10
450.665966
 20
914.934786
 40
0.458393
 50
84.603874
 51
173.424416
  0
ARC
  8
MODEL-0
  6
CONTINUOUS
 62
1
 10
452.463224
 20
915.765293
 40
2.828922
 50
235.737653
 51
278.034035
  0
ARC
  8
MODEL-0
  6
CONTINUOUS
 62
1
 10
467.469844
 20
915.765293
 40
2.828922
 50
261.965965
 51
304.262347
  0
ARC
  8
MODEL-0
  6
CONTINUOUS
 62
1
 10
469.267102
 20
914.934786
 40
0.458393
 50
6.575584
 51
95.396126
  0
ARC
  8
MODEL-0
  6
CONTINUOUS
 62
1
 10
467.827910
 20
909.869426
 40
5.695477
 50
75.810985
 51
90.940037
  0
LINE
  8
MODEL-0
  6
CONTINUOUS
 62
1
 10
101.798598
 20
915.564136
 11
117.334470
 21
915.564136
  0
LINE
  8
MODEL-0
  6
CONTINUOUS
 62
1
 10
379.474470
 20
912.964136
 11
365.258598
 21
912.964136
  0
LINE
  8
MODEL-0
  6
CONTINUOUS
 62
1
 10
100.470589
 20
913.427278
 11
99.810589
 21
914.987278
  0
LINE
  8
MODEL-0
  6
CONTINUOUS
 62
1
 10
118.662479
 20
913.427278
 11
119.322479
 21
914.987278
  0
LINE
  8
MODEL-0
  6
CONTINUOUS
 62
1
 10
189.398598
 20
915.564136
 11
204.934470
 21
915.564136
  0
LINE
  8
MODEL-0
  6
CONTINUOUS
 62
1
 10
211.958598
 20
915.564136
 11
226.174470
 21
915.564136
  0
LINE
  8
MODEL-0
  6
CONTINUOUS
 62
1
 10
233.198598
 20
915.564136
 11
248.734470
 21
915.564136
  0
LINE
  8
MODEL-0
  6
CONTINUOUS
 62
1
 10
255.758598
 20
915.564136
 11
269.974470
 21
915.564136
  0
LINE
  8
MODEL-0
  6
CONTINUOUS
 62
1
 10
276.998598
 20
915.564136
 11
292.534470
 21
915.564136
  0
LINE
  8
MODEL-0
  6
CONTINUOUS
 62
1
 10
299.558598
 20
915.564136
 11
313.774470
 21
915.564136
  0
LINE
  8
MODEL-0
  6
CONTINUOUS
 62
1
 10
320.798598
 20
915.564136
 11
336.334470
 21
915.564136
  0
LINE
  8
MODEL-0
  6
CONTINUOUS
 62
1
 10
343.358598
 20
915.564136
 11
357.574470
 21
915.564136
  0
LINE
  8
MODEL-0
  6
CONTINUOUS
 62
1
 10
364.598598
 20
915.564136
 11
380.134470
 21
915.564136
  0
LINE
  8
MODEL-0
  6
CONTINUOUS
 62
1
 10
188.070589
 20
913.427278
 11
187.410589
 21
914.987278
  0
LINE
  8
MODEL-0
  6
CONTINUOUS
 62
1
 10
231.870589
 20
913.427278
 11
231.210589
 21
914.987278
  0
LINE
  8
MODEL-0
  6
CONTINUOUS
 62
1
 10
275.670589
 20
913.427278
 11
275.010589
 21
914.987278
  0
LINE
  8
MODEL-0
  6
CONTINUOUS
 62
1
 10
319.470589
 20
913.427278
 11
318.810589
 21
914.987278
  0
LINE
  8
MODEL-0
  6
CONTINUOUS
 62
1
 10
363.270589
 20
913.427278
 11
362.610589
 21
914.987278
  0
LINE
  8
MODEL-0
  6
CONTINUOUS
 62
1
 10
206.262479
 20
913.427278
 11
206.922479
 21
914.987278
  0
LINE
  8
MODEL-0
  6
CONTINUOUS
 62
1
 10
250.062479
 20
913.427278
 11
250.722479
 21
914.987278
  0
LINE
  8
MODEL-0
  6
CONTINUOUS
 62
1
 10
293.862479
 20
913.427278
 11
294.522479
 21
914.987278
  0
LINE
  8
MODEL-0
  6
CONTINUOUS
 62
1
 10
337.662479
 20
913.427278
 11
338.322479
 21
914.987278
  0
LINE
  8
MODEL-0
  6
CONTINUOUS
 62
1
 10
381.462479
 20
913.427278
 11
382.122479
 21
914.987278
  0
LINE
  8
MODEL-0
  6
CONTINUOUS
 62
1
 10
140.562479
 20
915.100993
 11
141.222479
 21
913.540993
  0
LINE
  8
MODEL-0
  6
CONTINUOUS
 62
1
 10
209.970589
 20
915.100993
 11
209.310589
 21
913.540993
  0
LINE
  8
MODEL-0
  6
CONTINUOUS
 62
1
 10
228.162479
 20
915.100993
 11
228.822479
 21
913.540993
  0
LINE
  8
MODEL-0
  6
CONTINUOUS
 62
1
 10
253.770589
 20
915.100993
 11
253.110589
 21
913.540993
  0
LINE
  8
MODEL-0
  6
CONTINUOUS
 62
1
 10
271.962479
 20
915.100993
 11
272.622479
 21
913.540993
  0
LINE
  8
MODEL-0
  6
CONTINUOUS
 62
1
 10
297.570589
 20
915.100993
 11
296.910589
 21
913.540993
  0
LINE
  8
MODEL-0
  6
CONTINUOUS
 62
1
 10
315.762479
 20
915.100993
 11
316.422479
 21
913.540993
  0
LINE
  8
MODEL-0
  6
CONTINUOUS
 62
1
 10
341.370589
 20
915.100993
 11
340.710589
 21
913.540993
  0
LINE
  8
MODEL-0
  6
CONTINUOUS
 62
1
 10
359.562479
 20
915.100993
 11
360.222479
 21
913.540993
  0
LINE
  8
MODEL-0
  6
CONTINUOUS
 62
1
 10
116.674470
 20
912.964136
 11
102.458598
 21
912.964136
  0
LINE
  8
MODEL-0
  6
CONTINUOUS
 62
1
 10
139.234470
 20
912.964136
 11
123.698598
 21
912.964136
  0
LINE
  8
MODEL-0
  6
CONTINUOUS
 62
1
 10
204.274470
 20
912.964136
 11
190.058598
 21
912.964136
  0
LINE
  8
MODEL-0
  6
CONTINUOUS
 62
1
 10
226.834470
 20
912.964136
 11
211.298598
 21
912.964136
  0
LINE
  8
MODEL-0
  6
CONTINUOUS
 62
1
 10
248.074470
 20
912.964136
 11
233.858598
 21
912.964136
  0
LINE
  8
MODEL-0
  6
CONTINUOUS
 62
1
 10
270.634470
 20
912.964136
 11
255.098598
 21
912.964136
  0
LINE
  8
MODEL-0
  6
CONTINUOUS
 62
1
 10
291.874470
 20
912.964136
 11
277.658598
 21
912.964136
  0
LINE
  8
MODEL-0
  6
CONTINUOUS
 62
1
 10
314.434470
 20
912.964136
 11
298.898598
 21
912.964136
  0
LINE
  8
MODEL-0
  6
CONTINUOUS
 62
1
 10
335.674470
 20
912.964136
 11
321.458598
 21
912.964136
  0
LINE
  8
MODEL-0
  6
CONTINUOUS
 62
1
 10
358.234470
 20
912.964136
 11
342.698598
 21
912.964136
  0
ARC
  8
MODEL-0
  6
CONTINUOUS
 62
1
 10
101.705158
 20
909.869426
 40
5.695477
 50
89.059963
 51
104.189015
  0
ARC
  8
MODEL-0
  6
CONTINUOUS
 62
1
 10
100.265966
 20
914.934786
 40
0.458393
 50
84.603874
 51
173.424416
  0
ARC
  8
MODEL-0
  6
CONTINUOUS
 62
1
 10
102.063224
 20
915.765293
 40
2.828922
 50
235.737653
 51
278.034035
  0
ARC
  8
MODEL-0
  6
CONTINUOUS
 62
1
 10
117.069844
 20
915.765293
 40
2.828922
 50
261.965965
 51
304.262347
  0
ARC
  8
MODEL-0
  6
CONTINUOUS
 62
1
 10
118.867102
 20
914.934786
 40
0.458393
 50
6.575584
 51
95.396126
  0
ARC
  8
MODEL-0
  6
CONTINUOUS
 62
1
 10
117.427910
 20
909.869426
 40
5.695477
 50
75.810985
 51
90.940037
  0
ARC
  8
MODEL-0
  6
CONTINUOUS
 62
1
 10
123.963225
 20
912.762979
 40
2.828922
 50
81.965993
 51
124.262375
  0
ARC
  8
MODEL-0
  6
CONTINUOUS
 62
1
 10
138.969843
 20
912.762979
 40
2.828922
 50
55.737625
 51
98.034007
  0
ARC
  8
MODEL-0
  6
CONTINUOUS
 62
1
 10
140.767102
 20
913.593485
 40
0.458393
 50
264.603874
 51
353.424416
  0
ARC
  8
MODEL-0
  6
CONTINUOUS
 62
1
 10
139.327914
 20
918.658846
 40
5.695477
 50
269.059925
 51
284.188977
  0
ARC
  8
MODEL-0
  6
CONTINUOUS
 62
1
 10
123.605154
 20
918.658846
 40
5.695477
 50
255.811023
 51
270.940075
  0
ARC
  8
MODEL-0
  6
CONTINUOUS
 62
1
 10
122.165966
 20
913.593485
 40
0.458393
 50
186.575584
 51
275.396126
  0
ARC
  8
MODEL-0
  6
CONTINUOUS
 62
1
 10
189.305158
 20
909.869426
 40
5.695477
 50
89.059963
 51
104.189015
  0
ARC
  8
MODEL-0
  6
CONTINUOUS
 62
1
 10
187.865966
 20
914.934786
 40
0.458393
 50
84.603874
 51
173.424416
  0
ARC
  8
MODEL-0
  6
CONTINUOUS
 62
1
 10
189.663224
 20
915.765293
 40
2.828922
 50
235.737653
 51
278.034035
  0
ARC
  8
MODEL-0
  6
CONTINUOUS
 62
1
 10
204.669844
 20
915.765293
 40
2.828922
 50
261.965965
 51
304.262347
  0
ARC
  8
MODEL-0
  6
CONTINUOUS
 62
1
 10
206.467102
 20
914.934786
 40
0.458393
 50
6.575584
 51
95.396126
  0
ARC
  8
MODEL-0
  6
CONTINUOUS
 62
1
 10
205.027910
 20
909.869426
 40
5.695477
 50
75.810985
 51
90.940037
  0
ARC
  8
MODEL-0
  6
CONTINUOUS
 62
1
 10
211.563225
 20
912.762979
 40
2.828922
 50
81.965993
 51
124.262375
  0
ARC
  8
MODEL-0
  6
CONTINUOUS
 62
1
 10
226.569843
 20
912.762979
 40
2.828922
 50
55.737625
 51
98.034007
  0
ARC
  8
MODEL-0
  6
CONTINUOUS
 62
1
 10
228.367102
 20
913.593485
 40
0.458393
 50
264.603874
 51
353.424416
  0
ARC
  8
MODEL-0
  6
CONTINUOUS
 62
1
 10
226.927914
 20
918.658846
 40
5.695477
 50
269.059925
 51
284.188977
  0
ARC
  8
MODEL-0
  6
CONTINUOUS
 62
1
 10
211.205154
 20
918.658846
 40
5.695477
 50
255.811023
 51
270.940075
  0
ARC
  8
MODEL-0
  6
CONTINUOUS
 62
1
 10
209.765966
 20
913.593485
 40
0.458393
 50
186.575584
 51
275.396126
  0
ARC
  8
MODEL-0
  6
CONTINUOUS
 62
1
 10
233.463224
 20
915.765293
 40
2.828922
 50
235.737653
 51
278.034035
  0
ARC
  8
MODEL-0
  6
CONTINUOUS
 62
1
 10
248.469844
 20
915.765293
 40
2.828922
 50
261.965965
 51
304.262347
  0
ARC
  8
MODEL-0
  6
CONTINUOUS
 62
1
 10
250.267102
 20
914.934786
 40
0.458393
 50
6.575584
 51
95.396126
  0
ARC
  8
MODEL-0
  6
CONTINUOUS
 62
1
 10
248.827910
 20
909.869426
 40
5.695477
 50
75.810985
 51
90.940037
  0
ARC
  8
MODEL-0
  6
CONTINUOUS
 62
1
 10
233.105158
 20
909.869426
 40
5.695477
 50
89.059963
 51
104.189015
  0
ARC
  8
MODEL-0
  6
CONTINUOUS
 62
1
 10
231.665966
 20
914.934786
 40
0.458393
 50
84.603874
 51
173.424416
  0
ARC
  8
MODEL-0
  6
CONTINUOUS
 62
1
 10
255.363225
 20
912.762979
 40
2.828922
 50
81.965993
 51
124.262375
  0
ARC
  8
MODEL-0
  6
CONTINUOUS
 62
1
 10
253.565966
 20
913.593485
 40
0.458393
 50
186.575584
 51
275.396126
  0
ARC
  8
MODEL-0
  6
CONTINUOUS
 62
1
 10
255.005154
 20
918.658846
 40
5.695477
 50
255.811023
 51
270.940075
  0
ARC
  8
MODEL-0
  6
CONTINUOUS
 62
1
 10
270.727914
 20
918.658846
 40
5.695477
 50
269.059925
 51
284.188977
  0
ARC
  8
MODEL-0
  6
CONTINUOUS
 62
1
 10
272.167102
 20
913.593485
 40
0.458393
 50
264.603874
 51
353.424416
  0
ARC
  8
MODEL-0
  6
CONTINUOUS
 62
1
 10
270.369843
 20
912.762979
 40
2.828922
 50
55.737625
 51
98.034007
  0
ARC
  8
MODEL-0
  6
CONTINUOUS
 62
1
 10
275.465966
 20
914.934786
 40
0.458393
 50
84.603874
 51
173.424416
  0
ARC
  8
MODEL-0
  6
CONTINUOUS
 62
1
 10
276.905158
 20
909.869426
 40
5.695477
 50
89.059963
 51
104.189015
  0
ARC
  8
MODEL-0
  6
CONTINUOUS
 62
1
 10
292.627910
 20
909.869426
 40
5.695477
 50
75.810985
 51
90.940037
  0
ARC
  8
MODEL-0
  6
CONTINUOUS
 62
1
 10
294.067102
 20
914.934786
 40
0.458393
 50
6.575584
 51
95.396126
  0
ARC
  8
MODEL-0
  6
CONTINUOUS
 62
1
 10
292.269844
 20
915.765293
 40
2.828922
 50
261.965965
 51
304.262347
  0
ARC
  8
MODEL-0
  6
CONTINUOUS
 62
1
 10
277.263224
 20
915.765293
 40
2.828922
 50
235.737653
 51
278.034035
  0
ARC
  8
MODEL-0
  6
CONTINUOUS
 62
1
 10
297.365966
 20
913.593485
 40
0.458393
 50
186.575584
 51
275.396126
  0
ARC
  8
MODEL-0
  6
CONTINUOUS
 62
1
 10
298.805154
 20
918.658846
 40
5.695477
 50
255.811023
 51
270.940075
  0
ARC
  8
MODEL-0
  6
CONTINUOUS
 62
1
 10
314.527914
 20
918.658846
 40
5.695477
 50
269.059925
 51
284.188977
  0
ARC
  8
MODEL-0
  6
CONTINUOUS
 62
1
 10
315.967102
 20
913.593485
 40
0.458393
 50
264.603874
 51
353.424416
  0
ARC
  8
MODEL-0
  6
CONTINUOUS
 62
1
 10
314.169843
 20
912.762979
 40
2.828922
 50
55.737625
 51
98.034007
  0
ARC
  8
MODEL-0
  6
CONTINUOUS
 62
1
 10
299.163225
 20
912.762979
 40
2.828922
 50
81.965993
 51
124.262375
  0
ARC
  8
MODEL-0
  6
CONTINUOUS
 62
1
 10
320.705158
 20
909.869426
 40
5.695477
 50
89.059963
 51
104.189015
  0
ARC
  8
MODEL-0
  6
CONTINUOUS
 62
1
 10
319.265966
 20
914.934786
 40
0.458393
 50
84.603874
 51
173.424416
  0
ARC
  8
MODEL-0
  6
CONTINUOUS
 62
1
 10
321.063224
 20
915.765293
 40
2.828922
 50
235.737653
 51
278.034035
  0
ARC
  8
MODEL-0
  6
CONTINUOUS
 62
1
 10
336.069844
 20
915.765293
 40
2.828922
 50
261.965965
 51
304.262347
  0
ARC
  8
MODEL-0
  6
CONTINUOUS
 62
1
 10
337.867102
 20
914.934786
 40
0.458393
 50
6.575584
 51
95.396126
  0
ARC
  8
MODEL-0
  6
CONTINUOUS
 62
1
 10
336.427910
 20
909.869426
 40
5.695477
 50
75.810985
 51
90.940037
  0
ARC
  8
MODEL-0
  6
CONTINUOUS
 62
1
 10
342.963225
 20
912.762979
 40
2.828922
 50
81.965993
 51
124.262375
  0
ARC
  8
MODEL-0
  6
CONTINUOUS
 62
1
 10
341.165966
 20
913.593485
 40
0.458393
 50
186.575584
 51
275.396126
  0
ARC
  8
MODEL-0
  6
CONTINUOUS
 62
1
 10
342.605154
 20
918.658846
 40
5.695477
 50
255.811023
 51
270.940075
  0
ARC
  8
MODEL-0
  6
CONTINUOUS
 62
1
 10
358.327914
 20
918.658846
 40
5.695477
 50
269.059925
 51
284.188977
  0
ARC
  8
MODEL-0
  6
CONTINUOUS
 62
1
 10
359.767102
 20
913.593485
 40
0.458393
 50
264.603874
 51
353.424416
  0
ARC
  8
MODEL-0
  6
CONTINUOUS
 62
1
 10
357.969843
 20
912.762979
 40
2.828922
 50
55.737625
 51
98.034007
  0
ARC
  8
MODEL-0
  6
CONTINUOUS
 62
1
 10
364.505158
 20
909.869426
 40
5.695477
 50
89.059963
 51
104.189015
  0
ARC
  8
MODEL-0
  6
CONTINUOUS
 62
1
 10
363.065966
 20
914.934786
 40
0.458393
 50
84.603874
 51
173.424416
  0
ARC
  8
MODEL-0
  6
CONTINUOUS
 62
1
 10
364.863224
 20
915.765293
 40
2.828922
 50
235.737653
 51
278.034035
  0
ARC
  8
MODEL-0
  6
CONTINUOUS
 62
1
 10
379.869844
 20
915.765293
 40
2.828922
 50
261.965965
 51
304.262347
  0
ARC
  8
MODEL-0
  6
CONTINUOUS
 62
1
 10
381.667102
 20
914.934786
 40
0.458393
 50
6.575584
 51
95.396126
  0
ARC
  8
MODEL-0
  6
CONTINUOUS
 62
1
 10
380.227910
 20
909.869426
 40
5.695477
 50
75.810985
 51
90.940037
  0
LINE
  8
MODEL-0
  6
CONTINUOUS
 62
1
 10
122.370589
 20
915.100993
 11
121.710589
 21
913.540993
  0
LINE
  8
MODEL-0
  6
CONTINUOUS
 62
1
 10
124.358598
 20
915.564136
 11
138.574470
 21
915.564136
  0
LINE
  8
MODEL-0
  6
CONTINUOUS
 62
1
 10
510.874470
 20
912.964136
 11
496.658598
 21
912.964136
  0
LINE
  8
MODEL-0
  6
CONTINUOUS
 62
1
 10
474.758598
 20
915.564136
 11
488.974470
 21
915.564136
  0
LINE
  8
MODEL-0
  6
CONTINUOUS
 62
1
 10
495.998598
 20
915.564136
 11
511.534470
 21
915.564136
  0
LINE
  8
MODEL-0
  6
CONTINUOUS
 62
1
 10
494.670589
 20
913.427278
 11
494.010589
 21
914.987278
  0
LINE
  8
MODEL-0
  6
CONTINUOUS
 62
1
 10
512.862479
 20
913.427278
 11
513.522479
 21
914.987278
  0
LINE
  8
MODEL-0
  6
CONTINUOUS
 62
1
 10
472.770589
 20
915.100993
 11
472.110589
 21
913.540993
  0
LINE
  8
MODEL-0
  6
CONTINUOUS
 62
1
 10
490.962479
 20
915.100993
 11
491.622479
 21
913.540993
  0
LINE
  8
MODEL-0
  6
CONTINUOUS
 62
1
 10
489.634470
 20
912.964136
 11
474.098598
 21
912.964136
  0
ARC
  8
MODEL-0
  6
CONTINUOUS
 62
1
 10
474.363225
 20
912.762979
 40
2.828922
 50
81.965993
 51
124.262375
  0
ARC
  8
MODEL-0
  6
CONTINUOUS
 62
1
 10
472.565966
 20
913.593485
 40
0.458393
 50
186.575584
 51
275.396126
  0
ARC
  8
MODEL-0
  6
CONTINUOUS
 62
1
 10
474.005154
 20
918.658846
 40
5.695477
 50
255.811023
 51
270.940075
  0
ARC
  8
MODEL-0
  6
CONTINUOUS
 62
1
 10
489.727914
 20
918.658846
 40
5.695477
 50
269.059925
 51
284.188977
  0
ARC
  8
MODEL-0
  6
CONTINUOUS
 62
1
 10
491.167102
 20
913.593485
 40
0.458393
 50
264.603874
 51
353.424416
  0
ARC
  8
MODEL-0
  6
CONTINUOUS
 62
1
 10
489.369843
 20
912.762979
 40
2.828922
 50
55.737625
 51
98.034007
  0
ARC
  8
MODEL-0
  6
CONTINUOUS
 62
1
 10
495.905158
 20
909.869426
 40
5.695477
 50
89.059963
 51
104.189015
  0
ARC
  8
MODEL-0
  6
CONTINUOUS
 62
1
 10
494.465966
 20
914.934786
 40
0.458393
 50
84.603874
 51
173.424416
  0
ARC
  8
MODEL-0
  6
CONTINUOUS
 62
1
 10
496.263224
 20
915.765293
 40
2.828922
 50
235.737653
 51
278.034035
  0
ARC
  8
MODEL-0
  6
CONTINUOUS
 62
1
 10
511.269844
 20
915.765293
 40
2.828922
 50
261.965965
 51
304.262347
  0
ARC
  8
MODEL-0
  6
CONTINUOUS
 62
1
 10
513.067102
 20
914.934786
 40
0.458393
 50
6.575584
 51
95.396126
  0
ARC
  8
MODEL-0
  6
CONTINUOUS
 62
1
 10
511.627910
 20
909.869426
 40
5.695477
 50
75.810985
 51
90.940037
  0
LINE
  8
MODEL-0
  6
CONTINUOUS
 62
1
 10
554.674470
 20
912.964136
 11
540.458598
 21
912.964136
  0
LINE
  8
MODEL-0
  6
CONTINUOUS
 62
1
 10
518.558598
 20
915.564136
 11
532.774470
 21
915.564136
  0
LINE
  8
MODEL-0
  6
CONTINUOUS
 62
1
 10
539.798598
 20
915.564136
 11
555.334470
 21
915.564136
  0
LINE
  8
MODEL-0
  6
CONTINUOUS
 62
1
 10
538.470589
 20
913.427278
 11
537.810589
 21
914.987278
  0
LINE
  8
MODEL-0
  6
CONTINUOUS
 62
1
 10
556.662479
 20
913.427278
 11
557.322479
 21
914.987278
  0
LINE
  8
MODEL-0
  6
CONTINUOUS
 62
1
 10
516.570589
 20
915.100993
 11
515.910589
 21
913.540993
  0
LINE
  8
MODEL-0
  6
CONTINUOUS
 62
1
 10
534.762479
 20
915.100993
 11
535.422479
 21
913.540993
  0
LINE
  8
MODEL-0
  6
CONTINUOUS
 62
1
 10
533.434470
 20
912.964136
 11
517.898598
 21
912.964136
  0
ARC
  8
MODEL-0
  6
CONTINUOUS
 62
1
 10
518.163225
 20
912.762979
 40
2.828922
 50
81.965993
 51
124.262375
  0
ARC
  8
MODEL-0
  6
CONTINUOUS
 62
1
 10
516.365966
 20
913.593485
 40
0.458393
 50
186.575584
 51
275.396126
  0
ARC
  8
MODEL-0
  6
CONTINUOUS
 62
1
 10
517.805154
 20
918.658846
 40
5.695477
 50
255.811023
 51
270.940075
  0
ARC
  8
MODEL-0
  6
CONTINUOUS
 62
1
 10
533.527914
 20
918.658846
 40
5.695477
 50
269.059925
 51
284.188977
  0
ARC
  8
MODEL-0
  6
CONTINUOUS
 62
1
 10
534.967102
 20
913.593485
 40
0.458393
 50
264.603874
 51
353.424416
  0
ARC
  8
MODEL-0
  6
CONTINUOUS
 62
1
 10
533.169843
 20
912.762979
 40
2.828922
 50
55.737625
 51
98.034007
  0
ARC
  8
MODEL-0
  6
CONTINUOUS
 62
1
 10
539.705158
 20
909.869426
 40
5.695477
 50
89.059963
 51
104.189015
  0
ARC
  8
MODEL-0
  6
CONTINUOUS
 62
1
 10
538.265966
 20
914.934786
 40
0.458393
 50
84.603874
 51
173.424416
  0
ARC
  8
MODEL-0
  6
CONTINUOUS
 62
1
 10
540.063224
 20
915.765293
 40
2.828922
 50
235.737653
 51
278.034035
  0
ARC
  8
MODEL-0
  6
CONTINUOUS
 62
1
 10
555.069844
 20
915.765293
 40
2.828922
 50
261.965965
 51
304.262347
  0
ARC
  8
MODEL-0
  6
CONTINUOUS
 62
1
 10
556.867102
 20
914.934786
 40
0.458393
 50
6.575584
 51
95.396126
  0
ARC
  8
MODEL-0
  6
CONTINUOUS
 62
1
 10
555.427910
 20
909.869426
 40
5.695477
 50
75.810985
 51
90.940037
  0
LINE
  8
MODEL-0
  6
CONTINUOUS
 62
1
 10
598.474470
 20
912.964136
 11
584.258598
 21
912.964136
  0
LINE
  8
MODEL-0
  6
CONTINUOUS
 62
1
 10
562.358598
 20
915.564136
 11
576.574470
 21
915.564136
  0
LINE
  8
MODEL-0
  6
CONTINUOUS
 62
1
 10
583.598598
 20
915.564136
 11
599.134470
 21
915.564136
  0
LINE
  8
MODEL-0
  6
CONTINUOUS
 62
1
 10
582.270589
 20
913.427278
 11
581.610589
 21
914.987278
  0
LINE
  8
MODEL-0
  6
CONTINUOUS
 62
1
 10
600.462479
 20
913.427278
 11
601.122479
 21
914.987278
  0
LINE
  8
MODEL-0
  6
CONTINUOUS
 62
1
 10
560.370589
 20
915.100993
 11
559.710589
 21
913.540993
  0
LINE
  8
MODEL-0
  6
CONTINUOUS
 62
1
 10
578.562479
 20
915.100993
 11
579.222479
 21
913.540993
  0
LINE
  8
MODEL-0
  6
CONTINUOUS
 62
1
 10
577.234470
 20
912.964136
 11
561.698598
 21
912.964136
  0
ARC
  8
MODEL-0
  6
CONTINUOUS
 62
1
 10
561.963225
 20
912.762979
 40
2.828922
 50
81.965993
 51
124.262375
  0
ARC
  8
MODEL-0
  6
CONTINUOUS
 62
1
 10
560.165966
 20
913.593485
 40
0.458393
 50
186.575584
 51
275.396126
  0
ARC
  8
MODEL-0
  6
CONTINUOUS
 62
1
 10
561.605154
 20
918.658846
 40
5.695477
 50
255.811023
 51
270.940075
  0
ARC
  8
MODEL-0
  6
CONTINUOUS
 62
1
 10
577.327914
 20
918.658846
 40
5.695477
 50
269.059925
 51
284.188977
  0
ARC
  8
MODEL-0
  6
CONTINUOUS
 62
1
 10
578.767102
 20
913.593485
 40
0.458393
 50
264.603874
 51
353.424416
  0
ARC
  8
MODEL-0
  6
CONTINUOUS
 62
1
 10
576.969843
 20
912.762979
 40
2.828922
 50
55.737625
 51
98.034007
  0
ARC
  8
MODEL-0
  6
CONTINUOUS
 62
1
 10
583.505158
 20
909.869426
 40
5.695477
 50
89.059963
 51
104.189015
  0
ARC
  8
MODEL-0
  6
CONTINUOUS
 62
1
 10
582.065966
 20
914.934786
 40
0.458393
 50
84.603874
 51
173.424416
  0
ARC
  8
MODEL-0
  6
CONTINUOUS
 62
1
 10
583.863224
 20
915.765293
 40
2.828922
 50
235.737653
 51
278.034035
  0
ARC
  8
MODEL-0
  6
CONTINUOUS
 62
1
 10
598.869844
 20
915.765293
 40
2.828922
 50
261.965965
 51
304.262347
  0
ARC
  8
MODEL-0
  6
CONTINUOUS
 62
1
 10
600.667102
 20
914.934786
 40
0.458393
 50
6.575584
 51
95.396126
  0
ARC
  8
MODEL-0
  6
CONTINUOUS
 62
1
 10
599.227910
 20
909.869426
 40
5.695477
 50
75.810985
 51
90.940037
  0
LINE
  8
MODEL-0
  6
CONTINUOUS
 62
1
 10
642.274470
 20
912.964136
 11
628.058598
 21
912.964136
  0
LINE
  8
MODEL-0
  6
CONTINUOUS
 62
1
 10
606.158598
 20
915.564136
 11
620.374470
 21
915.564136
  0
LINE
  8
MODEL-0
  6
CONTINUOUS
 62
1
 10
627.398598
 20
915.564136
 11
642.934470
 21
915.564136
  0
LINE
  8
MODEL-0
  6
CONTINUOUS
 62
1
 10
626.070589
 20
913.427278
 11
625.410589
 21
914.987278
  0
LINE
  8
MODEL-0
  6
CONTINUOUS
 62
1
 10
644.262479
 20
913.427278
 11
644.922479
 21
914.987278
  0
LINE
  8
MODEL-0
  6
CONTINUOUS
 62
1
 10
604.170589
 20
915.100993
 11
603.510589
 21
913.540993
  0
LINE
  8
MODEL-0
  6
CONTINUOUS
 62
1
 10
622.362479
 20
915.100993
 11
623.022479
 21
913.540993
  0
LINE
  8
MODEL-0
  6
CONTINUOUS
 62
1
 10
621.034470
 20
912.964136
 11
605.498598
 21
912.964136
  0
ARC
  8
MODEL-0
  6
CONTINUOUS
 62
1
 10
605.763225
 20
912.762979
 40
2.828922
 50
81.965993
 51
124.262375
  0
ARC
  8
MODEL-0
  6
CONTINUOUS
 62
1
 10
603.965966
 20
913.593485
 40
0.458393
 50
186.575584
 51
275.396126
  0
ARC
  8
MODEL-0
  6
CONTINUOUS
 62
1
 10
605.405154
 20
918.658846
 40
5.695477
 50
255.811023
 51
270.940075
  0
ARC
  8
MODEL-0
  6
CONTINUOUS
 62
1
 10
621.127914
 20
918.658846
 40
5.695477
 50
269.059925
 51
284.188977
  0
ARC
  8
MODEL-0
  6
CONTINUOUS
 62
1
 10
622.567102
 20
913.593485
 40
0.458393
 50
264.603874
 51
353.424416
  0
ARC
  8
MODEL-0
  6
CONTINUOUS
 62
1
 10
620.769843
 20
912.762979
 40
2.828922
 50
55.737625
 51
98.034007
  0
ARC
  8
MODEL-0
  6
CONTINUOUS
 62
1
 10
627.305158
 20
909.869426
 40
5.695477
 50
89.059963
 51
104.189015
  0
ARC
  8
MODEL-0
  6
CONTINUOUS
 62
1
 10
625.865966
 20
914.934786
 40
0.458393
 50
84.603874
 51
173.424416
  0
ARC
  8
MODEL-0
  6
CONTINUOUS
 62
1
 10
627.663224
 20
915.765293
 40
2.828922
 50
235.737653
 51
278.034035
  0
ARC
  8
MODEL-0
  6
CONTINUOUS
 62
1
 10
642.669844
 20
915.765293
 40
2.828922
 50
261.965965
 51
304.262347
  0
ARC
  8
MODEL-0
  6
CONTINUOUS
 62
1
 10
644.467102
 20
914.934786
 40
0.458393
 50
6.575584
 51
95.396126
  0
ARC
  8
MODEL-0
  6
CONTINUOUS
 62
1
 10
643.027910
 20
909.869426
 40
5.695477
 50
75.810985
 51
90.940037
  0
LINE
  8
MODEL-0
  6
CONTINUOUS
 62
1
 10
686.074470
 20
912.964136
 11
671.858598
 21
912.964136
  0
LINE
  8
MODEL-0
  6
CONTINUOUS
 62
1
 10
649.958598
 20
915.564136
 11
664.174470
 21
915.564136
  0
LINE
  8
MODEL-0
  6
CONTINUOUS
 62
1
 10
671.198598
 20
915.564136
 11
686.734470
 21
915.564136
  0
LINE
  8
MODEL-0
  6
CONTINUOUS
 62
1
 10
669.870589
 20
913.427278
 11
669.210589
 21
914.987278
  0
LINE
  8
MODEL-0
  6
CONTINUOUS
 62
1
 10
688.062479
 20
913.427278
 11
688.722479
 21
914.987278
  0
LINE
  8
MODEL-0
  6
CONTINUOUS
 62
1
 10
647.970589
 20
915.100993
 11
647.310589
 21
913.540993
  0
LINE
  8
MODEL-0
  6
CONTINUOUS
 62
1
 10
666.162479
 20
915.100993
 11
666.822479
 21
913.540993
  0
LINE
  8
MODEL-0
  6
CONTINUOUS
 62
1
 10
664.834470
 20
912.964136
 11
649.298598
 21
912.964136
  0
ARC
  8
MODEL-0
  6
CONTINUOUS
 62
1
 10
649.563225
 20
912.762979
 40
2.828922
 50
81.965993
 51
124.262375
  0
ARC
  8
MODEL-0
  6
CONTINUOUS
 62
1
 10
647.765966
 20
913.593485
 40
0.458393
 50
186.575584
 51
275.396126
  0
ARC
  8
MODEL-0
  6
CONTINUOUS
 62
1
 10
649.205154
 20
918.658846
 40
5.695477
 50
255.811023
 51
270.940075
  0
ARC
  8
MODEL-0
  6
CONTINUOUS
 62
1
 10
664.927914
 20
918.658846
 40
5.695477
 50
269.059925
 51
284.188977
  0
ARC
  8
MODEL-0
  6
CONTINUOUS
 62
1
 10
666.367102
 20
913.593485
 40
0.458393
 50
264.603874
 51
353.424416
  0
ARC
  8
MODEL-0
  6
CONTINUOUS
 62
1
 10
664.569843
 20
912.762979
 40
2.828922
 50
55.737625
 51
98.034007
  0
ARC
  8
MODEL-0
  6
CONTINUOUS
 62
1
 10
671.105158
 20
909.869426
 40
5.695477
 50
89.059963
 51
104.189015
  0
ARC
  8
MODEL-0
  6
CONTINUOUS
 62
1
 10
669.665966
 20
914.934786
 40
0.458393
 50
84.603874
 51
173.424416
  0
ARC
  8
MODEL-0
  6
CONTINUOUS
 62
1
 10
671.463224
 20
915.765293
 40
2.828922
 50
235.737653
 51
278.034035
  0
ARC
  8
MODEL-0
  6
CONTINUOUS
 62
1
 10
686.469844
 20
915.765293
 40
2.828922
 50
261.965965
 51
304.262347
  0
ARC
  8
MODEL-0
  6
CONTINUOUS
 62
1
 10
688.267102
 20
914.934786
 40
0.458393
 50
6.575584
 51
95.396126
  0
ARC
  8
MODEL-0
  6
CONTINUOUS
 62
1
 10
686.827910
 20
909.869426
 40
5.695477
 50
75.810985
 51
90.940037
  0
LINE
  8
MODEL-0
  6
CONTINUOUS
 62
1
 10
729.874470
 20
912.964136
 11
715.658598
 21
912.964136
  0
LINE
  8
MODEL-0
  6
CONTINUOUS
 62
1
 10
693.758598
 20
915.564136
 11
707.974470
 21
915.564136
  0
LINE
  8
MODEL-0
  6
CONTINUOUS
 62
1
 10
714.998598
 20
915.564136
 11
730.534470
 21
915.564136
  0
LINE
  8
MODEL-0
  6
CONTINUOUS
 62
1
 10
713.670589
 20
913.427278
 11
713.010589
 21
914.987278
  0
LINE
  8
MODEL-0
  6
CONTINUOUS
 62
1
 10
731.862479
 20
913.427278
 11
732.522479
 21
914.987278
  0
LINE
  8
MODEL-0
  6
CONTINUOUS
 62
1
 10
691.770589
 20
915.100993
 11
691.110589
 21
913.540993
  0
LINE
  8
MODEL-0
  6
CONTINUOUS
 62
1
 10
709.962479
 20
915.100993
 11
710.622479
 21
913.540993
  0
LINE
  8
MODEL-0
  6
CONTINUOUS
 62
1
 10
708.634470
 20
912.964136
 11
693.098598
 21
912.964136
  0
ARC
  8
MODEL-0
  6
CONTINUOUS
 62
1
 10
693.363225
 20
912.762979
 40
2.828922
 50
81.965993
 51
124.262375
  0
ARC
  8
MODEL-0
  6
CONTINUOUS
 62
1
 10
691.565966
 20
913.593485
 40
0.458393
 50
186.575584
 51
275.396126
  0
ARC
  8
MODEL-0
  6
CONTINUOUS
 62
1
 10
693.005154
 20
918.658846
 40
5.695477
 50
255.811023
 51
270.940075
  0
ARC
  8
MODEL-0
  6
CONTINUOUS
 62
1
 10
708.727914
 20
918.658846
 40
5.695477
 50
269.059925
 51
284.188977
  0
ARC
  8
MODEL-0
  6
CONTINUOUS
 62
1
 10
710.167102
 20
913.593485
 40
0.458393
 50
264.603874
 51
353.424416
  0
ARC
  8
MODEL-0
  6
CONTINUOUS
 62
1
 10
708.369843
 20
912.762979
 40
2.828922
 50
55.737625
 51
98.034007
  0
ARC
  8
MODEL-0
  6
CONTINUOUS
 62
1
 10
714.905158
 20
909.869426
 40
5.695477
 50
89.059963
 51
104.189015
  0
ARC
  8
MODEL-0
  6
CONTINUOUS
 62
1
 10
713.465966
 20
914.934786
 40
0.458393
 50
84.603874
 51
173.424416
  0
ARC
  8
MODEL-0
  6
CONTINUOUS
 62
1
 10
715.263224
 20
915.765293
 40
2.828922
 50
235.737653
 51
278.034035
  0
ARC
  8
MODEL-0
  6
CONTINUOUS
 62
1
 10
730.269844
 20
915.765293
 40
2.828922
 50
261.965965
 51
304.262347
  0
ARC
  8
MODEL-0
  6
CONTINUOUS
 62
1
 10
732.067102
 20
914.934786
 40
0.458393
 50
6.575584
 51
95.396126
  0
ARC
  8
MODEL-0
  6
CONTINUOUS
 62
1
 10
730.627910
 20
909.869426
 40
5.695477
 50
75.810985
 51
90.940037
  0
LINE
  8
MODEL-0
  6
CONTINUOUS
 62
1
 10
737.558598
 20
915.564136
 11
751.774470
 21
915.564136
  0
LINE
  8
MODEL-0
  6
CONTINUOUS
 62
1
 10
735.570589
 20
915.100993
 11
734.910589
 21
913.540993
  0
LINE
  8
MODEL-0
  6
CONTINUOUS
 62
1
 10
753.762479
 20
915.100993
 11
754.422479
 21
913.540993
  0
LINE
  8
MODEL-0
  6
CONTINUOUS
 62
1
 10
752.434470
 20
912.964136
 11
736.898598
 21
912.964136
  0
ARC
  8
MODEL-0
  6
CONTINUOUS
 62
1
 10
737.163225
 20
912.762979
 40
2.828922
 50
81.965993
 51
124.262375
  0
ARC
  8
MODEL-0
  6
CONTINUOUS
 62
1
 10
735.365966
 20
913.593485
 40
0.458393
 50
186.575584
 51
275.396126
  0
ARC
  8
MODEL-0
  6
CONTINUOUS
 62
1
 10
736.805154
 20
918.658846
 40
5.695477
 50
255.811023
 51
270.940075
  0
ARC
  8
MODEL-0
  6
CONTINUOUS
 62
1
 10
752.527914
 20
918.658846
 40
5.695477
 50
269.059925
 51
284.188977
  0
ARC
  8
MODEL-0
  6
CONTINUOUS
 62
1
 10
753.967102
 20
913.593485
 40
0.458393
 50
264.603874
 51
353.424416
  0
ARC
  8
MODEL-0
  6
CONTINUOUS
 62
1
 10
752.169843
 20
912.762979
 40
2.828922
 50
55.737625
 51
98.034007
  0
LINE
  8
MODEL-0
  6
CONTINUOUS
 62
1
 10
773.674470
 20
912.964136
 11
759.458598
 21
912.964136
  0
LINE
  8
MODEL-0
  6
CONTINUOUS
 62
1
 10
758.798598
 20
915.564136
 11
774.334470
 21
915.564136
  0
LINE
  8
MODEL-0
  6
CONTINUOUS
 62
1
 10
757.470589
 20
913.427278
 11
756.810589
 21
914.987278
  0
LINE
  8
MODEL-0
  6
CONTINUOUS
 62
1
 10
775.662479
 20
913.427278
 11
776.322479
 21
914.987278
  0
ARC
  8
MODEL-0
  6
CONTINUOUS
 62
1
 10
758.705158
 20
909.869426
 40
5.695477
 50
89.059963
 51
104.189015
  0
ARC
  8
MODEL-0
  6
CONTINUOUS
 62
1
 10
757.265966
 20
914.934786
 40
0.458393
 50
84.603874
 51
173.424416
  0
ARC
  8
MODEL-0
  6
CONTINUOUS
 62
1
 10
759.063224
 20
915.765293
 40
2.828922
 50
235.737653
 51
278.034035
  0
ARC
  8
MODEL-0
  6
CONTINUOUS
 62
1
 10
774.069844
 20
915.765293
 40
2.828922
 50
261.965965
 51
304.262347
  0
ARC
  8
MODEL-0
  6
CONTINUOUS
 62
1
 10
775.867102
 20
914.934786
 40
0.458393
 50
6.575584
 51
95.396126
  0
ARC
  8
MODEL-0
  6
CONTINUOUS
 62
1
 10
774.427910
 20
909.869426
 40
5.695477
 50
75.810985
 51
90.940037
  0
LINE
  8
MODEL-0
  6
CONTINUOUS
 62
1
 10
781.358598
 20
915.564136
 11
795.574470
 21
915.564136
  0
LINE
  8
MODEL-0
  6
CONTINUOUS
 62
1
 10
779.370589
 20
915.100993
 11
778.710589
 21
913.540993
  0
LINE
  8
MODEL-0
  6
CONTINUOUS
 62
1
 10
797.562479
 20
915.100993
 11
798.222479
 21
913.540993
  0
LINE
  8
MODEL-0
  6
CONTINUOUS
 62
1
 10
796.234470
 20
912.964136
 11
780.698598
 21
912.964136
  0
ARC
  8
MODEL-0
  6
CONTINUOUS
 62
1
 10
780.963225
 20
912.762979
 40
2.828922
 50
81.965993
 51
124.262375
  0
ARC
  8
MODEL-0
  6
CONTINUOUS
 62
1
 10
779.165966
 20
913.593485
 40
0.458393
 50
186.575584
 51
275.396126
  0
ARC
  8
MODEL-0
  6
CONTINUOUS
 62
1
 10
780.605154
 20
918.658846
 40
5.695477
 50
255.811023
 51
270.940075
  0
ARC
  8
MODEL-0
  6
CONTINUOUS
 62
1
 10
796.327914
 20
918.658846
 40
5.695477
 50
269.059925
 51
284.188977
  0
ARC
  8
MODEL-0
  6
CONTINUOUS
 62
1
 10
797.767102
 20
913.593485
 40
0.458393
 50
264.603874
 51
353.424416
  0
ARC
  8
MODEL-0
  6
CONTINUOUS
 62
1
 10
795.969843
 20
912.762979
 40
2.828922
 50
55.737625
 51
98.034007
  0
LINE
  8
MODEL-0
  6
CONTINUOUS
 62
1
 10
145.598598
 20
915.564136
 11
161.134470
 21
915.564136
  0
LINE
  8
MODEL-0
  6
CONTINUOUS
 62
1
 10
168.158598
 20
915.564136
 11
182.374470
 21
915.564136
  0
LINE
  8
MODEL-0
  6
CONTINUOUS
 62
1
 10
144.270589
 20
913.427278
 11
143.610589
 21
914.987278
  0
LINE
  8
MODEL-0
  6
CONTINUOUS
 62
1
 10
162.462479
 20
913.427278
 11
163.122479
 21
914.987278
  0
LINE
  8
MODEL-0
  6
CONTINUOUS
 62
1
 10
166.170589
 20
915.100993
 11
165.510589
 21
913.540993
  0
LINE
  8
MODEL-0
  6
CONTINUOUS
 62
1
 10
184.362479
 20
915.100993
 11
185.022479
 21
913.540993
  0
LINE
  8
MODEL-0
  6
CONTINUOUS
 62
1
 10
160.474470
 20
912.964136
 11
146.258598
 21
912.964136
  0
LINE
  8
MODEL-0
  6
CONTINUOUS
 62
1
 10
183.034470
 20
912.964136
 11
167.498598
 21
912.964136
  0
ARC
  8
MODEL-0
  6
CONTINUOUS
 62
1
 10
145.505158
 20
909.869426
 40
5.695477
 50
89.059963
 51
104.189015
  0
ARC
  8
MODEL-0
  6
CONTINUOUS
 62
1
 10
144.065966
 20
914.934786
 40
0.458393
 50
84.603874
 51
173.424416
  0
ARC
  8
MODEL-0
  6
CONTINUOUS
 62
1
 10
145.863224
 20
915.765293
 40
2.828922
 50
235.737653
 51
278.034035
  0
ARC
  8
MODEL-0
  6
CONTINUOUS
 62
1
 10
160.869844
 20
915.765293
 40
2.828922
 50
261.965965
 51
304.262347
  0
ARC
  8
MODEL-0
  6
CONTINUOUS
 62
1
 10
162.667102
 20
914.934786
 40
0.458393
 50
6.575584
 51
95.396126
  0
ARC
  8
MODEL-0
  6
CONTINUOUS
 62
1
 10
161.227910
 20
909.869426
 40
5.695477
 50
75.810985
 51
90.940037
  0
ARC
  8
MODEL-0
  6
CONTINUOUS
 62
1
 10
167.763225
 20
912.762979
 40
2.828922
 50
81.965993
 51
124.262375
  0
ARC
  8
MODEL-0
  6
CONTINUOUS
 62
1
 10
182.769843
 20
912.762979
 40
2.828922
 50
55.737625
 51
98.034007
  0
ARC
  8
MODEL-0
  6
CONTINUOUS
 62
1
 10
184.567102
 20
913.593485
 40
0.458393
 50
264.603874
 51
353.424416
  0
ARC
  8
MODEL-0
  6
CONTINUOUS
 62
1
 10
183.127914
 20
918.658846
 40
5.695477
 50
269.059925
 51
284.188977
  0
ARC
  8
MODEL-0
  6
CONTINUOUS
 62
1
 10
167.405154
 20
918.658846
 40
5.695477
 50
255.811023
 51
270.940075
  0
ARC
  8
MODEL-0
  6
CONTINUOUS
 62
1
 10
165.965966
 20
913.593485
 40
0.458393
 50
186.575584
 51
275.396126
  0
LINE
  8
MODEL-0
  6
CONTINUOUS
 62
1
 10
423.274470
 20
919.724136
 11
409.058598
 21
919.724136
  0
LINE
  8
MODEL-0
  6
CONTINUOUS
 62
1
 10
387.158598
 20
922.324136
 11
401.374470
 21
922.324136
  0
LINE
  8
MODEL-0
  6
CONTINUOUS
 62
1
 10
408.398598
 20
922.324136
 11
423.934470
 21
922.324136
  0
LINE
  8
MODEL-0
  6
CONTINUOUS
 62
1
 10
407.070589
 20
920.187278
 11
406.410589
 21
921.747278
  0
LINE
  8
MODEL-0
  6
CONTINUOUS
 62
1
 10
425.262479
 20
920.187278
 11
425.922479
 21
921.747278
  0
LINE
  8
MODEL-0
  6
CONTINUOUS
 62
1
 10
385.170589
 20
921.860993
 11
384.510589
 21
920.300993
  0
LINE
  8
MODEL-0
  6
CONTINUOUS
 62
1
 10
403.362479
 20
921.860993
 11
404.022479
 21
920.300993
  0
LINE
  8
MODEL-0
  6
CONTINUOUS
 62
1
 10
402.034470
 20
919.724136
 11
386.498598
 21
919.724136
  0
ARC
  8
MODEL-0
  6
CONTINUOUS
 62
1
 10
386.763225
 20
919.522979
 40
2.828922
 50
81.965993
 51
124.262375
  0
ARC
  8
MODEL-0
  6
CONTINUOUS
 62
1
 10
384.965966
 20
920.353485
 40
0.458393
 50
186.575584
 51
275.396126
  0
ARC
  8
MODEL-0
  6
CONTINUOUS
 62
1
 10
386.405154
 20
925.418846
 40
5.695477
 50
255.811023
 51
270.940075
  0
ARC
  8
MODEL-0
  6
CONTINUOUS
 62
1
 10
402.127914
 20
925.418846
 40
5.695477
 50
269.059925
 51
284.188977
  0
ARC
  8
MODEL-0
  6
CONTINUOUS
 62
1
 10
403.567102
 20
920.353485
 40
0.458393
 50
264.603874
 51
353.424416
  0
ARC
  8
MODEL-0
  6
CONTINUOUS
 62
1
 10
401.769843
 20
919.522979
 40
2.828922
 50
55.737625
 51
98.034007
  0
ARC
  8
MODEL-0
  6
CONTINUOUS
 62
1
 10
408.305158
 20
916.629426
 40
5.695477
 50
89.059963
 51
104.189015
  0
ARC
  8
MODEL-0
  6
CONTINUOUS
 62
1
 10
406.865966
 20
921.694786
 40
0.458393
 50
84.603874
 51
173.424416
  0
ARC
  8
MODEL-0
  6
CONTINUOUS
 62
1
 10
408.663224
 20
922.525293
 40
2.828922
 50
235.737653
 51
278.034035
  0
ARC
  8
MODEL-0
  6
CONTINUOUS
 62
1
 10
423.669844
 20
922.525293
 40
2.828922
 50
261.965965
 51
304.262347
  0
ARC
  8
MODEL-0
  6
CONTINUOUS
 62
1
 10
425.467102
 20
921.694786
 40
0.458393
 50
6.575584
 51
95.396126
  0
ARC
  8
MODEL-0
  6
CONTINUOUS
 62
1
 10
424.027910
 20
916.629426
 40
5.695477
 50
75.810985
 51
90.940037
  0
LINE
  8
MODEL-0
  6
CONTINUOUS
 62
1
 10
412.324470
 20
918.944136
 11
398.108598
 21
918.944136
  0
LINE
  8
MODEL-0
  6
CONTINUOUS
 62
1
 10
376.208598
 20
916.344136
 11
390.424470
 21
916.344136
  0
LINE
  8
MODEL-0
  6
CONTINUOUS
 62
1
 10
397.448598
 20
916.344136
 11
412.984470
 21
916.344136
  0
LINE
  8
MODEL-0
  6
CONTINUOUS
 62
1
 10
396.120589
 20
918.480993
 11
395.460589
 21
916.920993
  0
LINE
  8
MODEL-0
  6
CONTINUOUS
 62
1
 10
414.312479
 20
918.480993
 11
414.972479
 21
916.920993
  0
LINE
  8
MODEL-0
  6
CONTINUOUS
 62
1
 10
374.220589
 20
916.807278
 11
373.560589
 21
918.367278
  0
LINE
  8
MODEL-0
  6
CONTINUOUS
 62
1
 10
392.412479
 20
916.807278
 11
393.072479
 21
918.367278
  0
LINE
  8
MODEL-0
  6
CONTINUOUS
 62
1
 10
391.084470
 20
918.944136
 11
375.548598
 21
918.944136
  0
ARC
  8
MODEL-0
  6
CONTINUOUS
 62
1
 10
375.813224
 20
919.145293
 40
2.828922
 50
235.737653
 51
278.034035
  0
ARC
  8
MODEL-0
  6
CONTINUOUS
 62
1
 10
374.015966
 20
918.314786
 40
0.458393
 50
84.603874
 51
173.424416
  0
ARC
  8
MODEL-0
  6
CONTINUOUS
 62
1
 10
375.455158
 20
913.249426
 40
5.695477
 50
89.059963
 51
104.189015
  0
ARC
  8
MODEL-0
  6
CONTINUOUS
 62
1
 10
391.177910
 20
913.249426
 40
5.695477
 50
75.810985
 51
90.940037
  0
ARC
  8
MODEL-0
  6
CONTINUOUS
 62
1
 10
392.617102
 20
918.314786
 40
0.458393
 50
6.575584
 51
95.396126
  0
ARC
  8
MODEL-0
  6
CONTINUOUS
 62
1
 10
390.819844
 20
919.145293
 40
2.828922
 50
261.965965
 51
304.262347
  0
ARC
  8
MODEL-0
  6
CONTINUOUS
 62
1
 10
397.355154
 20
922.038846
 40
5.695477
 50
255.811023
 51
270.940075
  0
ARC
  8
MODEL-0
  6
CONTINUOUS
 62
1
 10
395.915966
 20
916.973485
 40
0.458393
 50
186.575584
 51
275.396126
  0
ARC
  8
MODEL-0
  6
CONTINUOUS
 62
1
 10
397.713225
 20
916.142979
 40
2.828922
 50
81.965993
 51
124.262375
  0
ARC
  8
MODEL-0
  6
CONTINUOUS
 62
1
 10
412.719843
 20
916.142979
 40
2.828922
 50
55.737625
 51
98.034007
  0
ARC
  8
MODEL-0
  6
CONTINUOUS
 62
1
 10
414.517102
 20
916.973485
 40
0.458393
 50
264.603874
 51
353.424416
  0
ARC
  8
MODEL-0
  6
CONTINUOUS
 62
1
 10
413.077914
 20
922.038846
 40
5.695477
 50
269.059925
 51
284.188977
  0
LINE
  8
MODEL-0
  6
CONTINUOUS
 62
1
 10
467.074470
 20
919.724136
 11
452.858598
 21
919.724136
  0
LINE
  8
MODEL-0
  6
CONTINUOUS
 62
1
 10
430.958598
 20
922.324136
 11
445.174470
 21
922.324136
  0
LINE
  8
MODEL-0
  6
CONTINUOUS
 62
1
 10
452.198598
 20
922.324136
 11
467.734470
 21
922.324136
  0
LINE
  8
MODEL-0
  6
CONTINUOUS
 62
1
 10
450.870589
 20
920.187278
 11
450.210589
 21
921.747278
  0
LINE
  8
MODEL-0
  6
CONTINUOUS
 62
1
 10
469.062479
 20
920.187278
 11
469.722479
 21
921.747278
  0
LINE
  8
MODEL-0
  6
CONTINUOUS
 62
1
 10
428.970589
 20
921.860993
 11
428.310589
 21
920.300993
  0
LINE
  8
MODEL-0
  6
CONTINUOUS
 62
1
 10
447.162479
 20
921.860993
 11
447.822479
 21
920.300993
  0
LINE
  8
MODEL-0
  6
CONTINUOUS
 62
1
 10
445.834470
 20
919.724136
 11
430.298598
 21
919.724136
  0
ARC
  8
MODEL-0
  6
CONTINUOUS
 62
1
 10
430.563225
 20
919.522979
 40
2.828922
 50
81.965993
 51
124.262375
  0
ARC
  8
MODEL-0
  6
CONTINUOUS
 62
1
 10
428.765966
 20
920.353485
 40
0.458393
 50
186.575584
 51
275.396126
  0
ARC
  8
MODEL-0
  6
CONTINUOUS
 62
1
 10
430.205154
 20
925.418846
 40
5.695477
 50
255.811023
 51
270.940075
  0
ARC
  8
MODEL-0
  6
CONTINUOUS
 62
1
 10
445.927914
 20
925.418846
 40
5.695477
 50
269.059925
 51
284.188977
  0
ARC
  8
MODEL-0
  6
CONTINUOUS
 62
1
 10
447.367102
 20
920.353485
 40
0.458393
 50
264.603874
 51
353.424416
  0
ARC
  8
MODEL-0
  6
CONTINUOUS
 62
1
 10
445.569843
 20
919.522979
 40
2.828922
 50
55.737625
 51
98.034007
  0
ARC
  8
MODEL-0
  6
CONTINUOUS
 62
1
 10
452.105158
 20
916.629426
 40
5.695477
 50
89.059963
 51
104.189015
  0
ARC
  8
MODEL-0
  6
CONTINUOUS
 62
1
 10
450.665966
 20
921.694786
 40
0.458393
 50
84.603874
 51
173.424416
  0
ARC
  8
MODEL-0
  6
CONTINUOUS
 62
1
 10
452.463224
 20
922.525293
 40
2.828922
 50
235.737653
 51
278.034035
  0
ARC
  8
MODEL-0
  6
CONTINUOUS
 62
1
 10
467.469844
 20
922.525293
 40
2.828922
 50
261.965965
 51
304.262347
  0
ARC
  8
MODEL-0
  6
CONTINUOUS
 62
1
 10
469.267102
 20
921.694786
 40
0.458393
 50
6.575584
 51
95.396126
  0
ARC
  8
MODEL-0
  6
CONTINUOUS
 62
1
 10
467.827910
 20
916.629426
 40
5.695477
 50
75.810985
 51
90.940037
  0
LINE
  8
MODEL-0
  6
CONTINUOUS
 62
1
 10
456.124470
 20
918.944136
 11
441.908598
 21
918.944136
  0
LINE
  8
MODEL-0
  6
CONTINUOUS
 62
1
 10
420.008598
 20
916.344136
 11
434.224470
 21
916.344136
  0
LINE
  8
MODEL-0
  6
CONTINUOUS
 62
1
 10
441.248598
 20
916.344136
 11
456.784470
 21
916.344136
  0
LINE
  8
MODEL-0
  6
CONTINUOUS
 62
1
 10
439.920589
 20
918.480993
 11
439.260589
 21
916.920993
  0
LINE
  8
MODEL-0
  6
CONTINUOUS
 62
1
 10
458.112479
 20
918.480993
 11
458.772479
 21
916.920993
  0
LINE
  8
MODEL-0
  6
CONTINUOUS
 62
1
 10
418.020589
 20
916.807278
 11
417.360589
 21
918.367278
  0
LINE
  8
MODEL-0
  6
CONTINUOUS
 62
1
 10
436.212479
 20
916.807278
 11
436.872479
 21
918.367278
  0
LINE
  8
MODEL-0
  6
CONTINUOUS
 62
1
 10
434.884470
 20
918.944136
 11
419.348598
 21
918.944136
  0
ARC
  8
MODEL-0
  6
CONTINUOUS
 62
1
 10
419.613224
 20
919.145293
 40
2.828922
 50
235.737653
 51
278.034035
  0
ARC
  8
MODEL-0
  6
CONTINUOUS
 62
1
 10
417.815966
 20
918.314786
 40
0.458393
 50
84.603874
 51
173.424416
  0
ARC
  8
MODEL-0
  6
CONTINUOUS
 62
1
 10
419.255158
 20
913.249426
 40
5.695477
 50
89.059963
 51
104.189015
  0
ARC
  8
MODEL-0
  6
CONTINUOUS
 62
1
 10
434.977910
 20
913.249426
 40
5.695477
 50
75.810985
 51
90.940037
  0
ARC
  8
MODEL-0
  6
CONTINUOUS
 62
1
 10
436.417102
 20
918.314786
 40
0.458393
 50
6.575584
 51
95.396126
  0
ARC
  8
MODEL-0
  6
CONTINUOUS
 62
1
 10
434.619844
 20
919.145293
 40
2.828922
 50
261.965965
 51
304.262347
  0
ARC
  8
MODEL-0
  6
CONTINUOUS
 62
1
 10
441.155154
 20
922.038846
 40
5.695477
 50
255.811023
 51
270.940075
  0
ARC
  8
MODEL-0
  6
CONTINUOUS
 62
1
 10
439.715966
 20
916.973485
 40
0.458393
 50
186.575584
 51
275.396126
  0
ARC
  8
MODEL-0
  6
CONTINUOUS
 62
1
 10
441.513225
 20
916.142979
 40
2.828922
 50
81.965993
 51
124.262375
  0
ARC
  8
MODEL-0
  6
CONTINUOUS
 62
1
 10
456.519843
 20
916.142979
 40
2.828922
 50
55.737625
 51
98.034007
  0
ARC
  8
MODEL-0
  6
CONTINUOUS
 62
1
 10
458.317102
 20
916.973485
 40
0.458393
 50
264.603874
 51
353.424416
  0
ARC
  8
MODEL-0
  6
CONTINUOUS
 62
1
 10
456.877914
 20
922.038846
 40
5.695477
 50
269.059925
 51
284.188977
  0
LINE
  8
MODEL-0
  6
CONTINUOUS
 62
4
 10
173.216534
 20
916.344136
 11
173.267369
 21
916.464292
  0
LINE
  8
MODEL-0
  6
CONTINUOUS
 62
4
 10
172.635915
 20
916.344136
 11
173.216534
 21
916.344136
  0
LINE
  8
MODEL-0
  6
CONTINUOUS
 62
4
 10
176.216534
 20
916.344136
 11
177.003788
 21
916.344136
  0
LINE
  8
MODEL-0
  6
CONTINUOUS
 62
4
 10
176.298037
 20
916.536780
 11
176.216534
 21
916.344136
  0
LINE
  8
MODEL-0
  6
CONTINUOUS
 62
4
 10
155.416534
 20
916.344136
 11
155.365699
 21
916.464292
  0
LINE
  8
MODEL-0
  6
CONTINUOUS
 62
4
 10
155.997153
 20
916.344136
 11
155.416534
 21
916.344136
  0
ARC
  8
MODEL-0
  6
CONTINUOUS
 62
1
 10
5.123757
 20
868.000000
 40
3.000000
 50
90.000000
 51
138.189685
  0
LINE
  8
MODEL-0
  6
CONTINUOUS
 62
1
 10
5.123757
 20
871.000000
 11
143.415431
 21
871.000000
  0
LINE
  8
MODEL-0
  6
CONTINUOUS
 62
1
 10
143.415431
 20
871.000000
 11
294.875785
 21
871.000000
  0
LINE
  8
MODEL-0
  6
CONTINUOUS
 62
1
 10
154.598234
 20
872.763371
 11
153.497676
 21
882.000000
  0
LINE
  8
MODEL-0
  6
CONTINUOUS
 62
1
 10
145.401385
 20
872.763386
 11
146.501866
 21
882.000000
  0
ARC
  8
MODEL-0
  6
CONTINUOUS
 62
1
 10
149.999856
 20
890.000004
 40
2.000000
 50
10.374397
 51
169.624476
  0
LINE
  8
MODEL-0
  6
CONTINUOUS
 62
1
 10
146.501866
 20
882.000000
 11
148.032559
 21
890.360202
  0
LINE
  8
MODEL-0
  6
CONTINUOUS
 62
1
 10
153.497676
 20
882.000000
 11
151.967160
 21
890.360163
  0
ARC
  8
MODEL-0
  6
CONTINUOUS
 62
1
 10
156.584186
 20
873.000000
 40
2.000000
 50
186.794840
 51
270.000000
  0
ARC
  8
MODEL-0
  6
CONTINUOUS
 62
1
 10
143.415431
 20
873.000000
 40
2.000000
 50
270.000000
 51
353.205618
  0
LINE
  8
MODEL-0
  6
CONTINUOUS
 62
1
 10
107.148957
 20
892.000000
 11
17.615182
 21
892.000000
  0
LINE
  8
MODEL-0
  6
CONTINUOUS
 62
1
 10
15.916370
 20
891.055480
 11
2.834487
 21
870.000000
  0
LINE
  8
MODEL-0
  6
CONTINUOUS
 62
1
 10
109.999857
 20
882.000000
 11
109.138025
 21
890.208829
  0
LINE
  8
MODEL-0
  6
CONTINUOUS
 62
1
 10
109.999857
 20
882.000000
 11
66.261761
 21
871.000000
  0
ARC
  8
MODEL-0
  6
CONTINUOUS
 62
1
 10
17.615182
 20
890.000000
 40
2.000000
 50
90.000000
 51
148.147095
  0
ARC
  8
MODEL-0
  6
CONTINUOUS
 62
1
 10
107.148957
 20
890.000000
 40
2.000000
 50
5.993435
 51
90.000000
  0
ARC
  8
MODEL-0
  6
CONTINUOUS
 62
1
 10
294.875785
 20
868.000000
 40
3.000000
 50
41.810315
 51
90.000000
  0
LINE
  8
MODEL-0
  6
CONTINUOUS
 62
1
 10
192.850585
 20
892.000000
 11
282.384361
 21
892.000000
  0
LINE
  8
MODEL-0
  6
CONTINUOUS
 62
1
 10
284.083172
 20
891.055480
 11
297.165055
 21
870.000000
  0
LINE
  8
MODEL-0
  6
CONTINUOUS
 62
1
 10
189.999686
 20
882.000000
 11
190.861517
 21
890.208829
  0
LINE
  8
MODEL-0
  6
CONTINUOUS
 62
1
 10
189.999686
 20
882.000000
 11
233.737781
 21
871.000000
  0
ARC
  8
MODEL-0
  6
CONTINUOUS
 62
1
 10
282.384361
 20
890.000000
 40
2.000000
 50
31.852905
 51
90.000000
  0
ARC
  8
MODEL-0
  6
CONTINUOUS
 62
1
 10
192.850585
 20
890.000000
 40
2.000000
 50
90.000000
 51
174.006565
  0
LINE
  8
MODEL-0
  6
CONTINUOUS
 62
1
 10
95.397262
 20
872.763375
 11
96.080715
 21
878.499377
  0
LINE
  8
MODEL-0
  6
CONTINUOUS
 62
1
 10
104.594110
 20
872.763391
 11
103.682912
 21
880.411307
  0
ARC
  8
MODEL-0
  6
CONTINUOUS
 62
3
 10
93.411310
 20
873.000004
 40
2.000000
 50
270.000000
 51
353.205160
  0
ARC
  8
MODEL-0
  6
CONTINUOUS
 62
1
 10
106.580065
 20
873.000004
 40
2.000000
 50
186.794382
 51
270.000000
  0
LINE
  8
MODEL-0
  6
CONTINUOUS
 62
1
 10
195.397294
 20
872.763375
 11
196.308791
 21
880.413279
  0
LINE
  8
MODEL-0
  6
CONTINUOUS
 62
1
 10
204.594143
 20
872.763391
 11
203.910488
 21
878.501475
  0
ARC
  8
MODEL-0
  6
CONTINUOUS
 62
3
 10
193.411342
 20
873.000004
 40
2.000000
 50
270.000000
 51
353.205160
  0
ARC
  8
MODEL-0
  6
CONTINUOUS
 62
1
 10
206.580097
 20
873.000004
 40
2.000000
 50
186.794382
 51
270.000000
  0
LINE
  8
MODEL-0
  6
CONTINUOUS
 62
1
 10
297.111853
 20
870.000000
 11
0.000000
 21
870.000000
  0
ARC
  8
MODEL-0
  6
CONTINUOUS
 62
1
 10
305.123757
 20
868.000000
 40
3.000000
 50
90.000000
 51
138.189685
  0
LINE
  8
MODEL-0
  6
CONTINUOUS
 62
1
 10
305.123757
 20
871.000000
 11
443.415431
 21
871.000000
  0
LINE
  8
MODEL-0
  6
CONTINUOUS
 62
1
 10
443.415431
 20
871.000000
 11
594.875785
 21
871.000000
  0
LINE
  8
MODEL-0
  6
CONTINUOUS
 62
1
 10
454.598234
 20
872.763371
 11
453.497676
 21
882.000000
  0
LINE
  8
MODEL-0
  6
CONTINUOUS
 62
1
 10
445.401385
 20
872.763386
 11
446.501866
 21
882.000000
  0
ARC
  8
MODEL-0
  6
CONTINUOUS
 62
1
 10
449.999856
 20
890.000004
 40
2.000000
 50
10.374397
 51
169.624476
  0
LINE
  8
MODEL-0
  6
CONTINUOUS
 62
1
 10
446.501866
 20
882.000000
 11
448.032559
 21
890.360202
  0
LINE
  8
MODEL-0
  6
CONTINUOUS
 62
1
 10
453.497676
 20
882.000000
 11
451.967160
 21
890.360163
  0
ARC
  8
MODEL-0
  6
CONTINUOUS
 62
1
 10
456.584186
 20
873.000000
 40
2.000000
 50
186.794840
 51
270.000000
  0
ARC
  8
MODEL-0
  6
CONTINUOUS
 62
1
 10
443.415431
 20
873.000000
 40
2.000000
 50
270.000000
 51
353.205618
  0
LINE
  8
MODEL-0
  6
CONTINUOUS
 62
1
 10
407.148957
 20
892.000000
 11
317.615182
 21
892.000000
  0
LINE
  8
MODEL-0
  6
CONTINUOUS
 62
1
 10
315.916370
 20
891.055480
 11
302.834487
 21
870.000000
  0
LINE
  8
MODEL-0
  6
CONTINUOUS
 62
1
 10
409.999857
 20
882.000000
 11
409.138025
 21
890.208829
  0
LINE
  8
MODEL-0
  6
CONTINUOUS
 62
1
 10
409.999857
 20
882.000000
 11
366.261761
 21
871.000000
  0
ARC
  8
MODEL-0
  6
CONTINUOUS
 62
1
 10
317.615182
 20
890.000000
 40
2.000000
 50
90.000000
 51
148.147095
  0
ARC
  8
MODEL-0
  6
CONTINUOUS
 62
1
 10
407.148957
 20
890.000000
 40
2.000000
 50
5.993435
 51
90.000000
  0
ARC
  8
MODEL-0
  6
CONTINUOUS
 62
1
 10
594.875785
 20
868.000000
 40
3.000000
 50
41.810315
 51
90.000000
  0
LINE
  8
MODEL-0
  6
CONTINUOUS
 62
1
 10
492.850585
 20
892.000000
 11
582.384361
 21
892.000000
  0
LINE
  8
MODEL-0
  6
CONTINUOUS
 62
1
 10
584.083172
 20
891.055480
 11
597.165055
 21
870.000000
  0
LINE
  8
MODEL-0
  6
CONTINUOUS
 62
1
 10
489.999686
 20
882.000000
 11
490.861517
 21
890.208829
  0
LINE
  8
MODEL-0
  6
CONTINUOUS
 62
1
 10
489.999686
 20
882.000000
 11
533.737781
 21
871.000000
  0
ARC
  8
MODEL-0
  6
CONTINUOUS
 62
1
 10
582.384361
 20
890.000000
 40
2.000000
 50
31.852905
 51
90.000000
  0
ARC
  8
MODEL-0
  6
CONTINUOUS
 62
1
 10
492.850585
 20
890.000000
 40
2.000000
 50
90.000000
 51
174.006565
  0
LINE
  8
MODEL-0
  6
CONTINUOUS
 62
1
 10
395.397262
 20
872.763375
 11
396.080715
 21
878.499377
  0
LINE
  8
MODEL-0
  6
CONTINUOUS
 62
1
 10
404.594110
 20
872.763391
 11
403.682912
 21
880.411307
  0
ARC
  8
MODEL-0
  6
CONTINUOUS
 62
3
 10
393.411310
 20
873.000004
 40
2.000000
 50
270.000000
 51
353.205160
  0
ARC
  8
MODEL-0
  6
CONTINUOUS
 62
1
 10
406.580065
 20
873.000004
 40
2.000000
 50
186.794382
 51
270.000000
  0
LINE
  8
MODEL-0
  6
CONTINUOUS
 62
1
 10
495.397294
 20
872.763375
 11
496.308791
 21
880.413279
  0
LINE
  8
MODEL-0
  6
CONTINUOUS
 62
1
 10
504.594143
 20
872.763391
 11
503.910488
 21
878.501475
  0
ARC
  8
MODEL-0
  6
CONTINUOUS
 62
3
 10
493.411342
 20
873.000004
 40
2.000000
 50
270.000000
 51
353.205160
  0
ARC
  8
MODEL-0
  6
CONTINUOUS
 62
1
 10
506.580097
 20
873.000004
 40
2.000000
 50
186.794382
 51
270.000000
  0
LINE
  8
MODEL-0
  6
CONTINUOUS
 62
1
 10
597.111853
 20
870.000000
 11
302.887689
 21
870.000000
  0
ARC
  8
MODEL-0
  6
CONTINUOUS
 62
1
 10
605.123757
 20
868.000000
 40
3.000000
 50
90.000000
 51
138.189685
  0
LINE
  8
MODEL-0
  6
CONTINUOUS
 62
1
 10
605.123757
 20
871.000000
 11
743.415431
 21
871.000000
  0
LINE
  8
MODEL-0
  6
CONTINUOUS
 62
1
 10
743.415431
 20
871.000000
 11
894.875785
 21
871.000000
  0
LINE
  8
MODEL-0
  6
CONTINUOUS
 62
1
 10
754.598234
 20
872.763371
 11
753.497676
 21
882.000000
  0
LINE
  8
MODEL-0
  6
CONTINUOUS
 62
1
 10
745.401385
 20
872.763386
 11
746.501866
 21
882.000000
  0
ARC
  8
MODEL-0
  6
CONTINUOUS
 62
1
 10
749.999856
 20
890.000004
 40
2.000000
 50
10.374397
 51
169.624476
  0
LINE
  8
MODEL-0
  6
CONTINUOUS
 62
1
 10
746.501866
 20
882.000000
 11
748.032559
 21
890.360202
  0
LINE
  8
MODEL-0
  6
CONTINUOUS
 62
1
 10
753.497676
 20
882.000000
 11
751.967160
 21
890.360163
  0
ARC
  8
MODEL-0
  6
CONTINUOUS
 62
1
 10
756.584186
 20
873.000000
 40
2.000000
 50
186.794840
 51
270.000000
  0
ARC
  8
MODEL-0
  6
CONTINUOUS
 62
1
 10
743.415431
 20
873.000000
 40
2.000000
 50
270.000000
 51
353.205618
  0
LINE
  8
MODEL-0
  6
CONTINUOUS
 62
1
 10
707.148957
 20
892.000000
 11
617.615182
 21
892.000000
  0
LINE
  8
MODEL-0
  6
CONTINUOUS
 62
1
 10
615.916370
 20
891.055480
 11
602.834487
 21
870.000000
  0
LINE
  8
MODEL-0
  6
CONTINUOUS
 62
1
 10
709.999857
 20
882.000000
 11
709.138025
 21
890.208829
  0
LINE
  8
MODEL-0
  6
CONTINUOUS
 62
1
 10
709.999857
 20
882.000000
 11
666.261761
 21
871.000000
  0
ARC
  8
MODEL-0
  6
CONTINUOUS
 62
1
 10
617.615182
 20
890.000000
 40
2.000000
 50
90.000000
 51
148.147095
  0
ARC
  8
MODEL-0
  6
CONTINUOUS
 62
1
 10
707.148957
 20
890.000000
 40
2.000000
 50
5.993435
 51
90.000000
  0
ARC
  8
MODEL-0
  6
CONTINUOUS
 62
1
 10
894.875785
 20
868.000000
 40
3.000000
 50
41.810315
 51
90.000000
  0
LINE
  8
MODEL-0
  6
CONTINUOUS
 62
1
 10
792.850585
 20
892.000000
 11
882.384361
 21
892.000000
  0
LINE
  8
MODEL-0
  6
CONTINUOUS
 62
1
 10
884.083172
 20
891.055480
 11
897.165055
 21
870.000000
  0
LINE
  8
MODEL-0
  6
CONTINUOUS
 62
1
 10
789.999686
 20
882.000000
 11
790.861517
 21
890.208829
  0
LINE
  8
MODEL-0
  6
CONTINUOUS
 62
1
 10
789.999686
 20
882.000000
 11
833.737781
 21
871.000000
  0
ARC
  8
MODEL-0
  6
CONTINUOUS
 62
1
 10
882.384361
 20
890.000000
 40
2.000000
 50
31.852905
 51
90.000000
  0
ARC
  8
MODEL-0
  6
CONTINUOUS
 62
1
 10
792.850585
 20
890.000000
 40
2.000000
 50
90.000000
 51
174.006565
  0
LINE
  8
MODEL-0
  6
CONTINUOUS
 62
1
 10
695.397262
 20
872.763375
 11
696.080715
 21
878.499377
  0
LINE
  8
MODEL-0
  6
CONTINUOUS
 62
1
 10
704.594110
 20
872.763391
 11
703.682912
 21
880.411307
  0
ARC
  8
MODEL-0
  6
CONTINUOUS
 62
3
 10
693.411310
 20
873.000004
 40
2.000000
 50
270.000000
 51
353.205160
  0
ARC
  8
MODEL-0
  6
CONTINUOUS
 62
1
 10
706.580065
 20
873.000004
 40
2.000000
 50
186.794382
 51
270.000000
  0
LINE
  8
MODEL-0
  6
CONTINUOUS
 62
1
 10
795.397294
 20
872.763375
 11
796.308791
 21
880.413279
  0
LINE
  8
MODEL-0
  6
CONTINUOUS
 62
1
 10
804.594143
 20
872.763391
 11
803.910488
 21
878.501475
  0
ARC
  8
MODEL-0
  6
CONTINUOUS
 62
3
 10
793.411342
 20
873.000004
 40
2.000000
 50
270.000000
 51
353.205160
  0
ARC
  8
MODEL-0
  6
CONTINUOUS
 62
1
 10
806.580097
 20
873.000004
 40
2.000000
 50
186.794382
 51
270.000000
  0
LINE
  8
MODEL-0
  6
CONTINUOUS
 62
1
 10
897.111853
 20
870.000000
 11
602.887689
 21
870.000000
  0
LINE
  8
MODEL-0
  6
CONTINUOUS
 62
1
 10
842.999748
 20
829.155994
 11
56.999840
 21
829.155994
  0
LINE
  8
MODEL-0
  6
CONTINUOUS
 62
1
 10
842.999748
 20
829.155994
 11
842.999748
 21
828.255970
  0
LINE
  8
MODEL-0
  6
CONTINUOUS
 62
1
 10
898.999870
 20
828.255970
 11
869.999855
 21
828.255979
  0
LINE
  8
MODEL-0
  6
CONTINUOUS
 62
1
 10
869.999855
 20
828.255979
 11
869.999855
 21
832.000000
  0
LINE
  8
MODEL-0
  6
CONTINUOUS
 62
1
 10
854.999855
 20
832.000000
 11
854.999855
 21
828.255979
  0
LINE
  8
MODEL-0
  6
CONTINUOUS
 62
1
 10
854.999855
 20
828.255979
 11
842.999748
 21
828.255970
  0
LINE
  8
MODEL-0
  6
CONTINUOUS
 62
1
 10
56.999840
 20
829.155994
 11
56.999840
 21
828.255970
  0
LINE
  8
MODEL-0
  6
CONTINUOUS
 62
1
 10
0.999718
 20
828.255970
 11
29.999733
 21
828.255979
  0
LINE
  8
MODEL-0
  6
CONTINUOUS
 62
1
 10
29.999733
 20
828.255979
 11
29.999733
 21
832.000000
  0
LINE
  8
MODEL-0
  6
CONTINUOUS
 62
1
 10
44.999733
 20
832.000000
 11
44.999733
 21
828.255979
  0
LINE
  8
MODEL-0
  6
CONTINUOUS
 62
1
 10
44.999733
 20
828.255979
 11
56.999840
 21
828.255970
  0
LINE
  8
MODEL-0
  6
CONTINUOUS
 62
1
 10
134.324502
 20
635.000000
 11
322.176065
 21
635.000000
  0
LINE
  8
MODEL-0
  6
CONTINUOUS
 62
1
 10
134.324502
 20
605.000000
 11
322.176065
 21
605.000000
  0
ARC
  8
MODEL-0
  6
CONTINUOUS
 62
1
 10
172.750567
 20
620.000000
 40
46.250000
 50
168.239471
 51
191.760529
  0
ARC
  8
MODEL-0
  6
CONTINUOUS
 62
1
 10
134.324502
 20
628.000000
 40
7.000000
 50
90.000000
 51
168.239471
  0
ARC
  8
MODEL-0
  6
CONTINUOUS
 62
1
 10
134.324502
 20
612.000000
 40
7.000000
 50
191.760529
 51
270.000000
  0
ARC
  8
MODEL-0
  6
CONTINUOUS
 62
1
 10
283.750000
 20
620.000000
 40
46.250000
 50
348.239471
 51
11.760529
  0
ARC
  8
MODEL-0
  6
CONTINUOUS
 62
1
 10
322.176065
 20
612.000000
 40
7.000000
 50
270.000000
 51
348.239471
  0
ARC
  8
MODEL-0
  6
CONTINUOUS
 62
1
 10
322.176065
 20
628.000000
 40
7.000000
 50
11.760529
 51
90.000000
  0
LINE
  8
MODEL-0
  6
CONTINUOUS
 62
1
 10
665.675499
 20
635.000000
 11
477.823935
 21
635.000000
  0
LINE
  8
MODEL-0
  6
CONTINUOUS
 62
1
 10
665.675499
 20
605.000000
 11
477.823935
 21
605.000000
  0
ARC
  8
MODEL-0
  6
CONTINUOUS
 62
1
 10
627.249433
 20
620.000000
 40
46.250000
 50
348.239471
 51
11.760529
  0
ARC
  8
MODEL-0
  6
CONTINUOUS
 62
1
 10
665.675499
 20
628.000000
 40
7.000000
 50
11.760529
 51
90.000000
  0
ARC
  8
MODEL-0
  6
CONTINUOUS
 62
1
 10
665.675499
 20
612.000000
 40
7.000000
 50
270.000000
 51
348.239471
  0
ARC
  8
MODEL-0
  6
CONTINUOUS
 62
1
 10
516.250000
 20
620.000000
 40
46.250000
 50
168.239471
 51
191.760529
  0
ARC
  8
MODEL-0
  6
CONTINUOUS
 62
1
 10
477.823935
 20
612.000000
 40
7.000000
 50
191.760529
 51
270.000000
  0
ARC
  8
MODEL-0
  6
CONTINUOUS
 62
1
 10
477.823935
 20
628.000000
 40
7.000000
 50
90.000000
 51
168.239471
  0
ARC
  8
MODEL-0
  6
CONTINUOUS
 62
1
 10
103.147664
 20
778.517256
 40
28.318328
 50
300.452035
 51
313.716989
  0
ARC
  8
MODEL-0
  6
CONTINUOUS
 62
1
 10
103.815039
 20
777.820163
 40
27.353275
 50
313.715742
 51
327.291546
  0
ARC
  8
MODEL-0
  6
CONTINUOUS
 62
1
 10
104.528044
 20
777.359258
 40
26.504274
 50
327.297031
 51
341.161942
  0
ARC
  8
MODEL-0
  6
CONTINUOUS
 62
1
 10
105.051232
 20
777.175227
 40
25.949688
 50
341.173509
 51
355.235700
  0
ARC
  8
MODEL-0
  6
CONTINUOUS
 62
1
 10
105.198201
 20
777.156205
 40
25.801648
 50
355.250688
 51
9.366762
  0
ARC
  8
MODEL-0
  6
CONTINUOUS
 62
1
 10
104.914880
 20
777.102924
 40
26.089864
 50
9.380948
 51
23.392680
  0
ARC
  8
MODEL-0
  6
CONTINUOUS
 62
1
 10
104.304285
 20
776.833866
 40
26.757096
 50
23.402355
 51
37.179579
  0
ARC
  8
MODEL-0
  6
CONTINUOUS
 62
1
 10
103.580986
 20
776.283275
 40
27.666111
 50
37.182852
 51
50.655882
  0
ARC
  8
MODEL-0
  6
CONTINUOUS
 62
1
 10
102.972115
 20
775.543073
 40
28.624558
 50
50.652677
 51
63.822608
  0
ARC
  8
MODEL-0
  6
CONTINUOUS
 62
1
 10
102.615668
 20
774.827668
 40
29.423833
 50
63.814263
 51
76.744102
  0
ARC
  8
MODEL-0
  6
CONTINUOUS
 62
1
 10
102.504103
 20
774.380202
 40
29.884960
 50
76.732623
 51
89.528812
  0
ARC
  8
MODEL-0
  6
CONTINUOUS
 62
1
 10
102.293016
 20
779.259646
 40
29.181834
 50
239.741909
 51
251.957476
  0
ARC
  8
MODEL-0
  6
CONTINUOUS
 62
1
 10
102.473333
 20
779.798532
 40
29.750069
 50
251.948724
 51
264.007970
  0
ARC
  8
MODEL-0
  6
CONTINUOUS
 62
1
 10
102.499870
 20
780.000445
 40
29.953650
 50
263.997804
 51
276.002196
  0
ARC
  8
MODEL-0
  6
CONTINUOUS
 62
1
 10
102.526408
 20
779.798536
 40
29.750074
 50
275.992028
 51
288.051274
  0
ARC
  8
MODEL-0
  6
CONTINUOUS
 62
1
 10
102.706725
 20
779.259646
 40
29.181834
 50
288.042524
 51
300.258091
  0
ARC
  8
MODEL-0
  6
CONTINUOUS
 62
1
 10
168.773315
 20
777.352509
 40
56.297394
 50
194.674621
 51
204.365579
  0
ARC
  8
MODEL-0
  6
CONTINUOUS
 62
1
 10
168.132929
 20
777.180467
 40
55.634315
 50
184.902469
 51
194.670294
  0
ARC
  8
MODEL-0
  6
CONTINUOUS
 62
1
 10
167.904862
 20
777.155994
 40
55.404991
 50
175.102591
 51
184.897409
  0
ARC
  8
MODEL-0
  6
CONTINUOUS
 62
1
 10
168.132935
 20
777.131522
 40
55.634320
 50
165.329707
 51
175.097532
  0
ARC
  8
MODEL-0
  6
CONTINUOUS
 62
1
 10
168.773315
 20
776.959480
 40
56.297394
 50
155.634421
 51
165.325379
  0
ARC
  8
MODEL-0
  6
CONTINUOUS
 62
1
 10
36.226426
 20
776.959480
 40
56.297394
 50
14.674621
 51
24.365579
  0
ARC
  8
MODEL-0
  6
CONTINUOUS
 62
1
 10
36.866806
 20
777.131522
 40
55.634320
 50
4.902468
 51
14.670293
  0
ARC
  8
MODEL-0
  6
CONTINUOUS
 62
1
 10
37.094879
 20
777.155994
 40
55.404991
 50
355.102591
 51
4.897409
  0
ARC
  8
MODEL-0
  6
CONTINUOUS
 62
1
 10
36.866812
 20
777.180467
 40
55.634315
 50
345.329706
 51
355.097531
  0
ARC
  8
MODEL-0
  6
CONTINUOUS
 62
1
 10
36.226426
 20
777.352509
 40
56.297394
 50
335.634421
 51
345.325379
  0
ARC
  8
MODEL-0
  6
CONTINUOUS
 62
1
 10
102.495637
 20
774.380197
 40
29.884964
 50
90.471187
 51
103.267376
  0
ARC
  8
MODEL-0
  6
CONTINUOUS
 62
1
 10
102.384073
 20
774.827673
 40
29.423829
 50
103.255901
 51
116.185740
  0
ARC
  8
MODEL-0
  6
CONTINUOUS
 62
1
 10
102.027626
 20
775.543073
 40
28.624558
 50
116.177392
 51
129.347323
  0
ARC
  8
MODEL-0
  6
CONTINUOUS
 62
1
 10
101.418755
 20
776.283275
 40
27.666111
 50
129.344118
 51
142.817148
  0
ARC
  8
MODEL-0
  6
CONTINUOUS
 62
1
 10
100.695456
 20
776.833866
 40
26.757096
 50
142.820421
 51
156.597645
  0
ARC
  8
MODEL-0
  6
CONTINUOUS
 62
1
 10
100.084861
 20
777.102924
 40
26.089864
 50
156.607320
 51
170.619052
  0
ARC
  8
MODEL-0
  6
CONTINUOUS
 62
1
 10
99.801540
 20
777.156201
 40
25.801648
 50
170.633229
 51
184.749303
  0
ARC
  8
MODEL-0
  6
CONTINUOUS
 62
1
 10
99.948508
 20
777.175227
 40
25.949688
 50
184.764300
 51
198.826491
  0
ARC
  8
MODEL-0
  6
CONTINUOUS
 62
1
 10
100.471697
 20
777.359262
 40
26.504276
 50
198.838066
 51
212.702977
  0
ARC
  8
MODEL-0
  6
CONTINUOUS
 62
1
 10
101.184702
 20
777.820163
 40
27.353275
 50
212.708454
 51
226.284258
  0
ARC
  8
MODEL-0
  6
CONTINUOUS
 62
1
 10
101.852077
 20
778.517251
 40
28.318324
 50
226.283006
 51
239.547960
  0
ARC
  8
MODEL-0
  6
CONTINUOUS
 62
1
 10
102.512936
 20
774.935093
 40
24.573546
 50
72.917411
 51
86.532724
  0
ARC
  8
MODEL-0
  6
CONTINUOUS
 62
1
 10
102.666210
 20
775.415493
 40
24.069317
 50
59.124940
 51
72.930252
  0
ARC
  8
MODEL-0
  6
CONTINUOUS
 62
1
 10
102.418397
 20
799.525093
 40
1.419094
 50
182.481222
 51
242.527366
  0
ARC
  8
MODEL-0
  6
CONTINUOUS
 62
1
 10
102.499870
 20
799.649689
 40
1.567294
 50
241.986084
 51
298.013916
  0
ARC
  8
MODEL-0
  6
CONTINUOUS
 62
1
 10
102.581343
 20
799.525093
 40
1.419094
 50
297.472634
 51
357.518778
  0
ARC
  8
MODEL-0
  6
CONTINUOUS
 62
1
 10
102.493956
 20
804.271516
 40
0.244194
 50
181.728444
 51
271.387746
  0
ARC
  8
MODEL-0
  6
CONTINUOUS
 62
1
 10
102.505784
 20
804.271517
 40
0.244195
 50
268.612139
 51
358.271441
  0
ARC
  8
MODEL-0
  6
CONTINUOUS
 62
1
 10
102.333530
 20
775.415489
 40
24.069321
 50
107.069744
 51
120.875056
  0
ARC
  8
MODEL-0
  6
CONTINUOUS
 62
1
 10
102.486805
 20
774.935098
 40
24.573542
 50
93.467278
 51
107.082591
  0
ARC
  8
MODEL-0
  6
CONTINUOUS
 62
1
 10
102.680236
 20
778.868338
 40
24.037952
 50
288.409526
 51
300.880807
  0
ARC
  8
MODEL-0
  6
CONTINUOUS
 62
1
 10
102.523034
 20
779.328301
 40
24.524021
 50
276.113026
 51
288.418633
  0
ARC
  8
MODEL-0
  6
CONTINUOUS
 62
1
 10
102.499871
 20
779.501045
 40
24.698250
 50
263.876219
 51
276.123781
  0
ARC
  8
MODEL-0
  6
CONTINUOUS
 62
1
 10
102.476707
 20
779.328301
 40
24.524021
 50
251.581367
 51
263.886974
  0
ARC
  8
MODEL-0
  6
CONTINUOUS
 62
1
 10
102.319504
 20
778.868342
 40
24.037956
 50
239.119198
 51
251.590478
  0
LINE
  8
MODEL-0
  6
CONTINUOUS
 62
1
 10
101.000634
 20
799.463658
 11
102.249873
 21
804.264151
  0
LINE
  8
MODEL-0
  6
CONTINUOUS
 62
1
 10
102.749868
 20
804.264151
 11
103.999106
 21
799.463658
  0
ARC
  8
MODEL-0
  6
CONTINUOUS
 62
1
 10
114.543812
 20
795.260597
 40
0.941352
 50
0.504736
 51
59.766558
  0
ARC
  8
MODEL-0
  6
CONTINUOUS
 62
1
 10
114.576375
 20
759.042821
 40
0.908753
 50
0.017441
 51
18.700435
  0
ARC
  8
MODEL-0
  6
CONTINUOUS
 62
1
 10
90.444995
 20
795.268482
 40
0.929052
 50
119.895761
 51
198.232706
  0
ARC
  8
MODEL-0
  6
CONTINUOUS
 62
1
 10
114.576378
 20
795.269167
 40
0.908750
 50
341.299534
 51
359.982527
  0
ARC
  8
MODEL-0
  6
CONTINUOUS
 62
1
 10
114.543813
 20
759.051391
 40
0.941351
 50
300.233411
 51
359.495233
  0
ARC
  8
MODEL-0
  6
CONTINUOUS
 62
1
 10
90.444996
 20
759.043508
 40
0.929052
 50
161.767277
 51
240.104222
  0
ARC
  8
MODEL-0
  6
CONTINUOUS
 62
1
 10
102.496099
 20
773.977180
 40
34.092786
 50
90.472776
 51
102.199686
  0
ARC
  8
MODEL-0
  6
CONTINUOUS
 62
1
 10
102.396396
 20
774.413524
 40
33.645227
 50
102.190758
 51
114.021671
  0
ARC
  8
MODEL-0
  6
CONTINUOUS
 62
1
 10
102.071145
 20
775.133452
 40
32.855247
 50
114.014675
 51
126.034838
  0
ARC
  8
MODEL-0
  6
CONTINUOUS
 62
1
 10
101.491632
 20
775.926654
 40
31.872903
 50
126.031232
 51
138.297533
  0
ARC
  8
MODEL-0
  6
CONTINUOUS
 62
1
 10
100.749931
 20
776.588135
 40
30.879083
 50
138.298353
 51
150.826987
  0
ARC
  8
MODEL-0
  6
CONTINUOUS
 62
1
 10
100.030263
 20
776.993206
 40
30.053252
 50
150.832492
 51
163.590069
  0
ARC
  8
MODEL-0
  6
CONTINUOUS
 62
1
 10
99.538807
 20
777.143061
 40
29.539482
 50
163.599594
 51
176.504989
  0
ARC
  8
MODEL-0
  6
CONTINUOUS
 62
1
 10
99.425462
 20
777.155920
 40
29.425564
 50
176.516526
 51
189.455275
  0
ARC
  8
MODEL-0
  6
CONTINUOUS
 62
1
 10
99.725515
 20
777.211633
 40
29.730693
 50
189.466192
 51
202.316070
  0
ARC
  8
MODEL-0
  6
CONTINUOUS
 62
1
 10
100.345974
 20
777.470803
 40
30.403093
 50
202.323910
 51
214.983242
  0
ARC
  8
MODEL-0
  6
CONTINUOUS
 62
1
 10
101.101959
 20
778.002051
 40
31.327071
 50
214.986586
 51
227.395255
  0
ARC
  8
MODEL-0
  6
CONTINUOUS
 62
1
 10
101.787550
 20
778.746416
 40
32.339055
 50
227.393953
 51
239.541874
  0
ARC
  8
MODEL-0
  6
CONTINUOUS
 62
1
 10
103.212190
 20
778.746416
 40
32.339055
 50
300.458126
 51
312.606047
  0
ARC
  8
MODEL-0
  6
CONTINUOUS
 62
1
 10
103.897781
 20
778.002051
 40
31.327071
 50
312.604745
 51
325.013414
  0
ARC
  8
MODEL-0
  6
CONTINUOUS
 62
1
 10
104.653766
 20
777.470803
 40
30.403093
 50
325.016758
 51
337.676090
  0
ARC
  8
MODEL-0
  6
CONTINUOUS
 62
1
 10
105.274226
 20
777.211638
 40
29.730694
 50
337.683921
 51
350.533800
  0
ARC
  8
MODEL-0
  6
CONTINUOUS
 62
1
 10
105.574279
 20
777.155920
 40
29.425564
 50
350.544725
 51
3.483474
  0
ARC
  8
MODEL-0
  6
CONTINUOUS
 62
1
 10
105.460933
 20
777.143057
 40
29.539482
 50
3.495020
 51
16.400414
  0
ARC
  8
MODEL-0
  6
CONTINUOUS
 62
1
 10
104.969478
 20
776.993211
 40
30.053250
 50
16.409923
 51
29.167500
  0
ARC
  8
MODEL-0
  6
CONTINUOUS
 62
1
 10
104.249810
 20
776.588131
 40
30.879085
 50
29.173020
 51
41.701654
  0
ARC
  8
MODEL-0
  6
CONTINUOUS
 62
1
 10
103.508108
 20
775.926654
 40
31.872903
 50
41.702467
 51
53.968768
  0
ARC
  8
MODEL-0
  6
CONTINUOUS
 62
1
 10
102.928596
 20
775.133457
 40
32.855242
 50
53.965158
 51
65.985321
  0
ARC
  8
MODEL-0
  6
CONTINUOUS
 62
1
 10
102.603344
 20
774.413519
 40
33.645232
 50
65.978331
 51
77.809244
  0
ARC
  8
MODEL-0
  6
CONTINUOUS
 62
1
 10
102.503641
 20
773.977180
 40
34.092786
 50
77.800314
 51
89.527224
  0
ARC
  8
MODEL-0
  6
CONTINUOUS
 62
1
 10
102.263990
 20
779.554894
 40
33.277531
 50
239.741898
 51
251.957466
  0
ARC
  8
MODEL-0
  6
CONTINUOUS
 62
1
 10
102.469606
 20
780.169417
 40
33.925521
 50
251.948729
 51
264.007974
  0
ARC
  8
MODEL-0
  6
CONTINUOUS
 62
1
 10
102.499870
 20
780.399669
 40
34.157674
 50
263.997804
 51
276.002196
  0
ARC
  8
MODEL-0
  6
CONTINUOUS
 62
1
 10
102.530135
 20
780.169413
 40
33.925516
 50
275.992027
 51
288.051273
  0
ARC
  8
MODEL-0
  6
CONTINUOUS
 62
1
 10
102.735751
 20
779.554898
 40
33.277535
 50
288.042531
 51
300.258099
  0
LINE
  8
MODEL-0
  6
CONTINUOUS
 62
1
 10
103.996812
 20
799.418122
 11
103.996812
 21
757.231609
  0
LINE
  8
MODEL-0
  6
CONTINUOUS
 62
1
 10
101.000634
 20
799.463658
 11
101.000634
 21
757.231765
  0
ARC
  8
MODEL-0
  6
CONTINUOUS
 62
1
 10
102.498721
 20
757.180794
 40
1.498086
 50
180.000000
 51
1.942686
  0
ARC
  8
MODEL-0
  6
CONTINUOUS
 62
1
 10
198.147664
 20
778.517256
 40
28.318328
 50
300.452035
 51
313.716989
  0
ARC
  8
MODEL-0
  6
CONTINUOUS
 62
1
 10
198.815039
 20
777.820163
 40
27.353275
 50
313.715742
 51
327.291546
  0
ARC
  8
MODEL-0
  6
CONTINUOUS
 62
1
 10
199.528044
 20
777.359258
 40
26.504274
 50
327.297031
 51
341.161942
  0
ARC
  8
MODEL-0
  6
CONTINUOUS
 62
1
 10
200.051232
 20
777.175227
 40
25.949688
 50
341.173509
 51
355.235700
  0
ARC
  8
MODEL-0
  6
CONTINUOUS
 62
1
 10
200.198201
 20
777.156205
 40
25.801648
 50
355.250688
 51
9.366762
  0
ARC
  8
MODEL-0
  6
CONTINUOUS
 62
1
 10
199.914880
 20
777.102924
 40
26.089864
 50
9.380948
 51
23.392680
  0
ARC
  8
MODEL-0
  6
CONTINUOUS
 62
1
 10
199.304285
 20
776.833866
 40
26.757096
 50
23.402355
 51
37.179579
  0
ARC
  8
MODEL-0
  6
CONTINUOUS
 62
1
 10
198.580986
 20
776.283275
 40
27.666111
 50
37.182852
 51
50.655882
  0
ARC
  8
MODEL-0
  6
CONTINUOUS
 62
1
 10
197.972115
 20
775.543073
 40
28.624558
 50
50.652677
 51
63.822608
  0
ARC
  8
MODEL-0
  6
CONTINUOUS
 62
1
 10
197.615668
 20
774.827668
 40
29.423833
 50
63.814263
 51
76.744102
  0
ARC
  8
MODEL-0
  6
CONTINUOUS
 62
1
 10
197.504103
 20
774.380202
 40
29.884960
 50
76.732623
 51
89.528812
  0
ARC
  8
MODEL-0
  6
CONTINUOUS
 62
1
 10
197.293016
 20
779.259646
 40
29.181834
 50
239.741909
 51
251.957476
  0
ARC
  8
MODEL-0
  6
CONTINUOUS
 62
1
 10
197.473333
 20
779.798532
 40
29.750069
 50
251.948724
 51
264.007970
  0
ARC
  8
MODEL-0
  6
CONTINUOUS
 62
1
 10
197.499870
 20
780.000445
 40
29.953650
 50
263.997804
 51
276.002196
  0
ARC
  8
MODEL-0
  6
CONTINUOUS
 62
1
 10
197.526408
 20
779.798536
 40
29.750074
 50
275.992028
 51
288.051274
  0
ARC
  8
MODEL-0
  6
CONTINUOUS
 62
1
 10
197.706725
 20
779.259646
 40
29.181834
 50
288.042524
 51
300.258091
  0
ARC
  8
MODEL-0
  6
CONTINUOUS
 62
1
 10
263.773315
 20
777.352509
 40
56.297394
 50
194.674621
 51
204.365579
  0
ARC
  8
MODEL-0
  6
CONTINUOUS
 62
1
 10
263.132929
 20
777.180467
 40
55.634315
 50
184.902469
 51
194.670294
  0
ARC
  8
MODEL-0
  6
CONTINUOUS
 62
1
 10
262.904862
 20
777.155994
 40
55.404991
 50
175.102591
 51
184.897409
  0
ARC
  8
MODEL-0
  6
CONTINUOUS
 62
1
 10
263.132935
 20
777.131522
 40
55.634320
 50
165.329707
 51
175.097532
  0
ARC
  8
MODEL-0
  6
CONTINUOUS
 62
1
 10
263.773315
 20
776.959480
 40
56.297394
 50
155.634421
 51
165.325379
  0
ARC
  8
MODEL-0
  6
CONTINUOUS
 62
1
 10
131.226426
 20
776.959480
 40
56.297394
 50
14.674621
 51
24.365579
  0
ARC
  8
MODEL-0
  6
CONTINUOUS
 62
1
 10
131.866806
 20
777.131522
 40
55.634320
 50
4.902468
 51
14.670293
  0
ARC
  8
MODEL-0
  6
CONTINUOUS
 62
1
 10
132.094879
 20
777.155994
 40
55.404991
 50
355.102591
 51
4.897409
  0
ARC
  8
MODEL-0
  6
CONTINUOUS
 62
1
 10
131.866812
 20
777.180467
 40
55.634315
 50
345.329706
 51
355.097531
  0
ARC
  8
MODEL-0
  6
CONTINUOUS
 62
1
 10
131.226426
 20
777.352509
 40
56.297394
 50
335.634421
 51
345.325379
  0
ARC
  8
MODEL-0
  6
CONTINUOUS
 62
1
 10
197.495637
 20
774.380197
 40
29.884964
 50
90.471187
 51
103.267376
  0
ARC
  8
MODEL-0
  6
CONTINUOUS
 62
1
 10
197.384073
 20
774.827673
 40
29.423829
 50
103.255901
 51
116.185740
  0
ARC
  8
MODEL-0
  6
CONTINUOUS
 62
1
 10
197.027626
 20
775.543073
 40
28.624558
 50
116.177392
 51
129.347323
  0
ARC
  8
MODEL-0
  6
CONTINUOUS
 62
1
 10
196.418755
 20
776.283275
 40
27.666111
 50
129.344118
 51
142.817148
  0
ARC
  8
MODEL-0
  6
CONTINUOUS
 62
1
 10
195.695456
 20
776.833866
 40
26.757096
 50
142.820421
 51
156.597645
  0
ARC
  8
MODEL-0
  6
CONTINUOUS
 62
1
 10
195.084861
 20
777.102924
 40
26.089864
 50
156.607320
 51
170.619052
  0
ARC
  8
MODEL-0
  6
CONTINUOUS
 62
1
 10
194.801540
 20
777.156201
 40
25.801648
 50
170.633229
 51
184.749303
  0
ARC
  8
MODEL-0
  6
CONTINUOUS
 62
1
 10
194.948508
 20
777.175227
 40
25.949688
 50
184.764300
 51
198.826491
  0
ARC
  8
MODEL-0
  6
CONTINUOUS
 62
1
 10
195.471697
 20
777.359262
 40
26.504276
 50
198.838066
 51
212.702977
  0
ARC
  8
MODEL-0
  6
CONTINUOUS
 62
1
 10
196.184702
 20
777.820163
 40
27.353275
 50
212.708454
 51
226.284258
  0
ARC
  8
MODEL-0
  6
CONTINUOUS
 62
1
 10
196.852077
 20
778.517251
 40
28.318324
 50
226.283006
 51
239.547960
  0
ARC
  8
MODEL-0
  6
CONTINUOUS
 62
1
 10
197.512936
 20
774.935093
 40
24.573546
 50
72.917411
 51
86.532724
  0
ARC
  8
MODEL-0
  6
CONTINUOUS
 62
1
 10
197.666210
 20
775.415493
 40
24.069317
 50
59.124940
 51
72.930252
  0
ARC
  8
MODEL-0
  6
CONTINUOUS
 62
1
 10
197.418397
 20
799.525093
 40
1.419094
 50
182.481222
 51
242.527366
  0
ARC
  8
MODEL-0
  6
CONTINUOUS
 62
1
 10
197.499870
 20
799.649689
 40
1.567294
 50
241.986084
 51
298.013916
  0
ARC
  8
MODEL-0
  6
CONTINUOUS
 62
1
 10
197.581343
 20
799.525093
 40
1.419094
 50
297.472634
 51
357.518778
  0
ARC
  8
MODEL-0
  6
CONTINUOUS
 62
1
 10
197.493956
 20
804.271516
 40
0.244194
 50
181.728444
 51
271.387746
  0
ARC
  8
MODEL-0
  6
CONTINUOUS
 62
1
 10
197.505784
 20
804.271517
 40
0.244195
 50
268.612139
 51
358.271441
  0
ARC
  8
MODEL-0
  6
CONTINUOUS
 62
1
 10
197.333530
 20
775.415489
 40
24.069321
 50
107.069744
 51
120.875056
  0
ARC
  8
MODEL-0
  6
CONTINUOUS
 62
1
 10
197.486805
 20
774.935098
 40
24.573542
 50
93.467278
 51
107.082591
  0
ARC
  8
MODEL-0
  6
CONTINUOUS
 62
1
 10
197.680236
 20
778.868338
 40
24.037952
 50
288.409526
 51
300.880807
  0
ARC
  8
MODEL-0
  6
CONTINUOUS
 62
1
 10
197.523034
 20
779.328301
 40
24.524021
 50
276.113026
 51
288.418633
  0
ARC
  8
MODEL-0
  6
CONTINUOUS
 62
1
 10
197.499871
 20
779.501045
 40
24.698250
 50
263.876219
 51
276.123781
  0
ARC
  8
MODEL-0
  6
CONTINUOUS
 62
1
 10
197.476707
 20
779.328301
 40
24.524021
 50
251.581367
 51
263.886974
  0
ARC
  8
MODEL-0
  6
CONTINUOUS
 62
1
 10
197.319504
 20
778.868342
 40
24.037956
 50
239.119198
 51
251.590478
  0
LINE
  8
MODEL-0
  6
CONTINUOUS
 62
1
 10
196.000634
 20
799.463658
 11
197.249873
 21
804.264151
  0
LINE
  8
MODEL-0
  6
CONTINUOUS
 62
1
 10
197.749868
 20
804.264151
 11
198.999106
 21
799.463658
  0
ARC
  8
MODEL-0
  6
CONTINUOUS
 62
1
 10
209.543812
 20
795.260597
 40
0.941352
 50
0.504736
 51
59.766558
  0
ARC
  8
MODEL-0
  6
CONTINUOUS
 62
1
 10
209.576375
 20
759.042821
 40
0.908753
 50
0.017441
 51
18.700435
  0
ARC
  8
MODEL-0
  6
CONTINUOUS
 62
1
 10
185.444995
 20
795.268482
 40
0.929052
 50
119.895761
 51
198.232706
  0
ARC
  8
MODEL-0
  6
CONTINUOUS
 62
1
 10
209.576378
 20
795.269167
 40
0.908750
 50
341.299534
 51
359.982527
  0
ARC
  8
MODEL-0
  6
CONTINUOUS
 62
1
 10
209.543813
 20
759.051391
 40
0.941351
 50
300.233411
 51
359.495233
  0
ARC
  8
MODEL-0
  6
CONTINUOUS
 62
1
 10
185.444996
 20
759.043508
 40
0.929052
 50
161.767277
 51
240.104222
  0
ARC
  8
MODEL-0
  6
CONTINUOUS
 62
1
 10
197.496099
 20
773.977180
 40
34.092786
 50
90.472776
 51
102.199686
  0
ARC
  8
MODEL-0
  6
CONTINUOUS
 62
1
 10
197.396396
 20
774.413524
 40
33.645227
 50
102.190758
 51
114.021671
  0
ARC
  8
MODEL-0
  6
CONTINUOUS
 62
1
 10
197.071145
 20
775.133452
 40
32.855247
 50
114.014675
 51
126.034838
  0
ARC
  8
MODEL-0
  6
CONTINUOUS
 62
1
 10
196.491632
 20
775.926654
 40
31.872903
 50
126.031232
 51
138.297533
  0
ARC
  8
MODEL-0
  6
CONTINUOUS
 62
1
 10
195.749931
 20
776.588135
 40
30.879083
 50
138.298353
 51
150.826987
  0
ARC
  8
MODEL-0
  6
CONTINUOUS
 62
1
 10
195.030263
 20
776.993206
 40
30.053252
 50
150.832492
 51
163.590069
  0
ARC
  8
MODEL-0
  6
CONTINUOUS
 62
1
 10
194.538807
 20
777.143061
 40
29.539482
 50
163.599594
 51
176.504989
  0
ARC
  8
MODEL-0
  6
CONTINUOUS
 62
1
 10
194.425462
 20
777.155920
 40
29.425564
 50
176.516526
 51
189.455275
  0
ARC
  8
MODEL-0
  6
CONTINUOUS
 62
1
 10
194.725515
 20
777.211633
 40
29.730693
 50
189.466192
 51
202.316070
  0
ARC
  8
MODEL-0
  6
CONTINUOUS
 62
1
 10
195.345974
 20
777.470803
 40
30.403093
 50
202.323910
 51
214.983242
  0
ARC
  8
MODEL-0
  6
CONTINUOUS
 62
1
 10
196.101959
 20
778.002051
 40
31.327071
 50
214.986586
 51
227.395255
  0
ARC
  8
MODEL-0
  6
CONTINUOUS
 62
1
 10
196.787550
 20
778.746416
 40
32.339055
 50
227.393953
 51
239.541874
  0
ARC
  8
MODEL-0
  6
CONTINUOUS
 62
1
 10
198.212190
 20
778.746416
 40
32.339055
 50
300.458126
 51
312.606047
  0
ARC
  8
MODEL-0
  6
CONTINUOUS
 62
1
 10
198.897781
 20
778.002051
 40
31.327071
 50
312.604745
 51
325.013414
  0
ARC
  8
MODEL-0
  6
CONTINUOUS
 62
1
 10
199.653766
 20
777.470803
 40
30.403093
 50
325.016758
 51
337.676090
  0
ARC
  8
MODEL-0
  6
CONTINUOUS
 62
1
 10
200.274226
 20
777.211638
 40
29.730694
 50
337.683921
 51
350.533800
  0
ARC
  8
MODEL-0
  6
CONTINUOUS
 62
1
 10
200.574279
 20
777.155920
 40
29.425564
 50
350.544725
 51
3.483474
  0
ARC
  8
MODEL-0
  6
CONTINUOUS
 62
1
 10
200.460933
 20
777.143057
 40
29.539482
 50
3.495020
 51
16.400414
  0
ARC
  8
MODEL-0
  6
CONTINUOUS
 62
1
 10
199.969478
 20
776.993211
 40
30.053250
 50
16.409923
 51
29.167500
  0
ARC
  8
MODEL-0
  6
CONTINUOUS
 62
1
 10
199.249810
 20
776.588131
 40
30.879085
 50
29.173020
 51
41.701654
  0
ARC
  8
MODEL-0
  6
CONTINUOUS
 62
1
 10
198.508108
 20
775.926654
 40
31.872903
 50
41.702467
 51
53.968768
  0
ARC
  8
MODEL-0
  6
CONTINUOUS
 62
1
 10
197.928596
 20
775.133457
 40
32.855242
 50
53.965158
 51
65.985321
  0
ARC
  8
MODEL-0
  6
CONTINUOUS
 62
1
 10
197.603344
 20
774.413519
 40
33.645232
 50
65.978331
 51
77.809244
  0
ARC
  8
MODEL-0
  6
CONTINUOUS
 62
1
 10
197.503641
 20
773.977180
 40
34.092786
 50
77.800314
 51
89.527224
  0
ARC
  8
MODEL-0
  6
CONTINUOUS
 62
1
 10
197.263990
 20
779.554894
 40
33.277531
 50
239.741898
 51
251.957466
  0
ARC
  8
MODEL-0
  6
CONTINUOUS
 62
1
 10
197.469606
 20
780.169417
 40
33.925521
 50
251.948729
 51
264.007974
  0
ARC
  8
MODEL-0
  6
CONTINUOUS
 62
1
 10
197.499870
 20
780.399669
 40
34.157674
 50
263.997804
 51
276.002196
  0
ARC
  8
MODEL-0
  6
CONTINUOUS
 62
1
 10
197.530135
 20
780.169413
 40
33.925516
 50
275.992027
 51
288.051273
  0
ARC
  8
MODEL-0
  6
CONTINUOUS
 62
1
 10
197.735751
 20
779.554898
 40
33.277535
 50
288.042531
 51
300.258099
  0
LINE
  8
MODEL-0
  6
CONTINUOUS
 62
1
 10
198.996812
 20
799.418122
 11
198.996812
 21
757.231609
  0
LINE
  8
MODEL-0
  6
CONTINUOUS
 62
1
 10
196.000634
 20
799.463658
 11
196.000634
 21
757.231765
  0
ARC
  8
MODEL-0
  6
CONTINUOUS
 62
1
 10
197.498721
 20
757.180794
 40
1.498086
 50
180.000000
 51
1.942686
  0
ARC
  8
MODEL-0
  6
CONTINUOUS
 62
1
 10
348.615901
 20
778.517251
 40
28.318324
 50
300.452040
 51
313.716994
  0
ARC
  8
MODEL-0
  6
CONTINUOUS
 62
1
 10
349.283276
 20
777.820163
 40
27.353275
 50
313.715742
 51
327.291546
  0
ARC
  8
MODEL-0
  6
CONTINUOUS
 62
1
 10
349.996281
 20
777.359258
 40
26.504274
 50
327.297031
 51
341.161942
  0
ARC
  8
MODEL-0
  6
CONTINUOUS
 62
1
 10
350.519469
 20
777.175231
 40
25.949689
 50
341.173500
 51
355.235691
  0
ARC
  8
MODEL-0
  6
CONTINUOUS
 62
1
 10
350.666438
 20
777.156201
 40
25.801648
 50
355.250697
 51
9.366771
  0
ARC
  8
MODEL-0
  6
CONTINUOUS
 62
1
 10
350.383117
 20
777.102924
 40
26.089864
 50
9.380948
 51
23.392680
  0
ARC
  8
MODEL-0
  6
CONTINUOUS
 62
1
 10
349.772522
 20
776.833866
 40
26.757096
 50
23.402355
 51
37.179579
  0
ARC
  8
MODEL-0
  6
CONTINUOUS
 62
1
 10
349.049223
 20
776.283275
 40
27.666111
 50
37.182852
 51
50.655882
  0
ARC
  8
MODEL-0
  6
CONTINUOUS
 62
1
 10
348.440352
 20
775.543073
 40
28.624558
 50
50.652677
 51
63.822608
  0
ARC
  8
MODEL-0
  6
CONTINUOUS
 62
1
 10
348.083905
 20
774.827668
 40
29.423833
 50
63.814263
 51
76.744102
  0
ARC
  8
MODEL-0
  6
CONTINUOUS
 62
1
 10
347.972340
 20
774.380202
 40
29.884960
 50
76.732623
 51
89.528812
  0
ARC
  8
MODEL-0
  6
CONTINUOUS
 62
1
 10
347.761253
 20
779.259646
 40
29.181834
 50
239.741909
 51
251.957476
  0
ARC
  8
MODEL-0
  6
CONTINUOUS
 62
1
 10
347.941570
 20
779.798532
 40
29.750069
 50
251.948724
 51
264.007970
  0
ARC
  8
MODEL-0
  6
CONTINUOUS
 62
1
 10
347.968107
 20
780.000449
 40
29.953655
 50
263.997804
 51
276.002196
  0
ARC
  8
MODEL-0
  6
CONTINUOUS
 62
1
 10
347.994645
 20
779.798532
 40
29.750069
 50
275.992030
 51
288.051276
  0
ARC
  8
MODEL-0
  6
CONTINUOUS
 62
1
 10
348.174962
 20
779.259646
 40
29.181834
 50
288.042524
 51
300.258091
  0
ARC
  8
MODEL-0
  6
CONTINUOUS
 62
1
 10
414.241552
 20
777.352509
 40
56.297394
 50
194.674621
 51
204.365579
  0
ARC
  8
MODEL-0
  6
CONTINUOUS
 62
1
 10
413.601166
 20
777.180467
 40
55.634315
 50
184.902469
 51
194.670294
  0
ARC
  8
MODEL-0
  6
CONTINUOUS
 62
1
 10
413.373099
 20
777.155994
 40
55.404991
 50
175.102591
 51
184.897409
  0
ARC
  8
MODEL-0
  6
CONTINUOUS
 62
1
 10
413.601172
 20
777.131522
 40
55.634320
 50
165.329707
 51
175.097532
  0
ARC
  8
MODEL-0
  6
CONTINUOUS
 62
1
 10
414.241552
 20
776.959480
 40
56.297394
 50
155.634421
 51
165.325379
  0
ARC
  8
MODEL-0
  6
CONTINUOUS
 62
1
 10
281.694663
 20
776.959480
 40
56.297394
 50
14.674621
 51
24.365579
  0
ARC
  8
MODEL-0
  6
CONTINUOUS
 62
1
 10
282.335043
 20
777.131522
 40
55.634320
 50
4.902468
 51
14.670293
  0
ARC
  8
MODEL-0
  6
CONTINUOUS
 62
1
 10
282.563116
 20
777.155994
 40
55.404991
 50
355.102591
 51
4.897409
  0
ARC
  8
MODEL-0
  6
CONTINUOUS
 62
1
 10
282.335049
 20
777.180467
 40
55.634315
 50
345.329706
 51
355.097531
  0
ARC
  8
MODEL-0
  6
CONTINUOUS
 62
1
 10
281.694663
 20
777.352509
 40
56.297394
 50
335.634421
 51
345.325379
  0
ARC
  8
MODEL-0
  6
CONTINUOUS
 62
1
 10
347.963875
 20
774.380202
 40
29.884960
 50
90.471188
 51
103.267377
  0
ARC
  8
MODEL-0
  6
CONTINUOUS
 62
1
 10
347.852310
 20
774.827668
 40
29.423833
 50
103.255898
 51
116.185737
  0
ARC
  8
MODEL-0
  6
CONTINUOUS
 62
1
 10
347.495863
 20
775.543073
 40
28.624558
 50
116.177392
 51
129.347323
  0
ARC
  8
MODEL-0
  6
CONTINUOUS
 62
1
 10
346.886992
 20
776.283275
 40
27.666111
 50
129.344118
 51
142.817148
  0
ARC
  8
MODEL-0
  6
CONTINUOUS
 62
1
 10
346.163693
 20
776.833866
 40
26.757096
 50
142.820421
 51
156.597645
  0
ARC
  8
MODEL-0
  6
CONTINUOUS
 62
1
 10
345.553098
 20
777.102924
 40
26.089864
 50
156.607320
 51
170.619052
  0
ARC
  8
MODEL-0
  6
CONTINUOUS
 62
1
 10
345.269777
 20
777.156205
 40
25.801648
 50
170.633238
 51
184.749312
  0
ARC
  8
MODEL-0
  6
CONTINUOUS
 62
1
 10
345.416746
 20
777.175227
 40
25.949688
 50
184.764300
 51
198.826491
  0
ARC
  8
MODEL-0
  6
CONTINUOUS
 62
1
 10
345.939934
 20
777.359258
 40
26.504274
 50
198.838058
 51
212.702969
  0
ARC
  8
MODEL-0
  6
CONTINUOUS
 62
1
 10
346.652939
 20
777.820163
 40
27.353275
 50
212.708454
 51
226.284258
  0
ARC
  8
MODEL-0
  6
CONTINUOUS
 62
1
 10
347.320314
 20
778.517256
 40
28.318328
 50
226.283011
 51
239.547965
  0
ARC
  8
MODEL-0
  6
CONTINUOUS
 62
1
 10
347.981173
 20
774.935098
 40
24.573542
 50
72.917409
 51
86.532722
  0
ARC
  8
MODEL-0
  6
CONTINUOUS
 62
1
 10
348.134448
 20
775.415489
 40
24.069321
 50
59.124944
 51
72.930256
  0
ARC
  8
MODEL-0
  6
CONTINUOUS
 62
1
 10
347.886635
 20
799.525093
 40
1.419094
 50
182.481222
 51
242.527366
  0
ARC
  8
MODEL-0
  6
CONTINUOUS
 62
1
 10
347.968108
 20
799.649689
 40
1.567294
 50
241.986084
 51
298.013916
  0
ARC
  8
MODEL-0
  6
CONTINUOUS
 62
1
 10
348.049581
 20
799.525093
 40
1.419094
 50
297.472634
 51
357.518778
  0
ARC
  8
MODEL-0
  6
CONTINUOUS
 62
1
 10
347.962194
 20
804.271517
 40
0.244195
 50
181.728559
 51
271.387861
  0
ARC
  8
MODEL-0
  6
CONTINUOUS
 62
1
 10
347.974022
 20
804.271516
 40
0.244194
 50
268.612254
 51
358.271556
  0
ARC
  8
MODEL-0
  6
CONTINUOUS
 62
1
 10
347.801768
 20
775.415493
 40
24.069317
 50
107.069748
 51
120.875060
  0
ARC
  8
MODEL-0
  6
CONTINUOUS
 62
1
 10
347.955042
 20
774.935093
 40
24.573546
 50
93.467276
 51
107.082589
  0
ARC
  8
MODEL-0
  6
CONTINUOUS
 62
1
 10
348.148474
 20
778.868342
 40
24.037956
 50
288.409522
 51
300.880802
  0
ARC
  8
MODEL-0
  6
CONTINUOUS
 62
1
 10
347.991271
 20
779.328301
 40
24.524021
 50
276.113026
 51
288.418633
  0
ARC
  8
MODEL-0
  6
CONTINUOUS
 62
1
 10
347.968107
 20
779.501045
 40
24.698250
 50
263.876219
 51
276.123781
  0
ARC
  8
MODEL-0
  6
CONTINUOUS
 62
1
 10
347.944944
 20
779.328301
 40
24.524021
 50
251.581367
 51
263.886974
  0
ARC
  8
MODEL-0
  6
CONTINUOUS
 62
1
 10
347.787741
 20
778.868342
 40
24.037956
 50
239.119198
 51
251.590478
  0
LINE
  8
MODEL-0
  6
CONTINUOUS
 62
1
 10
346.468872
 20
799.463658
 11
347.718110
 21
804.264151
  0
LINE
  8
MODEL-0
  6
CONTINUOUS
 62
1
 10
348.218105
 20
804.264151
 11
349.467344
 21
799.463658
  0
ARC
  8
MODEL-0
  6
CONTINUOUS
 62
1
 10
360.012050
 20
795.260597
 40
0.941352
 50
0.504736
 51
59.766558
  0
ARC
  8
MODEL-0
  6
CONTINUOUS
 62
1
 10
360.044612
 20
759.042818
 40
0.908754
 50
0.017633
 51
18.700626
  0
ARC
  8
MODEL-0
  6
CONTINUOUS
 62
1
 10
335.913233
 20
795.268481
 40
0.929052
 50
119.895715
 51
198.232660
  0
ARC
  8
MODEL-0
  6
CONTINUOUS
 62
1
 10
360.044615
 20
795.269170
 40
0.908751
 50
341.299342
 51
359.982336
  0
ARC
  8
MODEL-0
  6
CONTINUOUS
 62
1
 10
360.012051
 20
759.051391
 40
0.941351
 50
300.233411
 51
359.495233
  0
ARC
  8
MODEL-0
  6
CONTINUOUS
 62
1
 10
335.913233
 20
759.043508
 40
0.929052
 50
161.767277
 51
240.104222
  0
ARC
  8
MODEL-0
  6
CONTINUOUS
 62
1
 10
347.964337
 20
773.977180
 40
34.092786
 50
90.472776
 51
102.199686
  0
ARC
  8
MODEL-0
  6
CONTINUOUS
 62
1
 10
347.864634
 20
774.413519
 40
33.645232
 50
102.190756
 51
114.021669
  0
ARC
  8
MODEL-0
  6
CONTINUOUS
 62
1
 10
347.539382
 20
775.133457
 40
32.855242
 50
114.014679
 51
126.034842
  0
ARC
  8
MODEL-0
  6
CONTINUOUS
 62
1
 10
346.959870
 20
775.926654
 40
31.872903
 50
126.031232
 51
138.297533
  0
ARC
  8
MODEL-0
  6
CONTINUOUS
 62
1
 10
346.218168
 20
776.588131
 40
30.879085
 50
138.298346
 51
150.826980
  0
ARC
  8
MODEL-0
  6
CONTINUOUS
 62
1
 10
345.498500
 20
776.993211
 40
30.053250
 50
150.832500
 51
163.590077
  0
ARC
  8
MODEL-0
  6
CONTINUOUS
 62
1
 10
345.007045
 20
777.143057
 40
29.539482
 50
163.599586
 51
176.504980
  0
ARC
  8
MODEL-0
  6
CONTINUOUS
 62
1
 10
344.893699
 20
777.155920
 40
29.425564
 50
176.516526
 51
189.455275
  0
ARC
  8
MODEL-0
  6
CONTINUOUS
 62
1
 10
345.193752
 20
777.211638
 40
29.730694
 50
189.466200
 51
202.316079
  0
ARC
  8
MODEL-0
  6
CONTINUOUS
 62
1
 10
345.814212
 20
777.470803
 40
30.403093
 50
202.323910
 51
214.983242
  0
ARC
  8
MODEL-0
  6
CONTINUOUS
 62
1
 10
346.570197
 20
778.002051
 40
31.327071
 50
214.986586
 51
227.395255
  0
ARC
  8
MODEL-0
  6
CONTINUOUS
 62
1
 10
347.255787
 20
778.746411
 40
32.339051
 50
227.393948
 51
239.541869
  0
ARC
  8
MODEL-0
  6
CONTINUOUS
 62
1
 10
348.680428
 20
778.746416
 40
32.339055
 50
300.458126
 51
312.606047
  0
ARC
  8
MODEL-0
  6
CONTINUOUS
 62
1
 10
349.366019
 20
778.002047
 40
31.327068
 50
312.604751
 51
325.013420
  0
ARC
  8
MODEL-0
  6
CONTINUOUS
 62
1
 10
350.122004
 20
777.470807
 40
30.403095
 50
325.016751
 51
337.676082
  0
ARC
  8
MODEL-0
  6
CONTINUOUS
 62
1
 10
350.742463
 20
777.211633
 40
29.730693
 50
337.683930
 51
350.533808
  0
ARC
  8
MODEL-0
  6
CONTINUOUS
 62
1
 10
351.042516
 20
777.155920
 40
29.425564
 50
350.544725
 51
3.483474
  0
ARC
  8
MODEL-0
  6
CONTINUOUS
 62
1
 10
350.929171
 20
777.143061
 40
29.539482
 50
3.495011
 51
16.400406
  0
ARC
  8
MODEL-0
  6
CONTINUOUS
 62
1
 10
350.437715
 20
776.993206
 40
30.053252
 50
16.409931
 51
29.167508
  0
ARC
  8
MODEL-0
  6
CONTINUOUS
 62
1
 10
349.718047
 20
776.588135
 40
30.879083
 50
29.173013
 51
41.701647
  0
ARC
  8
MODEL-0
  6
CONTINUOUS
 62
1
 10
348.976345
 20
775.926650
 40
31.872906
 50
41.702472
 51
53.968774
  0
ARC
  8
MODEL-0
  6
CONTINUOUS
 62
1
 10
348.396833
 20
775.133457
 40
32.855242
 50
53.965158
 51
65.985321
  0
ARC
  8
MODEL-0
  6
CONTINUOUS
 62
1
 10
348.071582
 20
774.413524
 40
33.645227
 50
65.978329
 51
77.809242
  0
ARC
  8
MODEL-0
  6
CONTINUOUS
 62
1
 10
347.971879
 20
773.977180
 40
34.092786
 50
77.800314
 51
89.527224
  0
ARC
  8
MODEL-0
  6
CONTINUOUS
 62
1
 10
347.732227
 20
779.554894
 40
33.277531
 50
239.741898
 51
251.957466
  0
ARC
  8
MODEL-0
  6
CONTINUOUS
 62
1
 10
347.937843
 20
780.169417
 40
33.925521
 50
251.948729
 51
264.007974
  0
ARC
  8
MODEL-0
  6
CONTINUOUS
 62
1
 10
347.968107
 20
780.399669
 40
34.157674
 50
263.997804
 51
276.002196
  0
ARC
  8
MODEL-0
  6
CONTINUOUS
 62
1
 10
347.998372
 20
780.169417
 40
33.925521
 50
275.992026
 51
288.051271
  0
ARC
  8
MODEL-0
  6
CONTINUOUS
 62
1
 10
348.203988
 20
779.554894
 40
33.277531
 50
288.042534
 51
300.258102
  0
LINE
  8
MODEL-0
  6
CONTINUOUS
 62
1
 10
349.465049
 20
799.418122
 11
349.465049
 21
757.231609
  0
LINE
  8
MODEL-0
  6
CONTINUOUS
 62
1
 10
346.468872
 20
799.463658
 11
346.468872
 21
757.231765
  0
ARC
  8
MODEL-0
  6
CONTINUOUS
 62
1
 10
347.966958
 20
757.180794
 40
1.498086
 50
180.000000
 51
1.942686
  0
ARC
  8
MODEL-0
  6
CONTINUOUS
 62
1
 10
450.615901
 20
778.517251
 40
28.318324
 50
300.452040
 51
313.716994
  0
ARC
  8
MODEL-0
  6
CONTINUOUS
 62
1
 10
451.283276
 20
777.820163
 40
27.353275
 50
313.715742
 51
327.291546
  0
ARC
  8
MODEL-0
  6
CONTINUOUS
 62
1
 10
451.996281
 20
777.359258
 40
26.504274
 50
327.297031
 51
341.161942
  0
ARC
  8
MODEL-0
  6
CONTINUOUS
 62
1
 10
452.519469
 20
777.175231
 40
25.949689
 50
341.173500
 51
355.235691
  0
ARC
  8
MODEL-0
  6
CONTINUOUS
 62
1
 10
452.666438
 20
777.156201
 40
25.801648
 50
355.250697
 51
9.366771
  0
ARC
  8
MODEL-0
  6
CONTINUOUS
 62
1
 10
452.383117
 20
777.102924
 40
26.089864
 50
9.380948
 51
23.392680
  0
ARC
  8
MODEL-0
  6
CONTINUOUS
 62
1
 10
451.772522
 20
776.833866
 40
26.757096
 50
23.402355
 51
37.179579
  0
ARC
  8
MODEL-0
  6
CONTINUOUS
 62
1
 10
451.049223
 20
776.283275
 40
27.666111
 50
37.182852
 51
50.655882
  0
ARC
  8
MODEL-0
  6
CONTINUOUS
 62
1
 10
450.440352
 20
775.543073
 40
28.624558
 50
50.652677
 51
63.822608
  0
ARC
  8
MODEL-0
  6
CONTINUOUS
 62
1
 10
450.083905
 20
774.827668
 40
29.423833
 50
63.814263
 51
76.744102
  0
ARC
  8
MODEL-0
  6
CONTINUOUS
 62
1
 10
449.972340
 20
774.380202
 40
29.884960
 50
76.732623
 51
89.528812
  0
ARC
  8
MODEL-0
  6
CONTINUOUS
 62
1
 10
449.761253
 20
779.259646
 40
29.181834
 50
239.741909
 51
251.957476
  0
ARC
  8
MODEL-0
  6
CONTINUOUS
 62
1
 10
449.941570
 20
779.798532
 40
29.750069
 50
251.948724
 51
264.007970
  0
ARC
  8
MODEL-0
  6
CONTINUOUS
 62
1
 10
449.968107
 20
780.000449
 40
29.953655
 50
263.997804
 51
276.002196
  0
ARC
  8
MODEL-0
  6
CONTINUOUS
 62
1
 10
449.994645
 20
779.798532
 40
29.750069
 50
275.992030
 51
288.051276
  0
ARC
  8
MODEL-0
  6
CONTINUOUS
 62
1
 10
450.174962
 20
779.259646
 40
29.181834
 50
288.042524
 51
300.258091
  0
ARC
  8
MODEL-0
  6
CONTINUOUS
 62
1
 10
516.241552
 20
777.352509
 40
56.297394
 50
194.674621
 51
204.365579
  0
ARC
  8
MODEL-0
  6
CONTINUOUS
 62
1
 10
515.601166
 20
777.180467
 40
55.634315
 50
184.902469
 51
194.670294
  0
ARC
  8
MODEL-0
  6
CONTINUOUS
 62
1
 10
515.373099
 20
777.155994
 40
55.404991
 50
175.102591
 51
184.897409
  0
ARC
  8
MODEL-0
  6
CONTINUOUS
 62
1
 10
515.601172
 20
777.131522
 40
55.634320
 50
165.329707
 51
175.097532
  0
ARC
  8
MODEL-0
  6
CONTINUOUS
 62
1
 10
516.241552
 20
776.959480
 40
56.297394
 50
155.634421
 51
165.325379
  0
ARC
  8
MODEL-0
  6
CONTINUOUS
 62
1
 10
383.694663
 20
776.959480
 40
56.297394
 50
14.674621
 51
24.365579
  0
ARC
  8
MODEL-0
  6
CONTINUOUS
 62
1
 10
384.335043
 20
777.131522
 40
55.634320
 50
4.902468
 51
14.670293
  0
ARC
  8
MODEL-0
  6
CONTINUOUS
 62
1
 10
384.563116
 20
777.155994
 40
55.404991
 50
355.102591
 51
4.897409
  0
ARC
  8
MODEL-0
  6
CONTINUOUS
 62
1
 10
384.335049
 20
777.180467
 40
55.634315
 50
345.329706
 51
355.097531
  0
ARC
  8
MODEL-0
  6
CONTINUOUS
 62
1
 10
383.694663
 20
777.352509
 40
56.297394
 50
335.634421
 51
345.325379
  0
ARC
  8
MODEL-0
  6
CONTINUOUS
 62
1
 10
449.963875
 20
774.380202
 40
29.884960
 50
90.471188
 51
103.267377
  0
ARC
  8
MODEL-0
  6
CONTINUOUS
 62
1
 10
449.852310
 20
774.827668
 40
29.423833
 50
103.255898
 51
116.185737
  0
ARC
  8
MODEL-0
  6
CONTINUOUS
 62
1
 10
449.495863
 20
775.543073
 40
28.624558
 50
116.177392
 51
129.347323
  0
ARC
  8
MODEL-0
  6
CONTINUOUS
 62
1
 10
448.886992
 20
776.283275
 40
27.666111
 50
129.344118
 51
142.817148
  0
ARC
  8
MODEL-0
  6
CONTINUOUS
 62
1
 10
448.163693
 20
776.833866
 40
26.757096
 50
142.820421
 51
156.597645
  0
ARC
  8
MODEL-0
  6
CONTINUOUS
 62
1
 10
447.553098
 20
777.102924
 40
26.089864
 50
156.607320
 51
170.619052
  0
ARC
  8
MODEL-0
  6
CONTINUOUS
 62
1
 10
447.269777
 20
777.156205
 40
25.801648
 50
170.633238
 51
184.749312
  0
ARC
  8
MODEL-0
  6
CONTINUOUS
 62
1
 10
447.416746
 20
777.175227
 40
25.949688
 50
184.764300
 51
198.826491
  0
ARC
  8
MODEL-0
  6
CONTINUOUS
 62
1
 10
447.939934
 20
777.359258
 40
26.504274
 50
198.838058
 51
212.702969
  0
ARC
  8
MODEL-0
  6
CONTINUOUS
 62
1
 10
448.652939
 20
777.820163
 40
27.353275
 50
212.708454
 51
226.284258
  0
ARC
  8
MODEL-0
  6
CONTINUOUS
 62
1
 10
449.320314
 20
778.517256
 40
28.318328
 50
226.283011
 51
239.547965
  0
ARC
  8
MODEL-0
  6
CONTINUOUS
 62
1
 10
449.981173
 20
774.935098
 40
24.573542
 50
72.917409
 51
86.532722
  0
ARC
  8
MODEL-0
  6
CONTINUOUS
 62
1
 10
450.134448
 20
775.415489
 40
24.069321
 50
59.124944
 51
72.930256
  0
ARC
  8
MODEL-0
  6
CONTINUOUS
 62
1
 10
449.886635
 20
799.525093
 40
1.419094
 50
182.481222
 51
242.527366
  0
ARC
  8
MODEL-0
  6
CONTINUOUS
 62
1
 10
449.968108
 20
799.649689
 40
1.567294
 50
241.986084
 51
298.013916
  0
ARC
  8
MODEL-0
  6
CONTINUOUS
 62
1
 10
450.049581
 20
799.525093
 40
1.419094
 50
297.472634
 51
357.518778
  0
ARC
  8
MODEL-0
  6
CONTINUOUS
 62
1
 10
449.962194
 20
804.271517
 40
0.244195
 50
181.728559
 51
271.387861
  0
ARC
  8
MODEL-0
  6
CONTINUOUS
 62
1
 10
449.974022
 20
804.271516
 40
0.244194
 50
268.612254
 51
358.271556
  0
ARC
  8
MODEL-0
  6
CONTINUOUS
 62
1
 10
449.801768
 20
775.415493
 40
24.069317
 50
107.069748
 51
120.875060
  0
ARC
  8
MODEL-0
  6
CONTINUOUS
 62
1
 10
449.955042
 20
774.935093
 40
24.573546
 50
93.467276
 51
107.082589
  0
ARC
  8
MODEL-0
  6
CONTINUOUS
 62
1
 10
450.148474
 20
778.868342
 40
24.037956
 50
288.409522
 51
300.880802
  0
ARC
  8
MODEL-0
  6
CONTINUOUS
 62
1
 10
449.991271
 20
779.328301
 40
24.524021
 50
276.113026
 51
288.418633
  0
ARC
  8
MODEL-0
  6
CONTINUOUS
 62
1
 10
449.968107
 20
779.501045
 40
24.698250
 50
263.876219
 51
276.123781
  0
ARC
  8
MODEL-0
  6
CONTINUOUS
 62
1
 10
449.944944
 20
779.328301
 40
24.524021
 50
251.581367
 51
263.886974
  0
ARC
  8
MODEL-0
  6
CONTINUOUS
 62
1
 10
449.787741
 20
778.868342
 40
24.037956
 50
239.119198
 51
251.590478
  0
LINE
  8
MODEL-0
  6
CONTINUOUS
 62
1
 10
448.468872
 20
799.463658
 11
449.718110
 21
804.264151
  0
LINE
  8
MODEL-0
  6
CONTINUOUS
 62
1
 10
450.218105
 20
804.264151
 11
451.467344
 21
799.463658
  0
ARC
  8
MODEL-0
  6
CONTINUOUS
 62
1
 10
462.012050
 20
795.260597
 40
0.941352
 50
0.504736
 51
59.766558
  0
ARC
  8
MODEL-0
  6
CONTINUOUS
 62
1
 10
462.044612
 20
759.042818
 40
0.908754
 50
0.017633
 51
18.700626
  0
ARC
  8
MODEL-0
  6
CONTINUOUS
 62
1
 10
437.913233
 20
795.268481
 40
0.929052
 50
119.895715
 51
198.232660
  0
ARC
  8
MODEL-0
  6
CONTINUOUS
 62
1
 10
462.044615
 20
795.269170
 40
0.908751
 50
341.299342
 51
359.982336
  0
ARC
  8
MODEL-0
  6
CONTINUOUS
 62
1
 10
462.012051
 20
759.051391
 40
0.941351
 50
300.233411
 51
359.495233
  0
ARC
  8
MODEL-0
  6
CONTINUOUS
 62
1
 10
437.913233
 20
759.043508
 40
0.929052
 50
161.767277
 51
240.104222
  0
ARC
  8
MODEL-0
  6
CONTINUOUS
 62
1
 10
449.964337
 20
773.977180
 40
34.092786
 50
90.472776
 51
102.199686
  0
ARC
  8
MODEL-0
  6
CONTINUOUS
 62
1
 10
449.864634
 20
774.413519
 40
33.645232
 50
102.190756
 51
114.021669
  0
ARC
  8
MODEL-0
  6
CONTINUOUS
 62
1
 10
449.539382
 20
775.133457
 40
32.855242
 50
114.014679
 51
126.034842
  0
ARC
  8
MODEL-0
  6
CONTINUOUS
 62
1
 10
448.959870
 20
775.926654
 40
31.872903
 50
126.031232
 51
138.297533
  0
ARC
  8
MODEL-0
  6
CONTINUOUS
 62
1
 10
448.218168
 20
776.588131
 40
30.879085
 50
138.298346
 51
150.826980
  0
ARC
  8
MODEL-0
  6
CONTINUOUS
 62
1
 10
447.498500
 20
776.993211
 40
30.053250
 50
150.832500
 51
163.590077
  0
ARC
  8
MODEL-0
  6
CONTINUOUS
 62
1
 10
447.007045
 20
777.143057
 40
29.539482
 50
163.599586
 51
176.504980
  0
ARC
  8
MODEL-0
  6
CONTINUOUS
 62
1
 10
446.893699
 20
777.155920
 40
29.425564
 50
176.516526
 51
189.455275
  0
ARC
  8
MODEL-0
  6
CONTINUOUS
 62
1
 10
447.193752
 20
777.211638
 40
29.730694
 50
189.466200
 51
202.316079
  0
ARC
  8
MODEL-0
  6
CONTINUOUS
 62
1
 10
447.814212
 20
777.470803
 40
30.403093
 50
202.323910
 51
214.983242
  0
ARC
  8
MODEL-0
  6
CONTINUOUS
 62
1
 10
448.570197
 20
778.002051
 40
31.327071
 50
214.986586
 51
227.395255
  0
ARC
  8
MODEL-0
  6
CONTINUOUS
 62
1
 10
449.255787
 20
778.746411
 40
32.339051
 50
227.393948
 51
239.541869
  0
ARC
  8
MODEL-0
  6
CONTINUOUS
 62
1
 10
450.680428
 20
778.746416
 40
32.339055
 50
300.458126
 51
312.606047
  0
ARC
  8
MODEL-0
  6
CONTINUOUS
 62
1
 10
451.366019
 20
778.002047
 40
31.327068
 50
312.604751
 51
325.013420
  0
ARC
  8
MODEL-0
  6
CONTINUOUS
 62
1
 10
452.122004
 20
777.470807
 40
30.403095
 50
325.016751
 51
337.676082
  0
ARC
  8
MODEL-0
  6
CONTINUOUS
 62
1
 10
452.742463
 20
777.211633
 40
29.730693
 50
337.683930
 51
350.533808
  0
ARC
  8
MODEL-0
  6
CONTINUOUS
 62
1
 10
453.042516
 20
777.155920
 40
29.425564
 50
350.544725
 51
3.483474
  0
ARC
  8
MODEL-0
  6
CONTINUOUS
 62
1
 10
452.929171
 20
777.143061
 40
29.539482
 50
3.495011
 51
16.400406
  0
ARC
  8
MODEL-0
  6
CONTINUOUS
 62
1
 10
452.437715
 20
776.993206
 40
30.053252
 50
16.409931
 51
29.167508
  0
ARC
  8
MODEL-0
  6
CONTINUOUS
 62
1
 10
451.718047
 20
776.588135
 40
30.879083
 50
29.173013
 51
41.701647
  0
ARC
  8
MODEL-0
  6
CONTINUOUS
 62
1
 10
450.976345
 20
775.926650
 40
31.872906
 50
41.702472
 51
53.968774
  0
ARC
  8
MODEL-0
  6
CONTINUOUS
 62
1
 10
450.396833
 20
775.133457
 40
32.855242
 50
53.965158
 51
65.985321
  0
ARC
  8
MODEL-0
  6
CONTINUOUS
 62
1
 10
450.071582
 20
774.413524
 40
33.645227
 50
65.978329
 51
77.809242
  0
ARC
  8
MODEL-0
  6
CONTINUOUS
 62
1
 10
449.971879
 20
773.977180
 40
34.092786
 50
77.800314
 51
89.527224
  0
ARC
  8
MODEL-0
  6
CONTINUOUS
 62
1
 10
449.732227
 20
779.554894
 40
33.277531
 50
239.741898
 51
251.957466
  0
ARC
  8
MODEL-0
  6
CONTINUOUS
 62
1
 10
449.937843
 20
780.169417
 40
33.925521
 50
251.948729
 51
264.007974
  0
ARC
  8
MODEL-0
  6
CONTINUOUS
 62
1
 10
449.968107
 20
780.399669
 40
34.157674
 50
263.997804
 51
276.002196
  0
ARC
  8
MODEL-0
  6
CONTINUOUS
 62
1
 10
449.998372
 20
780.169417
 40
33.925521
 50
275.992026
 51
288.051271
  0
ARC
  8
MODEL-0
  6
CONTINUOUS
 62
1
 10
450.203988
 20
779.554894
 40
33.277531
 50
288.042534
 51
300.258102
  0
LINE
  8
MODEL-0
  6
CONTINUOUS
 62
1
 10
451.465049
 20
799.418122
 11
451.465049
 21
757.231609
  0
LINE
  8
MODEL-0
  6
CONTINUOUS
 62
1
 10
448.468872
 20
799.463658
 11
448.468872
 21
757.231765
  0
ARC
  8
MODEL-0
  6
CONTINUOUS
 62
1
 10
449.966958
 20
757.180794
 40
1.498086
 50
180.000000
 51
1.942686
  0
ARC
  8
MODEL-0
  6
CONTINUOUS
 62
1
 10
703.147664
 20
778.517256
 40
28.318328
 50
300.452035
 51
313.716989
  0
ARC
  8
MODEL-0
  6
CONTINUOUS
 62
1
 10
703.815039
 20
777.820163
 40
27.353275
 50
313.715742
 51
327.291546
  0
ARC
  8
MODEL-0
  6
CONTINUOUS
 62
1
 10
704.528044
 20
777.359258
 40
26.504274
 50
327.297031
 51
341.161942
  0
ARC
  8
MODEL-0
  6
CONTINUOUS
 62
1
 10
705.051232
 20
777.175227
 40
25.949688
 50
341.173509
 51
355.235700
  0
ARC
  8
MODEL-0
  6
CONTINUOUS
 62
1
 10
705.198201
 20
777.156205
 40
25.801648
 50
355.250688
 51
9.366762
  0
ARC
  8
MODEL-0
  6
CONTINUOUS
 62
1
 10
704.914880
 20
777.102924
 40
26.089864
 50
9.380948
 51
23.392680
  0
ARC
  8
MODEL-0
  6
CONTINUOUS
 62
1
 10
704.304285
 20
776.833866
 40
26.757096
 50
23.402355
 51
37.179579
  0
ARC
  8
MODEL-0
  6
CONTINUOUS
 62
1
 10
703.580986
 20
776.283275
 40
27.666111
 50
37.182852
 51
50.655882
  0
ARC
  8
MODEL-0
  6
CONTINUOUS
 62
1
 10
702.972115
 20
775.543073
 40
28.624558
 50
50.652677
 51
63.822608
  0
ARC
  8
MODEL-0
  6
CONTINUOUS
 62
1
 10
702.615668
 20
774.827668
 40
29.423833
 50
63.814263
 51
76.744102
  0
ARC
  8
MODEL-0
  6
CONTINUOUS
 62
1
 10
702.504103
 20
774.380202
 40
29.884960
 50
76.732623
 51
89.528812
  0
ARC
  8
MODEL-0
  6
CONTINUOUS
 62
1
 10
702.293016
 20
779.259646
 40
29.181834
 50
239.741909
 51
251.957476
  0
ARC
  8
MODEL-0
  6
CONTINUOUS
 62
1
 10
702.473333
 20
779.798532
 40
29.750069
 50
251.948724
 51
264.007970
  0
ARC
  8
MODEL-0
  6
CONTINUOUS
 62
1
 10
702.499870
 20
780.000445
 40
29.953650
 50
263.997804
 51
276.002196
  0
ARC
  8
MODEL-0
  6
CONTINUOUS
 62
1
 10
702.526408
 20
779.798536
 40
29.750074
 50
275.992028
 51
288.051274
  0
ARC
  8
MODEL-0
  6
CONTINUOUS
 62
1
 10
702.706725
 20
779.259646
 40
29.181834
 50
288.042524
 51
300.258091
  0
ARC
  8
MODEL-0
  6
CONTINUOUS
 62
1
 10
768.773315
 20
777.352509
 40
56.297394
 50
194.674621
 51
204.365579
  0
ARC
  8
MODEL-0
  6
CONTINUOUS
 62
1
 10
768.132929
 20
777.180467
 40
55.634315
 50
184.902469
 51
194.670294
  0
ARC
  8
MODEL-0
  6
CONTINUOUS
 62
1
 10
767.904862
 20
777.155994
 40
55.404991
 50
175.102591
 51
184.897409
  0
ARC
  8
MODEL-0
  6
CONTINUOUS
 62
1
 10
768.132935
 20
777.131522
 40
55.634320
 50
165.329707
 51
175.097532
  0
ARC
  8
MODEL-0
  6
CONTINUOUS
 62
1
 10
768.773315
 20
776.959480
 40
56.297394
 50
155.634421
 51
165.325379
  0
ARC
  8
MODEL-0
  6
CONTINUOUS
 62
1
 10
636.226426
 20
776.959480
 40
56.297394
 50
14.674621
 51
24.365579
  0
ARC
  8
MODEL-0
  6
CONTINUOUS
 62
1
 10
636.866806
 20
777.131522
 40
55.634320
 50
4.902468
 51
14.670293
  0
ARC
  8
MODEL-0
  6
CONTINUOUS
 62
1
 10
637.094879
 20
777.155994
 40
55.404991
 50
355.102591
 51
4.897409
  0
ARC
  8
MODEL-0
  6
CONTINUOUS
 62
1
 10
636.866812
 20
777.180467
 40
55.634315
 50
345.329706
 51
355.097531
  0
ARC
  8
MODEL-0
  6
CONTINUOUS
 62
1
 10
636.226426
 20
777.352509
 40
56.297394
 50
335.634421
 51
345.325379
  0
ARC
  8
MODEL-0
  6
CONTINUOUS
 62
1
 10
702.495637
 20
774.380197
 40
29.884964
 50
90.471187
 51
103.267376
  0
ARC
  8
MODEL-0
  6
CONTINUOUS
 62
1
 10
702.384073
 20
774.827673
 40
29.423829
 50
103.255901
 51
116.185740
  0
ARC
  8
MODEL-0
  6
CONTINUOUS
 62
1
 10
702.027626
 20
775.543073
 40
28.624558
 50
116.177392
 51
129.347323
  0
ARC
  8
MODEL-0
  6
CONTINUOUS
 62
1
 10
701.418755
 20
776.283275
 40
27.666111
 50
129.344118
 51
142.817148
  0
ARC
  8
MODEL-0
  6
CONTINUOUS
 62
1
 10
700.695456
 20
776.833866
 40
26.757096
 50
142.820421
 51
156.597645
  0
ARC
  8
MODEL-0
  6
CONTINUOUS
 62
1
 10
700.084861
 20
777.102924
 40
26.089864
 50
156.607320
 51
170.619052
  0
ARC
  8
MODEL-0
  6
CONTINUOUS
 62
1
 10
699.801540
 20
777.156201
 40
25.801648
 50
170.633229
 51
184.749303
  0
ARC
  8
MODEL-0
  6
CONTINUOUS
 62
1
 10
699.948508
 20
777.175227
 40
25.949688
 50
184.764300
 51
198.826491
  0
ARC
  8
MODEL-0
  6
CONTINUOUS
 62
1
 10
700.471697
 20
777.359262
 40
26.504276
 50
198.838066
 51
212.702977
  0
ARC
  8
MODEL-0
  6
CONTINUOUS
 62
1
 10
701.184702
 20
777.820163
 40
27.353275
 50
212.708454
 51
226.284258
  0
ARC
  8
MODEL-0
  6
CONTINUOUS
 62
1
 10
701.852077
 20
778.517251
 40
28.318324
 50
226.283006
 51
239.547960
  0
ARC
  8
MODEL-0
  6
CONTINUOUS
 62
1
 10
702.512936
 20
774.935093
 40
24.573546
 50
72.917411
 51
86.532724
  0
ARC
  8
MODEL-0
  6
CONTINUOUS
 62
1
 10
702.666210
 20
775.415493
 40
24.069317
 50
59.124940
 51
72.930252
  0
ARC
  8
MODEL-0
  6
CONTINUOUS
 62
1
 10
702.418397
 20
799.525093
 40
1.419094
 50
182.481222
 51
242.527366
  0
ARC
  8
MODEL-0
  6
CONTINUOUS
 62
1
 10
702.499870
 20
799.649689
 40
1.567294
 50
241.986084
 51
298.013916
  0
ARC
  8
MODEL-0
  6
CONTINUOUS
 62
1
 10
702.581343
 20
799.525093
 40
1.419094
 50
297.472634
 51
357.518778
  0
ARC
  8
MODEL-0
  6
CONTINUOUS
 62
1
 10
702.493956
 20
804.271516
 40
0.244194
 50
181.728444
 51
271.387746
  0
ARC
  8
MODEL-0
  6
CONTINUOUS
 62
1
 10
702.505784
 20
804.271517
 40
0.244195
 50
268.612139
 51
358.271441
  0
ARC
  8
MODEL-0
  6
CONTINUOUS
 62
1
 10
702.333530
 20
775.415489
 40
24.069321
 50
107.069744
 51
120.875056
  0
ARC
  8
MODEL-0
  6
CONTINUOUS
 62
1
 10
702.486805
 20
774.935098
 40
24.573542
 50
93.467278
 51
107.082591
  0
ARC
  8
MODEL-0
  6
CONTINUOUS
 62
1
 10
702.680236
 20
778.868338
 40
24.037952
 50
288.409526
 51
300.880807
  0
ARC
  8
MODEL-0
  6
CONTINUOUS
 62
1
 10
702.523034
 20
779.328301
 40
24.524021
 50
276.113026
 51
288.418633
  0
ARC
  8
MODEL-0
  6
CONTINUOUS
 62
1
 10
702.499870
 20
779.501045
 40
24.698250
 50
263.876219
 51
276.123781
  0
ARC
  8
MODEL-0
  6
CONTINUOUS
 62
1
 10
702.476707
 20
779.328301
 40
24.524021
 50
251.581367
 51
263.886974
  0
ARC
  8
MODEL-0
  6
CONTINUOUS
 62
1
 10
702.319504
 20
778.868342
 40
24.037956
 50
239.119198
 51
251.590478
  0
LINE
  8
MODEL-0
  6
CONTINUOUS
 62
1
 10
701.000634
 20
799.463658
 11
702.249873
 21
804.264151
  0
LINE
  8
MODEL-0
  6
CONTINUOUS
 62
1
 10
702.749868
 20
804.264151
 11
703.999106
 21
799.463658
  0
ARC
  8
MODEL-0
  6
CONTINUOUS
 62
1
 10
714.543812
 20
795.260597
 40
0.941352
 50
0.504736
 51
59.766558
  0
ARC
  8
MODEL-0
  6
CONTINUOUS
 62
1
 10
714.576375
 20
759.042821
 40
0.908753
 50
0.017441
 51
18.700435
  0
ARC
  8
MODEL-0
  6
CONTINUOUS
 62
1
 10
690.444995
 20
795.268482
 40
0.929052
 50
119.895761
 51
198.232706
  0
ARC
  8
MODEL-0
  6
CONTINUOUS
 62
1
 10
714.576378
 20
795.269167
 40
0.908750
 50
341.299534
 51
359.982527
  0
ARC
  8
MODEL-0
  6
CONTINUOUS
 62
1
 10
714.543813
 20
759.051391
 40
0.941351
 50
300.233411
 51
359.495233
  0
ARC
  8
MODEL-0
  6
CONTINUOUS
 62
1
 10
690.444996
 20
759.043508
 40
0.929052
 50
161.767277
 51
240.104222
  0
ARC
  8
MODEL-0
  6
CONTINUOUS
 62
1
 10
702.496099
 20
773.977180
 40
34.092786
 50
90.472776
 51
102.199686
  0
ARC
  8
MODEL-0
  6
CONTINUOUS
 62
1
 10
702.396396
 20
774.413524
 40
33.645227
 50
102.190758
 51
114.021671
  0
ARC
  8
MODEL-0
  6
CONTINUOUS
 62
1
 10
702.071145
 20
775.133452
 40
32.855247
 50
114.014675
 51
126.034838
  0
ARC
  8
MODEL-0
  6
CONTINUOUS
 62
1
 10
701.491632
 20
775.926654
 40
31.872903
 50
126.031232
 51
138.297533
  0
ARC
  8
MODEL-0
  6
CONTINUOUS
 62
1
 10
700.749931
 20
776.588135
 40
30.879083
 50
138.298353
 51
150.826987
  0
ARC
  8
MODEL-0
  6
CONTINUOUS
 62
1
 10
700.030263
 20
776.993206
 40
30.053252
 50
150.832492
 51
163.590069
  0
ARC
  8
MODEL-0
  6
CONTINUOUS
 62
1
 10
699.538807
 20
777.143061
 40
29.539482
 50
163.599594
 51
176.504989
  0
ARC
  8
MODEL-0
  6
CONTINUOUS
 62
1
 10
699.425462
 20
777.155920
 40
29.425564
 50
176.516526
 51
189.455275
  0
ARC
  8
MODEL-0
  6
CONTINUOUS
 62
1
 10
699.725515
 20
777.211633
 40
29.730693
 50
189.466192
 51
202.316070
  0
ARC
  8
MODEL-0
  6
CONTINUOUS
 62
1
 10
700.345974
 20
777.470803
 40
30.403093
 50
202.323910
 51
214.983242
  0
ARC
  8
MODEL-0
  6
CONTINUOUS
 62
1
 10
701.101959
 20
778.002051
 40
31.327071
 50
214.986586
 51
227.395255
  0
ARC
  8
MODEL-0
  6
CONTINUOUS
 62
1
 10
701.787550
 20
778.746416
 40
32.339055
 50
227.393953
 51
239.541874
  0
ARC
  8
MODEL-0
  6
CONTINUOUS
 62
1
 10
703.212190
 20
778.746416
 40
32.339055
 50
300.458126
 51
312.606047
  0
ARC
  8
MODEL-0
  6
CONTINUOUS
 62
1
 10
703.897781
 20
778.002051
 40
31.327071
 50
312.604745
 51
325.013414
  0
ARC
  8
MODEL-0
  6
CONTINUOUS
 62
1
 10
704.653766
 20
777.470803
 40
30.403093
 50
325.016758
 51
337.676090
  0
ARC
  8
MODEL-0
  6
CONTINUOUS
 62
1
 10
705.274226
 20
777.211638
 40
29.730694
 50
337.683921
 51
350.533800
  0
ARC
  8
MODEL-0
  6
CONTINUOUS
 62
1
 10
705.574279
 20
777.155920
 40
29.425564
 50
350.544725
 51
3.483474
  0
ARC
  8
MODEL-0
  6
CONTINUOUS
 62
1
 10
705.460933
 20
777.143057
 40
29.539482
 50
3.495020
 51
16.400414
  0
ARC
  8
MODEL-0
  6
CONTINUOUS
 62
1
 10
704.969478
 20
776.993211
 40
30.053250
 50
16.409923
 51
29.167500
  0
ARC
  8
MODEL-0
  6
CONTINUOUS
 62
1
 10
704.249810
 20
776.588131
 40
30.879085
 50
29.173020
 51
41.701654
  0
ARC
  8
MODEL-0
  6
CONTINUOUS
 62
1
 10
703.508108
 20
775.926654
 40
31.872903
 50
41.702467
 51
53.968768
  0
ARC
  8
MODEL-0
  6
CONTINUOUS
 62
1
 10
702.928596
 20
775.133457
 40
32.855242
 50
53.965158
 51
65.985321
  0
ARC
  8
MODEL-0
  6
CONTINUOUS
 62
1
 10
702.603344
 20
774.413519
 40
33.645232
 50
65.978331
 51
77.809244
  0
ARC
  8
MODEL-0
  6
CONTINUOUS
 62
1
 10
702.503641
 20
773.977180
 40
34.092786
 50
77.800314
 51
89.527224
  0
ARC
  8
MODEL-0
  6
CONTINUOUS
 62
1
 10
702.263990
 20
779.554894
 40
33.277531
 50
239.741898
 51
251.957466
  0
ARC
  8
MODEL-0
  6
CONTINUOUS
 62
1
 10
702.469606
 20
780.169417
 40
33.925521
 50
251.948729
 51
264.007974
  0
ARC
  8
MODEL-0
  6
CONTINUOUS
 62
1
 10
702.499870
 20
780.399669
 40
34.157674
 50
263.997804
 51
276.002196
  0
ARC
  8
MODEL-0
  6
CONTINUOUS
 62
1
 10
702.530135
 20
780.169413
 40
33.925516
 50
275.992027
 51
288.051273
  0
ARC
  8
MODEL-0
  6
CONTINUOUS
 62
1
 10
702.735751
 20
779.554898
 40
33.277535
 50
288.042531
 51
300.258099
  0
LINE
  8
MODEL-0
  6
CONTINUOUS
 62
1
 10
703.996812
 20
799.418122
 11
703.996812
 21
757.231609
  0
LINE
  8
MODEL-0
  6
CONTINUOUS
 62
1
 10
701.000634
 20
799.463658
 11
701.000634
 21
757.231765
  0
ARC
  8
MODEL-0
  6
CONTINUOUS
 62
1
 10
702.498721
 20
757.180794
 40
1.498086
 50
180.000000
 51
1.942686
  0
ARC
  8
MODEL-0
  6
CONTINUOUS
 62
1
 10
798.147664
 20
778.517256
 40
28.318328
 50
300.452035
 51
313.716989
  0
ARC
  8
MODEL-0
  6
CONTINUOUS
 62
1
 10
798.815039
 20
777.820163
 40
27.353275
 50
313.715742
 51
327.291546
  0
ARC
  8
MODEL-0
  6
CONTINUOUS
 62
1
 10
799.528044
 20
777.359258
 40
26.504274
 50
327.297031
 51
341.161942
  0
ARC
  8
MODEL-0
  6
CONTINUOUS
 62
1
 10
800.051232
 20
777.175227
 40
25.949688
 50
341.173509
 51
355.235700
  0
ARC
  8
MODEL-0
  6
CONTINUOUS
 62
1
 10
800.198201
 20
777.156205
 40
25.801648
 50
355.250688
 51
9.366762
  0
ARC
  8
MODEL-0
  6
CONTINUOUS
 62
1
 10
799.914880
 20
777.102924
 40
26.089864
 50
9.380948
 51
23.392680
  0
ARC
  8
MODEL-0
  6
CONTINUOUS
 62
1
 10
799.304285
 20
776.833866
 40
26.757096
 50
23.402355
 51
37.179579
  0
ARC
  8
MODEL-0
  6
CONTINUOUS
 62
1
 10
798.580986
 20
776.283275
 40
27.666111
 50
37.182852
 51
50.655882
  0
ARC
  8
MODEL-0
  6
CONTINUOUS
 62
1
 10
797.972115
 20
775.543073
 40
28.624558
 50
50.652677
 51
63.822608
  0
ARC
  8
MODEL-0
  6
CONTINUOUS
 62
1
 10
797.615668
 20
774.827668
 40
29.423833
 50
63.814263
 51
76.744102
  0
ARC
  8
MODEL-0
  6
CONTINUOUS
 62
1
 10
797.504103
 20
774.380202
 40
29.884960
 50
76.732623
 51
89.528812
  0
ARC
  8
MODEL-0
  6
CONTINUOUS
 62
1
 10
797.293016
 20
779.259646
 40
29.181834
 50
239.741909
 51
251.957476
  0
ARC
  8
MODEL-0
  6
CONTINUOUS
 62
1
 10
797.473333
 20
779.798532
 40
29.750069
 50
251.948724
 51
264.007970
  0
ARC
  8
MODEL-0
  6
CONTINUOUS
 62
1
 10
797.499870
 20
780.000445
 40
29.953650
 50
263.997804
 51
276.002196
  0
ARC
  8
MODEL-0
  6
CONTINUOUS
 62
1
 10
797.526408
 20
779.798536
 40
29.750074
 50
275.992028
 51
288.051274
  0
ARC
  8
MODEL-0
  6
CONTINUOUS
 62
1
 10
797.706725
 20
779.259646
 40
29.181834
 50
288.042524
 51
300.258091
  0
ARC
  8
MODEL-0
  6
CONTINUOUS
 62
1
 10
863.773315
 20
777.352509
 40
56.297394
 50
194.674621
 51
204.365579
  0
ARC
  8
MODEL-0
  6
CONTINUOUS
 62
1
 10
863.132929
 20
777.180467
 40
55.634315
 50
184.902469
 51
194.670294
  0
ARC
  8
MODEL-0
  6
CONTINUOUS
 62
1
 10
862.904862
 20
777.155994
 40
55.404991
 50
175.102591
 51
184.897409
  0
ARC
  8
MODEL-0
  6
CONTINUOUS
 62
1
 10
863.132935
 20
777.131522
 40
55.634320
 50
165.329707
 51
175.097532
  0
ARC
  8
MODEL-0
  6
CONTINUOUS
 62
1
 10
863.773315
 20
776.959480
 40
56.297394
 50
155.634421
 51
165.325379
  0
ARC
  8
MODEL-0
  6
CONTINUOUS
 62
1
 10
731.226426
 20
776.959480
 40
56.297394
 50
14.674621
 51
24.365579
  0
ARC
  8
MODEL-0
  6
CONTINUOUS
 62
1
 10
731.866806
 20
777.131522
 40
55.634320
 50
4.902468
 51
14.670293
  0
ARC
  8
MODEL-0
  6
CONTINUOUS
 62
1
 10
732.094879
 20
777.155994
 40
55.404991
 50
355.102591
 51
4.897409
  0
ARC
  8
MODEL-0
  6
CONTINUOUS
 62
1
 10
731.866812
 20
777.180467
 40
55.634315
 50
345.329706
 51
355.097531
  0
ARC
  8
MODEL-0
  6
CONTINUOUS
 62
1
 10
731.226426
 20
777.352509
 40
56.297394
 50
335.634421
 51
345.325379
  0
ARC
  8
MODEL-0
  6
CONTINUOUS
 62
1
 10
797.495637
 20
774.380197
 40
29.884964
 50
90.471187
 51
103.267376
  0
ARC
  8
MODEL-0
  6
CONTINUOUS
 62
1
 10
797.384073
 20
774.827673
 40
29.423829
 50
103.255901
 51
116.185740
  0
ARC
  8
MODEL-0
  6
CONTINUOUS
 62
1
 10
797.027626
 20
775.543073
 40
28.624558
 50
116.177392
 51
129.347323
  0
ARC
  8
MODEL-0
  6
CONTINUOUS
 62
1
 10
796.418755
 20
776.283275
 40
27.666111
 50
129.344118
 51
142.817148
  0
ARC
  8
MODEL-0
  6
CONTINUOUS
 62
1
 10
795.695456
 20
776.833866
 40
26.757096
 50
142.820421
 51
156.597645
  0
ARC
  8
MODEL-0
  6
CONTINUOUS
 62
1
 10
795.084861
 20
777.102924
 40
26.089864
 50
156.607320
 51
170.619052
  0
ARC
  8
MODEL-0
  6
CONTINUOUS
 62
1
 10
794.801540
 20
777.156201
 40
25.801648
 50
170.633229
 51
184.749303
  0
ARC
  8
MODEL-0
  6
CONTINUOUS
 62
1
 10
794.948508
 20
777.175227
 40
25.949688
 50
184.764300
 51
198.826491
  0
ARC
  8
MODEL-0
  6
CONTINUOUS
 62
1
 10
795.471697
 20
777.359262
 40
26.504276
 50
198.838066
 51
212.702977
  0
ARC
  8
MODEL-0
  6
CONTINUOUS
 62
1
 10
796.184702
 20
777.820163
 40
27.353275
 50
212.708454
 51
226.284258
  0
ARC
  8
MODEL-0
  6
CONTINUOUS
 62
1
 10
796.852077
 20
778.517251
 40
28.318324
 50
226.283006
 51
239.547960
  0
ARC
  8
MODEL-0
  6
CONTINUOUS
 62
1
 10
797.512936
 20
774.935093
 40
24.573546
 50
72.917411
 51
86.532724
  0
ARC
  8
MODEL-0
  6
CONTINUOUS
 62
1
 10
797.666210
 20
775.415493
 40
24.069317
 50
59.124940
 51
72.930252
  0
ARC
  8
MODEL-0
  6
CONTINUOUS
 62
1
 10
797.418397
 20
799.525093
 40
1.419094
 50
182.481222
 51
242.527366
  0
ARC
  8
MODEL-0
  6
CONTINUOUS
 62
1
 10
797.499870
 20
799.649689
 40
1.567294
 50
241.986084
 51
298.013916
  0
ARC
  8
MODEL-0
  6
CONTINUOUS
 62
1
 10
797.581343
 20
799.525093
 40
1.419094
 50
297.472634
 51
357.518778
  0
ARC
  8
MODEL-0
  6
CONTINUOUS
 62
1
 10
797.493956
 20
804.271516
 40
0.244194
 50
181.728444
 51
271.387746
  0
ARC
  8
MODEL-0
  6
CONTINUOUS
 62
1
 10
797.505784
 20
804.271517
 40
0.244195
 50
268.612139
 51
358.271441
  0
ARC
  8
MODEL-0
  6
CONTINUOUS
 62
1
 10
797.333530
 20
775.415489
 40
24.069321
 50
107.069744
 51
120.875056
  0
ARC
  8
MODEL-0
  6
CONTINUOUS
 62
1
 10
797.486805
 20
774.935098
 40
24.573542
 50
93.467278
 51
107.082591
  0
ARC
  8
MODEL-0
  6
CONTINUOUS
 62
1
 10
797.680236
 20
778.868338
 40
24.037952
 50
288.409526
 51
300.880807
  0
ARC
  8
MODEL-0
  6
CONTINUOUS
 62
1
 10
797.523034
 20
779.328301
 40
24.524021
 50
276.113026
 51
288.418633
  0
ARC
  8
MODEL-0
  6
CONTINUOUS
 62
1
 10
797.499870
 20
779.501045
 40
24.698250
 50
263.876219
 51
276.123781
  0
ARC
  8
MODEL-0
  6
CONTINUOUS
 62
1
 10
797.476707
 20
779.328301
 40
24.524021
 50
251.581367
 51
263.886974
  0
ARC
  8
MODEL-0
  6
CONTINUOUS
 62
1
 10
797.319504
 20
778.868342
 40
24.037956
 50
239.119198
 51
251.590478
  0
LINE
  8
MODEL-0
  6
CONTINUOUS
 62
1
 10
796.000634
 20
799.463658
 11
797.249873
 21
804.264151
  0
LINE
  8
MODEL-0
  6
CONTINUOUS
 62
1
 10
797.749868
 20
804.264151
 11
798.999106
 21
799.463658
  0
ARC
  8
MODEL-0
  6
CONTINUOUS
 62
1
 10
809.543812
 20
795.260597
 40
0.941352
 50
0.504736
 51
59.766558
  0
ARC
  8
MODEL-0
  6
CONTINUOUS
 62
1
 10
809.576375
 20
759.042821
 40
0.908753
 50
0.017441
 51
18.700435
  0
ARC
  8
MODEL-0
  6
CONTINUOUS
 62
1
 10
785.444995
 20
795.268482
 40
0.929052
 50
119.895761
 51
198.232706
  0
ARC
  8
MODEL-0
  6
CONTINUOUS
 62
1
 10
809.576378
 20
795.269167
 40
0.908750
 50
341.299534
 51
359.982527
  0
ARC
  8
MODEL-0
  6
CONTINUOUS
 62
1
 10
809.543813
 20
759.051391
 40
0.941351
 50
300.233411
 51
359.495233
  0
ARC
  8
MODEL-0
  6
CONTINUOUS
 62
1
 10
785.444996
 20
759.043508
 40
0.929052
 50
161.767277
 51
240.104222
  0
ARC
  8
MODEL-0
  6
CONTINUOUS
 62
1
 10
797.496099
 20
773.977180
 40
34.092786
 50
90.472776
 51
102.199686
  0
ARC
  8
MODEL-0
  6
CONTINUOUS
 62
1
 10
797.396396
 20
774.413524
 40
33.645227
 50
102.190758
 51
114.021671
  0
ARC
  8
MODEL-0
  6
CONTINUOUS
 62
1
 10
797.071145
 20
775.133452
 40
32.855247
 50
114.014675
 51
126.034838
  0
ARC
  8
MODEL-0
  6
CONTINUOUS
 62
1
 10
796.491632
 20
775.926654
 40
31.872903
 50
126.031232
 51
138.297533
  0
ARC
  8
MODEL-0
  6
CONTINUOUS
 62
1
 10
795.749931
 20
776.588135
 40
30.879083
 50
138.298353
 51
150.826987
  0
ARC
  8
MODEL-0
  6
CONTINUOUS
 62
1
 10
795.030263
 20
776.993206
 40
30.053252
 50
150.832492
 51
163.590069
  0
ARC
  8
MODEL-0
  6
CONTINUOUS
 62
1
 10
794.538807
 20
777.143061
 40
29.539482
 50
163.599594
 51
176.504989
  0
ARC
  8
MODEL-0
  6
CONTINUOUS
 62
1
 10
794.425462
 20
777.155920
 40
29.425564
 50
176.516526
 51
189.455275
  0
ARC
  8
MODEL-0
  6
CONTINUOUS
 62
1
 10
794.725515
 20
777.211633
 40
29.730693
 50
189.466192
 51
202.316070
  0
ARC
  8
MODEL-0
  6
CONTINUOUS
 62
1
 10
795.345974
 20
777.470803
 40
30.403093
 50
202.323910
 51
214.983242
  0
ARC
  8
MODEL-0
  6
CONTINUOUS
 62
1
 10
796.101959
 20
778.002051
 40
31.327071
 50
214.986586
 51
227.395255
  0
ARC
  8
MODEL-0
  6
CONTINUOUS
 62
1
 10
796.787550
 20
778.746416
 40
32.339055
 50
227.393953
 51
239.541874
  0
ARC
  8
MODEL-0
  6
CONTINUOUS
 62
1
 10
798.212190
 20
778.746416
 40
32.339055
 50
300.458126
 51
312.606047
  0
ARC
  8
MODEL-0
  6
CONTINUOUS
 62
1
 10
798.897781
 20
778.002051
 40
31.327071
 50
312.604745
 51
325.013414
  0
ARC
  8
MODEL-0
  6
CONTINUOUS
 62
1
 10
799.653766
 20
777.470803
 40
30.403093
 50
325.016758
 51
337.676090
  0
ARC
  8
MODEL-0
  6
CONTINUOUS
 62
1
 10
800.274226
 20
777.211638
 40
29.730694
 50
337.683921
 51
350.533800
  0
ARC
  8
MODEL-0
  6
CONTINUOUS
 62
1
 10
800.574279
 20
777.155920
 40
29.425564
 50
350.544725
 51
3.483474
  0
ARC
  8
MODEL-0
  6
CONTINUOUS
 62
1
 10
800.460933
 20
777.143057
 40
29.539482
 50
3.495020
 51
16.400414
  0
ARC
  8
MODEL-0
  6
CONTINUOUS
 62
1
 10
799.969478
 20
776.993211
 40
30.053250
 50
16.409923
 51
29.167500
  0
ARC
  8
MODEL-0
  6
CONTINUOUS
 62
1
 10
799.249810
 20
776.588131
 40
30.879085
 50
29.173020
 51
41.701654
  0
ARC
  8
MODEL-0
  6
CONTINUOUS
 62
1
 10
798.508108
 20
775.926654
 40
31.872903
 50
41.702467
 51
53.968768
  0
ARC
  8
MODEL-0
  6
CONTINUOUS
 62
1
 10
797.928596
 20
775.133457
 40
32.855242
 50
53.965158
 51
65.985321
  0
ARC
  8
MODEL-0
  6
CONTINUOUS
 62
1
 10
797.603344
 20
774.413519
 40
33.645232
 50
65.978331
 51
77.809244
  0
ARC
  8
MODEL-0
  6
CONTINUOUS
 62
1
 10
797.503641
 20
773.977180
 40
34.092786
 50
77.800314
 51
89.527224
  0
ARC
  8
MODEL-0
  6
CONTINUOUS
 62
1
 10
797.263990
 20
779.554894
 40
33.277531
 50
239.741898
 51
251.957466
  0
ARC
  8
MODEL-0
  6
CONTINUOUS
 62
1
 10
797.469606
 20
780.169417
 40
33.925521
 50
251.948729
 51
264.007974
  0
ARC
  8
MODEL-0
  6
CONTINUOUS
 62
1
 10
797.499870
 20
780.399669
 40
34.157674
 50
263.997804
 51
276.002196
  0
ARC
  8
MODEL-0
  6
CONTINUOUS
 62
1
 10
797.530135
 20
780.169413
 40
33.925516
 50
275.992027
 51
288.051273
  0
ARC
  8
MODEL-0
  6
CONTINUOUS
 62
1
 10
797.735751
 20
779.554898
 40
33.277535
 50
288.042531
 51
300.258099
  0
LINE
  8
MODEL-0
  6
CONTINUOUS
 62
1
 10
798.996812
 20
799.418122
 11
798.996812
 21
757.231609
  0
LINE
  8
MODEL-0
  6
CONTINUOUS
 62
1
 10
796.000634
 20
799.463658
 11
796.000634
 21
757.231765
  0
ARC
  8
MODEL-0
  6
CONTINUOUS
 62
1
 10
797.498721
 20
757.180794
 40
1.498086
 50
180.000000
 51
1.942686
  0
CIRCLE
  8
MODEL-0
  6
CONTINUOUS
 62
1
 10
102.499870
 20
812.655994
 40
3.200000
  0
CIRCLE
  8
MODEL-0
  6
CONTINUOUS
 62
1
 10
197.499870
 20
812.655994
 40
3.200000
  0
CIRCLE
  8
MODEL-0
  6
CONTINUOUS
 62
1
 10
347.968108
 20
812.655994
 40
3.200000
  0
CIRCLE
  8
MODEL-0
  6
CONTINUOUS
 62
1
 10
449.968108
 20
812.655994
 40
3.200000
  0
CIRCLE
  8
MODEL-0
  6
CONTINUOUS
 62
1
 10
702.499870
 20
812.655994
 40
3.200000
  0
CIRCLE
  8
MODEL-0
  6
CONTINUOUS
 62
1
 10
797.499870
 20
812.655994
 40
3.200000
  0
CIRCLE
  8
MODEL-0
  6
CONTINUOUS
 62
1
 10
244.999870
 20
758.655994
 40
5.000000
  0
CIRCLE
  8
MODEL-0
  6
CONTINUOUS
 62
1
 10
244.999870
 20
748.155994
 40
3.000000
  0
CIRCLE
  8
MODEL-0
  6
CONTINUOUS
 62
1
 10
395.468108
 20
760.655994
 40
3.000000
  0
CIRCLE
  8
MODEL-0
  6
CONTINUOUS
 62
1
 10
395.468108
 20
750.155994
 40
5.000000
  0
CIRCLE
  8
MODEL-0
  6
CONTINUOUS
 62
1
 10
490.468108
 20
758.655994
 40
5.000000
  0
CIRCLE
  8
MODEL-0
  6
CONTINUOUS
 62
1
 10
490.468108
 20
748.155994
 40
3.000000
  0
CIRCLE
  8
MODEL-0
  6
CONTINUOUS
 62
1
 10
749.999870
 20
760.655994
 40
3.000000
  0
CIRCLE
  8
MODEL-0
  6
CONTINUOUS
 62
1
 10
749.999870
 20
750.155994
 40
5.000000
  0
CIRCLE
  8
MODEL-0
  6
CONTINUOUS
 62
1
 10
844.999870
 20
758.655994
 40
5.000000
  0
CIRCLE
  8
MODEL-0
  6
CONTINUOUS
 62
1
 10
844.999870
 20
748.155994
 40
3.000000
  0
CIRCLE
  8
MODEL-0
  6
CONTINUOUS
 62
1
 10
149.999870
 20
760.655994
 40
3.000000
  0
CIRCLE
  8
MODEL-0
  6
CONTINUOUS
 62
1
 10
149.999870
 20
750.155994
 40
5.000000
  0
LINE
  8
MODEL-0
  6
CONTINUOUS
 62
1
 10
54.999855
 20
712.618912
 11
0.999855
 21
712.618912
  0
LINE
  8
MODEL-0
  6
CONTINUOUS
 62
1
 10
898.999870
 20
712.618912
 11
844.999733
 21
712.618912
  0
LINE
  8
MODEL-0
  6
CONTINUOUS
 62
1
 10
838.455169
 20
717.866391
 11
61.544419
 21
717.866391
  0
LINE
  8
MODEL-0
  6
CONTINUOUS
 62
1
 10
54.999855
 20
712.618912
 11
52.499855
 21
734.509991
  0
LINE
  8
MODEL-0
  6
CONTINUOUS
 62
1
 10
56.511919
 20
715.242651
 11
56.811555
 21
712.618912
  0
ARC
  8
MODEL-0
  6
CONTINUOUS
 62
1
 10
58.271915
 20
715.161474
 40
1.761868
 50
130.097021
 51
177.359190
  0
ARC
  8
MODEL-0
  6
CONTINUOUS
 62
1
 10
60.173666
 20
713.051834
 40
4.601535
 50
106.621567
 51
131.292049
  0
ARC
  8
MODEL-0
  6
CONTINUOUS
 62
1
 10
61.456776
 20
709.285180
 40
8.579178
 50
91.412392
 51
107.637066
  0
ARC
  8
MODEL-0
  6
CONTINUOUS
 62
1
 10
53.405705
 20
734.509991
 40
0.905850
 50
0.000000
 51
180.000000
  0
ARC
  8
MODEL-0
  6
CONTINUOUS
 62
1
 10
55.905705
 20
712.618912
 40
0.905850
 50
180.000000
 51
0.000000
  0
LINE
  8
MODEL-0
  6
CONTINUOUS
 62
1
 10
845.688033
 20
734.509991
 11
54.311555
 21
734.509991
  0
LINE
  8
MODEL-0
  6
CONTINUOUS
 62
1
 10
844.999733
 20
712.618912
 11
847.499733
 21
734.509991
  0
LINE
  8
MODEL-0
  6
CONTINUOUS
 62
1
 10
843.487669
 20
715.242651
 11
843.188033
 21
712.618912
  0
ARC
  8
MODEL-0
  6
CONTINUOUS
 62
1
 10
841.727673
 20
715.161474
 40
1.761868
 50
2.640810
 51
49.902979
  0
ARC
  8
MODEL-0
  6
CONTINUOUS
 62
1
 10
839.825922
 20
713.051834
 40
4.601535
 50
48.707951
 51
73.378433
  0
ARC
  8
MODEL-0
  6
CONTINUOUS
 62
1
 10
838.542812
 20
709.285180
 40
8.579178
 50
72.362934
 51
88.587608
  0
ARC
  8
MODEL-0
  6
CONTINUOUS
 62
1
 10
844.093883
 20
712.618912
 40
0.905850
 50
180.000000
 51
0.000000
  0
ARC
  8
MODEL-0
  6
CONTINUOUS
 62
1
 10
846.593883
 20
734.509991
 40
0.905850
 50
0.000000
 51
180.000000
  0
LINE
  8
MODEL-0
  6
CONTINUOUS
 62
1
 10
483.133286
 20
886.282504
 11
452.713687
 21
886.282504
  0
LINE
  8
MODEL-0
  6
CONTINUOUS
 62
1
 10
484.874601
 20
887.858373
 11
485.774601
 21
896.858373
  0
ARC
  8
MODEL-0
  6
CONTINUOUS
 62
1
 10
417.900743
 20
897.032504
 40
1.750000
 50
90.000000
 51
185.710593
  0
ARC
  8
MODEL-0
  6
CONTINUOUS
 62
1
 10
418.800743
 20
888.032504
 40
1.750000
 50
185.710593
 51
270.000000
  0
ARC
  8
MODEL-0
  6
CONTINUOUS
 62
1
 10
484.033286
 20
897.032504
 40
1.750000
 50
354.289407
 51
90.000000
  0
ARC
  8
MODEL-0
  6
CONTINUOUS
 62
1
 10
483.133286
 20
888.032504
 40
1.750000
 50
270.000000
 51
354.289407
  0
LINE
  8
MODEL-0
  6
CONTINUOUS
 62
1
 10
484.033286
 20
897.782504
 11
417.900743
 21
897.782504
  0
LINE
  8
MODEL-0
  6
CONTINUOUS
 62
1
 10
418.054465
 20
887.957876
 11
417.154465
 21
896.957876
  0
ARC
  8
MODEL-0
  6
CONTINUOUS
 62
1
 10
418.800743
 20
888.032504
 40
0.750000
 50
185.710593
 51
270.000000
  0
ARC
  8
MODEL-0
  6
CONTINUOUS
 62
1
 10
417.900743
 20
897.032504
 40
0.750000
 50
90.000000
 51
185.710593
  0
LINE
  8
MODEL-0
  6
CONTINUOUS
 62
1
 10
418.800743
 20
887.282504
 11
447.469074
 21
887.282504
  0
ARC
  8
MODEL-0
  6
CONTINUOUS
 62
1
 10
483.133286
 20
888.032504
 40
0.750000
 50
270.000000
 51
354.289407
  0
LINE
  8
MODEL-0
  6
CONTINUOUS
 62
1
 10
484.779564
 20
896.957876
 11
483.879564
 21
887.957876
  0
ARC
  8
MODEL-0
  6
CONTINUOUS
 62
1
 10
484.033286
 20
897.032504
 40
0.750000
 50
354.289407
 51
90.000000
  0
LINE
  8
MODEL-0
  6
CONTINUOUS
 62
1
 10
417.900743
 20
898.782504
 11
484.033286
 21
898.782504
  0
LINE
  8
MODEL-0
  6
CONTINUOUS
 62
1
 10
416.159428
 20
896.858373
 11
417.059428
 21
887.858373
  0
LINE
  8
MODEL-0
  6
CONTINUOUS
 62
1
 10
419.980188
 20
892.798754
 11
419.980188
 21
895.195004
  0
LINE
  8
MODEL-0
  6
CONTINUOUS
 62
1
 10
419.980188
 20
895.195004
 11
422.243313
 21
895.195004
  0
LINE
  8
MODEL-0
  6
CONTINUOUS
 62
1
 10
422.243313
 20
895.195004
 11
424.173626
 21
895.195004
  0
ARC
  8
MODEL-0
  6
CONTINUOUS
 62
1
 10
424.305325
 20
891.759195
 40
3.438332
 50
67.195153
 51
92.195154
  0
ARC
  8
MODEL-0
  6
CONTINUOUS
 62
1
 10
424.899951
 20
893.672358
 40
1.457137
 50
15.568594
 51
59.568592
  0
ARC
  8
MODEL-0
  6
CONTINUOUS
 62
1
 10
421.281599
 20
892.629903
 40
5.222623
 50
358.931407
 51
15.931408
  0
ARC
  8
MODEL-0
  6
CONTINUOUS
 62
1
 10
421.281599
 20
892.435106
 40
5.222623
 50
344.068591
 51
1.068592
  0
ARC
  8
MODEL-0
  6
CONTINUOUS
 62
1
 10
424.881844
 20
891.411978
 40
1.479831
 50
294.898706
 51
343.898705
  0
ARC
  8
MODEL-0
  6
CONTINUOUS
 62
1
 10
424.228669
 20
893.995591
 40
4.128121
 50
272.007979
 51
288.007980
  0
LINE
  8
MODEL-0
  6
CONTINUOUS
 62
1
 10
424.373313
 20
889.870004
 11
422.043626
 21
889.870004
  0
LINE
  8
MODEL-0
  6
CONTINUOUS
 62
1
 10
422.043626
 20
889.870004
 11
419.980188
 21
889.870004
  0
LINE
  8
MODEL-0
  6
CONTINUOUS
 62
1
 10
419.980188
 20
889.870004
 11
419.980188
 21
892.798754
  0
ARC
  8
MODEL-0
  6
CONTINUOUS
 62
1
 10
430.432805
 20
891.667652
 40
2.931820
 50
181.309932
 51
201.309932
  0
ARC
  8
MODEL-0
  6
CONTINUOUS
 62
1
 10
439.251080
 20
892.515385
 40
11.784885
 50
172.451842
 51
184.451842
  0
ARC
  8
MODEL-0
  6
CONTINUOUS
 62
1
 10
428.721926
 20
893.959271
 40
1.158306
 50
107.840192
 51
174.840192
  0
ARC
  8
MODEL-0
  6
CONTINUOUS
 62
1
 10
429.350650
 20
891.623172
 40
3.576611
 50
92.962322
 51
105.962322
  0
ARC
  8
MODEL-0
  6
CONTINUOUS
 62
1
 10
430.929720
 20
854.794908
 40
40.438584
 50
87.500000
 51
92.500000
  0
ARC
  8
MODEL-0
  6
CONTINUOUS
 62
1
 10
432.301331
 20
892.314402
 40
2.907192
 50
67.244882
 51
82.244881
  0
ARC
  8
MODEL-0
  6
CONTINUOUS
 62
1
 10
432.906915
 20
894.071183
 40
1.059848
 50
21.685924
 51
60.685925
  0
ARC
  8
MODEL-0
  6
CONTINUOUS
 62
1
 10
431.349132
 20
893.430637
 40
2.744140
 50
2.094757
 51
22.094757
  0
ARC
  8
MODEL-0
  6
CONTINUOUS
 62
1
 10
422.342109
 20
892.616185
 40
11.784885
 50
352.451842
 51
4.451842
  0
ARC
  8
MODEL-0
  6
CONTINUOUS
 62
1
 10
432.418370
 20
891.268796
 40
1.618990
 50
321.880135
 51
352.880135
  0
ARC
  8
MODEL-0
  6
CONTINUOUS
 62
1
 10
432.764191
 20
891.338885
 40
1.415905
 50
277.943953
 51
310.943955
  0
ARC
  8
MODEL-0
  6
CONTINUOUS
 62
1
 10
431.239245
 20
900.208733
 40
10.415276
 50
272.509006
 51
279.509006
  0
LINE
  8
MODEL-0
  6
CONTINUOUS
 62
1
 10
431.695188
 20
889.803442
 11
429.298938
 21
889.803442
  0
ARC
  8
MODEL-0
  6
CONTINUOUS
 62
1
 10
429.430108
 20
893.055229
 40
3.254431
 50
249.690068
 51
267.690068
  0
ARC
  8
MODEL-0
  6
CONTINUOUS
 62
1
 10
428.742335
 20
891.044026
 40
1.130789
 50
203.000001
 51
247.000000
  0
LINE
  8
MODEL-0
  6
CONTINUOUS
 62
1
 10
436.705188
 20
889.870004
 11
435.223001
 21
889.870004
  0
LINE
  8
MODEL-0
  6
CONTINUOUS
 62
1
 10
435.223001
 20
889.870004
 11
435.223001
 21
892.599067
  0
LINE
  8
MODEL-0
  6
CONTINUOUS
 62
1
 10
435.223001
 20
892.599067
 11
435.223001
 21
895.195004
  0
LINE
  8
MODEL-0
  6
CONTINUOUS
 62
1
 10
435.223001
 20
895.195004
 11
437.301246
 21
895.195004
  0
LINE
  8
MODEL-0
  6
CONTINUOUS
 62
1
 10
441.524587
 20
895.195004
 11
443.543313
 21
895.195004
  0
LINE
  8
MODEL-0
  6
CONTINUOUS
 62
1
 10
443.543313
 20
895.195004
 11
443.543313
 21
892.465942
  0
LINE
  8
MODEL-0
  6
CONTINUOUS
 62
1
 10
443.543313
 20
892.465942
 11
443.543313
 21
889.870004
  0
LINE
  8
MODEL-0
  6
CONTINUOUS
 62
1
 10
443.543313
 20
889.870004
 11
442.061126
 21
889.870004
  0
LINE
  8
MODEL-0
  6
CONTINUOUS
 62
1
 10
442.061126
 20
893.437660
 11
439.682688
 21
889.870004
  0
LINE
  8
MODEL-0
  6
CONTINUOUS
 62
1
 10
439.682688
 20
889.870004
 11
439.150188
 21
889.870004
  0
LINE
  8
MODEL-0
  6
CONTINUOUS
 62
1
 10
439.150188
 20
889.870004
 11
437.685813
 21
892.000004
  0
LINE
  8
MODEL-0
  6
CONTINUOUS
 62
1
 10
437.685813
 20
892.000004
 11
436.705188
 21
893.433225
  0
LINE
  8
MODEL-0
  6
CONTINUOUS
 62
1
 10
444.499563
 20
895.195004
 11
445.915188
 21
895.195004
  0
LINE
  8
MODEL-0
  6
CONTINUOUS
 62
1
 10
445.915188
 20
889.870004
 11
444.499563
 21
889.870004
  0
LINE
  8
MODEL-0
  6
CONTINUOUS
 62
1
 10
446.804876
 20
892.998442
 11
446.804876
 21
895.195004
  0
LINE
  8
MODEL-0
  6
CONTINUOUS
 62
1
 10
446.804876
 20
895.195004
 11
448.863973
 21
895.195004
  0
LINE
  8
MODEL-0
  6
CONTINUOUS
 62
1
 10
451.712688
 20
895.195004
 11
453.128313
 21
895.195004
  0
LINE
  8
MODEL-0
  6
CONTINUOUS
 62
1
 10
453.128313
 20
895.195004
 11
453.128313
 21
892.665629
  0
LINE
  8
MODEL-0
  6
CONTINUOUS
 62
1
 10
453.128313
 20
892.665629
 11
453.128313
 21
889.870004
  0
LINE
  8
MODEL-0
  6
CONTINUOUS
 62
1
 10
453.128313
 20
889.870004
 11
452.129876
 21
889.870004
  0
LINE
  8
MODEL-0
  6
CONTINUOUS
 62
1
 10
452.129876
 20
889.870004
 11
452.040564
 21
889.959316
  0
LINE
  8
MODEL-0
  6
CONTINUOUS
 62
1
 10
449.999876
 20
892.000004
 11
448.220501
 21
893.779379
  0
LINE
  8
MODEL-0
  6
CONTINUOUS
 62
1
 10
447.942827
 20
889.870004
 11
446.804876
 21
889.870004
  0
LINE
  8
MODEL-0
  6
CONTINUOUS
 62
1
 10
446.804876
 20
889.870004
 11
446.804876
 21
892.998442
  0
LINE
  8
MODEL-0
  6
CONTINUOUS
 62
1
 10
455.657688
 20
892.998442
 11
456.922376
 21
895.195004
  0
LINE
  8
MODEL-0
  6
CONTINUOUS
 62
1
 10
456.922376
 20
895.195004
 11
457.854251
 21
895.195004
  0
LINE
  8
MODEL-0
  6
CONTINUOUS
 62
1
 10
457.854251
 20
895.195004
 11
459.318626
 21
892.732192
  0
LINE
  8
MODEL-0
  6
CONTINUOUS
 62
1
 10
459.318626
 20
892.732192
 11
460.916126
 21
889.870004
  0
LINE
  8
MODEL-0
  6
CONTINUOUS
 62
1
 10
460.916126
 20
889.870004
 11
459.331652
 21
889.870004
  0
LINE
  8
MODEL-0
  6
CONTINUOUS
 62
1
 10
455.541021
 20
889.870004
 11
453.927063
 21
889.870004
  0
LINE
  8
MODEL-0
  6
CONTINUOUS
 62
1
 10
453.927063
 20
889.870004
 11
455.657688
 21
892.998442
  0
LINE
  8
MODEL-0
  6
CONTINUOUS
 62
1
 10
465.018626
 20
889.870004
 11
463.536438
 21
889.870004
  0
LINE
  8
MODEL-0
  6
CONTINUOUS
 62
1
 10
461.315501
 20
893.845942
 11
461.315501
 21
895.195004
  0
LINE
  8
MODEL-0
  6
CONTINUOUS
 62
1
 10
461.315501
 20
895.195004
 11
464.310813
 21
895.195004
  0
LINE
  8
MODEL-0
  6
CONTINUOUS
 62
1
 10
464.310813
 20
895.195004
 11
467.239563
 21
895.195004
  0
LINE
  8
MODEL-0
  6
CONTINUOUS
 62
1
 10
467.239563
 20
895.195004
 11
467.239563
 21
893.845942
  0
ARC
  8
MODEL-0
  6
CONTINUOUS
 62
1
 10
470.969367
 20
891.667652
 40
2.931820
 50
181.309932
 51
201.309932
  0
ARC
  8
MODEL-0
  6
CONTINUOUS
 62
1
 10
479.787642
 20
892.515385
 40
11.784885
 50
172.451842
 51
184.451842
  0
ARC
  8
MODEL-0
  6
CONTINUOUS
 62
1
 10
469.258488
 20
893.959271
 40
1.158306
 50
107.840192
 51
174.840192
  0
ARC
  8
MODEL-0
  6
CONTINUOUS
 62
1
 10
469.887212
 20
891.623172
 40
3.576611
 50
92.962322
 51
105.962322
  0
ARC
  8
MODEL-0
  6
CONTINUOUS
 62
1
 10
471.466282
 20
854.794908
 40
40.438584
 50
87.500000
 51
92.500000
  0
ARC
  8
MODEL-0
  6
CONTINUOUS
 62
1
 10
472.837893
 20
892.314402
 40
2.907192
 50
67.244882
 51
82.244881
  0
ARC
  8
MODEL-0
  6
CONTINUOUS
 62
1
 10
473.443478
 20
894.071183
 40
1.059848
 50
21.685924
 51
60.685925
  0
ARC
  8
MODEL-0
  6
CONTINUOUS
 62
1
 10
471.885694
 20
893.430637
 40
2.744140
 50
2.094757
 51
22.094757
  0
ARC
  8
MODEL-0
  6
CONTINUOUS
 62
1
 10
462.878672
 20
892.616185
 40
11.784885
 50
352.451842
 51
4.451842
  0
ARC
  8
MODEL-0
  6
CONTINUOUS
 62
1
 10
472.954932
 20
891.268796
 40
1.618990
 50
321.880135
 51
352.880135
  0
ARC
  8
MODEL-0
  6
CONTINUOUS
 62
1
 10
473.300754
 20
891.338885
 40
1.415905
 50
277.943953
 51
310.943955
  0
ARC
  8
MODEL-0
  6
CONTINUOUS
 62
1
 10
471.775807
 20
900.208733
 40
10.415276
 50
272.509006
 51
279.509006
  0
LINE
  8
MODEL-0
  6
CONTINUOUS
 62
1
 10
472.231751
 20
889.803442
 11
469.835501
 21
889.803442
  0
ARC
  8
MODEL-0
  6
CONTINUOUS
 62
1
 10
469.966671
 20
893.055229
 40
3.254431
 50
249.690068
 51
267.690068
  0
ARC
  8
MODEL-0
  6
CONTINUOUS
 62
1
 10
469.278898
 20
891.044026
 40
1.130789
 50
203.000001
 51
247.000000
  0
LINE
  8
MODEL-0
  6
CONTINUOUS
 62
1
 10
475.892688
 20
892.532504
 11
475.892688
 21
895.195004
  0
LINE
  8
MODEL-0
  6
CONTINUOUS
 62
1
 10
475.892688
 20
895.195004
 11
478.155813
 21
895.195004
  0
LINE
  8
MODEL-0
  6
CONTINUOUS
 62
1
 10
478.155813
 20
895.195004
 11
480.418938
 21
895.195004
  0
ARC
  8
MODEL-0
  6
CONTINUOUS
 62
1
 10
480.459174
 20
892.973607
 40
2.221762
 50
70.037678
 51
91.037678
  0
ARC
  8
MODEL-0
  6
CONTINUOUS
 62
1
 10
480.828345
 20
894.073473
 40
1.062325
 50
21.499998
 51
68.500000
  0
ARC
  8
MODEL-0
  6
CONTINUOUS
 62
1
 10
479.429598
 20
893.652666
 40
2.520882
 50
358.746162
 51
18.746162
  0
ARC
  8
MODEL-0
  6
CONTINUOUS
 62
1
 10
479.931727
 20
893.465092
 40
2.022488
 50
338.753837
 51
3.753838
  0
ARC
  8
MODEL-0
  6
CONTINUOUS
 62
1
 10
480.823411
 20
893.328404
 40
1.158531
 50
283.027374
 51
329.027373
  0
ARC
  8
MODEL-0
  6
CONTINUOUS
 62
1
 10
480.979202
 20
891.269714
 40
0.935927
 50
34.536244
 51
83.536243
  0
ARC
  8
MODEL-0
  6
CONTINUOUS
 62
1
 10
480.250991
 20
891.154352
 40
1.632441
 50
359.309933
 51
23.309932
  0
LINE
  8
MODEL-0
  6
CONTINUOUS
 62
1
 10
481.883313
 20
891.134692
 11
481.883313
 21
889.870004
  0
LINE
  8
MODEL-0
  6
CONTINUOUS
 62
1
 10
481.883313
 20
889.870004
 11
480.401126
 21
889.870004
  0
LINE
  8
MODEL-0
  6
CONTINUOUS
 62
1
 10
477.308313
 20
889.870004
 11
475.892688
 21
889.870004
  0
LINE
  8
MODEL-0
  6
CONTINUOUS
 62
1
 10
475.892688
 20
889.870004
 11
475.892688
 21
892.532504
  0
LINE
  8
MODEL-0
  6
CONTINUOUS
 62
1
 10
421.395813
 20
891.219067
 11
421.395813
 21
893.845942
  0
LINE
  8
MODEL-0
  6
CONTINUOUS
 62
1
 10
421.395813
 20
893.845942
 11
423.973938
 21
893.845942
  0
LINE
  8
MODEL-0
  6
CONTINUOUS
 62
1
 10
424.373313
 20
891.219067
 11
421.395813
 21
891.219067
  0
ARC
  8
MODEL-0
  6
CONTINUOUS
 62
1
 10
424.470792
 20
891.840694
 40
0.625086
 50
265.934949
 51
310.934948
  0
ARC
  8
MODEL-0
  6
CONTINUOUS
 62
1
 10
424.482611
 20
891.662465
 40
0.487408
 50
315.934949
 51
350.934948
  0
ARC
  8
MODEL-0
  6
CONTINUOUS
 62
1
 10
419.475901
 20
892.565785
 40
5.574750
 50
350.000000
 51
10.000000
  0
ARC
  8
MODEL-0
  6
CONTINUOUS
 62
1
 10
424.290520
 20
893.270466
 40
0.717801
 50
15.554604
 51
42.554604
  0
ARC
  8
MODEL-0
  6
CONTINUOUS
 62
1
 10
424.718878
 20
893.623008
 40
0.164329
 50
44.434949
 51
82.434950
  0
ARC
  8
MODEL-0
  6
CONTINUOUS
 62
1
 10
423.771550
 20
886.307087
 40
7.541325
 50
82.601295
 51
88.601295
  0
ARC
  8
MODEL-0
  6
CONTINUOUS
 62
1
 10
430.553619
 20
868.861681
 40
25.018156
 50
86.270740
 51
92.597722
  0
ARC
  8
MODEL-0
  6
CONTINUOUS
 62
1
 10
430.750045
 20
904.271445
 40
13.118947
 50
264.068276
 51
270.054813
  0
ARC
  8
MODEL-0
  6
CONTINUOUS
 62
1
 10
430.915994
 20
903.155417
 40
12.003827
 50
269.314075
 51
276.164339
  0
ARC
  8
MODEL-0
  6
CONTINUOUS
 62
1
 10
442.405137
 20
892.565785
 40
13.486742
 50
176.517529
 51
183.733858
  0
ARC
  8
MODEL-0
  6
CONTINUOUS
 62
1
 10
419.188052
 20
892.499223
 40
13.486742
 50
356.551732
 51
3.658589
  0
ARC
  8
MODEL-0
  6
CONTINUOUS
 62
1
 10
429.442376
 20
893.354641
 40
0.500000
 50
92.597722
 51
176.517529
  0
ARC
  8
MODEL-0
  6
CONTINUOUS
 62
1
 10
432.148327
 20
893.327920
 40
0.500000
 50
3.658589
 51
86.270740
  0
ARC
  8
MODEL-0
  6
CONTINUOUS
 62
1
 10
432.151282
 20
891.718105
 40
0.500000
 50
276.164339
 51
356.551732
  0
ARC
  8
MODEL-0
  6
CONTINUOUS
 62
1
 10
429.445962
 20
891.720063
 40
0.500000
 50
183.733858
 51
264.068276
  0
ARC
  8
MODEL-0
  6
CONTINUOUS
 62
1
 10
471.090182
 20
868.861681
 40
25.018156
 50
86.270740
 51
92.597722
  0
ARC
  8
MODEL-0
  6
CONTINUOUS
 62
1
 10
471.286608
 20
904.271445
 40
13.118947
 50
264.068276
 51
270.054813
  0
ARC
  8
MODEL-0
  6
CONTINUOUS
 62
1
 10
471.452557
 20
903.155417
 40
12.003827
 50
269.314075
 51
276.164339
  0
ARC
  8
MODEL-0
  6
CONTINUOUS
 62
1
 10
482.941700
 20
892.565785
 40
13.486742
 50
176.517529
 51
183.733858
  0
ARC
  8
MODEL-0
  6
CONTINUOUS
 62
1
 10
459.724614
 20
892.499223
 40
13.486742
 50
356.551732
 51
3.658589
  0
ARC
  8
MODEL-0
  6
CONTINUOUS
 62
1
 10
469.978939
 20
893.354641
 40
0.500000
 50
92.597722
 51
176.517529
  0
ARC
  8
MODEL-0
  6
CONTINUOUS
 62
1
 10
472.684889
 20
893.327920
 40
0.500000
 50
3.658589
 51
86.270740
  0
ARC
  8
MODEL-0
  6
CONTINUOUS
 62
1
 10
472.687844
 20
891.718105
 40
0.500000
 50
276.164339
 51
356.551732
  0
ARC
  8
MODEL-0
  6
CONTINUOUS
 62
1
 10
469.982524
 20
891.720063
 40
0.500000
 50
183.733858
 51
264.068276
  0
LINE
  8
MODEL-0
  6
CONTINUOUS
 62
1
 10
436.705188
 20
889.870004
 11
436.705188
 21
893.433225
  0
LINE
  8
MODEL-0
  6
CONTINUOUS
 62
1
 10
442.061126
 20
893.437660
 11
442.061126
 21
889.870004
  0
LINE
  8
MODEL-0
  6
CONTINUOUS
 62
1
 10
441.524587
 20
895.195004
 11
439.415638
 21
892.073759
  0
LINE
  8
MODEL-0
  6
CONTINUOUS
 62
1
 10
439.415638
 20
892.073759
 11
437.301246
 21
895.195004
  0
LINE
  8
MODEL-0
  6
CONTINUOUS
 62
1
 10
448.220501
 20
890.913144
 11
448.220501
 21
893.779379
  0
LINE
  8
MODEL-0
  6
CONTINUOUS
 62
1
 10
451.712688
 20
895.195004
 11
451.712688
 21
892.346289
  0
LINE
  8
MODEL-0
  6
CONTINUOUS
 62
1
 10
451.712688
 20
892.346289
 11
448.863973
 21
895.195004
  0
LINE
  8
MODEL-0
  6
CONTINUOUS
 62
1
 10
455.541021
 20
889.870004
 11
455.968643
 21
890.626567
  0
LINE
  8
MODEL-0
  6
CONTINUOUS
 62
1
 10
457.400576
 20
893.159986
 11
458.095742
 21
891.975629
  0
LINE
  8
MODEL-0
  6
CONTINUOUS
 62
1
 10
480.401126
 20
891.308442
 11
480.401126
 21
889.870004
  0
LINE
  8
MODEL-0
  6
CONTINUOUS
 62
1
 10
477.308313
 20
892.907504
 11
477.308313
 21
893.845942
  0
LINE
  8
MODEL-0
  6
CONTINUOUS
 62
1
 10
477.308313
 20
893.845942
 11
480.245465
 21
893.845942
  0
ARC
  8
MODEL-0
  6
CONTINUOUS
 62
1
 10
479.022053
 20
893.553191
 40
1.474159
 50
341.141530
 51
2.001319
  0
LINE
  8
MODEL-0
  6
CONTINUOUS
 62
1
 10
477.308313
 20
889.870004
 11
477.308313
 21
891.558442
  0
LINE
  8
MODEL-0
  6
CONTINUOUS
 62
1
 10
480.180499
 20
892.907504
 11
477.308313
 21
892.907504
  0
LINE
  8
MODEL-0
  6
CONTINUOUS
 62
1
 10
477.308313
 20
891.558442
 11
480.151126
 21
891.558442
  0
LINE
  8
MODEL-0
  6
CONTINUOUS
 62
1
 10
463.536438
 20
893.845942
 11
463.536438
 21
889.870004
  0
LINE
  8
MODEL-0
  6
CONTINUOUS
 62
1
 10
465.018626
 20
889.870004
 11
465.018626
 21
893.845942
  0
LINE
  8
MODEL-0
  6
CONTINUOUS
 62
1
 10
458.095742
 20
891.975629
 11
456.731156
 21
891.975629
  0
LINE
  8
MODEL-0
  6
CONTINUOUS
 62
1
 10
455.968643
 20
890.626567
 11
458.887583
 21
890.626567
  0
LINE
  8
MODEL-0
  6
CONTINUOUS
 62
1
 10
456.731156
 20
891.975629
 11
457.400576
 21
893.159986
  0
LINE
  8
MODEL-0
  6
CONTINUOUS
 62
1
 10
458.887583
 20
890.626567
 11
459.331652
 21
889.870004
  0
LINE
  8
MODEL-0
  6
CONTINUOUS
 62
1
 10
461.315501
 20
893.845942
 11
463.536438
 21
893.845942
  0
LINE
  8
MODEL-0
  6
CONTINUOUS
 62
1
 10
465.018626
 20
893.845942
 11
467.239563
 21
893.845942
  0
ARC
  8
MODEL-0
  6
CONTINUOUS
 62
1
 10
480.151126
 20
891.308442
 40
0.250000
 50
0.000000
 51
90.000000
  0
ARC
  8
MODEL-0
  6
CONTINUOUS
 62
1
 10
480.180499
 20
893.157504
 40
0.250000
 50
270.000000
 51
341.141530
  0
ARC
  8
MODEL-0
  6
CONTINUOUS
 62
1
 10
480.245465
 20
893.595942
 40
0.250000
 50
2.001319
 51
90.000000
  0
LINE
  8
MODEL-0
  6
CONTINUOUS
 62
1
 10
444.499563
 20
895.195004
 11
444.499563
 21
889.870004
  0
LINE
  8
MODEL-0
  6
CONTINUOUS
 62
1
 10
445.915188
 20
889.870004
 11
445.915188
 21
895.195004
  0
LINE
  8
MODEL-0
  6
CONTINUOUS
 62
1
 10
452.530615
 20
887.282504
 11
483.133286
 21
887.282504
  0
LINE
  8
MODEL-0
  6
CONTINUOUS
 62
1
 10
447.285982
 20
886.282504
 11
418.800743
 21
886.282504
  0
ARC
  8
MODEL-0
  6
CONTINUOUS
 62
1
 10
449.999876
 20
890.000004
 40
2.000000
 50
10.374397
 51
169.624476
  0
LINE
  8
MODEL-0
  6
CONTINUOUS
 62
1
 10
832.500000
 20
92.500000
 11
867.500000
 21
92.500000
  0
LINE
  8
MODEL-0
  6
CONTINUOUS
 62
1
 10
867.500000
 20
92.500000
 11
867.500000
 21
147.500000
  0
LINE
  8
MODEL-0
  6
CONTINUOUS
 62
1
 10
867.500000
 20
147.500000
 11
832.500000
 21
147.500000
  0
LINE
  8
MODEL-0
  6
CONTINUOUS
 62
1
 10
832.500000
 20
147.500000
 11
832.500000
 21
92.500000
  0
LINE
  8
MODEL-0
  6
CONTINUOUS
 62
1
 10
801.400000
 20
657.571641
 11
898.400000
 21
657.571641
  0
LINE
  8
MODEL-0
  6
CONTINUOUS
 62
1
 10
898.400000
 20
167.571641
 11
801.400000
 21
167.571641
  0
LINE
  8
MODEL-0
  6
CONTINUOUS
 62
1
 10
799.800000
 20
656.771641
 11
799.800000
 21
168.371641
  0
LINE
  8
MODEL-0
  6
CONTINUOUS
 62
1
 10
900.000000
 20
168.371641
 11
900.000000
 21
656.771641
  0
LINE
  8
MODEL-0
  6
CONTINUOUS
 62
1
 10
801.400000
 20
657.571641
 11
801.400000
 21
167.571641
  0
LINE
  8
MODEL-0
  6
CONTINUOUS
 62
1
 10
898.400000
 20
167.571641
 11
898.400000
 21
657.571641
  0
LINE
  8
MODEL-0
  6
CONTINUOUS
 62
1
 10
900.000000
 20
656.771641
 11
898.400000
 21
656.771641
  0
LINE
  8
MODEL-0
  6
CONTINUOUS
 62
1
 10
799.800000
 20
168.371641
 11
801.400000
 21
168.371641
  0
LINE
  8
MODEL-0
  6
CONTINUOUS
 62
1
 10
898.400000
 20
168.371641
 11
900.000000
 21
168.371641
  0
LINE
  8
MODEL-0
  6
CONTINUOUS
 62
1
 10
801.400000
 20
656.771641
 11
799.800000
 21
656.771641
  0
CIRCLE
  8
MODEL-0
  6
CONTINUOUS
 62
1
 10
809.900000
 20
176.071641
 40
3.200000
  0
CIRCLE
  8
MODEL-0
  6
CONTINUOUS
 62
1
 10
889.900000
 20
176.071641
 40
3.200000
  0
CIRCLE
  8
MODEL-0
  6
CONTINUOUS
 62
1
 10
849.900000
 20
649.571641
 40
3.200000
  0
LINE
  8
MODEL-0
  6
CONTINUOUS
 62
1
 10
817.900000
 20
247.571641
 11
861.900000
 21
247.571641
  0
LINE
  8
MODEL-0
  6
CONTINUOUS
 62
1
 10
861.900000
 20
247.571641
 11
861.900000
 21
263.071641
  0
LINE
  8
MODEL-0
  6
CONTINUOUS
 62
1
 10
817.900000
 20
247.571641
 11
817.900000
 21
263.071641
  0
LINE
  8
MODEL-0
  6
CONTINUOUS
 62
1
 10
852.400000
 20
272.571641
 11
851.900000
 21
272.571641
  0
ARC
  8
MODEL-0
  6
CONTINUOUS
 62
1
 10
827.400000
 20
263.071641
 40
9.500000
 50
90.000000
 51
180.000000
  0
ARC
  8
MODEL-0
  6
CONTINUOUS
 62
1
 10
852.400000
 20
263.071641
 40
9.500000
 50
0.000000
 51
90.000000
  0
LINE
  8
MODEL-0
  6
CONTINUOUS
 62
1
 10
847.900000
 20
276.571641
 11
847.900000
 21
291.071641
  0
LINE
  8
MODEL-0
  6
CONTINUOUS
 62
1
 10
831.900000
 20
276.571641
 11
831.900000
 21
291.071641
  0
LINE
  8
MODEL-0
  6
CONTINUOUS
 62
1
 10
827.900000
 20
272.571641
 11
827.400000
 21
272.571641
  0
ARC
  8
MODEL-0
  6
CONTINUOUS
 62
1
 10
827.900000
 20
276.571641
 40
4.000000
 50
270.000000
 51
0.000000
  0
ARC
  8
MODEL-0
  6
CONTINUOUS
 62
1
 10
851.900000
 20
276.571641
 40
4.000000
 50
180.000000
 51
270.000000
  0
CIRCLE
  8
MODEL-0
  6
CONTINUOUS
 62
1
 10
849.900000
 20
602.571641
 40
4.800000
  0
CIRCLE
  8
MODEL-0
  6
CONTINUOUS
 62
1
 10
849.900000
 20
507.071641
 40
4.800000
  0
CIRCLE
  8
MODEL-0
  6
CONTINUOUS
 62
1
 10
821.400000
 20
313.071641
 40
9.000000
  0
CIRCLE
  8
MODEL-0
  6
CONTINUOUS
 62
1
 10
849.900000
 20
444.571641
 40
8.000000
  0
LINE
  8
MODEL-0
  6
CONTINUOUS
 62
1
 10
860.700000
 20
480.571396
 11
859.648846
 21
480.571396
  0
LINE
  8
MODEL-0
  6
CONTINUOUS
 62
1
 10
860.700000
 20
478.571396
 11
859.648846
 21
478.571396
  0
LINE
  8
MODEL-0
  6
CONTINUOUS
 62
1
 10
860.700000
 20
480.571396
 11
860.700000
 21
478.571396
  0
LINE
  8
MODEL-0
  6
CONTINUOUS
 62
1
 10
833.700000
 20
291.071641
 11
833.700000
 21
290.571641
  0
LINE
  8
MODEL-0
  6
CONTINUOUS
 62
1
 10
846.100000
 20
291.071641
 11
846.100000
 21
290.571641
  0
LINE
  8
MODEL-0
  6
CONTINUOUS
 62
1
 10
846.100000
 20
290.571641
 11
833.700000
 21
290.571641
  0
ARC
  8
MODEL-0
  6
CONTINUOUS
 62
1
 10
832.800000
 20
291.071641
 40
0.900000
 50
0.000000
 51
180.000000
  0
ARC
  8
MODEL-0
  6
CONTINUOUS
 62
1
 10
847.000000
 20
291.071641
 40
0.900000
 50
0.000000
 51
180.000000
  0
LINE
  8
MODEL-0
  6
CONTINUOUS
 62
1
 10
833.700000
 20
291.071641
 11
846.100000
 21
291.071641
  0
ARC
  8
MODEL-0
  6
CONTINUOUS
 62
1
 10
849.900000
 20
479.571396
 40
9.800000
 50
5.856702
 51
354.143298
  0
LINE
  8
MODEL-0
  6
CONTINUOUS
 62
1
 10
879.900000
 20
607.076712
 11
879.900000
 21
597.784812
  0
LINE
  8
MODEL-0
  6
CONTINUOUS
 62
1
 10
876.900000
 20
607.076712
 11
876.900000
 21
597.784812
  0
ARC
  8
MODEL-0
  6
CONTINUOUS
 62
1
 10
878.400000
 20
607.076712
 40
1.500000
 50
0.000000
 51
180.000000
  0
LINE
  8
MODEL-0
  6
CONTINUOUS
 62
1
 10
879.900000
 20
600.081507
 11
876.900000
 21
600.081507
  0
ARC
  8
MODEL-0
  6
CONTINUOUS
 62
1
 10
878.400000
 20
594.076712
 40
4.000000
 50
0.000000
 51
67.975687
  0
ARC
  8
MODEL-0
  6
CONTINUOUS
 62
1
 10
878.400000
 20
594.076712
 40
4.000000
 50
112.024313
 51
0.000000
  0
CIRCLE
  8
MODEL-0
  6
CONTINUOUS
 62
1
 10
873.354673
 20
414.576100
 40
9.250000
  0
CIRCLE
  8
MODEL-0
  6
CONTINUOUS
 62
1
 10
873.354673
 20
414.576100
 40
7.250000
  0
LINE
  8
MODEL-0
  6
CONTINUOUS
 62
1
 10
868.814472
 20
415.576100
 11
871.622622
 21
415.576100
  0
LINE
  8
MODEL-0
  6
CONTINUOUS
 62
1
 10
868.814472
 20
413.576100
 11
871.622622
 21
413.576100
  0
LINE
  8
MODEL-0
  6
CONTINUOUS
 62
1
 10
872.354673
 20
420.561118
 11
872.354673
 21
416.308151
  0
LINE
  8
MODEL-0
  6
CONTINUOUS
 62
1
 10
874.354673
 20
420.561118
 11
874.354673
 21
416.308151
  0
ARC
  8
MODEL-0
  6
CONTINUOUS
 62
1
 10
873.354673
 20
414.576100
 40
2.000000
 50
120.000000
 51
150.000000
  0
ARC
  8
MODEL-0
  6
CONTINUOUS
 62
1
 10
873.354673
 20
414.576100
 40
2.000000
 50
210.000000
 51
60.000000
  0
LINE
  8
MODEL-0
  6
CONTINUOUS
 62
1
 10
872.354673
 20
420.561118
 11
874.354673
 21
420.561118
  0
LINE
  8
MODEL-0
  6
CONTINUOUS
 62
1
 10
868.814472
 20
413.576100
 11
868.814472
 21
415.576100
  0
CIRCLE
  8
MODEL-0
  6
CONTINUOUS
 62
1
 10
873.354673
 20
479.571396
 40
9.250000
  0
ARC
  8
MODEL-0
  6
CONTINUOUS
 62
1
 10
873.354673
 20
479.571396
 40
7.250000
 50
0.000000
 51
168.059456
  0
LINE
  8
MODEL-0
  6
CONTINUOUS
 62
1
 10
874.354673
 20
484.071396
 11
874.354673
 21
477.254616
  0
LINE
  8
MODEL-0
  6
CONTINUOUS
 62
1
 10
872.354673
 20
481.197040
 11
872.354673
 21
474.380261
  0
LINE
  8
MODEL-0
  6
CONTINUOUS
 62
1
 10
866.261543
 20
481.071396
 11
874.354673
 21
484.071396
  0
LINE
  8
MODEL-0
  6
CONTINUOUS
 62
1
 10
872.354673
 20
481.197040
 11
866.136569
 21
478.892084
  0
LINE
  8
MODEL-0
  6
CONTINUOUS
 62
1
 10
874.354673
 20
477.254616
 11
880.604673
 21
479.571396
  0
ARC
  8
MODEL-0
  6
CONTINUOUS
 62
1
 10
873.354673
 20
479.571396
 40
7.250000
 50
185.376398
 51
341.771516
  0
LINE
  8
MODEL-0
  6
CONTINUOUS
 62
1
 10
880.240844
 20
477.303544
 11
872.354673
 21
474.380261
  0
LINE
  8
MODEL-0
  6
CONTINUOUS
 62
1
 10
882.604673
 20
443.571374
 11
873.354673
 21
444.071641
  0
LINE
  8
MODEL-0
  6
CONTINUOUS
 62
1
 10
873.354673
 20
445.071641
 11
882.604673
 21
445.571908
  0
LINE
  8
MODEL-0
  6
CONTINUOUS
 62
1
 10
873.354673
 20
444.071641
 11
873.354673
 21
445.071641
  0
LINE
  8
MODEL-0
  6
CONTINUOUS
 62
1
 10
882.604673
 20
438.536079
 11
873.354673
 21
439.036346
  0
LINE
  8
MODEL-0
  6
CONTINUOUS
 62
1
 10
873.354673
 20
440.036346
 11
882.604673
 21
440.536613
  0
LINE
  8
MODEL-0
  6
CONTINUOUS
 62
1
 10
873.354673
 20
439.036346
 11
873.354673
 21
440.036346
  0
LINE
  8
MODEL-0
  6
CONTINUOUS
 62
1
 10
882.604673
 20
450.607203
 11
873.354673
 21
450.106936
  0
LINE
  8
MODEL-0
  6
CONTINUOUS
 62
1
 10
873.354673
 20
449.106936
 11
882.604673
 21
448.606668
  0
LINE
  8
MODEL-0
  6
CONTINUOUS
 62
1
 10
873.354673
 20
450.106936
 11
873.354673
 21
449.106936
  0
ARC
  8
MODEL-0
  6
CONTINUOUS
 62
1
 10
873.354673
 20
444.571641
 40
9.250000
 50
116.932913
 51
243.067087
  0
ARC
  8
MODEL-0
  6
CONTINUOUS
 62
1
 10
873.354673
 20
444.571641
 40
7.250000
 50
134.497043
 51
225.502957
  0
ARC
  8
MODEL-0
  6
CONTINUOUS
 62
1
 10
852.604673
 20
444.571641
 40
18.500000
 50
333.527467
 51
26.472533
  0
ARC
  8
MODEL-0
  6
CONTINUOUS
 62
1
 10
852.604673
 20
444.571641
 40
16.500000
 50
341.734916
 51
18.265084
  0
LINE
  8
MODEL-0
  6
CONTINUOUS
 62
1
 10
882.604673
 20
450.607203
 11
882.604673
 21
448.606668
  0
LINE
  8
MODEL-0
  6
CONTINUOUS
 62
1
 10
882.604673
 20
445.571908
 11
882.604673
 21
443.571374
  0
LINE
  8
MODEL-0
  6
CONTINUOUS
 62
1
 10
882.604673
 20
440.536613
 11
882.604673
 21
438.536079
  0
LINE
  8
MODEL-0
  6
CONTINUOUS
 62
1
 10
837.910634
 20
304.906458
 11
846.431516
 21
313.071641
  0
LINE
  8
MODEL-0
  6
CONTINUOUS
 62
1
 10
837.910634
 20
304.906458
 11
848.964662
 21
310.024099
  0
LINE
  8
MODEL-0
  6
CONTINUOUS
 62
1
 10
852.178536
 20
310.024099
 11
858.048030
 21
308.822893
  0
LINE
  8
MODEL-0
  6
CONTINUOUS
 62
1
 10
848.964662
 20
310.024099
 11
851.711833
 21
303.515434
  0
LINE
  8
MODEL-0
  6
CONTINUOUS
 62
1
 10
852.178536
 20
310.024099
 11
851.711833
 21
303.515434
  0
LINE
  8
MODEL-0
  6
CONTINUOUS
 62
1
 10
853.116476
 20
316.508346
 11
849.800000
 21
322.293778
  0
LINE
  8
MODEL-0
  6
CONTINUOUS
 62
1
 10
847.838967
 20
315.916615
 11
843.003696
 21
316.508346
  0
LINE
  8
MODEL-0
  6
CONTINUOUS
 62
1
 10
846.431516
 20
313.071641
 11
843.003696
 21
316.508346
  0
LINE
  8
MODEL-0
  6
CONTINUOUS
 62
1
 10
855.123978
 20
313.071641
 11
858.048030
 21
308.822893
  0
LINE
  8
MODEL-0
  6
CONTINUOUS
 62
1
 10
853.116476
 20
316.508346
 11
858.711780
 21
318.303143
  0
LINE
  8
MODEL-0
  6
CONTINUOUS
 62
1
 10
847.838967
 20
315.916615
 11
849.800000
 21
322.293778
  0
LINE
  8
MODEL-0
  6
CONTINUOUS
 62
1
 10
858.711780
 20
318.303143
 11
855.123978
 21
313.071641
  0
CIRCLE
  8
MODEL-0
  6
CONTINUOUS
 62
1
 10
849.900000
 20
410.071641
 40
3.000000
  0
CIRCLE
  8
MODEL-0
  6
CONTINUOUS
 62
1
 10
849.900000
 20
590.071641
 40
3.000000
  0
ARC
  8
MODEL-0
  6
CONTINUOUS
 62
1
 10
850.547793
 20
555.932897
 40
28.318324
 50
300.452040
 51
313.716994
  0
ARC
  8
MODEL-0
  6
CONTINUOUS
 62
1
 10
851.215164
 20
555.235814
 40
27.353281
 50
313.715741
 51
327.291545
  0
ARC
  8
MODEL-0
  6
CONTINUOUS
 62
1
 10
851.928178
 20
554.774905
 40
26.504270
 50
327.297027
 51
341.161938
  0
ARC
  8
MODEL-0
  6
CONTINUOUS
 62
1
 10
852.451358
 20
554.590874
 40
25.949692
 50
341.173511
 51
355.235702
  0
ARC
  8
MODEL-0
  6
CONTINUOUS
 62
1
 10
852.598331
 20
554.571852
 40
25.801648
 50
355.250688
 51
9.366762
  0
ARC
  8
MODEL-0
  6
CONTINUOUS
 62
1
 10
852.315014
 20
554.518570
 40
26.089860
 50
9.380951
 51
23.392682
  0
ARC
  8
MODEL-0
  6
CONTINUOUS
 62
1
 10
851.704410
 20
554.249508
 40
26.757102
 50
23.402358
 51
37.179582
  0
ARC
  8
MODEL-0
  6
CONTINUOUS
 62
1
 10
850.981120
 20
553.698926
 40
27.666105
 50
37.182851
 51
50.655882
  0
ARC
  8
MODEL-0
  6
CONTINUOUS
 62
1
 10
850.372245
 20
552.958719
 40
28.624558
 50
50.652677
 51
63.822608
  0
ARC
  8
MODEL-0
  6
CONTINUOUS
 62
1
 10
850.015793
 20
552.243315
 40
29.423835
 50
63.814255
 51
76.744094
  0
ARC
  8
MODEL-0
  6
CONTINUOUS
 62
1
 10
849.904233
 20
551.795849
 40
29.884960
 50
76.732623
 51
89.528812
  0
ARC
  8
MODEL-0
  6
CONTINUOUS
 62
1
 10
849.693150
 20
556.675292
 40
29.181836
 50
239.741900
 51
251.957468
  0
ARC
  8
MODEL-0
  6
CONTINUOUS
 62
1
 10
849.873457
 20
557.214183
 40
29.750073
 50
251.948735
 51
264.007980
  0
ARC
  8
MODEL-0
  6
CONTINUOUS
 62
1
 10
849.900000
 20
557.416092
 40
29.953650
 50
263.997804
 51
276.002196
  0
ARC
  8
MODEL-0
  6
CONTINUOUS
 62
1
 10
849.926543
 20
557.214183
 40
29.750073
 50
275.992020
 51
288.051265
  0
ARC
  8
MODEL-0
  6
CONTINUOUS
 62
1
 10
850.106850
 20
556.675292
 40
29.181836
 50
288.042532
 51
300.258100
  0
ARC
  8
MODEL-0
  6
CONTINUOUS
 62
1
 10
916.173445
 20
554.768156
 40
56.297394
 50
194.674621
 51
204.365579
  0
ARC
  8
MODEL-0
  6
CONTINUOUS
 62
1
 10
915.533058
 20
554.596120
 40
55.634316
 50
184.902475
 51
194.670300
  0
ARC
  8
MODEL-0
  6
CONTINUOUS
 62
1
 10
915.304991
 20
554.571641
 40
55.404991
 50
175.102591
 51
184.897409
  0
ARC
  8
MODEL-0
  6
CONTINUOUS
 62
1
 10
915.533058
 20
554.547162
 40
55.634316
 50
165.329700
 51
175.097525
  0
ARC
  8
MODEL-0
  6
CONTINUOUS
 62
1
 10
916.173445
 20
554.375126
 40
56.297394
 50
155.634421
 51
165.325379
  0
ARC
  8
MODEL-0
  6
CONTINUOUS
 62
1
 10
783.626555
 20
554.375126
 40
56.297394
 50
14.674621
 51
24.365579
  0
ARC
  8
MODEL-0
  6
CONTINUOUS
 62
1
 10
784.266942
 20
554.547162
 40
55.634316
 50
4.902475
 51
14.670300
  0
ARC
  8
MODEL-0
  6
CONTINUOUS
 62
1
 10
784.495009
 20
554.571641
 40
55.404991
 50
355.102591
 51
4.897409
  0
ARC
  8
MODEL-0
  6
CONTINUOUS
 62
1
 10
784.266942
 20
554.596120
 40
55.634316
 50
345.329700
 51
355.097525
  0
ARC
  8
MODEL-0
  6
CONTINUOUS
 62
1
 10
783.626555
 20
554.768156
 40
56.297394
 50
335.634421
 51
345.325379
  0
ARC
  8
MODEL-0
  6
CONTINUOUS
 62
1
 10
849.895767
 20
551.795849
 40
29.884960
 50
90.471188
 51
103.267377
  0
ARC
  8
MODEL-0
  6
CONTINUOUS
 62
1
 10
849.784207
 20
552.243319
 40
29.423831
 50
103.255909
 51
116.185748
  0
ARC
  8
MODEL-0
  6
CONTINUOUS
 62
1
 10
849.427755
 20
552.958715
 40
28.624562
 50
116.177387
 51
129.347318
  0
ARC
  8
MODEL-0
  6
CONTINUOUS
 62
1
 10
848.818880
 20
553.698926
 40
27.666105
 50
129.344118
 51
142.817149
  0
ARC
  8
MODEL-0
  6
CONTINUOUS
 62
1
 10
848.095590
 20
554.249508
 40
26.757102
 50
142.820418
 51
156.597642
  0
ARC
  8
MODEL-0
  6
CONTINUOUS
 62
1
 10
847.484986
 20
554.518570
 40
26.089860
 50
156.607318
 51
170.619049
  0
ARC
  8
MODEL-0
  6
CONTINUOUS
 62
1
 10
847.201669
 20
554.571852
 40
25.801648
 50
170.633238
 51
184.749312
  0
ARC
  8
MODEL-0
  6
CONTINUOUS
 62
1
 10
847.348642
 20
554.590874
 40
25.949692
 50
184.764298
 51
198.826489
  0
ARC
  8
MODEL-0
  6
CONTINUOUS
 62
1
 10
847.871823
 20
554.774909
 40
26.504272
 50
198.838070
 51
212.702981
  0
ARC
  8
MODEL-0
  6
CONTINUOUS
 62
1
 10
848.584836
 20
555.235810
 40
27.353278
 50
212.708448
 51
226.284252
  0
ARC
  8
MODEL-0
  6
CONTINUOUS
 62
1
 10
849.252207
 20
555.932897
 40
28.318324
 50
226.283006
 51
239.547960
  0
ARC
  8
MODEL-0
  6
CONTINUOUS
 62
1
 10
849.913061
 20
552.350744
 40
24.573543
 50
72.917399
 51
86.532713
  0
ARC
  8
MODEL-0
  6
CONTINUOUS
 62
1
 10
850.066340
 20
552.831135
 40
24.069321
 50
59.124944
 51
72.930256
  0
ARC
  8
MODEL-0
  6
CONTINUOUS
 62
1
 10
849.818528
 20
576.940740
 40
1.419095
 50
182.481200
 51
242.527344
  0
ARC
  8
MODEL-0
  6
CONTINUOUS
 62
1
 10
849.900000
 20
577.065335
 40
1.567294
 50
241.986084
 51
298.013916
  0
ARC
  8
MODEL-0
  6
CONTINUOUS
 62
1
 10
849.981472
 20
576.940740
 40
1.419095
 50
297.472656
 51
357.518800
  0
ARC
  8
MODEL-0
  6
CONTINUOUS
 62
1
 10
849.894086
 20
581.687164
 40
0.244195
 50
181.728559
 51
271.387861
  0
ARC
  8
MODEL-0
  6
CONTINUOUS
 62
1
 10
849.905914
 20
581.687164
 40
0.244195
 50
268.612139
 51
358.271441
  0
ARC
  8
MODEL-0
  6
CONTINUOUS
 62
1
 10
849.733656
 20
552.831136
 40
24.069319
 50
107.069735
 51
120.875047
  0
ARC
  8
MODEL-0
  6
CONTINUOUS
 62
1
 10
849.886939
 20
552.350744
 40
24.573543
 50
93.467287
 51
107.082601
  0
ARC
  8
MODEL-0
  6
CONTINUOUS
 62
1
 10
850.080370
 20
556.283989
 40
24.037954
 50
288.409512
 51
300.880792
  0
ARC
  8
MODEL-0
  6
CONTINUOUS
 62
1
 10
849.923159
 20
556.743943
 40
24.524018
 50
276.113039
 51
288.418646
  0
ARC
  8
MODEL-0
  6
CONTINUOUS
 62
1
 10
849.900000
 20
556.916696
 40
24.698255
 50
263.876219
 51
276.123781
  0
ARC
  8
MODEL-0
  6
CONTINUOUS
 62
1
 10
849.876841
 20
556.743943
 40
24.524018
 50
251.581354
 51
263.886961
  0
ARC
  8
MODEL-0
  6
CONTINUOUS
 62
1
 10
849.719630
 20
556.283989
 40
24.037954
 50
239.119208
 51
251.590488
  0
LINE
  8
MODEL-0
  6
CONTINUOUS
 62
1
 10
848.400764
 20
576.879305
 11
849.650002
 21
581.679798
  0
LINE
  8
MODEL-0
  6
CONTINUOUS
 62
1
 10
850.149998
 20
581.679798
 11
851.399236
 21
576.879305
  0
ARC
  8
MODEL-0
  6
CONTINUOUS
 62
1
 10
861.943943
 20
572.676244
 40
0.941351
 50
0.504767
 51
59.766589
  0
ARC
  8
MODEL-0
  6
CONTINUOUS
 62
1
 10
861.976508
 20
536.458468
 40
0.908750
 50
0.017473
 51
18.700466
  0
ARC
  8
MODEL-0
  6
CONTINUOUS
 62
1
 10
837.845125
 20
572.684128
 40
0.929052
 50
119.895715
 51
198.232660
  0
ARC
  8
MODEL-0
  6
CONTINUOUS
 62
1
 10
861.976508
 20
572.684814
 40
0.908750
 50
341.299534
 51
359.982527
  0
ARC
  8
MODEL-0
  6
CONTINUOUS
 62
1
 10
861.943942
 20
536.467038
 40
0.941352
 50
300.233442
 51
359.495264
  0
ARC
  8
MODEL-0
  6
CONTINUOUS
 62
1
 10
837.845126
 20
536.459154
 40
0.929052
 50
161.767277
 51
240.104222
  0
ARC
  8
MODEL-0
  6
CONTINUOUS
 62
1
 10
849.896229
 20
551.392827
 40
34.092786
 50
90.472776
 51
102.199686
  0
ARC
  8
MODEL-0
  6
CONTINUOUS
 62
1
 10
849.796526
 20
551.829171
 40
33.645227
 50
102.190758
 51
114.021671
  0
ARC
  8
MODEL-0
  6
CONTINUOUS
 62
1
 10
849.471279
 20
552.549099
 40
32.855249
 50
114.014682
 51
126.034845
  0
ARC
  8
MODEL-0
  6
CONTINUOUS
 62
1
 10
848.891762
 20
553.342300
 40
31.872903
 50
126.031232
 51
138.297533
  0
ARC
  8
MODEL-0
  6
CONTINUOUS
 62
1
 10
848.150056
 20
554.003777
 40
30.879082
 50
138.298341
 51
150.826975
  0
ARC
  8
MODEL-0
  6
CONTINUOUS
 62
1
 10
847.430396
 20
554.408857
 40
30.053254
 50
150.832503
 51
163.590081
  0
ARC
  8
MODEL-0
  6
CONTINUOUS
 62
1
 10
846.938937
 20
554.558707
 40
29.539482
 50
163.599594
 51
176.504989
  0
ARC
  8
MODEL-0
  6
CONTINUOUS
 62
1
 10
846.825592
 20
554.571566
 40
29.425564
 50
176.516526
 51
189.455275
  0
ARC
  8
MODEL-0
  6
CONTINUOUS
 62
1
 10
847.125645
 20
554.627279
 40
29.730693
 50
189.466192
 51
202.316070
  0
ARC
  8
MODEL-0
  6
CONTINUOUS
 62
1
 10
847.746099
 20
554.886449
 40
30.403089
 50
202.323915
 51
214.983246
  0
ARC
  8
MODEL-0
  6
CONTINUOUS
 62
1
 10
848.502089
 20
555.417698
 40
31.327071
 50
214.986586
 51
227.395255
  0
ARC
  8
MODEL-0
  6
CONTINUOUS
 62
1
 10
849.187684
 20
556.162062
 40
32.339058
 50
227.393946
 51
239.541867
  0
ARC
  8
MODEL-0
  6
CONTINUOUS
 62
1
 10
850.612316
 20
556.162062
 40
32.339058
 50
300.458133
 51
312.606054
  0
ARC
  8
MODEL-0
  6
CONTINUOUS
 62
1
 10
851.297911
 20
555.417698
 40
31.327071
 50
312.604745
 51
325.013414
  0
ARC
  8
MODEL-0
  6
CONTINUOUS
 62
1
 10
852.053901
 20
554.886449
 40
30.403089
 50
325.016754
 51
337.676085
  0
ARC
  8
MODEL-0
  6
CONTINUOUS
 62
1
 10
852.674355
 20
554.627279
 40
29.730693
 50
337.683930
 51
350.533808
  0
ARC
  8
MODEL-0
  6
CONTINUOUS
 62
1
 10
852.974408
 20
554.571566
 40
29.425564
 50
350.544725
 51
3.483474
  0
ARC
  8
MODEL-0
  6
CONTINUOUS
 62
1
 10
852.861063
 20
554.558707
 40
29.539482
 50
3.495011
 51
16.400406
  0
ARC
  8
MODEL-0
  6
CONTINUOUS
 62
1
 10
852.369604
 20
554.408857
 40
30.053254
 50
16.409919
 51
29.167497
  0
ARC
  8
MODEL-0
  6
CONTINUOUS
 62
1
 10
851.649944
 20
554.003777
 40
30.879082
 50
29.173025
 51
41.701659
  0
ARC
  8
MODEL-0
  6
CONTINUOUS
 62
1
 10
850.908238
 20
553.342300
 40
31.872903
 50
41.702467
 51
53.968768
  0
ARC
  8
MODEL-0
  6
CONTINUOUS
 62
1
 10
850.328721
 20
552.549099
 40
32.855249
 50
53.965155
 51
65.985318
  0
ARC
  8
MODEL-0
  6
CONTINUOUS
 62
1
 10
850.003474
 20
551.829171
 40
33.645227
 50
65.978329
 51
77.809242
  0
ARC
  8
MODEL-0
  6
CONTINUOUS
 62
1
 10
849.903771
 20
551.392827
 40
34.092786
 50
77.800314
 51
89.527224
  0
ARC
  8
MODEL-0
  6
CONTINUOUS
 62
1
 10
849.664114
 20
556.970545
 40
33.277533
 50
239.741909
 51
251.957476
  0
ARC
  8
MODEL-0
  6
CONTINUOUS
 62
1
 10
849.869736
 20
557.585064
 40
33.925521
 50
251.948729
 51
264.007974
  0
ARC
  8
MODEL-0
  6
CONTINUOUS
 62
1
 10
849.900000
 20
557.815311
 40
34.157670
 50
263.997804
 51
276.002196
  0
ARC
  8
MODEL-0
  6
CONTINUOUS
 62
1
 10
849.930264
 20
557.585064
 40
33.925521
 50
275.992026
 51
288.051271
  0
ARC
  8
MODEL-0
  6
CONTINUOUS
 62
1
 10
850.135886
 20
556.970545
 40
33.277533
 50
288.042524
 51
300.258091
  0
LINE
  8
MODEL-0
  6
CONTINUOUS
 62
1
 10
851.396941
 20
576.833769
 11
851.396941
 21
534.647255
  0
LINE
  8
MODEL-0
  6
CONTINUOUS
 62
1
 10
848.400764
 20
576.879305
 11
848.400764
 21
534.647411
  0
ARC
  8
MODEL-0
  6
CONTINUOUS
 62
1
 10
849.898850
 20
534.596441
 40
1.498086
 50
180.000000
 51
1.942686
  0
ARC
  8
MODEL-0
  6
CONTINUOUS
 62
1
 10
850.547793
 20
375.932897
 40
28.318324
 50
300.452040
 51
313.716994
  0
ARC
  8
MODEL-0
  6
CONTINUOUS
 62
1
 10
851.215164
 20
375.235814
 40
27.353281
 50
313.715741
 51
327.291545
  0
ARC
  8
MODEL-0
  6
CONTINUOUS
 62
1
 10
851.928178
 20
374.774905
 40
26.504270
 50
327.297027
 51
341.161938
  0
ARC
  8
MODEL-0
  6
CONTINUOUS
 62
1
 10
852.451358
 20
374.590874
 40
25.949692
 50
341.173511
 51
355.235702
  0
ARC
  8
MODEL-0
  6
CONTINUOUS
 62
1
 10
852.598331
 20
374.571852
 40
25.801648
 50
355.250688
 51
9.366762
  0
ARC
  8
MODEL-0
  6
CONTINUOUS
 62
1
 10
852.315014
 20
374.518570
 40
26.089860
 50
9.380951
 51
23.392682
  0
ARC
  8
MODEL-0
  6
CONTINUOUS
 62
1
 10
851.704410
 20
374.249508
 40
26.757102
 50
23.402358
 51
37.179582
  0
ARC
  8
MODEL-0
  6
CONTINUOUS
 62
1
 10
850.981120
 20
373.698926
 40
27.666105
 50
37.182851
 51
50.655882
  0
ARC
  8
MODEL-0
  6
CONTINUOUS
 62
1
 10
850.372245
 20
372.958719
 40
28.624558
 50
50.652677
 51
63.822608
  0
ARC
  8
MODEL-0
  6
CONTINUOUS
 62
1
 10
850.015793
 20
372.243315
 40
29.423835
 50
63.814255
 51
76.744094
  0
ARC
  8
MODEL-0
  6
CONTINUOUS
 62
1
 10
849.904233
 20
371.795849
 40
29.884960
 50
76.732623
 51
89.528812
  0
ARC
  8
MODEL-0
  6
CONTINUOUS
 62
1
 10
849.693150
 20
376.675292
 40
29.181836
 50
239.741900
 51
251.957468
  0
ARC
  8
MODEL-0
  6
CONTINUOUS
 62
1
 10
849.873457
 20
377.214183
 40
29.750073
 50
251.948735
 51
264.007980
  0
ARC
  8
MODEL-0
  6
CONTINUOUS
 62
1
 10
849.900000
 20
377.416092
 40
29.953650
 50
263.997804
 51
276.002196
  0
ARC
  8
MODEL-0
  6
CONTINUOUS
 62
1
 10
849.926543
 20
377.214183
 40
29.750073
 50
275.992020
 51
288.051265
  0
ARC
  8
MODEL-0
  6
CONTINUOUS
 62
1
 10
850.106850
 20
376.675292
 40
29.181836
 50
288.042532
 51
300.258100
  0
ARC
  8
MODEL-0
  6
CONTINUOUS
 62
1
 10
916.173445
 20
374.768156
 40
56.297394
 50
194.674621
 51
204.365579
  0
ARC
  8
MODEL-0
  6
CONTINUOUS
 62
1
 10
915.533058
 20
374.596120
 40
55.634316
 50
184.902475
 51
194.670300
  0
ARC
  8
MODEL-0
  6
CONTINUOUS
 62
1
 10
915.304991
 20
374.571641
 40
55.404991
 50
175.102591
 51
184.897409
  0
ARC
  8
MODEL-0
  6
CONTINUOUS
 62
1
 10
915.533058
 20
374.547162
 40
55.634316
 50
165.329700
 51
175.097525
  0
ARC
  8
MODEL-0
  6
CONTINUOUS
 62
1
 10
916.173445
 20
374.375126
 40
56.297394
 50
155.634421
 51
165.325379
  0
ARC
  8
MODEL-0
  6
CONTINUOUS
 62
1
 10
783.626555
 20
374.375126
 40
56.297394
 50
14.674621
 51
24.365579
  0
ARC
  8
MODEL-0
  6
CONTINUOUS
 62
1
 10
784.266942
 20
374.547162
 40
55.634316
 50
4.902475
 51
14.670300
  0
ARC
  8
MODEL-0
  6
CONTINUOUS
 62
1
 10
784.495009
 20
374.571641
 40
55.404991
 50
355.102591
 51
4.897409
  0
ARC
  8
MODEL-0
  6
CONTINUOUS
 62
1
 10
784.266942
 20
374.596120
 40
55.634316
 50
345.329700
 51
355.097525
  0
ARC
  8
MODEL-0
  6
CONTINUOUS
 62
1
 10
783.626555
 20
374.768156
 40
56.297394
 50
335.634421
 51
345.325379
  0
ARC
  8
MODEL-0
  6
CONTINUOUS
 62
1
 10
849.895767
 20
371.795849
 40
29.884960
 50
90.471188
 51
103.267377
  0
ARC
  8
MODEL-0
  6
CONTINUOUS
 62
1
 10
849.784207
 20
372.243319
 40
29.423831
 50
103.255909
 51
116.185748
  0
ARC
  8
MODEL-0
  6
CONTINUOUS
 62
1
 10
849.427755
 20
372.958715
 40
28.624562
 50
116.177387
 51
129.347318
  0
ARC
  8
MODEL-0
  6
CONTINUOUS
 62
1
 10
848.818880
 20
373.698926
 40
27.666105
 50
129.344118
 51
142.817149
  0
ARC
  8
MODEL-0
  6
CONTINUOUS
 62
1
 10
848.095590
 20
374.249508
 40
26.757102
 50
142.820418
 51
156.597642
  0
ARC
  8
MODEL-0
  6
CONTINUOUS
 62
1
 10
847.484986
 20
374.518570
 40
26.089860
 50
156.607318
 51
170.619049
  0
ARC
  8
MODEL-0
  6
CONTINUOUS
 62
1
 10
847.201669
 20
374.571852
 40
25.801648
 50
170.633238
 51
184.749312
  0
ARC
  8
MODEL-0
  6
CONTINUOUS
 62
1
 10
847.348642
 20
374.590874
 40
25.949692
 50
184.764298
 51
198.826489
  0
ARC
  8
MODEL-0
  6
CONTINUOUS
 62
1
 10
847.871823
 20
374.774909
 40
26.504272
 50
198.838070
 51
212.702981
  0
ARC
  8
MODEL-0
  6
CONTINUOUS
 62
1
 10
848.584836
 20
375.235810
 40
27.353278
 50
212.708448
 51
226.284252
  0
ARC
  8
MODEL-0
  6
CONTINUOUS
 62
1
 10
849.252207
 20
375.932897
 40
28.318324
 50
226.283006
 51
239.547960
  0
ARC
  8
MODEL-0
  6
CONTINUOUS
 62
1
 10
849.913061
 20
372.350744
 40
24.573543
 50
72.917399
 51
86.532713
  0
ARC
  8
MODEL-0
  6
CONTINUOUS
 62
1
 10
850.066340
 20
372.831135
 40
24.069321
 50
59.124944
 51
72.930256
  0
ARC
  8
MODEL-0
  6
CONTINUOUS
 62
1
 10
849.818528
 20
396.940740
 40
1.419095
 50
182.481200
 51
242.527344
  0
ARC
  8
MODEL-0
  6
CONTINUOUS
 62
1
 10
849.900000
 20
397.065335
 40
1.567294
 50
241.986084
 51
298.013916
  0
ARC
  8
MODEL-0
  6
CONTINUOUS
 62
1
 10
849.981472
 20
396.940740
 40
1.419095
 50
297.472656
 51
357.518800
  0
ARC
  8
MODEL-0
  6
CONTINUOUS
 62
1
 10
849.894086
 20
401.687164
 40
0.244195
 50
181.728559
 51
271.387861
  0
ARC
  8
MODEL-0
  6
CONTINUOUS
 62
1
 10
849.905914
 20
401.687164
 40
0.244195
 50
268.612139
 51
358.271441
  0
ARC
  8
MODEL-0
  6
CONTINUOUS
 62
1
 10
849.733656
 20
372.831136
 40
24.069319
 50
107.069735
 51
120.875047
  0
ARC
  8
MODEL-0
  6
CONTINUOUS
 62
1
 10
849.886939
 20
372.350744
 40
24.573543
 50
93.467287
 51
107.082601
  0
ARC
  8
MODEL-0
  6
CONTINUOUS
 62
1
 10
850.080370
 20
376.283989
 40
24.037954
 50
288.409512
 51
300.880792
  0
ARC
  8
MODEL-0
  6
CONTINUOUS
 62
1
 10
849.923159
 20
376.743943
 40
24.524018
 50
276.113039
 51
288.418646
  0
ARC
  8
MODEL-0
  6
CONTINUOUS
 62
1
 10
849.900000
 20
376.916696
 40
24.698255
 50
263.876219
 51
276.123781
  0
ARC
  8
MODEL-0
  6
CONTINUOUS
 62
1
 10
849.876841
 20
376.743943
 40
24.524018
 50
251.581354
 51
263.886961
  0
ARC
  8
MODEL-0
  6
CONTINUOUS
 62
1
 10
849.719630
 20
376.283989
 40
24.037954
 50
239.119208
 51
251.590488
  0
LINE
  8
MODEL-0
  6
CONTINUOUS
 62
1
 10
848.400764
 20
396.879305
 11
849.650002
 21
401.679798
  0
LINE
  8
MODEL-0
  6
CONTINUOUS
 62
1
 10
850.149998
 20
401.679798
 11
851.399236
 21
396.879305
  0
ARC
  8
MODEL-0
  6
CONTINUOUS
 62
1
 10
861.943943
 20
392.676244
 40
0.941351
 50
0.504767
 51
59.766589
  0
ARC
  8
MODEL-0
  6
CONTINUOUS
 62
1
 10
861.976508
 20
356.458468
 40
0.908750
 50
0.017473
 51
18.700466
  0
ARC
  8
MODEL-0
  6
CONTINUOUS
 62
1
 10
837.845125
 20
392.684128
 40
0.929052
 50
119.895715
 51
198.232660
  0
ARC
  8
MODEL-0
  6
CONTINUOUS
 62
1
 10
861.976508
 20
392.684814
 40
0.908750
 50
341.299534
 51
359.982527
  0
ARC
  8
MODEL-0
  6
CONTINUOUS
 62
1
 10
861.943942
 20
356.467038
 40
0.941352
 50
300.233442
 51
359.495264
  0
ARC
  8
MODEL-0
  6
CONTINUOUS
 62
1
 10
837.845126
 20
356.459154
 40
0.929052
 50
161.767277
 51
240.104222
  0
ARC
  8
MODEL-0
  6
CONTINUOUS
 62
1
 10
849.896229
 20
371.392827
 40
34.092786
 50
90.472776
 51
102.199686
  0
ARC
  8
MODEL-0
  6
CONTINUOUS
 62
1
 10
849.796526
 20
371.829171
 40
33.645227
 50
102.190758
 51
114.021671
  0
ARC
  8
MODEL-0
  6
CONTINUOUS
 62
1
 10
849.471279
 20
372.549099
 40
32.855249
 50
114.014682
 51
126.034845
  0
ARC
  8
MODEL-0
  6
CONTINUOUS
 62
1
 10
848.891762
 20
373.342300
 40
31.872903
 50
126.031232
 51
138.297533
  0
ARC
  8
MODEL-0
  6
CONTINUOUS
 62
1
 10
848.150056
 20
374.003777
 40
30.879082
 50
138.298341
 51
150.826975
  0
ARC
  8
MODEL-0
  6
CONTINUOUS
 62
1
 10
847.430396
 20
374.408857
 40
30.053254
 50
150.832503
 51
163.590081
  0
ARC
  8
MODEL-0
  6
CONTINUOUS
 62
1
 10
846.938937
 20
374.558707
 40
29.539482
 50
163.599594
 51
176.504989
  0
ARC
  8
MODEL-0
  6
CONTINUOUS
 62
1
 10
846.825592
 20
374.571566
 40
29.425564
 50
176.516526
 51
189.455275
  0
ARC
  8
MODEL-0
  6
CONTINUOUS
 62
1
 10
847.125645
 20
374.627279
 40
29.730693
 50
189.466192
 51
202.316070
  0
ARC
  8
MODEL-0
  6
CONTINUOUS
 62
1
 10
847.746099
 20
374.886449
 40
30.403089
 50
202.323915
 51
214.983246
  0
ARC
  8
MODEL-0
  6
CONTINUOUS
 62
1
 10
848.502089
 20
375.417698
 40
31.327071
 50
214.986586
 51
227.395255
  0
ARC
  8
MODEL-0
  6
CONTINUOUS
 62
1
 10
849.187684
 20
376.162062
 40
32.339058
 50
227.393946
 51
239.541867
  0
ARC
  8
MODEL-0
  6
CONTINUOUS
 62
1
 10
850.612316
 20
376.162062
 40
32.339058
 50
300.458133
 51
312.606054
  0
ARC
  8
MODEL-0
  6
CONTINUOUS
 62
1
 10
851.297911
 20
375.417698
 40
31.327071
 50
312.604745
 51
325.013414
  0
ARC
  8
MODEL-0
  6
CONTINUOUS
 62
1
 10
852.053901
 20
374.886449
 40
30.403089
 50
325.016754
 51
337.676085
  0
ARC
  8
MODEL-0
  6
CONTINUOUS
 62
1
 10
852.674355
 20
374.627279
 40
29.730693
 50
337.683930
 51
350.533808
  0
ARC
  8
MODEL-0
  6
CONTINUOUS
 62
1
 10
852.974408
 20
374.571566
 40
29.425564
 50
350.544725
 51
3.483474
  0
ARC
  8
MODEL-0
  6
CONTINUOUS
 62
1
 10
852.861063
 20
374.558707
 40
29.539482
 50
3.495011
 51
16.400406
  0
ARC
  8
MODEL-0
  6
CONTINUOUS
 62
1
 10
852.369604
 20
374.408857
 40
30.053254
 50
16.409919
 51
29.167497
  0
ARC
  8
MODEL-0
  6
CONTINUOUS
 62
1
 10
851.649944
 20
374.003777
 40
30.879082
 50
29.173025
 51
41.701659
  0
ARC
  8
MODEL-0
  6
CONTINUOUS
 62
1
 10
850.908238
 20
373.342300
 40
31.872903
 50
41.702467
 51
53.968768
  0
ARC
  8
MODEL-0
  6
CONTINUOUS
 62
1
 10
850.328721
 20
372.549099
 40
32.855249
 50
53.965155
 51
65.985318
  0
ARC
  8
MODEL-0
  6
CONTINUOUS
 62
1
 10
850.003474
 20
371.829171
 40
33.645227
 50
65.978329
 51
77.809242
  0
ARC
  8
MODEL-0
  6
CONTINUOUS
 62
1
 10
849.903771
 20
371.392827
 40
34.092786
 50
77.800314
 51
89.527224
  0
ARC
  8
MODEL-0
  6
CONTINUOUS
 62
1
 10
849.664114
 20
376.970545
 40
33.277533
 50
239.741909
 51
251.957476
  0
ARC
  8
MODEL-0
  6
CONTINUOUS
 62
1
 10
849.869736
 20
377.585064
 40
33.925521
 50
251.948729
 51
264.007974
  0
ARC
  8
MODEL-0
  6
CONTINUOUS
 62
1
 10
849.900000
 20
377.815311
 40
34.157670
 50
263.997804
 51
276.002196
  0
ARC
  8
MODEL-0
  6
CONTINUOUS
 62
1
 10
849.930264
 20
377.585064
 40
33.925521
 50
275.992026
 51
288.051271
  0
ARC
  8
MODEL-0
  6
CONTINUOUS
 62
1
 10
850.135886
 20
376.970545
 40
33.277533
 50
288.042524
 51
300.258091
  0
LINE
  8
MODEL-0
  6
CONTINUOUS
 62
1
 10
851.396941
 20
396.833769
 11
851.396941
 21
354.647255
  0
LINE
  8
MODEL-0
  6
CONTINUOUS
 62
1
 10
848.400764
 20
396.879305
 11
848.400764
 21
354.647411
  0
ARC
  8
MODEL-0
  6
CONTINUOUS
 62
1
 10
849.898850
 20
354.596441
 40
1.498086
 50
180.000000
 51
1.942686
  0
CIRCLE
  8
MODEL-0
  6
CONTINUOUS
 62
1
 10
827.400000
 20
263.071641
 40
6.000000
  0
CIRCLE
  8
MODEL-0
  6
CONTINUOUS
 62
1
 10
852.400000
 20
263.071641
 40
6.000000
  0
ENDSEC
  0
EOF
