  0
SECTION
  2
HEADER
  9
$LIMMIN
 10
0.000000
 20
0.000000
  9
$LIMMAX
 10
3363.600000
 20
2378.400000
  9
$EXTMIN
 10
0.000000
 20
0.000000
  9
$EXTMAX
 10
3363.600000
 20
2378.400000
  9
$ANGBASE
 50
0.0
  9
$ANGDIR
 70
0
  9
$DIMRND
 40
0.100000
  9
$DIMSE1
 70
0
  9
$DIMSE2
 70
0
  9
$DIMTXT
 40
3.500000
  9
$LTSCALE
 40
1.000000
  9
$LUPREC
 70
5
  9
$AUPREC
 70
5
  9
$PDMODE
 70
2
  9
$PDSIZE
 40
16.818000
  0
ENDSEC
  0
SECTION
  2
TABLES
  0
TABLE
  2
VPORT
  70
1
  0
VPORT
  2
*ACTIVE
 70
0
  10
0.0
 20
0.0
 11
1.0
 21
1.0
 12
594.0
 22
420.0
 13
0.0
 23
0.0
 14
10.0
 24
10.0
 15
10.0
 25
10.0
 16
0.0
 26
0.0
 36
1.0
 17
594.0
 27
420.0
 37
100.0
 40
1000.0
 41
1.0
 42
50.0
 43
0.0
 44
0.0
 50
0.0
 51
0.0
 71
0
 72
2000
 73
1
 74
3
 75
0
 76
0
 77
0
 78
1
  0
ENDTAB
  0
TABLE
  2
LTYPE
 70
4
  0
LTYPE
  2
CONTINUOUS
 70
0
  3
Solid line
 72
65
 73
0
 40
0.0
  0
LTYPE
  2
DASHED
 70
0
  3
Dashed line
 72
65
 73
2
 40
6.000000
 49
3.000000
 49
-3.000000
  0
LTYPE
  2
CENTER
 70
0
  3
Chain line
 72
65
 73
4
 40
24.000000
 49
15.000000
 49
-3.000000
 49
3.000000
 49
-3.000000
  0
LTYPE
  2
RANDOM
 70
0
  3
Random line
 72
65
 73
4
 40
22.500000
 49
6.000000
 49
-3.000000
 49
4.500000
 49
-9.000000
  0
ENDTAB
  0
TABLE
  2
STYLE
 70
9
  0
STYLE
  2
STANDARD
 40
0
 41
1.0
 50
0.0
 71
0
 42
0
  3
simplex
  4

 70
0
  0
ENDTAB
  0
TABLE
  2
LAYER
 70
2
  0
LAYER
  2
0
 70
0
 62
7
  6
CONTINUOUS
  0
LAYER
  2
0
 62
1
  6
CONTINUOUS
 70
0
  0
ENDTAB
  0
ENDSEC
  0
SECTION
  2
BLOCKS
  0
ENDSEC
  0
SECTION
  2
ENTITIES
  0
LINE
  8
0
  6
CONTINUOUS
 62
1
 10
1296.812758
 20
1370.174833
 11
1296.812758
 21
1435.174833
  0
LINE
  8
0
  6
CONTINUOUS
 62
1
 10
1296.812758
 20
1435.174833
 11
1046.812758
 21
1435.174833
  0
LINE
  8
0
  6
CONTINUOUS
 62
1
 10
1046.812758
 20
1435.174833
 11
1046.812758
 21
1370.174833
  0
LINE
  8
0
  6
CONTINUOUS
 62
1
 10
1676.812948
 20
599.831820
 11
776.812933
 21
599.831820
  0
LINE
  8
0
  6
CONTINUOUS
 62
1
 10
776.812933
 20
1371.074827
 11
776.812933
 21
579.831820
  0
LINE
  8
0
  6
CONTINUOUS
 62
1
 10
1676.812948
 20
579.831820
 11
1676.812948
 21
1371.074827
  0
LINE
  8
0
  6
CONTINUOUS
 62
1
 10
1676.812948
 20
722.974760
 11
777.712973
 21
722.974760
  0
LINE
  8
0
  6
CONTINUOUS
 62
1
 10
777.712751
 20
1293.074827
 11
1675.912794
 21
1293.074827
  0
LINE
  8
0
  6
CONTINUOUS
 62
1
 10
776.812933
 20
1371.074827
 11
1676.812948
 21
1371.074827
  0
LINE
  8
0
  6
CONTINUOUS
 62
1
 10
1675.912794
 20
1316.074827
 11
777.712751
 21
1316.074827
  0
LINE
  8
0
  6
CONTINUOUS
 62
1
 10
1598.312764
 20
1365.074827
 11
1598.312764
 21
1339.074829
  0
LINE
  8
0
  6
CONTINUOUS
 62
1
 10
1624.312764
 20
1365.074827
 11
1624.312764
 21
1339.574827
  0
LINE
  8
0
  6
CONTINUOUS
 62
1
 10
1624.312764
 20
1365.074827
 11
1598.312764
 21
1365.074827
  0
LINE
  8
0
  6
CONTINUOUS
 62
1
 10
1624.312764
 20
1339.074829
 11
1598.312764
 21
1339.074829
  0
LINE
  8
0
  6
CONTINUOUS
 62
1
 10
827.312764
 20
1365.074827
 11
853.312764
 21
1365.074827
  0
LINE
  8
0
  6
CONTINUOUS
 62
1
 10
827.312764
 20
1365.074827
 11
827.312764
 21
1339.074829
  0
LINE
  8
0
  6
CONTINUOUS
 62
1
 10
853.312764
 20
1339.074829
 11
853.312764
 21
1365.074827
  0
LINE
  8
0
  6
CONTINUOUS
 62
1
 10
853.312764
 20
1339.074829
 11
827.312764
 21
1339.074829
  0
LINE
  8
0
  6
CONTINUOUS
 62
1
 10
1598.312764
 20
1339.074829
 11
1598.312764
 21
1364.874827
  0
LINE
  8
0
  6
CONTINUOUS
 62
1
 10
878.611592
 20
1365.122836
 11
894.147464
 21
1365.122836
  0
LINE
  8
0
  6
CONTINUOUS
 62
1
 10
1156.287464
 20
1355.522836
 11
1142.071592
 21
1355.522836
  0
LINE
  8
0
  6
CONTINUOUS
 62
1
 10
877.283583
 20
1357.232903
 11
876.623583
 21
1362.992903
  0
LINE
  8
0
  6
CONTINUOUS
 62
1
 10
895.475473
 20
1357.232903
 11
896.135473
 21
1362.992903
  0
LINE
  8
0
  6
CONTINUOUS
 62
1
 10
966.211592
 20
1365.122836
 11
981.747464
 21
1365.122836
  0
LINE
  8
0
  6
CONTINUOUS
 62
1
 10
988.771592
 20
1365.122836
 11
1002.987464
 21
1365.122836
  0
LINE
  8
0
  6
CONTINUOUS
 62
1
 10
1010.011592
 20
1365.122836
 11
1025.547464
 21
1365.122836
  0
LINE
  8
0
  6
CONTINUOUS
 62
1
 10
1032.571592
 20
1365.122836
 11
1046.787464
 21
1365.122836
  0
LINE
  8
0
  6
CONTINUOUS
 62
1
 10
1053.811592
 20
1365.122836
 11
1069.347464
 21
1365.122836
  0
LINE
  8
0
  6
CONTINUOUS
 62
1
 10
1076.371592
 20
1365.122836
 11
1090.587464
 21
1365.122836
  0
LINE
  8
0
  6
CONTINUOUS
 62
1
 10
1097.611592
 20
1365.122836
 11
1113.147464
 21
1365.122836
  0
LINE
  8
0
  6
CONTINUOUS
 62
1
 10
1120.171592
 20
1365.122836
 11
1134.387464
 21
1365.122836
  0
LINE
  8
0
  6
CONTINUOUS
 62
1
 10
1141.411592
 20
1365.122836
 11
1156.947464
 21
1365.122836
  0
LINE
  8
0
  6
CONTINUOUS
 62
1
 10
964.883583
 20
1357.232903
 11
964.223583
 21
1362.992903
  0
LINE
  8
0
  6
CONTINUOUS
 62
1
 10
1008.683583
 20
1357.232903
 11
1008.023583
 21
1362.992903
  0
LINE
  8
0
  6
CONTINUOUS
 62
1
 10
1052.483583
 20
1357.232903
 11
1051.823583
 21
1362.992903
  0
LINE
  8
0
  6
CONTINUOUS
 62
1
 10
1096.283583
 20
1357.232903
 11
1095.623583
 21
1362.992903
  0
LINE
  8
0
  6
CONTINUOUS
 62
1
 10
1140.083583
 20
1357.232903
 11
1139.423583
 21
1362.992903
  0
LINE
  8
0
  6
CONTINUOUS
 62
1
 10
983.075473
 20
1357.232903
 11
983.735473
 21
1362.992903
  0
LINE
  8
0
  6
CONTINUOUS
 62
1
 10
1026.875473
 20
1357.232903
 11
1027.535473
 21
1362.992903
  0
LINE
  8
0
  6
CONTINUOUS
 62
1
 10
1070.675473
 20
1357.232903
 11
1071.335473
 21
1362.992903
  0
LINE
  8
0
  6
CONTINUOUS
 62
1
 10
1114.475473
 20
1357.232903
 11
1115.135473
 21
1362.992903
  0
LINE
  8
0
  6
CONTINUOUS
 62
1
 10
1158.275473
 20
1357.232903
 11
1158.935473
 21
1362.992903
  0
LINE
  8
0
  6
CONTINUOUS
 62
1
 10
917.375473
 20
1363.412770
 11
918.035473
 21
1357.652770
  0
LINE
  8
0
  6
CONTINUOUS
 62
1
 10
986.783583
 20
1363.412770
 11
986.123583
 21
1357.652770
  0
LINE
  8
0
  6
CONTINUOUS
 62
1
 10
1004.975473
 20
1363.412770
 11
1005.635473
 21
1357.652770
  0
LINE
  8
0
  6
CONTINUOUS
 62
1
 10
1030.583583
 20
1363.412770
 11
1029.923583
 21
1357.652770
  0
LINE
  8
0
  6
CONTINUOUS
 62
1
 10
1048.775473
 20
1363.412770
 11
1049.435473
 21
1357.652770
  0
LINE
  8
0
  6
CONTINUOUS
 62
1
 10
1074.383583
 20
1363.412770
 11
1073.723583
 21
1357.652770
  0
LINE
  8
0
  6
CONTINUOUS
 62
1
 10
1092.575473
 20
1363.412770
 11
1093.235473
 21
1357.652770
  0
LINE
  8
0
  6
CONTINUOUS
 62
1
 10
1118.183583
 20
1363.412770
 11
1117.523583
 21
1357.652770
  0
LINE
  8
0
  6
CONTINUOUS
 62
1
 10
1136.375473
 20
1363.412770
 11
1137.035473
 21
1357.652770
  0
LINE
  8
0
  6
CONTINUOUS
 62
1
 10
893.487464
 20
1355.522836
 11
879.271592
 21
1355.522836
  0
LINE
  8
0
  6
CONTINUOUS
 62
1
 10
916.047464
 20
1355.522836
 11
900.511592
 21
1355.522836
  0
LINE
  8
0
  6
CONTINUOUS
 62
1
 10
981.087464
 20
1355.522836
 11
966.871592
 21
1355.522836
  0
LINE
  8
0
  6
CONTINUOUS
 62
1
 10
1003.647464
 20
1355.522836
 11
988.111592
 21
1355.522836
  0
LINE
  8
0
  6
CONTINUOUS
 62
1
 10
1024.887464
 20
1355.522836
 11
1010.671592
 21
1355.522836
  0
LINE
  8
0
  6
CONTINUOUS
 62
1
 10
1047.447464
 20
1355.522836
 11
1031.911592
 21
1355.522836
  0
LINE
  8
0
  6
CONTINUOUS
 62
1
 10
1068.687464
 20
1355.522836
 11
1054.471592
 21
1355.522836
  0
LINE
  8
0
  6
CONTINUOUS
 62
1
 10
1091.247464
 20
1355.522836
 11
1075.711592
 21
1355.522836
  0
LINE
  8
0
  6
CONTINUOUS
 62
1
 10
1112.487464
 20
1355.522836
 11
1098.271592
 21
1355.522836
  0
LINE
  8
0
  6
CONTINUOUS
 62
1
 10
1135.047464
 20
1355.522836
 11
1119.511592
 21
1355.522836
  0
POLYLINE
  8
0
  6
CONTINUOUS
 62
1
 66
1
 70
2
  0
VERTEX
  8
0
 10
878.611592
 20
1365.122836
 70
0
 42
0.207373
  0
VERTEX
  8
0
 10
877.122068
 20
1364.484111
 70
0
 42
0.220328
  0
VERTEX
  8
0
 10
876.623583
 20
1362.992903
 70
0
  0
SEQEND
  0
POLYLINE
  8
0
  6
CONTINUOUS
 62
1
 66
1
 70
2
  0
VERTEX
  8
0
 10
877.283583
 20
1357.232903
 70
0
 42
0.189055
  0
VERTEX
  8
0
 10
877.936931
 20
1356.012894
 70
0
 42
0.179121
  0
VERTEX
  8
0
 10
879.271592
 20
1355.522836
 70
0
  0
SEQEND
  0
POLYLINE
  8
0
  6
CONTINUOUS
 62
1
 66
1
 70
2
  0
VERTEX
  8
0
 10
893.487464
 20
1355.522836
 70
0
 42
0.179121
  0
VERTEX
  8
0
 10
894.822125
 20
1356.012894
 70
0
 42
0.189055
  0
VERTEX
  8
0
 10
895.475473
 20
1357.232903
 70
0
  0
SEQEND
  0
POLYLINE
  8
0
  6
CONTINUOUS
 62
1
 66
1
 70
2
  0
VERTEX
  8
0
 10
896.135473
 20
1362.992903
 70
0
 42
0.220328
  0
VERTEX
  8
0
 10
895.636988
 20
1364.484111
 70
0
 42
0.207373
  0
VERTEX
  8
0
 10
894.147464
 20
1365.122836
 70
0
  0
SEQEND
  0
POLYLINE
  8
0
  6
CONTINUOUS
 62
1
 66
1
 70
2
  0
VERTEX
  8
0
 10
899.183583
 20
1363.412770
 70
0
 42
-0.189055
  0
VERTEX
  8
0
 10
899.836931
 20
1364.632779
 70
0
 42
-0.179121
  0
VERTEX
  8
0
 10
901.171592
 20
1365.122836
 70
0
  0
SEQEND
  0
POLYLINE
  8
0
  6
CONTINUOUS
 62
1
 66
1
 70
2
  0
VERTEX
  8
0
 10
915.387464
 20
1365.122836
 70
0
 42
-0.179121
  0
VERTEX
  8
0
 10
916.722125
 20
1364.632779
 70
0
 42
-0.189055
  0
VERTEX
  8
0
 10
917.375473
 20
1363.412770
 70
0
  0
SEQEND
  0
POLYLINE
  8
0
  6
CONTINUOUS
 62
1
 66
1
 70
2
  0
VERTEX
  8
0
 10
918.035473
 20
1357.652770
 70
0
 42
-0.220328
  0
VERTEX
  8
0
 10
917.536988
 20
1356.161562
 70
0
 42
-0.207373
  0
VERTEX
  8
0
 10
916.047464
 20
1355.522836
 70
0
  0
SEQEND
  0
POLYLINE
  8
0
  6
CONTINUOUS
 62
1
 66
1
 70
2
  0
VERTEX
  8
0
 10
900.511592
 20
1355.522836
 70
0
 42
-0.207373
  0
VERTEX
  8
0
 10
899.022068
 20
1356.161562
 70
0
 42
-0.220328
  0
VERTEX
  8
0
 10
898.523583
 20
1357.652770
 70
0
  0
SEQEND
  0
POLYLINE
  8
0
  6
CONTINUOUS
 62
1
 66
1
 70
2
  0
VERTEX
  8
0
 10
966.211592
 20
1365.122836
 70
0
 42
0.207373
  0
VERTEX
  8
0
 10
964.722068
 20
1364.484111
 70
0
 42
0.220328
  0
VERTEX
  8
0
 10
964.223583
 20
1362.992903
 70
0
  0
SEQEND
  0
POLYLINE
  8
0
  6
CONTINUOUS
 62
1
 66
1
 70
2
  0
VERTEX
  8
0
 10
964.883583
 20
1357.232903
 70
0
 42
0.189055
  0
VERTEX
  8
0
 10
965.536931
 20
1356.012894
 70
0
 42
0.179121
  0
VERTEX
  8
0
 10
966.871592
 20
1355.522836
 70
0
  0
SEQEND
  0
POLYLINE
  8
0
  6
CONTINUOUS
 62
1
 66
1
 70
2
  0
VERTEX
  8
0
 10
981.087464
 20
1355.522836
 70
0
 42
0.179121
  0
VERTEX
  8
0
 10
982.422125
 20
1356.012894
 70
0
 42
0.189055
  0
VERTEX
  8
0
 10
983.075473
 20
1357.232903
 70
0
  0
SEQEND
  0
POLYLINE
  8
0
  6
CONTINUOUS
 62
1
 66
1
 70
2
  0
VERTEX
  8
0
 10
983.735473
 20
1362.992903
 70
0
 42
0.220328
  0
VERTEX
  8
0
 10
983.236988
 20
1364.484111
 70
0
 42
0.207373
  0
VERTEX
  8
0
 10
981.747464
 20
1365.122836
 70
0
  0
SEQEND
  0
POLYLINE
  8
0
  6
CONTINUOUS
 62
1
 66
1
 70
2
  0
VERTEX
  8
0
 10
986.783583
 20
1363.412770
 70
0
 42
-0.189055
  0
VERTEX
  8
0
 10
987.436931
 20
1364.632779
 70
0
 42
-0.179121
  0
VERTEX
  8
0
 10
988.771592
 20
1365.122836
 70
0
  0
SEQEND
  0
POLYLINE
  8
0
  6
CONTINUOUS
 62
1
 66
1
 70
2
  0
VERTEX
  8
0
 10
1002.987464
 20
1365.122836
 70
0
 42
-0.179121
  0
VERTEX
  8
0
 10
1004.322125
 20
1364.632779
 70
0
 42
-0.189055
  0
VERTEX
  8
0
 10
1004.975473
 20
1363.412770
 70
0
  0
SEQEND
  0
POLYLINE
  8
0
  6
CONTINUOUS
 62
1
 66
1
 70
2
  0
VERTEX
  8
0
 10
1005.635473
 20
1357.652770
 70
0
 42
-0.220328
  0
VERTEX
  8
0
 10
1005.136988
 20
1356.161562
 70
0
 42
-0.207373
  0
VERTEX
  8
0
 10
1003.647464
 20
1355.522836
 70
0
  0
SEQEND
  0
POLYLINE
  8
0
  6
CONTINUOUS
 62
1
 66
1
 70
2
  0
VERTEX
  8
0
 10
988.111592
 20
1355.522836
 70
0
 42
-0.207373
  0
VERTEX
  8
0
 10
986.622068
 20
1356.161562
 70
0
 42
-0.220328
  0
VERTEX
  8
0
 10
986.123583
 20
1357.652770
 70
0
  0
SEQEND
  0
POLYLINE
  8
0
  6
CONTINUOUS
 62
1
 66
1
 70
2
  0
VERTEX
  8
0
 10
1008.683583
 20
1357.232903
 70
0
 42
0.189055
  0
VERTEX
  8
0
 10
1009.336931
 20
1356.012894
 70
0
 42
0.179121
  0
VERTEX
  8
0
 10
1010.671592
 20
1355.522836
 70
0
  0
SEQEND
  0
POLYLINE
  8
0
  6
CONTINUOUS
 62
1
 66
1
 70
2
  0
VERTEX
  8
0
 10
1024.887464
 20
1355.522836
 70
0
 42
0.179121
  0
VERTEX
  8
0
 10
1026.222125
 20
1356.012894
 70
0
 42
0.189055
  0
VERTEX
  8
0
 10
1026.875473
 20
1357.232903
 70
0
  0
SEQEND
  0
POLYLINE
  8
0
  6
CONTINUOUS
 62
1
 66
1
 70
2
  0
VERTEX
  8
0
 10
1027.535473
 20
1362.992903
 70
0
 42
0.220328
  0
VERTEX
  8
0
 10
1027.036988
 20
1364.484111
 70
0
 42
0.207373
  0
VERTEX
  8
0
 10
1025.547464
 20
1365.122836
 70
0
  0
SEQEND
  0
POLYLINE
  8
0
  6
CONTINUOUS
 62
1
 66
1
 70
2
  0
VERTEX
  8
0
 10
1010.011592
 20
1365.122836
 70
0
 42
0.207373
  0
VERTEX
  8
0
 10
1008.522068
 20
1364.484111
 70
0
 42
0.220328
  0
VERTEX
  8
0
 10
1008.023583
 20
1362.992903
 70
0
  0
SEQEND
  0
POLYLINE
  8
0
  6
CONTINUOUS
 62
1
 66
1
 70
2
  0
VERTEX
  8
0
 10
1032.571592
 20
1365.122836
 70
0
 42
0.179121
  0
VERTEX
  8
0
 10
1031.236931
 20
1364.632779
 70
0
 42
0.189055
  0
VERTEX
  8
0
 10
1030.583583
 20
1363.412770
 70
0
  0
SEQEND
  0
POLYLINE
  8
0
  6
CONTINUOUS
 62
1
 66
1
 70
2
  0
VERTEX
  8
0
 10
1029.923583
 20
1357.652770
 70
0
 42
0.220328
  0
VERTEX
  8
0
 10
1030.422068
 20
1356.161562
 70
0
 42
0.207373
  0
VERTEX
  8
0
 10
1031.911592
 20
1355.522836
 70
0
  0
SEQEND
  0
POLYLINE
  8
0
  6
CONTINUOUS
 62
1
 66
1
 70
2
  0
VERTEX
  8
0
 10
1047.447464
 20
1355.522836
 70
0
 42
0.207373
  0
VERTEX
  8
0
 10
1048.936988
 20
1356.161562
 70
0
 42
0.220328
  0
VERTEX
  8
0
 10
1049.435473
 20
1357.652770
 70
0
  0
SEQEND
  0
POLYLINE
  8
0
  6
CONTINUOUS
 62
1
 66
1
 70
2
  0
VERTEX
  8
0
 10
1048.775473
 20
1363.412770
 70
0
 42
0.189055
  0
VERTEX
  8
0
 10
1048.122125
 20
1364.632779
 70
0
 42
0.179121
  0
VERTEX
  8
0
 10
1046.787464
 20
1365.122836
 70
0
  0
SEQEND
  0
POLYLINE
  8
0
  6
CONTINUOUS
 62
1
 66
1
 70
2
  0
VERTEX
  8
0
 10
1051.823583
 20
1362.992903
 70
0
 42
-0.220328
  0
VERTEX
  8
0
 10
1052.322068
 20
1364.484111
 70
0
 42
-0.207373
  0
VERTEX
  8
0
 10
1053.811592
 20
1365.122836
 70
0
  0
SEQEND
  0
POLYLINE
  8
0
  6
CONTINUOUS
 62
1
 66
1
 70
2
  0
VERTEX
  8
0
 10
1069.347464
 20
1365.122836
 70
0
 42
-0.207373
  0
VERTEX
  8
0
 10
1070.836988
 20
1364.484111
 70
0
 42
-0.220328
  0
VERTEX
  8
0
 10
1071.335473
 20
1362.992903
 70
0
  0
SEQEND
  0
POLYLINE
  8
0
  6
CONTINUOUS
 62
1
 66
1
 70
2
  0
VERTEX
  8
0
 10
1070.675473
 20
1357.232903
 70
0
 42
-0.189055
  0
VERTEX
  8
0
 10
1070.022125
 20
1356.012894
 70
0
 42
-0.179121
  0
VERTEX
  8
0
 10
1068.687464
 20
1355.522836
 70
0
  0
SEQEND
  0
POLYLINE
  8
0
  6
CONTINUOUS
 62
1
 66
1
 70
2
  0
VERTEX
  8
0
 10
1054.471592
 20
1355.522836
 70
0
 42
-0.179121
  0
VERTEX
  8
0
 10
1053.136931
 20
1356.012894
 70
0
 42
-0.189055
  0
VERTEX
  8
0
 10
1052.483583
 20
1357.232903
 70
0
  0
SEQEND
  0
POLYLINE
  8
0
  6
CONTINUOUS
 62
1
 66
1
 70
2
  0
VERTEX
  8
0
 10
1073.723583
 20
1357.652770
 70
0
 42
0.220328
  0
VERTEX
  8
0
 10
1074.222068
 20
1356.161562
 70
0
 42
0.207373
  0
VERTEX
  8
0
 10
1075.711592
 20
1355.522836
 70
0
  0
SEQEND
  0
POLYLINE
  8
0
  6
CONTINUOUS
 62
1
 66
1
 70
2
  0
VERTEX
  8
0
 10
1091.247464
 20
1355.522836
 70
0
 42
0.207373
  0
VERTEX
  8
0
 10
1092.736988
 20
1356.161562
 70
0
 42
0.220328
  0
VERTEX
  8
0
 10
1093.235473
 20
1357.652770
 70
0
  0
SEQEND
  0
POLYLINE
  8
0
  6
CONTINUOUS
 62
1
 66
1
 70
2
  0
VERTEX
  8
0
 10
1092.575473
 20
1363.412770
 70
0
 42
0.189055
  0
VERTEX
  8
0
 10
1091.922125
 20
1364.632779
 70
0
 42
0.179121
  0
VERTEX
  8
0
 10
1090.587464
 20
1365.122836
 70
0
  0
SEQEND
  0
POLYLINE
  8
0
  6
CONTINUOUS
 62
1
 66
1
 70
2
  0
VERTEX
  8
0
 10
1076.371592
 20
1365.122836
 70
0
 42
0.179121
  0
VERTEX
  8
0
 10
1075.036931
 20
1364.632779
 70
0
 42
0.189055
  0
VERTEX
  8
0
 10
1074.383583
 20
1363.412770
 70
0
  0
SEQEND
  0
POLYLINE
  8
0
  6
CONTINUOUS
 62
1
 66
1
 70
2
  0
VERTEX
  8
0
 10
1097.611592
 20
1365.122836
 70
0
 42
0.207373
  0
VERTEX
  8
0
 10
1096.122068
 20
1364.484111
 70
0
 42
0.220328
  0
VERTEX
  8
0
 10
1095.623583
 20
1362.992903
 70
0
  0
SEQEND
  0
POLYLINE
  8
0
  6
CONTINUOUS
 62
1
 66
1
 70
2
  0
VERTEX
  8
0
 10
1096.283583
 20
1357.232903
 70
0
 42
0.189055
  0
VERTEX
  8
0
 10
1096.936931
 20
1356.012894
 70
0
 42
0.179121
  0
VERTEX
  8
0
 10
1098.271592
 20
1355.522836
 70
0
  0
SEQEND
  0
POLYLINE
  8
0
  6
CONTINUOUS
 62
1
 66
1
 70
2
  0
VERTEX
  8
0
 10
1112.487464
 20
1355.522836
 70
0
 42
0.179121
  0
VERTEX
  8
0
 10
1113.822125
 20
1356.012894
 70
0
 42
0.189055
  0
VERTEX
  8
0
 10
1114.475473
 20
1357.232903
 70
0
  0
SEQEND
  0
POLYLINE
  8
0
  6
CONTINUOUS
 62
1
 66
1
 70
2
  0
VERTEX
  8
0
 10
1115.135473
 20
1362.992903
 70
0
 42
0.220328
  0
VERTEX
  8
0
 10
1114.636988
 20
1364.484111
 70
0
 42
0.207373
  0
VERTEX
  8
0
 10
1113.147464
 20
1365.122836
 70
0
  0
SEQEND
  0
POLYLINE
  8
0
  6
CONTINUOUS
 62
1
 66
1
 70
2
  0
VERTEX
  8
0
 10
1120.171592
 20
1365.122836
 70
0
 42
0.179121
  0
VERTEX
  8
0
 10
1118.836931
 20
1364.632779
 70
0
 42
0.189055
  0
VERTEX
  8
0
 10
1118.183583
 20
1363.412770
 70
0
  0
SEQEND
  0
POLYLINE
  8
0
  6
CONTINUOUS
 62
1
 66
1
 70
2
  0
VERTEX
  8
0
 10
1117.523583
 20
1357.652770
 70
0
 42
0.220328
  0
VERTEX
  8
0
 10
1118.022068
 20
1356.161562
 70
0
 42
0.207373
  0
VERTEX
  8
0
 10
1119.511592
 20
1355.522836
 70
0
  0
SEQEND
  0
POLYLINE
  8
0
  6
CONTINUOUS
 62
1
 66
1
 70
2
  0
VERTEX
  8
0
 10
1135.047464
 20
1355.522836
 70
0
 42
0.207373
  0
VERTEX
  8
0
 10
1136.536988
 20
1356.161562
 70
0
 42
0.220328
  0
VERTEX
  8
0
 10
1137.035473
 20
1357.652770
 70
0
  0
SEQEND
  0
POLYLINE
  8
0
  6
CONTINUOUS
 62
1
 66
1
 70
2
  0
VERTEX
  8
0
 10
1134.387464
 20
1365.122836
 70
0
 42
-0.179121
  0
VERTEX
  8
0
 10
1135.722125
 20
1364.632779
 70
0
 42
-0.189055
  0
VERTEX
  8
0
 10
1136.375473
 20
1363.412770
 70
0
  0
SEQEND
  0
POLYLINE
  8
0
  6
CONTINUOUS
 62
1
 66
1
 70
2
  0
VERTEX
  8
0
 10
1141.411592
 20
1365.122836
 70
0
 42
0.207373
  0
VERTEX
  8
0
 10
1139.922068
 20
1364.484111
 70
0
 42
0.220328
  0
VERTEX
  8
0
 10
1139.423583
 20
1362.992903
 70
0
  0
SEQEND
  0
POLYLINE
  8
0
  6
CONTINUOUS
 62
1
 66
1
 70
2
  0
VERTEX
  8
0
 10
1140.083583
 20
1357.232903
 70
0
 42
0.189055
  0
VERTEX
  8
0
 10
1140.736931
 20
1356.012894
 70
0
 42
0.179121
  0
VERTEX
  8
0
 10
1142.071592
 20
1355.522836
 70
0
  0
SEQEND
  0
POLYLINE
  8
0
  6
CONTINUOUS
 62
1
 66
1
 70
2
  0
VERTEX
  8
0
 10
1156.287464
 20
1355.522836
 70
0
 42
0.179121
  0
VERTEX
  8
0
 10
1157.622125
 20
1356.012894
 70
0
 42
0.189055
  0
VERTEX
  8
0
 10
1158.275473
 20
1357.232903
 70
0
  0
SEQEND
  0
POLYLINE
  8
0
  6
CONTINUOUS
 62
1
 66
1
 70
2
  0
VERTEX
  8
0
 10
1158.935473
 20
1362.992903
 70
0
 42
0.220328
  0
VERTEX
  8
0
 10
1158.436988
 20
1364.484111
 70
0
 42
0.207373
  0
VERTEX
  8
0
 10
1156.947464
 20
1365.122836
 70
0
  0
SEQEND
  0
LINE
  8
0
  6
CONTINUOUS
 62
1
 10
1145.337464
 20
1352.642836
 11
1131.121592
 21
1352.642836
  0
LINE
  8
0
  6
CONTINUOUS
 62
1
 10
934.021592
 20
1343.042836
 11
948.237464
 21
1343.042836
  0
LINE
  8
0
  6
CONTINUOUS
 62
1
 10
977.821592
 20
1343.042836
 11
992.037464
 21
1343.042836
  0
LINE
  8
0
  6
CONTINUOUS
 62
1
 10
999.061592
 20
1343.042836
 11
1014.597464
 21
1343.042836
  0
LINE
  8
0
  6
CONTINUOUS
 62
1
 10
1021.621592
 20
1343.042836
 11
1035.837464
 21
1343.042836
  0
LINE
  8
0
  6
CONTINUOUS
 62
1
 10
1042.861592
 20
1343.042836
 11
1058.397464
 21
1343.042836
  0
LINE
  8
0
  6
CONTINUOUS
 62
1
 10
1065.421592
 20
1343.042836
 11
1079.637464
 21
1343.042836
  0
LINE
  8
0
  6
CONTINUOUS
 62
1
 10
1086.661592
 20
1343.042836
 11
1102.197464
 21
1343.042836
  0
LINE
  8
0
  6
CONTINUOUS
 62
1
 10
1109.221592
 20
1343.042836
 11
1123.437464
 21
1343.042836
  0
LINE
  8
0
  6
CONTINUOUS
 62
1
 10
1130.461592
 20
1343.042836
 11
1145.997464
 21
1343.042836
  0
LINE
  8
0
  6
CONTINUOUS
 62
1
 10
953.933583
 20
1350.932770
 11
953.273583
 21
1345.172770
  0
LINE
  8
0
  6
CONTINUOUS
 62
1
 10
997.733583
 20
1350.932770
 11
997.073583
 21
1345.172770
  0
LINE
  8
0
  6
CONTINUOUS
 62
1
 10
1041.533583
 20
1350.932770
 11
1040.873583
 21
1345.172770
  0
LINE
  8
0
  6
CONTINUOUS
 62
1
 10
1085.333583
 20
1350.932770
 11
1084.673583
 21
1345.172770
  0
LINE
  8
0
  6
CONTINUOUS
 62
1
 10
1129.133583
 20
1350.932770
 11
1128.473583
 21
1345.172770
  0
LINE
  8
0
  6
CONTINUOUS
 62
1
 10
972.125473
 20
1350.932770
 11
972.785473
 21
1345.172770
  0
LINE
  8
0
  6
CONTINUOUS
 62
1
 10
1015.925473
 20
1350.932770
 11
1016.585473
 21
1345.172770
  0
LINE
  8
0
  6
CONTINUOUS
 62
1
 10
1059.725473
 20
1350.932770
 11
1060.385473
 21
1345.172770
  0
LINE
  8
0
  6
CONTINUOUS
 62
1
 10
1103.525473
 20
1350.932770
 11
1104.185473
 21
1345.172770
  0
LINE
  8
0
  6
CONTINUOUS
 62
1
 10
1147.325473
 20
1350.932770
 11
1147.985473
 21
1345.172770
  0
LINE
  8
0
  6
CONTINUOUS
 62
1
 10
932.033583
 20
1344.752903
 11
931.373583
 21
1350.512903
  0
LINE
  8
0
  6
CONTINUOUS
 62
1
 10
975.833583
 20
1344.752903
 11
975.173583
 21
1350.512903
  0
LINE
  8
0
  6
CONTINUOUS
 62
1
 10
994.025473
 20
1344.752903
 11
994.685473
 21
1350.512903
  0
LINE
  8
0
  6
CONTINUOUS
 62
1
 10
1019.633583
 20
1344.752903
 11
1018.973583
 21
1350.512903
  0
LINE
  8
0
  6
CONTINUOUS
 62
1
 10
1037.825473
 20
1344.752903
 11
1038.485473
 21
1350.512903
  0
LINE
  8
0
  6
CONTINUOUS
 62
1
 10
1063.433583
 20
1344.752903
 11
1062.773583
 21
1350.512903
  0
LINE
  8
0
  6
CONTINUOUS
 62
1
 10
1081.625473
 20
1344.752903
 11
1082.285473
 21
1350.512903
  0
LINE
  8
0
  6
CONTINUOUS
 62
1
 10
1107.233583
 20
1344.752903
 11
1106.573583
 21
1350.512903
  0
LINE
  8
0
  6
CONTINUOUS
 62
1
 10
1125.425473
 20
1344.752903
 11
1126.085473
 21
1350.512903
  0
LINE
  8
0
  6
CONTINUOUS
 62
1
 10
948.897464
 20
1352.642836
 11
933.361592
 21
1352.642836
  0
LINE
  8
0
  6
CONTINUOUS
 62
1
 10
970.137464
 20
1352.642836
 11
955.921592
 21
1352.642836
  0
LINE
  8
0
  6
CONTINUOUS
 62
1
 10
992.697464
 20
1352.642836
 11
977.161592
 21
1352.642836
  0
LINE
  8
0
  6
CONTINUOUS
 62
1
 10
1013.937464
 20
1352.642836
 11
999.721592
 21
1352.642836
  0
LINE
  8
0
  6
CONTINUOUS
 62
1
 10
1036.497464
 20
1352.642836
 11
1020.961592
 21
1352.642836
  0
LINE
  8
0
  6
CONTINUOUS
 62
1
 10
1057.737464
 20
1352.642836
 11
1043.521592
 21
1352.642836
  0
LINE
  8
0
  6
CONTINUOUS
 62
1
 10
1080.297464
 20
1352.642836
 11
1064.761592
 21
1352.642836
  0
LINE
  8
0
  6
CONTINUOUS
 62
1
 10
1101.537464
 20
1352.642836
 11
1087.321592
 21
1352.642836
  0
LINE
  8
0
  6
CONTINUOUS
 62
1
 10
1124.097464
 20
1352.642836
 11
1108.561592
 21
1352.642836
  0
POLYLINE
  8
0
  6
CONTINUOUS
 62
1
 66
1
 70
2
  0
VERTEX
  8
0
 10
932.033583
 20
1344.752903
 70
0
 42
0.189055
  0
VERTEX
  8
0
 10
932.686931
 20
1343.532894
 70
0
 42
0.179121
  0
VERTEX
  8
0
 10
934.021592
 20
1343.042836
 70
0
  0
SEQEND
  0
POLYLINE
  8
0
  6
CONTINUOUS
 62
1
 66
1
 70
2
  0
VERTEX
  8
0
 10
948.237464
 20
1343.042836
 70
0
 42
0.179121
  0
VERTEX
  8
0
 10
949.572125
 20
1343.532894
 70
0
 42
0.189055
  0
VERTEX
  8
0
 10
950.225473
 20
1344.752903
 70
0
  0
SEQEND
  0
POLYLINE
  8
0
  6
CONTINUOUS
 62
1
 66
1
 70
2
  0
VERTEX
  8
0
 10
950.885473
 20
1350.512903
 70
0
 42
0.220328
  0
VERTEX
  8
0
 10
950.386988
 20
1352.004111
 70
0
 42
0.207373
  0
VERTEX
  8
0
 10
948.897464
 20
1352.642836
 70
0
  0
SEQEND
  0
POLYLINE
  8
0
  6
CONTINUOUS
 62
1
 66
1
 70
2
  0
VERTEX
  8
0
 10
933.361592
 20
1352.642836
 70
0
 42
0.207373
  0
VERTEX
  8
0
 10
931.872068
 20
1352.004111
 70
0
 42
0.220328
  0
VERTEX
  8
0
 10
931.373583
 20
1350.512903
 70
0
  0
SEQEND
  0
POLYLINE
  8
0
  6
CONTINUOUS
 62
1
 66
1
 70
2
  0
VERTEX
  8
0
 10
955.261592
 20
1343.042836
 70
0
 42
-0.207373
  0
VERTEX
  8
0
 10
953.772068
 20
1343.681562
 70
0
 42
-0.220328
  0
VERTEX
  8
0
 10
953.273583
 20
1345.172770
 70
0
  0
SEQEND
  0
POLYLINE
  8
0
  6
CONTINUOUS
 62
1
 66
1
 70
2
  0
VERTEX
  8
0
 10
953.933583
 20
1350.932770
 70
0
 42
-0.189055
  0
VERTEX
  8
0
 10
954.586931
 20
1352.152779
 70
0
 42
-0.179121
  0
VERTEX
  8
0
 10
955.921592
 20
1352.642836
 70
0
  0
SEQEND
  0
POLYLINE
  8
0
  6
CONTINUOUS
 62
1
 66
1
 70
2
  0
VERTEX
  8
0
 10
970.137464
 20
1352.642836
 70
0
 42
-0.179121
  0
VERTEX
  8
0
 10
971.472125
 20
1352.152779
 70
0
 42
-0.189055
  0
VERTEX
  8
0
 10
972.125473
 20
1350.932770
 70
0
  0
SEQEND
  0
POLYLINE
  8
0
  6
CONTINUOUS
 62
1
 66
1
 70
2
  0
VERTEX
  8
0
 10
972.785473
 20
1345.172770
 70
0
 42
-0.220328
  0
VERTEX
  8
0
 10
972.286988
 20
1343.681562
 70
0
 42
-0.207373
  0
VERTEX
  8
0
 10
970.797464
 20
1343.042836
 70
0
  0
SEQEND
  0
POLYLINE
  8
0
  6
CONTINUOUS
 62
1
 66
1
 70
2
  0
VERTEX
  8
0
 10
975.833583
 20
1344.752903
 70
0
 42
0.189055
  0
VERTEX
  8
0
 10
976.486931
 20
1343.532894
 70
0
 42
0.179121
  0
VERTEX
  8
0
 10
977.821592
 20
1343.042836
 70
0
  0
SEQEND
  0
POLYLINE
  8
0
  6
CONTINUOUS
 62
1
 66
1
 70
2
  0
VERTEX
  8
0
 10
992.037464
 20
1343.042836
 70
0
 42
0.179121
  0
VERTEX
  8
0
 10
993.372125
 20
1343.532894
 70
0
 42
0.189055
  0
VERTEX
  8
0
 10
994.025473
 20
1344.752903
 70
0
  0
SEQEND
  0
POLYLINE
  8
0
  6
CONTINUOUS
 62
1
 66
1
 70
2
  0
VERTEX
  8
0
 10
994.685473
 20
1350.512903
 70
0
 42
0.220328
  0
VERTEX
  8
0
 10
994.186988
 20
1352.004111
 70
0
 42
0.207373
  0
VERTEX
  8
0
 10
992.697464
 20
1352.642836
 70
0
  0
SEQEND
  0
POLYLINE
  8
0
  6
CONTINUOUS
 62
1
 66
1
 70
2
  0
VERTEX
  8
0
 10
977.161592
 20
1352.642836
 70
0
 42
0.207373
  0
VERTEX
  8
0
 10
975.672068
 20
1352.004111
 70
0
 42
0.220328
  0
VERTEX
  8
0
 10
975.173583
 20
1350.512903
 70
0
  0
SEQEND
  0
POLYLINE
  8
0
  6
CONTINUOUS
 62
1
 66
1
 70
2
  0
VERTEX
  8
0
 10
997.733583
 20
1350.932770
 70
0
 42
-0.189055
  0
VERTEX
  8
0
 10
998.386931
 20
1352.152779
 70
0
 42
-0.179121
  0
VERTEX
  8
0
 10
999.721592
 20
1352.642836
 70
0
  0
SEQEND
  0
POLYLINE
  8
0
  6
CONTINUOUS
 62
1
 66
1
 70
2
  0
VERTEX
  8
0
 10
1013.937464
 20
1352.642836
 70
0
 42
-0.179121
  0
VERTEX
  8
0
 10
1015.272125
 20
1352.152779
 70
0
 42
-0.189055
  0
VERTEX
  8
0
 10
1015.925473
 20
1350.932770
 70
0
  0
SEQEND
  0
POLYLINE
  8
0
  6
CONTINUOUS
 62
1
 66
1
 70
2
  0
VERTEX
  8
0
 10
1016.585473
 20
1345.172770
 70
0
 42
-0.220328
  0
VERTEX
  8
0
 10
1016.086988
 20
1343.681562
 70
0
 42
-0.207373
  0
VERTEX
  8
0
 10
1014.597464
 20
1343.042836
 70
0
  0
SEQEND
  0
POLYLINE
  8
0
  6
CONTINUOUS
 62
1
 66
1
 70
2
  0
VERTEX
  8
0
 10
999.061592
 20
1343.042836
 70
0
 42
-0.207373
  0
VERTEX
  8
0
 10
997.572068
 20
1343.681562
 70
0
 42
-0.220328
  0
VERTEX
  8
0
 10
997.073583
 20
1345.172770
 70
0
  0
SEQEND
  0
POLYLINE
  8
0
  6
CONTINUOUS
 62
1
 66
1
 70
2
  0
VERTEX
  8
0
 10
1021.621592
 20
1343.042836
 70
0
 42
-0.179121
  0
VERTEX
  8
0
 10
1020.286931
 20
1343.532894
 70
0
 42
-0.189055
  0
VERTEX
  8
0
 10
1019.633583
 20
1344.752903
 70
0
  0
SEQEND
  0
POLYLINE
  8
0
  6
CONTINUOUS
 62
1
 66
1
 70
2
  0
VERTEX
  8
0
 10
1018.973583
 20
1350.512903
 70
0
 42
-0.220328
  0
VERTEX
  8
0
 10
1019.472068
 20
1352.004111
 70
0
 42
-0.207373
  0
VERTEX
  8
0
 10
1020.961592
 20
1352.642836
 70
0
  0
SEQEND
  0
POLYLINE
  8
0
  6
CONTINUOUS
 62
1
 66
1
 70
2
  0
VERTEX
  8
0
 10
1036.497464
 20
1352.642836
 70
0
 42
-0.207373
  0
VERTEX
  8
0
 10
1037.986988
 20
1352.004111
 70
0
 42
-0.220328
  0
VERTEX
  8
0
 10
1038.485473
 20
1350.512903
 70
0
  0
SEQEND
  0
POLYLINE
  8
0
  6
CONTINUOUS
 62
1
 66
1
 70
2
  0
VERTEX
  8
0
 10
1037.825473
 20
1344.752903
 70
0
 42
-0.189055
  0
VERTEX
  8
0
 10
1037.172125
 20
1343.532894
 70
0
 42
-0.179121
  0
VERTEX
  8
0
 10
1035.837464
 20
1343.042836
 70
0
  0
SEQEND
  0
POLYLINE
  8
0
  6
CONTINUOUS
 62
1
 66
1
 70
2
  0
VERTEX
  8
0
 10
1040.873583
 20
1345.172770
 70
0
 42
0.220328
  0
VERTEX
  8
0
 10
1041.372068
 20
1343.681562
 70
0
 42
0.207373
  0
VERTEX
  8
0
 10
1042.861592
 20
1343.042836
 70
0
  0
SEQEND
  0
POLYLINE
  8
0
  6
CONTINUOUS
 62
1
 66
1
 70
2
  0
VERTEX
  8
0
 10
1058.397464
 20
1343.042836
 70
0
 42
0.207373
  0
VERTEX
  8
0
 10
1059.886988
 20
1343.681562
 70
0
 42
0.220328
  0
VERTEX
  8
0
 10
1060.385473
 20
1345.172770
 70
0
  0
SEQEND
  0
POLYLINE
  8
0
  6
CONTINUOUS
 62
1
 66
1
 70
2
  0
VERTEX
  8
0
 10
1059.725473
 20
1350.932770
 70
0
 42
0.189055
  0
VERTEX
  8
0
 10
1059.072125
 20
1352.152779
 70
0
 42
0.179121
  0
VERTEX
  8
0
 10
1057.737464
 20
1352.642836
 70
0
  0
SEQEND
  0
POLYLINE
  8
0
  6
CONTINUOUS
 62
1
 66
1
 70
2
  0
VERTEX
  8
0
 10
1043.521592
 20
1352.642836
 70
0
 42
0.179121
  0
VERTEX
  8
0
 10
1042.186931
 20
1352.152779
 70
0
 42
0.189055
  0
VERTEX
  8
0
 10
1041.533583
 20
1350.932770
 70
0
  0
SEQEND
  0
POLYLINE
  8
0
  6
CONTINUOUS
 62
1
 66
1
 70
2
  0
VERTEX
  8
0
 10
1062.773583
 20
1350.512903
 70
0
 42
-0.220328
  0
VERTEX
  8
0
 10
1063.272068
 20
1352.004111
 70
0
 42
-0.207373
  0
VERTEX
  8
0
 10
1064.761592
 20
1352.642836
 70
0
  0
SEQEND
  0
POLYLINE
  8
0
  6
CONTINUOUS
 62
1
 66
1
 70
2
  0
VERTEX
  8
0
 10
1080.297464
 20
1352.642836
 70
0
 42
-0.207373
  0
VERTEX
  8
0
 10
1081.786988
 20
1352.004111
 70
0
 42
-0.220328
  0
VERTEX
  8
0
 10
1082.285473
 20
1350.512903
 70
0
  0
SEQEND
  0
POLYLINE
  8
0
  6
CONTINUOUS
 62
1
 66
1
 70
2
  0
VERTEX
  8
0
 10
1081.625473
 20
1344.752903
 70
0
 42
-0.189055
  0
VERTEX
  8
0
 10
1080.972125
 20
1343.532894
 70
0
 42
-0.179121
  0
VERTEX
  8
0
 10
1079.637464
 20
1343.042836
 70
0
  0
SEQEND
  0
POLYLINE
  8
0
  6
CONTINUOUS
 62
1
 66
1
 70
2
  0
VERTEX
  8
0
 10
1065.421592
 20
1343.042836
 70
0
 42
-0.179121
  0
VERTEX
  8
0
 10
1064.086931
 20
1343.532894
 70
0
 42
-0.189055
  0
VERTEX
  8
0
 10
1063.433583
 20
1344.752903
 70
0
  0
SEQEND
  0
POLYLINE
  8
0
  6
CONTINUOUS
 62
1
 66
1
 70
2
  0
VERTEX
  8
0
 10
1086.661592
 20
1343.042836
 70
0
 42
-0.207373
  0
VERTEX
  8
0
 10
1085.172068
 20
1343.681562
 70
0
 42
-0.220328
  0
VERTEX
  8
0
 10
1084.673583
 20
1345.172770
 70
0
  0
SEQEND
  0
POLYLINE
  8
0
  6
CONTINUOUS
 62
1
 66
1
 70
2
  0
VERTEX
  8
0
 10
1085.333583
 20
1350.932770
 70
0
 42
-0.189055
  0
VERTEX
  8
0
 10
1085.986931
 20
1352.152779
 70
0
 42
-0.179121
  0
VERTEX
  8
0
 10
1087.321592
 20
1352.642836
 70
0
  0
SEQEND
  0
POLYLINE
  8
0
  6
CONTINUOUS
 62
1
 66
1
 70
2
  0
VERTEX
  8
0
 10
1101.537464
 20
1352.642836
 70
0
 42
-0.179121
  0
VERTEX
  8
0
 10
1102.872125
 20
1352.152779
 70
0
 42
-0.189055
  0
VERTEX
  8
0
 10
1103.525473
 20
1350.932770
 70
0
  0
SEQEND
  0
POLYLINE
  8
0
  6
CONTINUOUS
 62
1
 66
1
 70
2
  0
VERTEX
  8
0
 10
1104.185473
 20
1345.172770
 70
0
 42
-0.220328
  0
VERTEX
  8
0
 10
1103.686988
 20
1343.681562
 70
0
 42
-0.207373
  0
VERTEX
  8
0
 10
1102.197464
 20
1343.042836
 70
0
  0
SEQEND
  0
POLYLINE
  8
0
  6
CONTINUOUS
 62
1
 66
1
 70
2
  0
VERTEX
  8
0
 10
1109.221592
 20
1343.042836
 70
0
 42
-0.179121
  0
VERTEX
  8
0
 10
1107.886931
 20
1343.532894
 70
0
 42
-0.189055
  0
VERTEX
  8
0
 10
1107.233583
 20
1344.752903
 70
0
  0
SEQEND
  0
POLYLINE
  8
0
  6
CONTINUOUS
 62
1
 66
1
 70
2
  0
VERTEX
  8
0
 10
1106.573583
 20
1350.512903
 70
0
 42
-0.220328
  0
VERTEX
  8
0
 10
1107.072068
 20
1352.004111
 70
0
 42
-0.207373
  0
VERTEX
  8
0
 10
1108.561592
 20
1352.642836
 70
0
  0
SEQEND
  0
POLYLINE
  8
0
  6
CONTINUOUS
 62
1
 66
1
 70
2
  0
VERTEX
  8
0
 10
1124.097464
 20
1352.642836
 70
0
 42
-0.207373
  0
VERTEX
  8
0
 10
1125.586988
 20
1352.004111
 70
0
 42
-0.220328
  0
VERTEX
  8
0
 10
1126.085473
 20
1350.512903
 70
0
  0
SEQEND
  0
POLYLINE
  8
0
  6
CONTINUOUS
 62
1
 66
1
 70
2
  0
VERTEX
  8
0
 10
1123.437464
 20
1343.042836
 70
0
 42
0.179121
  0
VERTEX
  8
0
 10
1124.772125
 20
1343.532894
 70
0
 42
0.189055
  0
VERTEX
  8
0
 10
1125.425473
 20
1344.752903
 70
0
  0
SEQEND
  0
POLYLINE
  8
0
  6
CONTINUOUS
 62
1
 66
1
 70
2
  0
VERTEX
  8
0
 10
1130.461592
 20
1343.042836
 70
0
 42
-0.207373
  0
VERTEX
  8
0
 10
1128.972068
 20
1343.681562
 70
0
 42
-0.220328
  0
VERTEX
  8
0
 10
1128.473583
 20
1345.172770
 70
0
  0
SEQEND
  0
POLYLINE
  8
0
  6
CONTINUOUS
 62
1
 66
1
 70
2
  0
VERTEX
  8
0
 10
1129.133583
 20
1350.932770
 70
0
 42
-0.189055
  0
VERTEX
  8
0
 10
1129.786931
 20
1352.152779
 70
0
 42
-0.179121
  0
VERTEX
  8
0
 10
1131.121592
 20
1352.642836
 70
0
  0
SEQEND
  0
POLYLINE
  8
0
  6
CONTINUOUS
 62
1
 66
1
 70
2
  0
VERTEX
  8
0
 10
1145.337464
 20
1352.642836
 70
0
 42
-0.179121
  0
VERTEX
  8
0
 10
1146.672125
 20
1352.152779
 70
0
 42
-0.189055
  0
VERTEX
  8
0
 10
1147.325473
 20
1350.932770
 70
0
  0
SEQEND
  0
POLYLINE
  8
0
  6
CONTINUOUS
 62
1
 66
1
 70
2
  0
VERTEX
  8
0
 10
1147.985473
 20
1345.172770
 70
0
 42
-0.220328
  0
VERTEX
  8
0
 10
1147.486988
 20
1343.681562
 70
0
 42
-0.207373
  0
VERTEX
  8
0
 10
1145.997464
 20
1343.042836
 70
0
  0
SEQEND
  0
LINE
  8
0
  6
CONTINUOUS
 62
1
 10
899.183583
 20
1363.412770
 11
898.523583
 21
1357.652770
  0
LINE
  8
0
  6
CONTINUOUS
 62
1
 10
901.171592
 20
1365.122836
 11
915.387464
 21
1365.122836
  0
LINE
  8
0
  6
CONTINUOUS
 62
1
 10
950.225473
 20
1344.752903
 11
950.885473
 21
1350.512903
  0
LINE
  8
0
  6
CONTINUOUS
 62
1
 10
955.261592
 20
1343.042836
 11
970.797464
 21
1343.042836
  0
LINE
  8
0
  6
CONTINUOUS
 62
1
 10
1262.488063
 20
1352.642836
 11
1276.703936
 21
1352.642836
  0
LINE
  8
0
  6
CONTINUOUS
 62
1
 10
1298.603936
 20
1343.042836
 11
1284.388063
 21
1343.042836
  0
LINE
  8
0
  6
CONTINUOUS
 62
1
 10
1277.363936
 20
1343.042836
 11
1261.828063
 21
1343.042836
  0
LINE
  8
0
  6
CONTINUOUS
 62
1
 10
1278.691944
 20
1350.932770
 11
1279.351944
 21
1345.172770
  0
LINE
  8
0
  6
CONTINUOUS
 62
1
 10
1260.500054
 20
1350.932770
 11
1259.840054
 21
1345.172770
  0
LINE
  8
0
  6
CONTINUOUS
 62
1
 10
1300.591944
 20
1344.752903
 11
1301.251944
 21
1350.512903
  0
LINE
  8
0
  6
CONTINUOUS
 62
1
 10
1282.400054
 20
1344.752903
 11
1281.740054
 21
1350.512903
  0
LINE
  8
0
  6
CONTINUOUS
 62
1
 10
1283.728063
 20
1352.642836
 11
1299.263936
 21
1352.642836
  0
POLYLINE
  8
0
  6
CONTINUOUS
 62
1
 66
1
 70
2
  0
VERTEX
  8
0
 10
1298.603936
 20
1343.042836
 70
0
 42
0.179121
  0
VERTEX
  8
0
 10
1299.938596
 20
1343.532894
 70
0
 42
0.189055
  0
VERTEX
  8
0
 10
1300.591944
 20
1344.752903
 70
0
  0
SEQEND
  0
POLYLINE
  8
0
  6
CONTINUOUS
 62
1
 66
1
 70
2
  0
VERTEX
  8
0
 10
1301.251944
 20
1350.512903
 70
0
 42
0.220328
  0
VERTEX
  8
0
 10
1300.753459
 20
1352.004111
 70
0
 42
0.207373
  0
VERTEX
  8
0
 10
1299.263936
 20
1352.642836
 70
0
  0
SEQEND
  0
POLYLINE
  8
0
  6
CONTINUOUS
 62
1
 66
1
 70
2
  0
VERTEX
  8
0
 10
1283.728063
 20
1352.642836
 70
0
 42
0.207373
  0
VERTEX
  8
0
 10
1282.238539
 20
1352.004111
 70
0
 42
0.220328
  0
VERTEX
  8
0
 10
1281.740054
 20
1350.512903
 70
0
  0
SEQEND
  0
POLYLINE
  8
0
  6
CONTINUOUS
 62
1
 66
1
 70
2
  0
VERTEX
  8
0
 10
1284.388063
 20
1343.042836
 70
0
 42
-0.179121
  0
VERTEX
  8
0
 10
1283.053402
 20
1343.532894
 70
0
 42
-0.189055
  0
VERTEX
  8
0
 10
1282.400054
 20
1344.752903
 70
0
  0
SEQEND
  0
POLYLINE
  8
0
  6
CONTINUOUS
 62
1
 66
1
 70
2
  0
VERTEX
  8
0
 10
1277.363936
 20
1343.042836
 70
0
 42
0.207373
  0
VERTEX
  8
0
 10
1278.853459
 20
1343.681562
 70
0
 42
0.220328
  0
VERTEX
  8
0
 10
1279.351944
 20
1345.172770
 70
0
  0
SEQEND
  0
POLYLINE
  8
0
  6
CONTINUOUS
 62
1
 66
1
 70
2
  0
VERTEX
  8
0
 10
1278.691944
 20
1350.932770
 70
0
 42
0.189055
  0
VERTEX
  8
0
 10
1278.038596
 20
1352.152779
 70
0
 42
0.179121
  0
VERTEX
  8
0
 10
1276.703936
 20
1352.642836
 70
0
  0
SEQEND
  0
POLYLINE
  8
0
  6
CONTINUOUS
 62
1
 66
1
 70
2
  0
VERTEX
  8
0
 10
1262.488063
 20
1352.642836
 70
0
 42
0.179121
  0
VERTEX
  8
0
 10
1261.153402
 20
1352.152779
 70
0
 42
0.189055
  0
VERTEX
  8
0
 10
1260.500054
 20
1350.932770
 70
0
  0
SEQEND
  0
POLYLINE
  8
0
  6
CONTINUOUS
 62
1
 66
1
 70
2
  0
VERTEX
  8
0
 10
1259.840054
 20
1345.172770
 70
0
 42
0.220328
  0
VERTEX
  8
0
 10
1260.338539
 20
1343.681562
 70
0
 42
0.207373
  0
VERTEX
  8
0
 10
1261.828063
 20
1343.042836
 70
0
  0
SEQEND
  0
LINE
  8
0
  6
CONTINUOUS
 62
1
 10
1254.803936
 20
1343.042836
 11
1240.588063
 21
1343.042836
  0
LINE
  8
0
  6
CONTINUOUS
 62
1
 10
1256.791944
 20
1344.752903
 11
1257.451944
 21
1350.512903
  0
LINE
  8
0
  6
CONTINUOUS
 62
1
 10
1238.600054
 20
1344.752903
 11
1237.940054
 21
1350.512903
  0
LINE
  8
0
  6
CONTINUOUS
 62
1
 10
1239.928063
 20
1352.642836
 11
1255.463936
 21
1352.642836
  0
POLYLINE
  8
0
  6
CONTINUOUS
 62
1
 66
1
 70
2
  0
VERTEX
  8
0
 10
1254.803936
 20
1343.042836
 70
0
 42
0.179121
  0
VERTEX
  8
0
 10
1256.138596
 20
1343.532894
 70
0
 42
0.189055
  0
VERTEX
  8
0
 10
1256.791944
 20
1344.752903
 70
0
  0
SEQEND
  0
POLYLINE
  8
0
  6
CONTINUOUS
 62
1
 66
1
 70
2
  0
VERTEX
  8
0
 10
1257.451944
 20
1350.512903
 70
0
 42
0.220328
  0
VERTEX
  8
0
 10
1256.953459
 20
1352.004111
 70
0
 42
0.207373
  0
VERTEX
  8
0
 10
1255.463936
 20
1352.642836
 70
0
  0
SEQEND
  0
POLYLINE
  8
0
  6
CONTINUOUS
 62
1
 66
1
 70
2
  0
VERTEX
  8
0
 10
1239.928063
 20
1352.642836
 70
0
 42
0.207373
  0
VERTEX
  8
0
 10
1238.438539
 20
1352.004111
 70
0
 42
0.220328
  0
VERTEX
  8
0
 10
1237.940054
 20
1350.512903
 70
0
  0
SEQEND
  0
POLYLINE
  8
0
  6
CONTINUOUS
 62
1
 66
1
 70
2
  0
VERTEX
  8
0
 10
1240.588063
 20
1343.042836
 70
0
 42
-0.179121
  0
VERTEX
  8
0
 10
1239.253402
 20
1343.532894
 70
0
 42
-0.189055
  0
VERTEX
  8
0
 10
1238.600054
 20
1344.752903
 70
0
  0
SEQEND
  0
LINE
  8
0
  6
CONTINUOUS
 62
1
 10
1306.288063
 20
1352.642836
 11
1320.503936
 21
1352.642836
  0
LINE
  8
0
  6
CONTINUOUS
 62
1
 10
1517.603936
 20
1343.042836
 11
1503.388063
 21
1343.042836
  0
LINE
  8
0
  6
CONTINUOUS
 62
1
 10
1473.803936
 20
1343.042836
 11
1459.588063
 21
1343.042836
  0
LINE
  8
0
  6
CONTINUOUS
 62
1
 10
1452.563936
 20
1343.042836
 11
1437.028063
 21
1343.042836
  0
LINE
  8
0
  6
CONTINUOUS
 62
1
 10
1430.003936
 20
1343.042836
 11
1415.788063
 21
1343.042836
  0
LINE
  8
0
  6
CONTINUOUS
 62
1
 10
1408.763936
 20
1343.042836
 11
1393.228063
 21
1343.042836
  0
LINE
  8
0
  6
CONTINUOUS
 62
1
 10
1386.203936
 20
1343.042836
 11
1371.988063
 21
1343.042836
  0
LINE
  8
0
  6
CONTINUOUS
 62
1
 10
1364.963936
 20
1343.042836
 11
1349.428063
 21
1343.042836
  0
LINE
  8
0
  6
CONTINUOUS
 62
1
 10
1342.403936
 20
1343.042836
 11
1328.188063
 21
1343.042836
  0
LINE
  8
0
  6
CONTINUOUS
 62
1
 10
1321.163936
 20
1343.042836
 11
1305.628063
 21
1343.042836
  0
LINE
  8
0
  6
CONTINUOUS
 62
1
 10
1497.691944
 20
1350.932770
 11
1498.351944
 21
1345.172770
  0
LINE
  8
0
  6
CONTINUOUS
 62
1
 10
1453.891944
 20
1350.932770
 11
1454.551944
 21
1345.172770
  0
LINE
  8
0
  6
CONTINUOUS
 62
1
 10
1410.091944
 20
1350.932770
 11
1410.751944
 21
1345.172770
  0
LINE
  8
0
  6
CONTINUOUS
 62
1
 10
1366.291944
 20
1350.932770
 11
1366.951944
 21
1345.172770
  0
LINE
  8
0
  6
CONTINUOUS
 62
1
 10
1322.491944
 20
1350.932770
 11
1323.151944
 21
1345.172770
  0
LINE
  8
0
  6
CONTINUOUS
 62
1
 10
1479.500054
 20
1350.932770
 11
1478.840054
 21
1345.172770
  0
LINE
  8
0
  6
CONTINUOUS
 62
1
 10
1435.700054
 20
1350.932770
 11
1435.040054
 21
1345.172770
  0
LINE
  8
0
  6
CONTINUOUS
 62
1
 10
1391.900054
 20
1350.932770
 11
1391.240054
 21
1345.172770
  0
LINE
  8
0
  6
CONTINUOUS
 62
1
 10
1348.100054
 20
1350.932770
 11
1347.440054
 21
1345.172770
  0
LINE
  8
0
  6
CONTINUOUS
 62
1
 10
1304.300054
 20
1350.932770
 11
1303.640054
 21
1345.172770
  0
LINE
  8
0
  6
CONTINUOUS
 62
1
 10
1519.591944
 20
1344.752903
 11
1520.251944
 21
1350.512903
  0
LINE
  8
0
  6
CONTINUOUS
 62
1
 10
1475.791944
 20
1344.752903
 11
1476.451944
 21
1350.512903
  0
LINE
  8
0
  6
CONTINUOUS
 62
1
 10
1457.600054
 20
1344.752903
 11
1456.940054
 21
1350.512903
  0
LINE
  8
0
  6
CONTINUOUS
 62
1
 10
1431.991944
 20
1344.752903
 11
1432.651944
 21
1350.512903
  0
LINE
  8
0
  6
CONTINUOUS
 62
1
 10
1413.800054
 20
1344.752903
 11
1413.140054
 21
1350.512903
  0
LINE
  8
0
  6
CONTINUOUS
 62
1
 10
1388.191944
 20
1344.752903
 11
1388.851944
 21
1350.512903
  0
LINE
  8
0
  6
CONTINUOUS
 62
1
 10
1370.000054
 20
1344.752903
 11
1369.340054
 21
1350.512903
  0
LINE
  8
0
  6
CONTINUOUS
 62
1
 10
1344.391944
 20
1344.752903
 11
1345.051944
 21
1350.512903
  0
LINE
  8
0
  6
CONTINUOUS
 62
1
 10
1326.200054
 20
1344.752903
 11
1325.540054
 21
1350.512903
  0
LINE
  8
0
  6
CONTINUOUS
 62
1
 10
1502.728063
 20
1352.642836
 11
1518.263936
 21
1352.642836
  0
LINE
  8
0
  6
CONTINUOUS
 62
1
 10
1481.488063
 20
1352.642836
 11
1495.703936
 21
1352.642836
  0
LINE
  8
0
  6
CONTINUOUS
 62
1
 10
1458.928063
 20
1352.642836
 11
1474.463936
 21
1352.642836
  0
LINE
  8
0
  6
CONTINUOUS
 62
1
 10
1437.688063
 20
1352.642836
 11
1451.903936
 21
1352.642836
  0
LINE
  8
0
  6
CONTINUOUS
 62
1
 10
1415.128063
 20
1352.642836
 11
1430.663936
 21
1352.642836
  0
LINE
  8
0
  6
CONTINUOUS
 62
1
 10
1393.888063
 20
1352.642836
 11
1408.103936
 21
1352.642836
  0
LINE
  8
0
  6
CONTINUOUS
 62
1
 10
1371.328063
 20
1352.642836
 11
1386.863936
 21
1352.642836
  0
LINE
  8
0
  6
CONTINUOUS
 62
1
 10
1350.088063
 20
1352.642836
 11
1364.303936
 21
1352.642836
  0
LINE
  8
0
  6
CONTINUOUS
 62
1
 10
1327.528063
 20
1352.642836
 11
1343.063936
 21
1352.642836
  0
POLYLINE
  8
0
  6
CONTINUOUS
 62
1
 66
1
 70
2
  0
VERTEX
  8
0
 10
1519.591944
 20
1344.752903
 70
0
 42
-0.189055
  0
VERTEX
  8
0
 10
1518.938596
 20
1343.532894
 70
0
 42
-0.179121
  0
VERTEX
  8
0
 10
1517.603936
 20
1343.042836
 70
0
  0
SEQEND
  0
POLYLINE
  8
0
  6
CONTINUOUS
 62
1
 66
1
 70
2
  0
VERTEX
  8
0
 10
1503.388063
 20
1343.042836
 70
0
 42
-0.179121
  0
VERTEX
  8
0
 10
1502.053402
 20
1343.532894
 70
0
 42
-0.189055
  0
VERTEX
  8
0
 10
1501.400054
 20
1344.752903
 70
0
  0
SEQEND
  0
POLYLINE
  8
0
  6
CONTINUOUS
 62
1
 66
1
 70
2
  0
VERTEX
  8
0
 10
1500.740054
 20
1350.512903
 70
0
 42
-0.220328
  0
VERTEX
  8
0
 10
1501.238539
 20
1352.004111
 70
0
 42
-0.207373
  0
VERTEX
  8
0
 10
1502.728063
 20
1352.642836
 70
0
  0
SEQEND
  0
POLYLINE
  8
0
  6
CONTINUOUS
 62
1
 66
1
 70
2
  0
VERTEX
  8
0
 10
1518.263936
 20
1352.642836
 70
0
 42
-0.207373
  0
VERTEX
  8
0
 10
1519.753459
 20
1352.004111
 70
0
 42
-0.220328
  0
VERTEX
  8
0
 10
1520.251944
 20
1350.512903
 70
0
  0
SEQEND
  0
POLYLINE
  8
0
  6
CONTINUOUS
 62
1
 66
1
 70
2
  0
VERTEX
  8
0
 10
1496.363936
 20
1343.042836
 70
0
 42
0.207373
  0
VERTEX
  8
0
 10
1497.853459
 20
1343.681562
 70
0
 42
0.220328
  0
VERTEX
  8
0
 10
1498.351944
 20
1345.172770
 70
0
  0
SEQEND
  0
POLYLINE
  8
0
  6
CONTINUOUS
 62
1
 66
1
 70
2
  0
VERTEX
  8
0
 10
1497.691944
 20
1350.932770
 70
0
 42
0.189055
  0
VERTEX
  8
0
 10
1497.038596
 20
1352.152779
 70
0
 42
0.179121
  0
VERTEX
  8
0
 10
1495.703936
 20
1352.642836
 70
0
  0
SEQEND
  0
POLYLINE
  8
0
  6
CONTINUOUS
 62
1
 66
1
 70
2
  0
VERTEX
  8
0
 10
1481.488063
 20
1352.642836
 70
0
 42
0.179121
  0
VERTEX
  8
0
 10
1480.153402
 20
1352.152779
 70
0
 42
0.189055
  0
VERTEX
  8
0
 10
1479.500054
 20
1350.932770
 70
0
  0
SEQEND
  0
POLYLINE
  8
0
  6
CONTINUOUS
 62
1
 66
1
 70
2
  0
VERTEX
  8
0
 10
1478.840054
 20
1345.172770
 70
0
 42
0.220328
  0
VERTEX
  8
0
 10
1479.338539
 20
1343.681562
 70
0
 42
0.207373
  0
VERTEX
  8
0
 10
1480.828063
 20
1343.042836
 70
0
  0
SEQEND
  0
POLYLINE
  8
0
  6
CONTINUOUS
 62
1
 66
1
 70
2
  0
VERTEX
  8
0
 10
1475.791944
 20
1344.752903
 70
0
 42
-0.189055
  0
VERTEX
  8
0
 10
1475.138596
 20
1343.532894
 70
0
 42
-0.179121
  0
VERTEX
  8
0
 10
1473.803936
 20
1343.042836
 70
0
  0
SEQEND
  0
POLYLINE
  8
0
  6
CONTINUOUS
 62
1
 66
1
 70
2
  0
VERTEX
  8
0
 10
1459.588063
 20
1343.042836
 70
0
 42
-0.179121
  0
VERTEX
  8
0
 10
1458.253402
 20
1343.532894
 70
0
 42
-0.189055
  0
VERTEX
  8
0
 10
1457.600054
 20
1344.752903
 70
0
  0
SEQEND
  0
POLYLINE
  8
0
  6
CONTINUOUS
 62
1
 66
1
 70
2
  0
VERTEX
  8
0
 10
1456.940054
 20
1350.512903
 70
0
 42
-0.220328
  0
VERTEX
  8
0
 10
1457.438539
 20
1352.004111
 70
0
 42
-0.207373
  0
VERTEX
  8
0
 10
1458.928063
 20
1352.642836
 70
0
  0
SEQEND
  0
POLYLINE
  8
0
  6
CONTINUOUS
 62
1
 66
1
 70
2
  0
VERTEX
  8
0
 10
1474.463936
 20
1352.642836
 70
0
 42
-0.207373
  0
VERTEX
  8
0
 10
1475.953459
 20
1352.004111
 70
0
 42
-0.220328
  0
VERTEX
  8
0
 10
1476.451944
 20
1350.512903
 70
0
  0
SEQEND
  0
POLYLINE
  8
0
  6
CONTINUOUS
 62
1
 66
1
 70
2
  0
VERTEX
  8
0
 10
1453.891944
 20
1350.932770
 70
0
 42
0.189055
  0
VERTEX
  8
0
 10
1453.238596
 20
1352.152779
 70
0
 42
0.179121
  0
VERTEX
  8
0
 10
1451.903936
 20
1352.642836
 70
0
  0
SEQEND
  0
POLYLINE
  8
0
  6
CONTINUOUS
 62
1
 66
1
 70
2
  0
VERTEX
  8
0
 10
1437.688063
 20
1352.642836
 70
0
 42
0.179121
  0
VERTEX
  8
0
 10
1436.353402
 20
1352.152779
 70
0
 42
0.189055
  0
VERTEX
  8
0
 10
1435.700054
 20
1350.932770
 70
0
  0
SEQEND
  0
POLYLINE
  8
0
  6
CONTINUOUS
 62
1
 66
1
 70
2
  0
VERTEX
  8
0
 10
1435.040054
 20
1345.172770
 70
0
 42
0.220328
  0
VERTEX
  8
0
 10
1435.538539
 20
1343.681562
 70
0
 42
0.207373
  0
VERTEX
  8
0
 10
1437.028063
 20
1343.042836
 70
0
  0
SEQEND
  0
POLYLINE
  8
0
  6
CONTINUOUS
 62
1
 66
1
 70
2
  0
VERTEX
  8
0
 10
1452.563936
 20
1343.042836
 70
0
 42
0.207373
  0
VERTEX
  8
0
 10
1454.053459
 20
1343.681562
 70
0
 42
0.220328
  0
VERTEX
  8
0
 10
1454.551944
 20
1345.172770
 70
0
  0
SEQEND
  0
POLYLINE
  8
0
  6
CONTINUOUS
 62
1
 66
1
 70
2
  0
VERTEX
  8
0
 10
1430.003936
 20
1343.042836
 70
0
 42
0.179121
  0
VERTEX
  8
0
 10
1431.338596
 20
1343.532894
 70
0
 42
0.189055
  0
VERTEX
  8
0
 10
1431.991944
 20
1344.752903
 70
0
  0
SEQEND
  0
POLYLINE
  8
0
  6
CONTINUOUS
 62
1
 66
1
 70
2
  0
VERTEX
  8
0
 10
1432.651944
 20
1350.512903
 70
0
 42
0.220328
  0
VERTEX
  8
0
 10
1432.153459
 20
1352.004111
 70
0
 42
0.207373
  0
VERTEX
  8
0
 10
1430.663936
 20
1352.642836
 70
0
  0
SEQEND
  0
POLYLINE
  8
0
  6
CONTINUOUS
 62
1
 66
1
 70
2
  0
VERTEX
  8
0
 10
1415.128063
 20
1352.642836
 70
0
 42
0.207373
  0
VERTEX
  8
0
 10
1413.638539
 20
1352.004111
 70
0
 42
0.220328
  0
VERTEX
  8
0
 10
1413.140054
 20
1350.512903
 70
0
  0
SEQEND
  0
POLYLINE
  8
0
  6
CONTINUOUS
 62
1
 66
1
 70
2
  0
VERTEX
  8
0
 10
1413.800054
 20
1344.752903
 70
0
 42
0.189055
  0
VERTEX
  8
0
 10
1414.453402
 20
1343.532894
 70
0
 42
0.179121
  0
VERTEX
  8
0
 10
1415.788063
 20
1343.042836
 70
0
  0
SEQEND
  0
POLYLINE
  8
0
  6
CONTINUOUS
 62
1
 66
1
 70
2
  0
VERTEX
  8
0
 10
1410.751944
 20
1345.172770
 70
0
 42
-0.220328
  0
VERTEX
  8
0
 10
1410.253459
 20
1343.681562
 70
0
 42
-0.207373
  0
VERTEX
  8
0
 10
1408.763936
 20
1343.042836
 70
0
  0
SEQEND
  0
POLYLINE
  8
0
  6
CONTINUOUS
 62
1
 66
1
 70
2
  0
VERTEX
  8
0
 10
1393.228063
 20
1343.042836
 70
0
 42
-0.207373
  0
VERTEX
  8
0
 10
1391.738539
 20
1343.681562
 70
0
 42
-0.220328
  0
VERTEX
  8
0
 10
1391.240054
 20
1345.172770
 70
0
  0
SEQEND
  0
POLYLINE
  8
0
  6
CONTINUOUS
 62
1
 66
1
 70
2
  0
VERTEX
  8
0
 10
1391.900054
 20
1350.932770
 70
0
 42
-0.189055
  0
VERTEX
  8
0
 10
1392.553402
 20
1352.152779
 70
0
 42
-0.179121
  0
VERTEX
  8
0
 10
1393.888063
 20
1352.642836
 70
0
  0
SEQEND
  0
POLYLINE
  8
0
  6
CONTINUOUS
 62
1
 66
1
 70
2
  0
VERTEX
  8
0
 10
1408.103936
 20
1352.642836
 70
0
 42
-0.179121
  0
VERTEX
  8
0
 10
1409.438596
 20
1352.152779
 70
0
 42
-0.189055
  0
VERTEX
  8
0
 10
1410.091944
 20
1350.932770
 70
0
  0
SEQEND
  0
POLYLINE
  8
0
  6
CONTINUOUS
 62
1
 66
1
 70
2
  0
VERTEX
  8
0
 10
1388.851944
 20
1350.512903
 70
0
 42
0.220328
  0
VERTEX
  8
0
 10
1388.353459
 20
1352.004111
 70
0
 42
0.207373
  0
VERTEX
  8
0
 10
1386.863936
 20
1352.642836
 70
0
  0
SEQEND
  0
POLYLINE
  8
0
  6
CONTINUOUS
 62
1
 66
1
 70
2
  0
VERTEX
  8
0
 10
1371.328063
 20
1352.642836
 70
0
 42
0.207373
  0
VERTEX
  8
0
 10
1369.838539
 20
1352.004111
 70
0
 42
0.220328
  0
VERTEX
  8
0
 10
1369.340054
 20
1350.512903
 70
0
  0
SEQEND
  0
POLYLINE
  8
0
  6
CONTINUOUS
 62
1
 66
1
 70
2
  0
VERTEX
  8
0
 10
1370.000054
 20
1344.752903
 70
0
 42
0.189055
  0
VERTEX
  8
0
 10
1370.653402
 20
1343.532894
 70
0
 42
0.179121
  0
VERTEX
  8
0
 10
1371.988063
 20
1343.042836
 70
0
  0
SEQEND
  0
POLYLINE
  8
0
  6
CONTINUOUS
 62
1
 66
1
 70
2
  0
VERTEX
  8
0
 10
1386.203936
 20
1343.042836
 70
0
 42
0.179121
  0
VERTEX
  8
0
 10
1387.538596
 20
1343.532894
 70
0
 42
0.189055
  0
VERTEX
  8
0
 10
1388.191944
 20
1344.752903
 70
0
  0
SEQEND
  0
POLYLINE
  8
0
  6
CONTINUOUS
 62
1
 66
1
 70
2
  0
VERTEX
  8
0
 10
1364.963936
 20
1343.042836
 70
0
 42
0.207373
  0
VERTEX
  8
0
 10
1366.453459
 20
1343.681562
 70
0
 42
0.220328
  0
VERTEX
  8
0
 10
1366.951944
 20
1345.172770
 70
0
  0
SEQEND
  0
POLYLINE
  8
0
  6
CONTINUOUS
 62
1
 66
1
 70
2
  0
VERTEX
  8
0
 10
1366.291944
 20
1350.932770
 70
0
 42
0.189055
  0
VERTEX
  8
0
 10
1365.638596
 20
1352.152779
 70
0
 42
0.179121
  0
VERTEX
  8
0
 10
1364.303936
 20
1352.642836
 70
0
  0
SEQEND
  0
POLYLINE
  8
0
  6
CONTINUOUS
 62
1
 66
1
 70
2
  0
VERTEX
  8
0
 10
1350.088063
 20
1352.642836
 70
0
 42
0.179121
  0
VERTEX
  8
0
 10
1348.753402
 20
1352.152779
 70
0
 42
0.189055
  0
VERTEX
  8
0
 10
1348.100054
 20
1350.932770
 70
0
  0
SEQEND
  0
POLYLINE
  8
0
  6
CONTINUOUS
 62
1
 66
1
 70
2
  0
VERTEX
  8
0
 10
1347.440054
 20
1345.172770
 70
0
 42
0.220328
  0
VERTEX
  8
0
 10
1347.938539
 20
1343.681562
 70
0
 42
0.207373
  0
VERTEX
  8
0
 10
1349.428063
 20
1343.042836
 70
0
  0
SEQEND
  0
POLYLINE
  8
0
  6
CONTINUOUS
 62
1
 66
1
 70
2
  0
VERTEX
  8
0
 10
1342.403936
 20
1343.042836
 70
0
 42
0.179121
  0
VERTEX
  8
0
 10
1343.738596
 20
1343.532894
 70
0
 42
0.189055
  0
VERTEX
  8
0
 10
1344.391944
 20
1344.752903
 70
0
  0
SEQEND
  0
POLYLINE
  8
0
  6
CONTINUOUS
 62
1
 66
1
 70
2
  0
VERTEX
  8
0
 10
1345.051944
 20
1350.512903
 70
0
 42
0.220328
  0
VERTEX
  8
0
 10
1344.553459
 20
1352.004111
 70
0
 42
0.207373
  0
VERTEX
  8
0
 10
1343.063936
 20
1352.642836
 70
0
  0
SEQEND
  0
POLYLINE
  8
0
  6
CONTINUOUS
 62
1
 66
1
 70
2
  0
VERTEX
  8
0
 10
1327.528063
 20
1352.642836
 70
0
 42
0.207373
  0
VERTEX
  8
0
 10
1326.038539
 20
1352.004111
 70
0
 42
0.220328
  0
VERTEX
  8
0
 10
1325.540054
 20
1350.512903
 70
0
  0
SEQEND
  0
POLYLINE
  8
0
  6
CONTINUOUS
 62
1
 66
1
 70
2
  0
VERTEX
  8
0
 10
1328.188063
 20
1343.042836
 70
0
 42
-0.179121
  0
VERTEX
  8
0
 10
1326.853402
 20
1343.532894
 70
0
 42
-0.189055
  0
VERTEX
  8
0
 10
1326.200054
 20
1344.752903
 70
0
  0
SEQEND
  0
POLYLINE
  8
0
  6
CONTINUOUS
 62
1
 66
1
 70
2
  0
VERTEX
  8
0
 10
1321.163936
 20
1343.042836
 70
0
 42
0.207373
  0
VERTEX
  8
0
 10
1322.653459
 20
1343.681562
 70
0
 42
0.220328
  0
VERTEX
  8
0
 10
1323.151944
 20
1345.172770
 70
0
  0
SEQEND
  0
POLYLINE
  8
0
  6
CONTINUOUS
 62
1
 66
1
 70
2
  0
VERTEX
  8
0
 10
1322.491944
 20
1350.932770
 70
0
 42
0.189055
  0
VERTEX
  8
0
 10
1321.838596
 20
1352.152779
 70
0
 42
0.179121
  0
VERTEX
  8
0
 10
1320.503936
 20
1352.642836
 70
0
  0
SEQEND
  0
POLYLINE
  8
0
  6
CONTINUOUS
 62
1
 66
1
 70
2
  0
VERTEX
  8
0
 10
1306.288063
 20
1352.642836
 70
0
 42
0.179121
  0
VERTEX
  8
0
 10
1304.953402
 20
1352.152779
 70
0
 42
0.189055
  0
VERTEX
  8
0
 10
1304.300054
 20
1350.932770
 70
0
  0
SEQEND
  0
POLYLINE
  8
0
  6
CONTINUOUS
 62
1
 66
1
 70
2
  0
VERTEX
  8
0
 10
1303.640054
 20
1345.172770
 70
0
 42
0.220328
  0
VERTEX
  8
0
 10
1304.138539
 20
1343.681562
 70
0
 42
0.207373
  0
VERTEX
  8
0
 10
1305.628063
 20
1343.042836
 70
0
  0
SEQEND
  0
LINE
  8
0
  6
CONTINUOUS
 62
1
 10
1501.400054
 20
1344.752903
 11
1500.740054
 21
1350.512903
  0
LINE
  8
0
  6
CONTINUOUS
 62
1
 10
1496.363936
 20
1343.042836
 11
1480.828063
 21
1343.042836
  0
LINE
  8
0
  6
CONTINUOUS
 62
1
 10
1287.687464
 20
1355.522836
 11
1273.471592
 21
1355.522836
  0
LINE
  8
0
  6
CONTINUOUS
 62
1
 10
1251.571592
 20
1365.122836
 11
1265.787464
 21
1365.122836
  0
LINE
  8
0
  6
CONTINUOUS
 62
1
 10
1272.811592
 20
1365.122836
 11
1288.347464
 21
1365.122836
  0
LINE
  8
0
  6
CONTINUOUS
 62
1
 10
1271.483583
 20
1357.232903
 11
1270.823583
 21
1362.992903
  0
LINE
  8
0
  6
CONTINUOUS
 62
1
 10
1289.675473
 20
1357.232903
 11
1290.335473
 21
1362.992903
  0
LINE
  8
0
  6
CONTINUOUS
 62
1
 10
1249.583583
 20
1363.412770
 11
1248.923583
 21
1357.652770
  0
LINE
  8
0
  6
CONTINUOUS
 62
1
 10
1267.775473
 20
1363.412770
 11
1268.435473
 21
1357.652770
  0
LINE
  8
0
  6
CONTINUOUS
 62
1
 10
1266.447464
 20
1355.522836
 11
1250.911592
 21
1355.522836
  0
POLYLINE
  8
0
  6
CONTINUOUS
 62
1
 66
1
 70
2
  0
VERTEX
  8
0
 10
1251.571592
 20
1365.122836
 70
0
 42
0.179121
  0
VERTEX
  8
0
 10
1250.236931
 20
1364.632779
 70
0
 42
0.189055
  0
VERTEX
  8
0
 10
1249.583583
 20
1363.412770
 70
0
  0
SEQEND
  0
POLYLINE
  8
0
  6
CONTINUOUS
 62
1
 66
1
 70
2
  0
VERTEX
  8
0
 10
1248.923583
 20
1357.652770
 70
0
 42
0.220328
  0
VERTEX
  8
0
 10
1249.422068
 20
1356.161562
 70
0
 42
0.207373
  0
VERTEX
  8
0
 10
1250.911592
 20
1355.522836
 70
0
  0
SEQEND
  0
POLYLINE
  8
0
  6
CONTINUOUS
 62
1
 66
1
 70
2
  0
VERTEX
  8
0
 10
1266.447464
 20
1355.522836
 70
0
 42
0.207373
  0
VERTEX
  8
0
 10
1267.936988
 20
1356.161562
 70
0
 42
0.220328
  0
VERTEX
  8
0
 10
1268.435473
 20
1357.652770
 70
0
  0
SEQEND
  0
POLYLINE
  8
0
  6
CONTINUOUS
 62
1
 66
1
 70
2
  0
VERTEX
  8
0
 10
1265.787464
 20
1365.122836
 70
0
 42
-0.179121
  0
VERTEX
  8
0
 10
1267.122125
 20
1364.632779
 70
0
 42
-0.189055
  0
VERTEX
  8
0
 10
1267.775473
 20
1363.412770
 70
0
  0
SEQEND
  0
POLYLINE
  8
0
  6
CONTINUOUS
 62
1
 66
1
 70
2
  0
VERTEX
  8
0
 10
1272.811592
 20
1365.122836
 70
0
 42
0.207373
  0
VERTEX
  8
0
 10
1271.322068
 20
1364.484111
 70
0
 42
0.220328
  0
VERTEX
  8
0
 10
1270.823583
 20
1362.992903
 70
0
  0
SEQEND
  0
POLYLINE
  8
0
  6
CONTINUOUS
 62
1
 66
1
 70
2
  0
VERTEX
  8
0
 10
1271.483583
 20
1357.232903
 70
0
 42
0.189055
  0
VERTEX
  8
0
 10
1272.136931
 20
1356.012894
 70
0
 42
0.179121
  0
VERTEX
  8
0
 10
1273.471592
 20
1355.522836
 70
0
  0
SEQEND
  0
POLYLINE
  8
0
  6
CONTINUOUS
 62
1
 66
1
 70
2
  0
VERTEX
  8
0
 10
1287.687464
 20
1355.522836
 70
0
 42
0.179121
  0
VERTEX
  8
0
 10
1289.022125
 20
1356.012894
 70
0
 42
0.189055
  0
VERTEX
  8
0
 10
1289.675473
 20
1357.232903
 70
0
  0
SEQEND
  0
POLYLINE
  8
0
  6
CONTINUOUS
 62
1
 66
1
 70
2
  0
VERTEX
  8
0
 10
1290.335473
 20
1362.992903
 70
0
 42
0.220328
  0
VERTEX
  8
0
 10
1289.836988
 20
1364.484111
 70
0
 42
0.207373
  0
VERTEX
  8
0
 10
1288.347464
 20
1365.122836
 70
0
  0
SEQEND
  0
LINE
  8
0
  6
CONTINUOUS
 62
1
 10
1331.487464
 20
1355.522836
 11
1317.271592
 21
1355.522836
  0
LINE
  8
0
  6
CONTINUOUS
 62
1
 10
1295.371592
 20
1365.122836
 11
1309.587464
 21
1365.122836
  0
LINE
  8
0
  6
CONTINUOUS
 62
1
 10
1316.611592
 20
1365.122836
 11
1332.147464
 21
1365.122836
  0
LINE
  8
0
  6
CONTINUOUS
 62
1
 10
1315.283583
 20
1357.232903
 11
1314.623583
 21
1362.992903
  0
LINE
  8
0
  6
CONTINUOUS
 62
1
 10
1333.475473
 20
1357.232903
 11
1334.135473
 21
1362.992903
  0
LINE
  8
0
  6
CONTINUOUS
 62
1
 10
1293.383583
 20
1363.412770
 11
1292.723583
 21
1357.652770
  0
LINE
  8
0
  6
CONTINUOUS
 62
1
 10
1311.575473
 20
1363.412770
 11
1312.235473
 21
1357.652770
  0
LINE
  8
0
  6
CONTINUOUS
 62
1
 10
1310.247464
 20
1355.522836
 11
1294.711592
 21
1355.522836
  0
POLYLINE
  8
0
  6
CONTINUOUS
 62
1
 66
1
 70
2
  0
VERTEX
  8
0
 10
1295.371592
 20
1365.122836
 70
0
 42
0.179121
  0
VERTEX
  8
0
 10
1294.036931
 20
1364.632779
 70
0
 42
0.189055
  0
VERTEX
  8
0
 10
1293.383583
 20
1363.412770
 70
0
  0
SEQEND
  0
POLYLINE
  8
0
  6
CONTINUOUS
 62
1
 66
1
 70
2
  0
VERTEX
  8
0
 10
1292.723583
 20
1357.652770
 70
0
 42
0.220328
  0
VERTEX
  8
0
 10
1293.222068
 20
1356.161562
 70
0
 42
0.207373
  0
VERTEX
  8
0
 10
1294.711592
 20
1355.522836
 70
0
  0
SEQEND
  0
POLYLINE
  8
0
  6
CONTINUOUS
 62
1
 66
1
 70
2
  0
VERTEX
  8
0
 10
1310.247464
 20
1355.522836
 70
0
 42
0.207373
  0
VERTEX
  8
0
 10
1311.736988
 20
1356.161562
 70
0
 42
0.220328
  0
VERTEX
  8
0
 10
1312.235473
 20
1357.652770
 70
0
  0
SEQEND
  0
POLYLINE
  8
0
  6
CONTINUOUS
 62
1
 66
1
 70
2
  0
VERTEX
  8
0
 10
1309.587464
 20
1365.122836
 70
0
 42
-0.179121
  0
VERTEX
  8
0
 10
1310.922125
 20
1364.632779
 70
0
 42
-0.189055
  0
VERTEX
  8
0
 10
1311.575473
 20
1363.412770
 70
0
  0
SEQEND
  0
POLYLINE
  8
0
  6
CONTINUOUS
 62
1
 66
1
 70
2
  0
VERTEX
  8
0
 10
1316.611592
 20
1365.122836
 70
0
 42
0.207373
  0
VERTEX
  8
0
 10
1315.122068
 20
1364.484111
 70
0
 42
0.220328
  0
VERTEX
  8
0
 10
1314.623583
 20
1362.992903
 70
0
  0
SEQEND
  0
POLYLINE
  8
0
  6
CONTINUOUS
 62
1
 66
1
 70
2
  0
VERTEX
  8
0
 10
1315.283583
 20
1357.232903
 70
0
 42
0.189055
  0
VERTEX
  8
0
 10
1315.936931
 20
1356.012894
 70
0
 42
0.179121
  0
VERTEX
  8
0
 10
1317.271592
 20
1355.522836
 70
0
  0
SEQEND
  0
POLYLINE
  8
0
  6
CONTINUOUS
 62
1
 66
1
 70
2
  0
VERTEX
  8
0
 10
1331.487464
 20
1355.522836
 70
0
 42
0.179121
  0
VERTEX
  8
0
 10
1332.822125
 20
1356.012894
 70
0
 42
0.189055
  0
VERTEX
  8
0
 10
1333.475473
 20
1357.232903
 70
0
  0
SEQEND
  0
POLYLINE
  8
0
  6
CONTINUOUS
 62
1
 66
1
 70
2
  0
VERTEX
  8
0
 10
1334.135473
 20
1362.992903
 70
0
 42
0.220328
  0
VERTEX
  8
0
 10
1333.636988
 20
1364.484111
 70
0
 42
0.207373
  0
VERTEX
  8
0
 10
1332.147464
 20
1365.122836
 70
0
  0
SEQEND
  0
LINE
  8
0
  6
CONTINUOUS
 62
1
 10
1375.287464
 20
1355.522836
 11
1361.071592
 21
1355.522836
  0
LINE
  8
0
  6
CONTINUOUS
 62
1
 10
1339.171592
 20
1365.122836
 11
1353.387464
 21
1365.122836
  0
LINE
  8
0
  6
CONTINUOUS
 62
1
 10
1360.411592
 20
1365.122836
 11
1375.947464
 21
1365.122836
  0
LINE
  8
0
  6
CONTINUOUS
 62
1
 10
1359.083583
 20
1357.232903
 11
1358.423583
 21
1362.992903
  0
LINE
  8
0
  6
CONTINUOUS
 62
1
 10
1377.275473
 20
1357.232903
 11
1377.935473
 21
1362.992903
  0
LINE
  8
0
  6
CONTINUOUS
 62
1
 10
1337.183583
 20
1363.412770
 11
1336.523583
 21
1357.652770
  0
LINE
  8
0
  6
CONTINUOUS
 62
1
 10
1355.375473
 20
1363.412770
 11
1356.035473
 21
1357.652770
  0
LINE
  8
0
  6
CONTINUOUS
 62
1
 10
1354.047464
 20
1355.522836
 11
1338.511592
 21
1355.522836
  0
POLYLINE
  8
0
  6
CONTINUOUS
 62
1
 66
1
 70
2
  0
VERTEX
  8
0
 10
1339.171592
 20
1365.122836
 70
0
 42
0.179121
  0
VERTEX
  8
0
 10
1337.836931
 20
1364.632779
 70
0
 42
0.189055
  0
VERTEX
  8
0
 10
1337.183583
 20
1363.412770
 70
0
  0
SEQEND
  0
POLYLINE
  8
0
  6
CONTINUOUS
 62
1
 66
1
 70
2
  0
VERTEX
  8
0
 10
1336.523583
 20
1357.652770
 70
0
 42
0.220328
  0
VERTEX
  8
0
 10
1337.022068
 20
1356.161562
 70
0
 42
0.207373
  0
VERTEX
  8
0
 10
1338.511592
 20
1355.522836
 70
0
  0
SEQEND
  0
POLYLINE
  8
0
  6
CONTINUOUS
 62
1
 66
1
 70
2
  0
VERTEX
  8
0
 10
1354.047464
 20
1355.522836
 70
0
 42
0.207373
  0
VERTEX
  8
0
 10
1355.536988
 20
1356.161562
 70
0
 42
0.220328
  0
VERTEX
  8
0
 10
1356.035473
 20
1357.652770
 70
0
  0
SEQEND
  0
POLYLINE
  8
0
  6
CONTINUOUS
 62
1
 66
1
 70
2
  0
VERTEX
  8
0
 10
1353.387464
 20
1365.122836
 70
0
 42
-0.179121
  0
VERTEX
  8
0
 10
1354.722125
 20
1364.632779
 70
0
 42
-0.189055
  0
VERTEX
  8
0
 10
1355.375473
 20
1363.412770
 70
0
  0
SEQEND
  0
POLYLINE
  8
0
  6
CONTINUOUS
 62
1
 66
1
 70
2
  0
VERTEX
  8
0
 10
1360.411592
 20
1365.122836
 70
0
 42
0.207373
  0
VERTEX
  8
0
 10
1358.922068
 20
1364.484111
 70
0
 42
0.220328
  0
VERTEX
  8
0
 10
1358.423583
 20
1362.992903
 70
0
  0
SEQEND
  0
POLYLINE
  8
0
  6
CONTINUOUS
 62
1
 66
1
 70
2
  0
VERTEX
  8
0
 10
1359.083583
 20
1357.232903
 70
0
 42
0.189055
  0
VERTEX
  8
0
 10
1359.736931
 20
1356.012894
 70
0
 42
0.179121
  0
VERTEX
  8
0
 10
1361.071592
 20
1355.522836
 70
0
  0
SEQEND
  0
POLYLINE
  8
0
  6
CONTINUOUS
 62
1
 66
1
 70
2
  0
VERTEX
  8
0
 10
1375.287464
 20
1355.522836
 70
0
 42
0.179121
  0
VERTEX
  8
0
 10
1376.622125
 20
1356.012894
 70
0
 42
0.189055
  0
VERTEX
  8
0
 10
1377.275473
 20
1357.232903
 70
0
  0
SEQEND
  0
POLYLINE
  8
0
  6
CONTINUOUS
 62
1
 66
1
 70
2
  0
VERTEX
  8
0
 10
1377.935473
 20
1362.992903
 70
0
 42
0.220328
  0
VERTEX
  8
0
 10
1377.436988
 20
1364.484111
 70
0
 42
0.207373
  0
VERTEX
  8
0
 10
1375.947464
 20
1365.122836
 70
0
  0
SEQEND
  0
LINE
  8
0
  6
CONTINUOUS
 62
1
 10
1419.087464
 20
1355.522836
 11
1404.871592
 21
1355.522836
  0
LINE
  8
0
  6
CONTINUOUS
 62
1
 10
1382.971592
 20
1365.122836
 11
1397.187464
 21
1365.122836
  0
LINE
  8
0
  6
CONTINUOUS
 62
1
 10
1404.211592
 20
1365.122836
 11
1419.747464
 21
1365.122836
  0
LINE
  8
0
  6
CONTINUOUS
 62
1
 10
1402.883583
 20
1357.232903
 11
1402.223583
 21
1362.992903
  0
LINE
  8
0
  6
CONTINUOUS
 62
1
 10
1421.075473
 20
1357.232903
 11
1421.735473
 21
1362.992903
  0
LINE
  8
0
  6
CONTINUOUS
 62
1
 10
1380.983583
 20
1363.412770
 11
1380.323583
 21
1357.652770
  0
LINE
  8
0
  6
CONTINUOUS
 62
1
 10
1399.175473
 20
1363.412770
 11
1399.835473
 21
1357.652770
  0
LINE
  8
0
  6
CONTINUOUS
 62
1
 10
1397.847464
 20
1355.522836
 11
1382.311592
 21
1355.522836
  0
POLYLINE
  8
0
  6
CONTINUOUS
 62
1
 66
1
 70
2
  0
VERTEX
  8
0
 10
1382.971592
 20
1365.122836
 70
0
 42
0.179121
  0
VERTEX
  8
0
 10
1381.636931
 20
1364.632779
 70
0
 42
0.189055
  0
VERTEX
  8
0
 10
1380.983583
 20
1363.412770
 70
0
  0
SEQEND
  0
POLYLINE
  8
0
  6
CONTINUOUS
 62
1
 66
1
 70
2
  0
VERTEX
  8
0
 10
1380.323583
 20
1357.652770
 70
0
 42
0.220328
  0
VERTEX
  8
0
 10
1380.822068
 20
1356.161562
 70
0
 42
0.207373
  0
VERTEX
  8
0
 10
1382.311592
 20
1355.522836
 70
0
  0
SEQEND
  0
POLYLINE
  8
0
  6
CONTINUOUS
 62
1
 66
1
 70
2
  0
VERTEX
  8
0
 10
1397.847464
 20
1355.522836
 70
0
 42
0.207373
  0
VERTEX
  8
0
 10
1399.336988
 20
1356.161562
 70
0
 42
0.220328
  0
VERTEX
  8
0
 10
1399.835473
 20
1357.652770
 70
0
  0
SEQEND
  0
POLYLINE
  8
0
  6
CONTINUOUS
 62
1
 66
1
 70
2
  0
VERTEX
  8
0
 10
1397.187464
 20
1365.122836
 70
0
 42
-0.179121
  0
VERTEX
  8
0
 10
1398.522125
 20
1364.632779
 70
0
 42
-0.189055
  0
VERTEX
  8
0
 10
1399.175473
 20
1363.412770
 70
0
  0
SEQEND
  0
POLYLINE
  8
0
  6
CONTINUOUS
 62
1
 66
1
 70
2
  0
VERTEX
  8
0
 10
1404.211592
 20
1365.122836
 70
0
 42
0.207373
  0
VERTEX
  8
0
 10
1402.722068
 20
1364.484111
 70
0
 42
0.220328
  0
VERTEX
  8
0
 10
1402.223583
 20
1362.992903
 70
0
  0
SEQEND
  0
POLYLINE
  8
0
  6
CONTINUOUS
 62
1
 66
1
 70
2
  0
VERTEX
  8
0
 10
1402.883583
 20
1357.232903
 70
0
 42
0.189055
  0
VERTEX
  8
0
 10
1403.536931
 20
1356.012894
 70
0
 42
0.179121
  0
VERTEX
  8
0
 10
1404.871592
 20
1355.522836
 70
0
  0
SEQEND
  0
POLYLINE
  8
0
  6
CONTINUOUS
 62
1
 66
1
 70
2
  0
VERTEX
  8
0
 10
1419.087464
 20
1355.522836
 70
0
 42
0.179121
  0
VERTEX
  8
0
 10
1420.422125
 20
1356.012894
 70
0
 42
0.189055
  0
VERTEX
  8
0
 10
1421.075473
 20
1357.232903
 70
0
  0
SEQEND
  0
POLYLINE
  8
0
  6
CONTINUOUS
 62
1
 66
1
 70
2
  0
VERTEX
  8
0
 10
1421.735473
 20
1362.992903
 70
0
 42
0.220328
  0
VERTEX
  8
0
 10
1421.236988
 20
1364.484111
 70
0
 42
0.207373
  0
VERTEX
  8
0
 10
1419.747464
 20
1365.122836
 70
0
  0
SEQEND
  0
LINE
  8
0
  6
CONTINUOUS
 62
1
 10
1462.887464
 20
1355.522836
 11
1448.671592
 21
1355.522836
  0
LINE
  8
0
  6
CONTINUOUS
 62
1
 10
1426.771592
 20
1365.122836
 11
1440.987464
 21
1365.122836
  0
LINE
  8
0
  6
CONTINUOUS
 62
1
 10
1448.011592
 20
1365.122836
 11
1463.547464
 21
1365.122836
  0
LINE
  8
0
  6
CONTINUOUS
 62
1
 10
1446.683583
 20
1357.232903
 11
1446.023583
 21
1362.992903
  0
LINE
  8
0
  6
CONTINUOUS
 62
1
 10
1464.875473
 20
1357.232903
 11
1465.535473
 21
1362.992903
  0
LINE
  8
0
  6
CONTINUOUS
 62
1
 10
1424.783583
 20
1363.412770
 11
1424.123583
 21
1357.652770
  0
LINE
  8
0
  6
CONTINUOUS
 62
1
 10
1442.975473
 20
1363.412770
 11
1443.635473
 21
1357.652770
  0
LINE
  8
0
  6
CONTINUOUS
 62
1
 10
1441.647464
 20
1355.522836
 11
1426.111592
 21
1355.522836
  0
POLYLINE
  8
0
  6
CONTINUOUS
 62
1
 66
1
 70
2
  0
VERTEX
  8
0
 10
1426.771592
 20
1365.122836
 70
0
 42
0.179121
  0
VERTEX
  8
0
 10
1425.436931
 20
1364.632779
 70
0
 42
0.189055
  0
VERTEX
  8
0
 10
1424.783583
 20
1363.412770
 70
0
  0
SEQEND
  0
POLYLINE
  8
0
  6
CONTINUOUS
 62
1
 66
1
 70
2
  0
VERTEX
  8
0
 10
1424.123583
 20
1357.652770
 70
0
 42
0.220328
  0
VERTEX
  8
0
 10
1424.622068
 20
1356.161562
 70
0
 42
0.207373
  0
VERTEX
  8
0
 10
1426.111592
 20
1355.522836
 70
0
  0
SEQEND
  0
POLYLINE
  8
0
  6
CONTINUOUS
 62
1
 66
1
 70
2
  0
VERTEX
  8
0
 10
1441.647464
 20
1355.522836
 70
0
 42
0.207373
  0
VERTEX
  8
0
 10
1443.136988
 20
1356.161562
 70
0
 42
0.220328
  0
VERTEX
  8
0
 10
1443.635473
 20
1357.652770
 70
0
  0
SEQEND
  0
POLYLINE
  8
0
  6
CONTINUOUS
 62
1
 66
1
 70
2
  0
VERTEX
  8
0
 10
1440.987464
 20
1365.122836
 70
0
 42
-0.179121
  0
VERTEX
  8
0
 10
1442.322125
 20
1364.632779
 70
0
 42
-0.189055
  0
VERTEX
  8
0
 10
1442.975473
 20
1363.412770
 70
0
  0
SEQEND
  0
POLYLINE
  8
0
  6
CONTINUOUS
 62
1
 66
1
 70
2
  0
VERTEX
  8
0
 10
1448.011592
 20
1365.122836
 70
0
 42
0.207373
  0
VERTEX
  8
0
 10
1446.522068
 20
1364.484111
 70
0
 42
0.220328
  0
VERTEX
  8
0
 10
1446.023583
 20
1362.992903
 70
0
  0
SEQEND
  0
POLYLINE
  8
0
  6
CONTINUOUS
 62
1
 66
1
 70
2
  0
VERTEX
  8
0
 10
1446.683583
 20
1357.232903
 70
0
 42
0.189055
  0
VERTEX
  8
0
 10
1447.336931
 20
1356.012894
 70
0
 42
0.179121
  0
VERTEX
  8
0
 10
1448.671592
 20
1355.522836
 70
0
  0
SEQEND
  0
POLYLINE
  8
0
  6
CONTINUOUS
 62
1
 66
1
 70
2
  0
VERTEX
  8
0
 10
1462.887464
 20
1355.522836
 70
0
 42
0.179121
  0
VERTEX
  8
0
 10
1464.222125
 20
1356.012894
 70
0
 42
0.189055
  0
VERTEX
  8
0
 10
1464.875473
 20
1357.232903
 70
0
  0
SEQEND
  0
POLYLINE
  8
0
  6
CONTINUOUS
 62
1
 66
1
 70
2
  0
VERTEX
  8
0
 10
1465.535473
 20
1362.992903
 70
0
 42
0.220328
  0
VERTEX
  8
0
 10
1465.036988
 20
1364.484111
 70
0
 42
0.207373
  0
VERTEX
  8
0
 10
1463.547464
 20
1365.122836
 70
0
  0
SEQEND
  0
LINE
  8
0
  6
CONTINUOUS
 62
1
 10
1506.687464
 20
1355.522836
 11
1492.471592
 21
1355.522836
  0
LINE
  8
0
  6
CONTINUOUS
 62
1
 10
1470.571592
 20
1365.122836
 11
1484.787464
 21
1365.122836
  0
LINE
  8
0
  6
CONTINUOUS
 62
1
 10
1491.811592
 20
1365.122836
 11
1507.347464
 21
1365.122836
  0
LINE
  8
0
  6
CONTINUOUS
 62
1
 10
1490.483583
 20
1357.232903
 11
1489.823583
 21
1362.992903
  0
LINE
  8
0
  6
CONTINUOUS
 62
1
 10
1508.675473
 20
1357.232903
 11
1509.335473
 21
1362.992903
  0
LINE
  8
0
  6
CONTINUOUS
 62
1
 10
1468.583583
 20
1363.412770
 11
1467.923583
 21
1357.652770
  0
LINE
  8
0
  6
CONTINUOUS
 62
1
 10
1486.775473
 20
1363.412770
 11
1487.435473
 21
1357.652770
  0
LINE
  8
0
  6
CONTINUOUS
 62
1
 10
1485.447464
 20
1355.522836
 11
1469.911592
 21
1355.522836
  0
POLYLINE
  8
0
  6
CONTINUOUS
 62
1
 66
1
 70
2
  0
VERTEX
  8
0
 10
1470.571592
 20
1365.122836
 70
0
 42
0.179121
  0
VERTEX
  8
0
 10
1469.236931
 20
1364.632779
 70
0
 42
0.189055
  0
VERTEX
  8
0
 10
1468.583583
 20
1363.412770
 70
0
  0
SEQEND
  0
POLYLINE
  8
0
  6
CONTINUOUS
 62
1
 66
1
 70
2
  0
VERTEX
  8
0
 10
1467.923583
 20
1357.652770
 70
0
 42
0.220328
  0
VERTEX
  8
0
 10
1468.422068
 20
1356.161562
 70
0
 42
0.207373
  0
VERTEX
  8
0
 10
1469.911592
 20
1355.522836
 70
0
  0
SEQEND
  0
POLYLINE
  8
0
  6
CONTINUOUS
 62
1
 66
1
 70
2
  0
VERTEX
  8
0
 10
1485.447464
 20
1355.522836
 70
0
 42
0.207373
  0
VERTEX
  8
0
 10
1486.936988
 20
1356.161562
 70
0
 42
0.220328
  0
VERTEX
  8
0
 10
1487.435473
 20
1357.652770
 70
0
  0
SEQEND
  0
POLYLINE
  8
0
  6
CONTINUOUS
 62
1
 66
1
 70
2
  0
VERTEX
  8
0
 10
1484.787464
 20
1365.122836
 70
0
 42
-0.179121
  0
VERTEX
  8
0
 10
1486.122125
 20
1364.632779
 70
0
 42
-0.189055
  0
VERTEX
  8
0
 10
1486.775473
 20
1363.412770
 70
0
  0
SEQEND
  0
POLYLINE
  8
0
  6
CONTINUOUS
 62
1
 66
1
 70
2
  0
VERTEX
  8
0
 10
1491.811592
 20
1365.122836
 70
0
 42
0.207373
  0
VERTEX
  8
0
 10
1490.322068
 20
1364.484111
 70
0
 42
0.220328
  0
VERTEX
  8
0
 10
1489.823583
 20
1362.992903
 70
0
  0
SEQEND
  0
POLYLINE
  8
0
  6
CONTINUOUS
 62
1
 66
1
 70
2
  0
VERTEX
  8
0
 10
1490.483583
 20
1357.232903
 70
0
 42
0.189055
  0
VERTEX
  8
0
 10
1491.136931
 20
1356.012894
 70
0
 42
0.179121
  0
VERTEX
  8
0
 10
1492.471592
 20
1355.522836
 70
0
  0
SEQEND
  0
POLYLINE
  8
0
  6
CONTINUOUS
 62
1
 66
1
 70
2
  0
VERTEX
  8
0
 10
1506.687464
 20
1355.522836
 70
0
 42
0.179121
  0
VERTEX
  8
0
 10
1508.022125
 20
1356.012894
 70
0
 42
0.189055
  0
VERTEX
  8
0
 10
1508.675473
 20
1357.232903
 70
0
  0
SEQEND
  0
POLYLINE
  8
0
  6
CONTINUOUS
 62
1
 66
1
 70
2
  0
VERTEX
  8
0
 10
1509.335473
 20
1362.992903
 70
0
 42
0.220328
  0
VERTEX
  8
0
 10
1508.836988
 20
1364.484111
 70
0
 42
0.207373
  0
VERTEX
  8
0
 10
1507.347464
 20
1365.122836
 70
0
  0
SEQEND
  0
LINE
  8
0
  6
CONTINUOUS
 62
1
 10
1514.371592
 20
1365.122836
 11
1528.587464
 21
1365.122836
  0
LINE
  8
0
  6
CONTINUOUS
 62
1
 10
1512.383583
 20
1363.412770
 11
1511.723583
 21
1357.652770
  0
LINE
  8
0
  6
CONTINUOUS
 62
1
 10
1530.575473
 20
1363.412770
 11
1531.235473
 21
1357.652770
  0
LINE
  8
0
  6
CONTINUOUS
 62
1
 10
1529.247464
 20
1355.522836
 11
1513.711592
 21
1355.522836
  0
POLYLINE
  8
0
  6
CONTINUOUS
 62
1
 66
1
 70
2
  0
VERTEX
  8
0
 10
1514.371592
 20
1365.122836
 70
0
 42
0.179121
  0
VERTEX
  8
0
 10
1513.036931
 20
1364.632779
 70
0
 42
0.189055
  0
VERTEX
  8
0
 10
1512.383583
 20
1363.412770
 70
0
  0
SEQEND
  0
POLYLINE
  8
0
  6
CONTINUOUS
 62
1
 66
1
 70
2
  0
VERTEX
  8
0
 10
1511.723583
 20
1357.652770
 70
0
 42
0.220328
  0
VERTEX
  8
0
 10
1512.222068
 20
1356.161562
 70
0
 42
0.207373
  0
VERTEX
  8
0
 10
1513.711592
 20
1355.522836
 70
0
  0
SEQEND
  0
POLYLINE
  8
0
  6
CONTINUOUS
 62
1
 66
1
 70
2
  0
VERTEX
  8
0
 10
1529.247464
 20
1355.522836
 70
0
 42
0.207373
  0
VERTEX
  8
0
 10
1530.736988
 20
1356.161562
 70
0
 42
0.220328
  0
VERTEX
  8
0
 10
1531.235473
 20
1357.652770
 70
0
  0
SEQEND
  0
POLYLINE
  8
0
  6
CONTINUOUS
 62
1
 66
1
 70
2
  0
VERTEX
  8
0
 10
1528.587464
 20
1365.122836
 70
0
 42
-0.179121
  0
VERTEX
  8
0
 10
1529.922125
 20
1364.632779
 70
0
 42
-0.189055
  0
VERTEX
  8
0
 10
1530.575473
 20
1363.412770
 70
0
  0
SEQEND
  0
LINE
  8
0
  6
CONTINUOUS
 62
1
 10
1561.403936
 20
1343.042836
 11
1547.188063
 21
1343.042836
  0
LINE
  8
0
  6
CONTINUOUS
 62
1
 10
1541.491944
 20
1350.932770
 11
1542.151944
 21
1345.172770
  0
LINE
  8
0
  6
CONTINUOUS
 62
1
 10
1523.300054
 20
1350.932770
 11
1522.640054
 21
1345.172770
  0
LINE
  8
0
  6
CONTINUOUS
 62
1
 10
1563.391944
 20
1344.752903
 11
1564.051944
 21
1350.512903
  0
LINE
  8
0
  6
CONTINUOUS
 62
1
 10
1546.528063
 20
1352.642836
 11
1562.063936
 21
1352.642836
  0
LINE
  8
0
  6
CONTINUOUS
 62
1
 10
1525.288063
 20
1352.642836
 11
1539.503936
 21
1352.642836
  0
POLYLINE
  8
0
  6
CONTINUOUS
 62
1
 66
1
 70
2
  0
VERTEX
  8
0
 10
1563.391944
 20
1344.752903
 70
0
 42
-0.189055
  0
VERTEX
  8
0
 10
1562.738596
 20
1343.532894
 70
0
 42
-0.179121
  0
VERTEX
  8
0
 10
1561.403936
 20
1343.042836
 70
0
  0
SEQEND
  0
POLYLINE
  8
0
  6
CONTINUOUS
 62
1
 66
1
 70
2
  0
VERTEX
  8
0
 10
1547.188063
 20
1343.042836
 70
0
 42
-0.179121
  0
VERTEX
  8
0
 10
1545.853402
 20
1343.532894
 70
0
 42
-0.189055
  0
VERTEX
  8
0
 10
1545.200054
 20
1344.752903
 70
0
  0
SEQEND
  0
POLYLINE
  8
0
  6
CONTINUOUS
 62
1
 66
1
 70
2
  0
VERTEX
  8
0
 10
1544.540054
 20
1350.512903
 70
0
 42
-0.220328
  0
VERTEX
  8
0
 10
1545.038539
 20
1352.004111
 70
0
 42
-0.207373
  0
VERTEX
  8
0
 10
1546.528063
 20
1352.642836
 70
0
  0
SEQEND
  0
POLYLINE
  8
0
  6
CONTINUOUS
 62
1
 66
1
 70
2
  0
VERTEX
  8
0
 10
1562.063936
 20
1352.642836
 70
0
 42
-0.207373
  0
VERTEX
  8
0
 10
1563.553459
 20
1352.004111
 70
0
 42
-0.220328
  0
VERTEX
  8
0
 10
1564.051944
 20
1350.512903
 70
0
  0
SEQEND
  0
POLYLINE
  8
0
  6
CONTINUOUS
 62
1
 66
1
 70
2
  0
VERTEX
  8
0
 10
1540.163936
 20
1343.042836
 70
0
 42
0.207373
  0
VERTEX
  8
0
 10
1541.653459
 20
1343.681562
 70
0
 42
0.220328
  0
VERTEX
  8
0
 10
1542.151944
 20
1345.172770
 70
0
  0
SEQEND
  0
POLYLINE
  8
0
  6
CONTINUOUS
 62
1
 66
1
 70
2
  0
VERTEX
  8
0
 10
1541.491944
 20
1350.932770
 70
0
 42
0.189055
  0
VERTEX
  8
0
 10
1540.838596
 20
1352.152779
 70
0
 42
0.179121
  0
VERTEX
  8
0
 10
1539.503936
 20
1352.642836
 70
0
  0
SEQEND
  0
POLYLINE
  8
0
  6
CONTINUOUS
 62
1
 66
1
 70
2
  0
VERTEX
  8
0
 10
1525.288063
 20
1352.642836
 70
0
 42
0.179121
  0
VERTEX
  8
0
 10
1523.953402
 20
1352.152779
 70
0
 42
0.189055
  0
VERTEX
  8
0
 10
1523.300054
 20
1350.932770
 70
0
  0
SEQEND
  0
POLYLINE
  8
0
  6
CONTINUOUS
 62
1
 66
1
 70
2
  0
VERTEX
  8
0
 10
1522.640054
 20
1345.172770
 70
0
 42
0.220328
  0
VERTEX
  8
0
 10
1523.138539
 20
1343.681562
 70
0
 42
0.207373
  0
VERTEX
  8
0
 10
1524.628063
 20
1343.042836
 70
0
  0
SEQEND
  0
LINE
  8
0
  6
CONTINUOUS
 62
1
 10
1545.200054
 20
1344.752903
 11
1544.540054
 21
1350.512903
  0
LINE
  8
0
  6
CONTINUOUS
 62
1
 10
1540.163936
 20
1343.042836
 11
1524.628063
 21
1343.042836
  0
LINE
  8
0
  6
CONTINUOUS
 62
1
 10
1550.487464
 20
1355.522836
 11
1536.271592
 21
1355.522836
  0
LINE
  8
0
  6
CONTINUOUS
 62
1
 10
1535.611592
 20
1365.122836
 11
1551.147464
 21
1365.122836
  0
LINE
  8
0
  6
CONTINUOUS
 62
1
 10
1534.283583
 20
1357.232903
 11
1533.623583
 21
1362.992903
  0
LINE
  8
0
  6
CONTINUOUS
 62
1
 10
1552.475473
 20
1357.232903
 11
1553.135473
 21
1362.992903
  0
POLYLINE
  8
0
  6
CONTINUOUS
 62
1
 66
1
 70
2
  0
VERTEX
  8
0
 10
1535.611592
 20
1365.122836
 70
0
 42
0.207373
  0
VERTEX
  8
0
 10
1534.122068
 20
1364.484111
 70
0
 42
0.220328
  0
VERTEX
  8
0
 10
1533.623583
 20
1362.992903
 70
0
  0
SEQEND
  0
POLYLINE
  8
0
  6
CONTINUOUS
 62
1
 66
1
 70
2
  0
VERTEX
  8
0
 10
1534.283583
 20
1357.232903
 70
0
 42
0.189055
  0
VERTEX
  8
0
 10
1534.936931
 20
1356.012894
 70
0
 42
0.179121
  0
VERTEX
  8
0
 10
1536.271592
 20
1355.522836
 70
0
  0
SEQEND
  0
POLYLINE
  8
0
  6
CONTINUOUS
 62
1
 66
1
 70
2
  0
VERTEX
  8
0
 10
1550.487464
 20
1355.522836
 70
0
 42
0.179121
  0
VERTEX
  8
0
 10
1551.822125
 20
1356.012894
 70
0
 42
0.189055
  0
VERTEX
  8
0
 10
1552.475473
 20
1357.232903
 70
0
  0
SEQEND
  0
POLYLINE
  8
0
  6
CONTINUOUS
 62
1
 66
1
 70
2
  0
VERTEX
  8
0
 10
1553.135473
 20
1362.992903
 70
0
 42
0.220328
  0
VERTEX
  8
0
 10
1552.636988
 20
1364.484111
 70
0
 42
0.207373
  0
VERTEX
  8
0
 10
1551.147464
 20
1365.122836
 70
0
  0
SEQEND
  0
LINE
  8
0
  6
CONTINUOUS
 62
1
 10
1558.171592
 20
1365.122836
 11
1572.387464
 21
1365.122836
  0
LINE
  8
0
  6
CONTINUOUS
 62
1
 10
1556.183583
 20
1363.412770
 11
1555.523583
 21
1357.652770
  0
LINE
  8
0
  6
CONTINUOUS
 62
1
 10
1574.375473
 20
1363.412770
 11
1575.035473
 21
1357.652770
  0
LINE
  8
0
  6
CONTINUOUS
 62
1
 10
1573.047464
 20
1355.522836
 11
1557.511592
 21
1355.522836
  0
POLYLINE
  8
0
  6
CONTINUOUS
 62
1
 66
1
 70
2
  0
VERTEX
  8
0
 10
1558.171592
 20
1365.122836
 70
0
 42
0.179121
  0
VERTEX
  8
0
 10
1556.836931
 20
1364.632779
 70
0
 42
0.189055
  0
VERTEX
  8
0
 10
1556.183583
 20
1363.412770
 70
0
  0
SEQEND
  0
POLYLINE
  8
0
  6
CONTINUOUS
 62
1
 66
1
 70
2
  0
VERTEX
  8
0
 10
1555.523583
 20
1357.652770
 70
0
 42
0.220328
  0
VERTEX
  8
0
 10
1556.022068
 20
1356.161562
 70
0
 42
0.207373
  0
VERTEX
  8
0
 10
1557.511592
 20
1355.522836
 70
0
  0
SEQEND
  0
POLYLINE
  8
0
  6
CONTINUOUS
 62
1
 66
1
 70
2
  0
VERTEX
  8
0
 10
1573.047464
 20
1355.522836
 70
0
 42
0.207373
  0
VERTEX
  8
0
 10
1574.536988
 20
1356.161562
 70
0
 42
0.220328
  0
VERTEX
  8
0
 10
1575.035473
 20
1357.652770
 70
0
  0
SEQEND
  0
POLYLINE
  8
0
  6
CONTINUOUS
 62
1
 66
1
 70
2
  0
VERTEX
  8
0
 10
1572.387464
 20
1365.122836
 70
0
 42
-0.179121
  0
VERTEX
  8
0
 10
1573.722125
 20
1364.632779
 70
0
 42
-0.189055
  0
VERTEX
  8
0
 10
1574.375473
 20
1363.412770
 70
0
  0
SEQEND
  0
LINE
  8
0
  6
CONTINUOUS
 62
1
 10
1585.291944
 20
1350.932770
 11
1585.951944
 21
1345.172770
  0
LINE
  8
0
  6
CONTINUOUS
 62
1
 10
1567.100054
 20
1350.932770
 11
1566.440054
 21
1345.172770
  0
LINE
  8
0
  6
CONTINUOUS
 62
1
 10
1569.088063
 20
1352.642836
 11
1583.303936
 21
1352.642836
  0
POLYLINE
  8
0
  6
CONTINUOUS
 62
1
 66
1
 70
2
  0
VERTEX
  8
0
 10
1583.963936
 20
1343.042836
 70
0
 42
0.207373
  0
VERTEX
  8
0
 10
1585.453459
 20
1343.681562
 70
0
 42
0.220328
  0
VERTEX
  8
0
 10
1585.951944
 20
1345.172770
 70
0
  0
SEQEND
  0
POLYLINE
  8
0
  6
CONTINUOUS
 62
1
 66
1
 70
2
  0
VERTEX
  8
0
 10
1585.291944
 20
1350.932770
 70
0
 42
0.189055
  0
VERTEX
  8
0
 10
1584.638596
 20
1352.152779
 70
0
 42
0.179121
  0
VERTEX
  8
0
 10
1583.303936
 20
1352.642836
 70
0
  0
SEQEND
  0
POLYLINE
  8
0
  6
CONTINUOUS
 62
1
 66
1
 70
2
  0
VERTEX
  8
0
 10
1569.088063
 20
1352.642836
 70
0
 42
0.179121
  0
VERTEX
  8
0
 10
1567.753402
 20
1352.152779
 70
0
 42
0.189055
  0
VERTEX
  8
0
 10
1567.100054
 20
1350.932770
 70
0
  0
SEQEND
  0
POLYLINE
  8
0
  6
CONTINUOUS
 62
1
 66
1
 70
2
  0
VERTEX
  8
0
 10
1566.440054
 20
1345.172770
 70
0
 42
0.220328
  0
VERTEX
  8
0
 10
1566.938539
 20
1343.681562
 70
0
 42
0.207373
  0
VERTEX
  8
0
 10
1568.428063
 20
1343.042836
 70
0
  0
SEQEND
  0
LINE
  8
0
  6
CONTINUOUS
 62
1
 10
1583.963936
 20
1343.042836
 11
1568.428063
 21
1343.042836
  0
LINE
  8
0
  6
CONTINUOUS
 62
1
 10
922.411592
 20
1365.122836
 11
937.947464
 21
1365.122836
  0
LINE
  8
0
  6
CONTINUOUS
 62
1
 10
944.971592
 20
1365.122836
 11
959.187464
 21
1365.122836
  0
LINE
  8
0
  6
CONTINUOUS
 62
1
 10
921.083583
 20
1357.232903
 11
920.423583
 21
1362.992903
  0
LINE
  8
0
  6
CONTINUOUS
 62
1
 10
939.275473
 20
1357.232903
 11
939.935473
 21
1362.992903
  0
LINE
  8
0
  6
CONTINUOUS
 62
1
 10
942.983583
 20
1363.412770
 11
942.323583
 21
1357.652770
  0
LINE
  8
0
  6
CONTINUOUS
 62
1
 10
961.175473
 20
1363.412770
 11
961.835473
 21
1357.652770
  0
LINE
  8
0
  6
CONTINUOUS
 62
1
 10
937.287464
 20
1355.522836
 11
923.071592
 21
1355.522836
  0
LINE
  8
0
  6
CONTINUOUS
 62
1
 10
959.847464
 20
1355.522836
 11
944.311592
 21
1355.522836
  0
POLYLINE
  8
0
  6
CONTINUOUS
 62
1
 66
1
 70
2
  0
VERTEX
  8
0
 10
922.411592
 20
1365.122836
 70
0
 42
0.207373
  0
VERTEX
  8
0
 10
920.922068
 20
1364.484111
 70
0
 42
0.220328
  0
VERTEX
  8
0
 10
920.423583
 20
1362.992903
 70
0
  0
SEQEND
  0
POLYLINE
  8
0
  6
CONTINUOUS
 62
1
 66
1
 70
2
  0
VERTEX
  8
0
 10
921.083583
 20
1357.232903
 70
0
 42
0.189055
  0
VERTEX
  8
0
 10
921.736931
 20
1356.012894
 70
0
 42
0.179121
  0
VERTEX
  8
0
 10
923.071592
 20
1355.522836
 70
0
  0
SEQEND
  0
POLYLINE
  8
0
  6
CONTINUOUS
 62
1
 66
1
 70
2
  0
VERTEX
  8
0
 10
937.287464
 20
1355.522836
 70
0
 42
0.179121
  0
VERTEX
  8
0
 10
938.622125
 20
1356.012894
 70
0
 42
0.189055
  0
VERTEX
  8
0
 10
939.275473
 20
1357.232903
 70
0
  0
SEQEND
  0
POLYLINE
  8
0
  6
CONTINUOUS
 62
1
 66
1
 70
2
  0
VERTEX
  8
0
 10
939.935473
 20
1362.992903
 70
0
 42
0.220328
  0
VERTEX
  8
0
 10
939.436988
 20
1364.484111
 70
0
 42
0.207373
  0
VERTEX
  8
0
 10
937.947464
 20
1365.122836
 70
0
  0
SEQEND
  0
POLYLINE
  8
0
  6
CONTINUOUS
 62
1
 66
1
 70
2
  0
VERTEX
  8
0
 10
942.983583
 20
1363.412770
 70
0
 42
-0.189055
  0
VERTEX
  8
0
 10
943.636931
 20
1364.632779
 70
0
 42
-0.179121
  0
VERTEX
  8
0
 10
944.971592
 20
1365.122836
 70
0
  0
SEQEND
  0
POLYLINE
  8
0
  6
CONTINUOUS
 62
1
 66
1
 70
2
  0
VERTEX
  8
0
 10
959.187464
 20
1365.122836
 70
0
 42
-0.179121
  0
VERTEX
  8
0
 10
960.522125
 20
1364.632779
 70
0
 42
-0.189055
  0
VERTEX
  8
0
 10
961.175473
 20
1363.412770
 70
0
  0
SEQEND
  0
POLYLINE
  8
0
  6
CONTINUOUS
 62
1
 66
1
 70
2
  0
VERTEX
  8
0
 10
961.835473
 20
1357.652770
 70
0
 42
-0.220328
  0
VERTEX
  8
0
 10
961.336988
 20
1356.161562
 70
0
 42
-0.207373
  0
VERTEX
  8
0
 10
959.847464
 20
1355.522836
 70
0
  0
SEQEND
  0
POLYLINE
  8
0
  6
CONTINUOUS
 62
1
 66
1
 70
2
  0
VERTEX
  8
0
 10
944.311592
 20
1355.522836
 70
0
 42
-0.207373
  0
VERTEX
  8
0
 10
942.822068
 20
1356.161562
 70
0
 42
-0.220328
  0
VERTEX
  8
0
 10
942.323583
 20
1357.652770
 70
0
  0
SEQEND
  0
LINE
  8
0
  6
CONTINUOUS
 62
1
 10
889.561592
 20
1352.642836
 11
905.097464
 21
1352.642836
  0
LINE
  8
0
  6
CONTINUOUS
 62
1
 10
912.121592
 20
1352.642836
 11
926.337464
 21
1352.642836
  0
LINE
  8
0
  6
CONTINUOUS
 62
1
 10
888.233583
 20
1344.752903
 11
887.573583
 21
1350.512903
  0
LINE
  8
0
  6
CONTINUOUS
 62
1
 10
906.425473
 20
1344.752903
 11
907.085473
 21
1350.512903
  0
LINE
  8
0
  6
CONTINUOUS
 62
1
 10
910.133583
 20
1350.932770
 11
909.473583
 21
1345.172770
  0
LINE
  8
0
  6
CONTINUOUS
 62
1
 10
928.325473
 20
1350.932770
 11
928.985473
 21
1345.172770
  0
LINE
  8
0
  6
CONTINUOUS
 62
1
 10
904.437464
 20
1343.042836
 11
890.221592
 21
1343.042836
  0
LINE
  8
0
  6
CONTINUOUS
 62
1
 10
926.997464
 20
1343.042836
 11
911.461592
 21
1343.042836
  0
POLYLINE
  8
0
  6
CONTINUOUS
 62
1
 66
1
 70
2
  0
VERTEX
  8
0
 10
889.561592
 20
1352.642836
 70
0
 42
0.207373
  0
VERTEX
  8
0
 10
888.072068
 20
1352.004111
 70
0
 42
0.220328
  0
VERTEX
  8
0
 10
887.573583
 20
1350.512903
 70
0
  0
SEQEND
  0
POLYLINE
  8
0
  6
CONTINUOUS
 62
1
 66
1
 70
2
  0
VERTEX
  8
0
 10
888.233583
 20
1344.752903
 70
0
 42
0.189055
  0
VERTEX
  8
0
 10
888.886931
 20
1343.532894
 70
0
 42
0.179121
  0
VERTEX
  8
0
 10
890.221592
 20
1343.042836
 70
0
  0
SEQEND
  0
POLYLINE
  8
0
  6
CONTINUOUS
 62
1
 66
1
 70
2
  0
VERTEX
  8
0
 10
904.437464
 20
1343.042836
 70
0
 42
0.179121
  0
VERTEX
  8
0
 10
905.772125
 20
1343.532894
 70
0
 42
0.189055
  0
VERTEX
  8
0
 10
906.425473
 20
1344.752903
 70
0
  0
SEQEND
  0
POLYLINE
  8
0
  6
CONTINUOUS
 62
1
 66
1
 70
2
  0
VERTEX
  8
0
 10
907.085473
 20
1350.512903
 70
0
 42
0.220328
  0
VERTEX
  8
0
 10
906.586988
 20
1352.004111
 70
0
 42
0.207373
  0
VERTEX
  8
0
 10
905.097464
 20
1352.642836
 70
0
  0
SEQEND
  0
POLYLINE
  8
0
  6
CONTINUOUS
 62
1
 66
1
 70
2
  0
VERTEX
  8
0
 10
910.133583
 20
1350.932770
 70
0
 42
-0.189055
  0
VERTEX
  8
0
 10
910.786931
 20
1352.152779
 70
0
 42
-0.179121
  0
VERTEX
  8
0
 10
912.121592
 20
1352.642836
 70
0
  0
SEQEND
  0
POLYLINE
  8
0
  6
CONTINUOUS
 62
1
 66
1
 70
2
  0
VERTEX
  8
0
 10
926.337464
 20
1352.642836
 70
0
 42
-0.179121
  0
VERTEX
  8
0
 10
927.672125
 20
1352.152779
 70
0
 42
-0.189055
  0
VERTEX
  8
0
 10
928.325473
 20
1350.932770
 70
0
  0
SEQEND
  0
POLYLINE
  8
0
  6
CONTINUOUS
 62
1
 66
1
 70
2
  0
VERTEX
  8
0
 10
928.985473
 20
1345.172770
 70
0
 42
-0.220328
  0
VERTEX
  8
0
 10
928.486988
 20
1343.681562
 70
0
 42
-0.207373
  0
VERTEX
  8
0
 10
926.997464
 20
1343.042836
 70
0
  0
SEQEND
  0
POLYLINE
  8
0
  6
CONTINUOUS
 62
1
 66
1
 70
2
  0
VERTEX
  8
0
 10
911.461592
 20
1343.042836
 70
0
 42
-0.207373
  0
VERTEX
  8
0
 10
909.972068
 20
1343.681562
 70
0
 42
-0.220328
  0
VERTEX
  8
0
 10
909.473583
 20
1345.172770
 70
0
  0
SEQEND
  0
LINE
  8
0
  6
CONTINUOUS
 62
1
 10
868.321592
 20
1352.642836
 11
882.537464
 21
1352.642836
  0
LINE
  8
0
  6
CONTINUOUS
 62
1
 10
866.333583
 20
1350.932770
 11
865.673583
 21
1345.172770
  0
LINE
  8
0
  6
CONTINUOUS
 62
1
 10
884.525473
 20
1350.932770
 11
885.185473
 21
1345.172770
  0
LINE
  8
0
  6
CONTINUOUS
 62
1
 10
883.197464
 20
1343.042836
 11
867.661592
 21
1343.042836
  0
POLYLINE
  8
0
  6
CONTINUOUS
 62
1
 66
1
 70
2
  0
VERTEX
  8
0
 10
866.333583
 20
1350.932770
 70
0
 42
-0.189055
  0
VERTEX
  8
0
 10
866.986931
 20
1352.152779
 70
0
 42
-0.179121
  0
VERTEX
  8
0
 10
868.321592
 20
1352.642836
 70
0
  0
SEQEND
  0
POLYLINE
  8
0
  6
CONTINUOUS
 62
1
 66
1
 70
2
  0
VERTEX
  8
0
 10
882.537464
 20
1352.642836
 70
0
 42
-0.179121
  0
VERTEX
  8
0
 10
883.872125
 20
1352.152779
 70
0
 42
-0.189055
  0
VERTEX
  8
0
 10
884.525473
 20
1350.932770
 70
0
  0
SEQEND
  0
POLYLINE
  8
0
  6
CONTINUOUS
 62
1
 66
1
 70
2
  0
VERTEX
  8
0
 10
885.185473
 20
1345.172770
 70
0
 42
-0.220328
  0
VERTEX
  8
0
 10
884.686988
 20
1343.681562
 70
0
 42
-0.207373
  0
VERTEX
  8
0
 10
883.197464
 20
1343.042836
 70
0
  0
SEQEND
  0
POLYLINE
  8
0
  6
CONTINUOUS
 62
1
 66
1
 70
2
  0
VERTEX
  8
0
 10
867.661592
 20
1343.042836
 70
0
 42
-0.207373
  0
VERTEX
  8
0
 10
866.172068
 20
1343.681562
 70
0
 42
-0.220328
  0
VERTEX
  8
0
 10
865.673583
 20
1345.172770
 70
0
  0
SEQEND
  0
LINE
  8
0
  6
CONTINUOUS
 62
1
 10
1200.087464
 20
1330.562836
 11
1185.871592
 21
1330.562836
  0
LINE
  8
0
  6
CONTINUOUS
 62
1
 10
1163.971592
 20
1340.162836
 11
1178.187464
 21
1340.162836
  0
LINE
  8
0
  6
CONTINUOUS
 62
1
 10
1185.211592
 20
1340.162836
 11
1200.747464
 21
1340.162836
  0
LINE
  8
0
  6
CONTINUOUS
 62
1
 10
1183.883583
 20
1332.272903
 11
1183.223583
 21
1338.032903
  0
LINE
  8
0
  6
CONTINUOUS
 62
1
 10
1202.075473
 20
1332.272903
 11
1202.735473
 21
1338.032903
  0
LINE
  8
0
  6
CONTINUOUS
 62
1
 10
1161.983583
 20
1338.452770
 11
1161.323583
 21
1332.692770
  0
LINE
  8
0
  6
CONTINUOUS
 62
1
 10
1180.175473
 20
1338.452770
 11
1180.835473
 21
1332.692770
  0
LINE
  8
0
  6
CONTINUOUS
 62
1
 10
1178.847464
 20
1330.562836
 11
1163.311592
 21
1330.562836
  0
POLYLINE
  8
0
  6
CONTINUOUS
 62
1
 66
1
 70
2
  0
VERTEX
  8
0
 10
1163.971592
 20
1340.162836
 70
0
 42
0.179121
  0
VERTEX
  8
0
 10
1162.636931
 20
1339.672779
 70
0
 42
0.189055
  0
VERTEX
  8
0
 10
1161.983583
 20
1338.452770
 70
0
  0
SEQEND
  0
POLYLINE
  8
0
  6
CONTINUOUS
 62
1
 66
1
 70
2
  0
VERTEX
  8
0
 10
1161.323583
 20
1332.692770
 70
0
 42
0.220328
  0
VERTEX
  8
0
 10
1161.822068
 20
1331.201562
 70
0
 42
0.207373
  0
VERTEX
  8
0
 10
1163.311592
 20
1330.562836
 70
0
  0
SEQEND
  0
POLYLINE
  8
0
  6
CONTINUOUS
 62
1
 66
1
 70
2
  0
VERTEX
  8
0
 10
1178.847464
 20
1330.562836
 70
0
 42
0.207373
  0
VERTEX
  8
0
 10
1180.336988
 20
1331.201562
 70
0
 42
0.220328
  0
VERTEX
  8
0
 10
1180.835473
 20
1332.692770
 70
0
  0
SEQEND
  0
POLYLINE
  8
0
  6
CONTINUOUS
 62
1
 66
1
 70
2
  0
VERTEX
  8
0
 10
1178.187464
 20
1340.162836
 70
0
 42
-0.179121
  0
VERTEX
  8
0
 10
1179.522125
 20
1339.672779
 70
0
 42
-0.189055
  0
VERTEX
  8
0
 10
1180.175473
 20
1338.452770
 70
0
  0
SEQEND
  0
POLYLINE
  8
0
  6
CONTINUOUS
 62
1
 66
1
 70
2
  0
VERTEX
  8
0
 10
1185.211592
 20
1340.162836
 70
0
 42
0.207373
  0
VERTEX
  8
0
 10
1183.722068
 20
1339.524111
 70
0
 42
0.220328
  0
VERTEX
  8
0
 10
1183.223583
 20
1338.032903
 70
0
  0
SEQEND
  0
POLYLINE
  8
0
  6
CONTINUOUS
 62
1
 66
1
 70
2
  0
VERTEX
  8
0
 10
1183.883583
 20
1332.272903
 70
0
 42
0.189055
  0
VERTEX
  8
0
 10
1184.536931
 20
1331.052894
 70
0
 42
0.179121
  0
VERTEX
  8
0
 10
1185.871592
 20
1330.562836
 70
0
  0
SEQEND
  0
POLYLINE
  8
0
  6
CONTINUOUS
 62
1
 66
1
 70
2
  0
VERTEX
  8
0
 10
1200.087464
 20
1330.562836
 70
0
 42
0.179121
  0
VERTEX
  8
0
 10
1201.422125
 20
1331.052894
 70
0
 42
0.189055
  0
VERTEX
  8
0
 10
1202.075473
 20
1332.272903
 70
0
  0
SEQEND
  0
POLYLINE
  8
0
  6
CONTINUOUS
 62
1
 66
1
 70
2
  0
VERTEX
  8
0
 10
1202.735473
 20
1338.032903
 70
0
 42
0.220328
  0
VERTEX
  8
0
 10
1202.236988
 20
1339.524111
 70
0
 42
0.207373
  0
VERTEX
  8
0
 10
1200.747464
 20
1340.162836
 70
0
  0
SEQEND
  0
LINE
  8
0
  6
CONTINUOUS
 62
1
 10
1243.887464
 20
1330.562836
 11
1229.671592
 21
1330.562836
  0
LINE
  8
0
  6
CONTINUOUS
 62
1
 10
1207.771592
 20
1340.162836
 11
1221.987464
 21
1340.162836
  0
LINE
  8
0
  6
CONTINUOUS
 62
1
 10
1229.011592
 20
1340.162836
 11
1244.547464
 21
1340.162836
  0
LINE
  8
0
  6
CONTINUOUS
 62
1
 10
1227.683583
 20
1332.272903
 11
1227.023583
 21
1338.032903
  0
LINE
  8
0
  6
CONTINUOUS
 62
1
 10
1245.875473
 20
1332.272903
 11
1246.535473
 21
1338.032903
  0
LINE
  8
0
  6
CONTINUOUS
 62
1
 10
1205.783583
 20
1338.452770
 11
1205.123583
 21
1332.692770
  0
LINE
  8
0
  6
CONTINUOUS
 62
1
 10
1223.975473
 20
1338.452770
 11
1224.635473
 21
1332.692770
  0
LINE
  8
0
  6
CONTINUOUS
 62
1
 10
1222.647464
 20
1330.562836
 11
1207.111592
 21
1330.562836
  0
POLYLINE
  8
0
  6
CONTINUOUS
 62
1
 66
1
 70
2
  0
VERTEX
  8
0
 10
1207.771592
 20
1340.162836
 70
0
 42
0.179121
  0
VERTEX
  8
0
 10
1206.436931
 20
1339.672779
 70
0
 42
0.189055
  0
VERTEX
  8
0
 10
1205.783583
 20
1338.452770
 70
0
  0
SEQEND
  0
POLYLINE
  8
0
  6
CONTINUOUS
 62
1
 66
1
 70
2
  0
VERTEX
  8
0
 10
1205.123583
 20
1332.692770
 70
0
 42
0.220328
  0
VERTEX
  8
0
 10
1205.622068
 20
1331.201562
 70
0
 42
0.207373
  0
VERTEX
  8
0
 10
1207.111592
 20
1330.562836
 70
0
  0
SEQEND
  0
POLYLINE
  8
0
  6
CONTINUOUS
 62
1
 66
1
 70
2
  0
VERTEX
  8
0
 10
1222.647464
 20
1330.562836
 70
0
 42
0.207373
  0
VERTEX
  8
0
 10
1224.136988
 20
1331.201562
 70
0
 42
0.220328
  0
VERTEX
  8
0
 10
1224.635473
 20
1332.692770
 70
0
  0
SEQEND
  0
POLYLINE
  8
0
  6
CONTINUOUS
 62
1
 66
1
 70
2
  0
VERTEX
  8
0
 10
1221.987464
 20
1340.162836
 70
0
 42
-0.179121
  0
VERTEX
  8
0
 10
1223.322125
 20
1339.672779
 70
0
 42
-0.189055
  0
VERTEX
  8
0
 10
1223.975473
 20
1338.452770
 70
0
  0
SEQEND
  0
POLYLINE
  8
0
  6
CONTINUOUS
 62
1
 66
1
 70
2
  0
VERTEX
  8
0
 10
1229.011592
 20
1340.162836
 70
0
 42
0.207373
  0
VERTEX
  8
0
 10
1227.522068
 20
1339.524111
 70
0
 42
0.220328
  0
VERTEX
  8
0
 10
1227.023583
 20
1338.032903
 70
0
  0
SEQEND
  0
POLYLINE
  8
0
  6
CONTINUOUS
 62
1
 66
1
 70
2
  0
VERTEX
  8
0
 10
1227.683583
 20
1332.272903
 70
0
 42
0.189055
  0
VERTEX
  8
0
 10
1228.336931
 20
1331.052894
 70
0
 42
0.179121
  0
VERTEX
  8
0
 10
1229.671592
 20
1330.562836
 70
0
  0
SEQEND
  0
POLYLINE
  8
0
  6
CONTINUOUS
 62
1
 66
1
 70
2
  0
VERTEX
  8
0
 10
1243.887464
 20
1330.562836
 70
0
 42
0.179121
  0
VERTEX
  8
0
 10
1245.222125
 20
1331.052894
 70
0
 42
0.189055
  0
VERTEX
  8
0
 10
1245.875473
 20
1332.272903
 70
0
  0
SEQEND
  0
POLYLINE
  8
0
  6
CONTINUOUS
 62
1
 66
1
 70
2
  0
VERTEX
  8
0
 10
1246.535473
 20
1338.032903
 70
0
 42
0.220328
  0
VERTEX
  8
0
 10
1246.036988
 20
1339.524111
 70
0
 42
0.207373
  0
VERTEX
  8
0
 10
1244.547464
 20
1340.162836
 70
0
  0
SEQEND
  0
LINE
  8
0
  6
CONTINUOUS
 62
1
 10
878.611592
 20
1340.162836
 11
894.147464
 21
1340.162836
  0
LINE
  8
0
  6
CONTINUOUS
 62
1
 10
1156.287464
 20
1330.562836
 11
1142.071592
 21
1330.562836
  0
LINE
  8
0
  6
CONTINUOUS
 62
1
 10
877.283583
 20
1332.272903
 11
876.623583
 21
1338.032903
  0
LINE
  8
0
  6
CONTINUOUS
 62
1
 10
895.475473
 20
1332.272903
 11
896.135473
 21
1338.032903
  0
LINE
  8
0
  6
CONTINUOUS
 62
1
 10
966.211592
 20
1340.162836
 11
981.747464
 21
1340.162836
  0
LINE
  8
0
  6
CONTINUOUS
 62
1
 10
988.771592
 20
1340.162836
 11
1002.987464
 21
1340.162836
  0
LINE
  8
0
  6
CONTINUOUS
 62
1
 10
1010.011592
 20
1340.162836
 11
1025.547464
 21
1340.162836
  0
LINE
  8
0
  6
CONTINUOUS
 62
1
 10
1032.571592
 20
1340.162836
 11
1046.787464
 21
1340.162836
  0
LINE
  8
0
  6
CONTINUOUS
 62
1
 10
1053.811592
 20
1340.162836
 11
1069.347464
 21
1340.162836
  0
LINE
  8
0
  6
CONTINUOUS
 62
1
 10
1076.371592
 20
1340.162836
 11
1090.587464
 21
1340.162836
  0
LINE
  8
0
  6
CONTINUOUS
 62
1
 10
1097.611592
 20
1340.162836
 11
1113.147464
 21
1340.162836
  0
LINE
  8
0
  6
CONTINUOUS
 62
1
 10
1120.171592
 20
1340.162836
 11
1134.387464
 21
1340.162836
  0
LINE
  8
0
  6
CONTINUOUS
 62
1
 10
1141.411592
 20
1340.162836
 11
1156.947464
 21
1340.162836
  0
LINE
  8
0
  6
CONTINUOUS
 62
1
 10
964.883583
 20
1332.272903
 11
964.223583
 21
1338.032903
  0
LINE
  8
0
  6
CONTINUOUS
 62
1
 10
1008.683583
 20
1332.272903
 11
1008.023583
 21
1338.032903
  0
LINE
  8
0
  6
CONTINUOUS
 62
1
 10
1052.483583
 20
1332.272903
 11
1051.823583
 21
1338.032903
  0
LINE
  8
0
  6
CONTINUOUS
 62
1
 10
1096.283583
 20
1332.272903
 11
1095.623583
 21
1338.032903
  0
LINE
  8
0
  6
CONTINUOUS
 62
1
 10
1140.083583
 20
1332.272903
 11
1139.423583
 21
1338.032903
  0
LINE
  8
0
  6
CONTINUOUS
 62
1
 10
983.075473
 20
1332.272903
 11
983.735473
 21
1338.032903
  0
LINE
  8
0
  6
CONTINUOUS
 62
1
 10
1026.875473
 20
1332.272903
 11
1027.535473
 21
1338.032903
  0
LINE
  8
0
  6
CONTINUOUS
 62
1
 10
1070.675473
 20
1332.272903
 11
1071.335473
 21
1338.032903
  0
LINE
  8
0
  6
CONTINUOUS
 62
1
 10
1114.475473
 20
1332.272903
 11
1115.135473
 21
1338.032903
  0
LINE
  8
0
  6
CONTINUOUS
 62
1
 10
1158.275473
 20
1332.272903
 11
1158.935473
 21
1338.032903
  0
LINE
  8
0
  6
CONTINUOUS
 62
1
 10
917.375473
 20
1338.452770
 11
918.035473
 21
1332.692770
  0
LINE
  8
0
  6
CONTINUOUS
 62
1
 10
986.783583
 20
1338.452770
 11
986.123583
 21
1332.692770
  0
LINE
  8
0
  6
CONTINUOUS
 62
1
 10
1004.975473
 20
1338.452770
 11
1005.635473
 21
1332.692770
  0
LINE
  8
0
  6
CONTINUOUS
 62
1
 10
1030.583583
 20
1338.452770
 11
1029.923583
 21
1332.692770
  0
LINE
  8
0
  6
CONTINUOUS
 62
1
 10
1048.775473
 20
1338.452770
 11
1049.435473
 21
1332.692770
  0
LINE
  8
0
  6
CONTINUOUS
 62
1
 10
1074.383583
 20
1338.452770
 11
1073.723583
 21
1332.692770
  0
LINE
  8
0
  6
CONTINUOUS
 62
1
 10
1092.575473
 20
1338.452770
 11
1093.235473
 21
1332.692770
  0
LINE
  8
0
  6
CONTINUOUS
 62
1
 10
1118.183583
 20
1338.452770
 11
1117.523583
 21
1332.692770
  0
LINE
  8
0
  6
CONTINUOUS
 62
1
 10
1136.375473
 20
1338.452770
 11
1137.035473
 21
1332.692770
  0
LINE
  8
0
  6
CONTINUOUS
 62
1
 10
893.487464
 20
1330.562836
 11
879.271592
 21
1330.562836
  0
LINE
  8
0
  6
CONTINUOUS
 62
1
 10
916.047464
 20
1330.562836
 11
900.511592
 21
1330.562836
  0
LINE
  8
0
  6
CONTINUOUS
 62
1
 10
981.087464
 20
1330.562836
 11
966.871592
 21
1330.562836
  0
LINE
  8
0
  6
CONTINUOUS
 62
1
 10
1003.647464
 20
1330.562836
 11
988.111592
 21
1330.562836
  0
LINE
  8
0
  6
CONTINUOUS
 62
1
 10
1024.887464
 20
1330.562836
 11
1010.671592
 21
1330.562836
  0
LINE
  8
0
  6
CONTINUOUS
 62
1
 10
1047.447464
 20
1330.562836
 11
1031.911592
 21
1330.562836
  0
LINE
  8
0
  6
CONTINUOUS
 62
1
 10
1068.687464
 20
1330.562836
 11
1054.471592
 21
1330.562836
  0
LINE
  8
0
  6
CONTINUOUS
 62
1
 10
1091.247464
 20
1330.562836
 11
1075.711592
 21
1330.562836
  0
LINE
  8
0
  6
CONTINUOUS
 62
1
 10
1112.487464
 20
1330.562836
 11
1098.271592
 21
1330.562836
  0
LINE
  8
0
  6
CONTINUOUS
 62
1
 10
1135.047464
 20
1330.562836
 11
1119.511592
 21
1330.562836
  0
POLYLINE
  8
0
  6
CONTINUOUS
 62
1
 66
1
 70
2
  0
VERTEX
  8
0
 10
878.611592
 20
1340.162836
 70
0
 42
0.207373
  0
VERTEX
  8
0
 10
877.122068
 20
1339.524111
 70
0
 42
0.220328
  0
VERTEX
  8
0
 10
876.623583
 20
1338.032903
 70
0
  0
SEQEND
  0
POLYLINE
  8
0
  6
CONTINUOUS
 62
1
 66
1
 70
2
  0
VERTEX
  8
0
 10
877.283583
 20
1332.272903
 70
0
 42
0.189055
  0
VERTEX
  8
0
 10
877.936931
 20
1331.052894
 70
0
 42
0.179121
  0
VERTEX
  8
0
 10
879.271592
 20
1330.562836
 70
0
  0
SEQEND
  0
POLYLINE
  8
0
  6
CONTINUOUS
 62
1
 66
1
 70
2
  0
VERTEX
  8
0
 10
893.487464
 20
1330.562836
 70
0
 42
0.179121
  0
VERTEX
  8
0
 10
894.822125
 20
1331.052894
 70
0
 42
0.189055
  0
VERTEX
  8
0
 10
895.475473
 20
1332.272903
 70
0
  0
SEQEND
  0
POLYLINE
  8
0
  6
CONTINUOUS
 62
1
 66
1
 70
2
  0
VERTEX
  8
0
 10
896.135473
 20
1338.032903
 70
0
 42
0.220328
  0
VERTEX
  8
0
 10
895.636988
 20
1339.524111
 70
0
 42
0.207373
  0
VERTEX
  8
0
 10
894.147464
 20
1340.162836
 70
0
  0
SEQEND
  0
POLYLINE
  8
0
  6
CONTINUOUS
 62
1
 66
1
 70
2
  0
VERTEX
  8
0
 10
899.183583
 20
1338.452770
 70
0
 42
-0.189055
  0
VERTEX
  8
0
 10
899.836931
 20
1339.672779
 70
0
 42
-0.179121
  0
VERTEX
  8
0
 10
901.171592
 20
1340.162836
 70
0
  0
SEQEND
  0
POLYLINE
  8
0
  6
CONTINUOUS
 62
1
 66
1
 70
2
  0
VERTEX
  8
0
 10
915.387464
 20
1340.162836
 70
0
 42
-0.179121
  0
VERTEX
  8
0
 10
916.722125
 20
1339.672779
 70
0
 42
-0.189055
  0
VERTEX
  8
0
 10
917.375473
 20
1338.452770
 70
0
  0
SEQEND
  0
POLYLINE
  8
0
  6
CONTINUOUS
 62
1
 66
1
 70
2
  0
VERTEX
  8
0
 10
918.035473
 20
1332.692770
 70
0
 42
-0.220328
  0
VERTEX
  8
0
 10
917.536988
 20
1331.201562
 70
0
 42
-0.207373
  0
VERTEX
  8
0
 10
916.047464
 20
1330.562836
 70
0
  0
SEQEND
  0
POLYLINE
  8
0
  6
CONTINUOUS
 62
1
 66
1
 70
2
  0
VERTEX
  8
0
 10
900.511592
 20
1330.562836
 70
0
 42
-0.207373
  0
VERTEX
  8
0
 10
899.022068
 20
1331.201562
 70
0
 42
-0.220328
  0
VERTEX
  8
0
 10
898.523583
 20
1332.692770
 70
0
  0
SEQEND
  0
POLYLINE
  8
0
  6
CONTINUOUS
 62
1
 66
1
 70
2
  0
VERTEX
  8
0
 10
966.211592
 20
1340.162836
 70
0
 42
0.207373
  0
VERTEX
  8
0
 10
964.722068
 20
1339.524111
 70
0
 42
0.220328
  0
VERTEX
  8
0
 10
964.223583
 20
1338.032903
 70
0
  0
SEQEND
  0
POLYLINE
  8
0
  6
CONTINUOUS
 62
1
 66
1
 70
2
  0
VERTEX
  8
0
 10
964.883583
 20
1332.272903
 70
0
 42
0.189055
  0
VERTEX
  8
0
 10
965.536931
 20
1331.052894
 70
0
 42
0.179121
  0
VERTEX
  8
0
 10
966.871592
 20
1330.562836
 70
0
  0
SEQEND
  0
POLYLINE
  8
0
  6
CONTINUOUS
 62
1
 66
1
 70
2
  0
VERTEX
  8
0
 10
981.087464
 20
1330.562836
 70
0
 42
0.179121
  0
VERTEX
  8
0
 10
982.422125
 20
1331.052894
 70
0
 42
0.189055
  0
VERTEX
  8
0
 10
983.075473
 20
1332.272903
 70
0
  0
SEQEND
  0
POLYLINE
  8
0
  6
CONTINUOUS
 62
1
 66
1
 70
2
  0
VERTEX
  8
0
 10
983.735473
 20
1338.032903
 70
0
 42
0.220328
  0
VERTEX
  8
0
 10
983.236988
 20
1339.524111
 70
0
 42
0.207373
  0
VERTEX
  8
0
 10
981.747464
 20
1340.162836
 70
0
  0
SEQEND
  0
POLYLINE
  8
0
  6
CONTINUOUS
 62
1
 66
1
 70
2
  0
VERTEX
  8
0
 10
986.783583
 20
1338.452770
 70
0
 42
-0.189055
  0
VERTEX
  8
0
 10
987.436931
 20
1339.672779
 70
0
 42
-0.179121
  0
VERTEX
  8
0
 10
988.771592
 20
1340.162836
 70
0
  0
SEQEND
  0
POLYLINE
  8
0
  6
CONTINUOUS
 62
1
 66
1
 70
2
  0
VERTEX
  8
0
 10
1002.987464
 20
1340.162836
 70
0
 42
-0.179121
  0
VERTEX
  8
0
 10
1004.322125
 20
1339.672779
 70
0
 42
-0.189055
  0
VERTEX
  8
0
 10
1004.975473
 20
1338.452770
 70
0
  0
SEQEND
  0
POLYLINE
  8
0
  6
CONTINUOUS
 62
1
 66
1
 70
2
  0
VERTEX
  8
0
 10
1005.635473
 20
1332.692770
 70
0
 42
-0.220328
  0
VERTEX
  8
0
 10
1005.136988
 20
1331.201562
 70
0
 42
-0.207373
  0
VERTEX
  8
0
 10
1003.647464
 20
1330.562836
 70
0
  0
SEQEND
  0
POLYLINE
  8
0
  6
CONTINUOUS
 62
1
 66
1
 70
2
  0
VERTEX
  8
0
 10
988.111592
 20
1330.562836
 70
0
 42
-0.207373
  0
VERTEX
  8
0
 10
986.622068
 20
1331.201562
 70
0
 42
-0.220328
  0
VERTEX
  8
0
 10
986.123583
 20
1332.692770
 70
0
  0
SEQEND
  0
POLYLINE
  8
0
  6
CONTINUOUS
 62
1
 66
1
 70
2
  0
VERTEX
  8
0
 10
1008.683583
 20
1332.272903
 70
0
 42
0.189055
  0
VERTEX
  8
0
 10
1009.336931
 20
1331.052894
 70
0
 42
0.179121
  0
VERTEX
  8
0
 10
1010.671592
 20
1330.562836
 70
0
  0
SEQEND
  0
POLYLINE
  8
0
  6
CONTINUOUS
 62
1
 66
1
 70
2
  0
VERTEX
  8
0
 10
1024.887464
 20
1330.562836
 70
0
 42
0.179121
  0
VERTEX
  8
0
 10
1026.222125
 20
1331.052894
 70
0
 42
0.189055
  0
VERTEX
  8
0
 10
1026.875473
 20
1332.272903
 70
0
  0
SEQEND
  0
POLYLINE
  8
0
  6
CONTINUOUS
 62
1
 66
1
 70
2
  0
VERTEX
  8
0
 10
1027.535473
 20
1338.032903
 70
0
 42
0.220328
  0
VERTEX
  8
0
 10
1027.036988
 20
1339.524111
 70
0
 42
0.207373
  0
VERTEX
  8
0
 10
1025.547464
 20
1340.162836
 70
0
  0
SEQEND
  0
POLYLINE
  8
0
  6
CONTINUOUS
 62
1
 66
1
 70
2
  0
VERTEX
  8
0
 10
1010.011592
 20
1340.162836
 70
0
 42
0.207373
  0
VERTEX
  8
0
 10
1008.522068
 20
1339.524111
 70
0
 42
0.220328
  0
VERTEX
  8
0
 10
1008.023583
 20
1338.032903
 70
0
  0
SEQEND
  0
POLYLINE
  8
0
  6
CONTINUOUS
 62
1
 66
1
 70
2
  0
VERTEX
  8
0
 10
1032.571592
 20
1340.162836
 70
0
 42
0.179121
  0
VERTEX
  8
0
 10
1031.236931
 20
1339.672779
 70
0
 42
0.189055
  0
VERTEX
  8
0
 10
1030.583583
 20
1338.452770
 70
0
  0
SEQEND
  0
POLYLINE
  8
0
  6
CONTINUOUS
 62
1
 66
1
 70
2
  0
VERTEX
  8
0
 10
1029.923583
 20
1332.692770
 70
0
 42
0.220328
  0
VERTEX
  8
0
 10
1030.422068
 20
1331.201562
 70
0
 42
0.207373
  0
VERTEX
  8
0
 10
1031.911592
 20
1330.562836
 70
0
  0
SEQEND
  0
POLYLINE
  8
0
  6
CONTINUOUS
 62
1
 66
1
 70
2
  0
VERTEX
  8
0
 10
1047.447464
 20
1330.562836
 70
0
 42
0.207373
  0
VERTEX
  8
0
 10
1048.936988
 20
1331.201562
 70
0
 42
0.220328
  0
VERTEX
  8
0
 10
1049.435473
 20
1332.692770
 70
0
  0
SEQEND
  0
POLYLINE
  8
0
  6
CONTINUOUS
 62
1
 66
1
 70
2
  0
VERTEX
  8
0
 10
1048.775473
 20
1338.452770
 70
0
 42
0.189055
  0
VERTEX
  8
0
 10
1048.122125
 20
1339.672779
 70
0
 42
0.179121
  0
VERTEX
  8
0
 10
1046.787464
 20
1340.162836
 70
0
  0
SEQEND
  0
POLYLINE
  8
0
  6
CONTINUOUS
 62
1
 66
1
 70
2
  0
VERTEX
  8
0
 10
1051.823583
 20
1338.032903
 70
0
 42
-0.220328
  0
VERTEX
  8
0
 10
1052.322068
 20
1339.524111
 70
0
 42
-0.207373
  0
VERTEX
  8
0
 10
1053.811592
 20
1340.162836
 70
0
  0
SEQEND
  0
POLYLINE
  8
0
  6
CONTINUOUS
 62
1
 66
1
 70
2
  0
VERTEX
  8
0
 10
1069.347464
 20
1340.162836
 70
0
 42
-0.207373
  0
VERTEX
  8
0
 10
1070.836988
 20
1339.524111
 70
0
 42
-0.220328
  0
VERTEX
  8
0
 10
1071.335473
 20
1338.032903
 70
0
  0
SEQEND
  0
POLYLINE
  8
0
  6
CONTINUOUS
 62
1
 66
1
 70
2
  0
VERTEX
  8
0
 10
1070.675473
 20
1332.272903
 70
0
 42
-0.189055
  0
VERTEX
  8
0
 10
1070.022125
 20
1331.052894
 70
0
 42
-0.179121
  0
VERTEX
  8
0
 10
1068.687464
 20
1330.562836
 70
0
  0
SEQEND
  0
POLYLINE
  8
0
  6
CONTINUOUS
 62
1
 66
1
 70
2
  0
VERTEX
  8
0
 10
1054.471592
 20
1330.562836
 70
0
 42
-0.179121
  0
VERTEX
  8
0
 10
1053.136931
 20
1331.052894
 70
0
 42
-0.189055
  0
VERTEX
  8
0
 10
1052.483583
 20
1332.272903
 70
0
  0
SEQEND
  0
POLYLINE
  8
0
  6
CONTINUOUS
 62
1
 66
1
 70
2
  0
VERTEX
  8
0
 10
1073.723583
 20
1332.692770
 70
0
 42
0.220328
  0
VERTEX
  8
0
 10
1074.222068
 20
1331.201562
 70
0
 42
0.207373
  0
VERTEX
  8
0
 10
1075.711592
 20
1330.562836
 70
0
  0
SEQEND
  0
POLYLINE
  8
0
  6
CONTINUOUS
 62
1
 66
1
 70
2
  0
VERTEX
  8
0
 10
1091.247464
 20
1330.562836
 70
0
 42
0.207373
  0
VERTEX
  8
0
 10
1092.736988
 20
1331.201562
 70
0
 42
0.220328
  0
VERTEX
  8
0
 10
1093.235473
 20
1332.692770
 70
0
  0
SEQEND
  0
POLYLINE
  8
0
  6
CONTINUOUS
 62
1
 66
1
 70
2
  0
VERTEX
  8
0
 10
1092.575473
 20
1338.452770
 70
0
 42
0.189055
  0
VERTEX
  8
0
 10
1091.922125
 20
1339.672779
 70
0
 42
0.179121
  0
VERTEX
  8
0
 10
1090.587464
 20
1340.162836
 70
0
  0
SEQEND
  0
POLYLINE
  8
0
  6
CONTINUOUS
 62
1
 66
1
 70
2
  0
VERTEX
  8
0
 10
1076.371592
 20
1340.162836
 70
0
 42
0.179121
  0
VERTEX
  8
0
 10
1075.036931
 20
1339.672779
 70
0
 42
0.189055
  0
VERTEX
  8
0
 10
1074.383583
 20
1338.452770
 70
0
  0
SEQEND
  0
POLYLINE
  8
0
  6
CONTINUOUS
 62
1
 66
1
 70
2
  0
VERTEX
  8
0
 10
1097.611592
 20
1340.162836
 70
0
 42
0.207373
  0
VERTEX
  8
0
 10
1096.122068
 20
1339.524111
 70
0
 42
0.220328
  0
VERTEX
  8
0
 10
1095.623583
 20
1338.032903
 70
0
  0
SEQEND
  0
POLYLINE
  8
0
  6
CONTINUOUS
 62
1
 66
1
 70
2
  0
VERTEX
  8
0
 10
1096.283583
 20
1332.272903
 70
0
 42
0.189055
  0
VERTEX
  8
0
 10
1096.936931
 20
1331.052894
 70
0
 42
0.179121
  0
VERTEX
  8
0
 10
1098.271592
 20
1330.562836
 70
0
  0
SEQEND
  0
POLYLINE
  8
0
  6
CONTINUOUS
 62
1
 66
1
 70
2
  0
VERTEX
  8
0
 10
1112.487464
 20
1330.562836
 70
0
 42
0.179121
  0
VERTEX
  8
0
 10
1113.822125
 20
1331.052894
 70
0
 42
0.189055
  0
VERTEX
  8
0
 10
1114.475473
 20
1332.272903
 70
0
  0
SEQEND
  0
POLYLINE
  8
0
  6
CONTINUOUS
 62
1
 66
1
 70
2
  0
VERTEX
  8
0
 10
1115.135473
 20
1338.032903
 70
0
 42
0.220328
  0
VERTEX
  8
0
 10
1114.636988
 20
1339.524111
 70
0
 42
0.207373
  0
VERTEX
  8
0
 10
1113.147464
 20
1340.162836
 70
0
  0
SEQEND
  0
POLYLINE
  8
0
  6
CONTINUOUS
 62
1
 66
1
 70
2
  0
VERTEX
  8
0
 10
1120.171592
 20
1340.162836
 70
0
 42
0.179121
  0
VERTEX
  8
0
 10
1118.836931
 20
1339.672779
 70
0
 42
0.189055
  0
VERTEX
  8
0
 10
1118.183583
 20
1338.452770
 70
0
  0
SEQEND
  0
POLYLINE
  8
0
  6
CONTINUOUS
 62
1
 66
1
 70
2
  0
VERTEX
  8
0
 10
1117.523583
 20
1332.692770
 70
0
 42
0.220328
  0
VERTEX
  8
0
 10
1118.022068
 20
1331.201562
 70
0
 42
0.207373
  0
VERTEX
  8
0
 10
1119.511592
 20
1330.562836
 70
0
  0
SEQEND
  0
POLYLINE
  8
0
  6
CONTINUOUS
 62
1
 66
1
 70
2
  0
VERTEX
  8
0
 10
1135.047464
 20
1330.562836
 70
0
 42
0.207373
  0
VERTEX
  8
0
 10
1136.536988
 20
1331.201562
 70
0
 42
0.220328
  0
VERTEX
  8
0
 10
1137.035473
 20
1332.692770
 70
0
  0
SEQEND
  0
POLYLINE
  8
0
  6
CONTINUOUS
 62
1
 66
1
 70
2
  0
VERTEX
  8
0
 10
1134.387464
 20
1340.162836
 70
0
 42
-0.179121
  0
VERTEX
  8
0
 10
1135.722125
 20
1339.672779
 70
0
 42
-0.189055
  0
VERTEX
  8
0
 10
1136.375473
 20
1338.452770
 70
0
  0
SEQEND
  0
POLYLINE
  8
0
  6
CONTINUOUS
 62
1
 66
1
 70
2
  0
VERTEX
  8
0
 10
1141.411592
 20
1340.162836
 70
0
 42
0.207373
  0
VERTEX
  8
0
 10
1139.922068
 20
1339.524111
 70
0
 42
0.220328
  0
VERTEX
  8
0
 10
1139.423583
 20
1338.032903
 70
0
  0
SEQEND
  0
POLYLINE
  8
0
  6
CONTINUOUS
 62
1
 66
1
 70
2
  0
VERTEX
  8
0
 10
1140.083583
 20
1332.272903
 70
0
 42
0.189055
  0
VERTEX
  8
0
 10
1140.736931
 20
1331.052894
 70
0
 42
0.179121
  0
VERTEX
  8
0
 10
1142.071592
 20
1330.562836
 70
0
  0
SEQEND
  0
POLYLINE
  8
0
  6
CONTINUOUS
 62
1
 66
1
 70
2
  0
VERTEX
  8
0
 10
1156.287464
 20
1330.562836
 70
0
 42
0.179121
  0
VERTEX
  8
0
 10
1157.622125
 20
1331.052894
 70
0
 42
0.189055
  0
VERTEX
  8
0
 10
1158.275473
 20
1332.272903
 70
0
  0
SEQEND
  0
POLYLINE
  8
0
  6
CONTINUOUS
 62
1
 66
1
 70
2
  0
VERTEX
  8
0
 10
1158.935473
 20
1338.032903
 70
0
 42
0.220328
  0
VERTEX
  8
0
 10
1158.436988
 20
1339.524111
 70
0
 42
0.207373
  0
VERTEX
  8
0
 10
1156.947464
 20
1340.162836
 70
0
  0
SEQEND
  0
LINE
  8
0
  6
CONTINUOUS
 62
1
 10
899.183583
 20
1338.452770
 11
898.523583
 21
1332.692770
  0
LINE
  8
0
  6
CONTINUOUS
 62
1
 10
901.171592
 20
1340.162836
 11
915.387464
 21
1340.162836
  0
LINE
  8
0
  6
CONTINUOUS
 62
1
 10
1287.687464
 20
1330.562836
 11
1273.471592
 21
1330.562836
  0
LINE
  8
0
  6
CONTINUOUS
 62
1
 10
1251.571592
 20
1340.162836
 11
1265.787464
 21
1340.162836
  0
LINE
  8
0
  6
CONTINUOUS
 62
1
 10
1272.811592
 20
1340.162836
 11
1288.347464
 21
1340.162836
  0
LINE
  8
0
  6
CONTINUOUS
 62
1
 10
1271.483583
 20
1332.272903
 11
1270.823583
 21
1338.032903
  0
LINE
  8
0
  6
CONTINUOUS
 62
1
 10
1289.675473
 20
1332.272903
 11
1290.335473
 21
1338.032903
  0
LINE
  8
0
  6
CONTINUOUS
 62
1
 10
1249.583583
 20
1338.452770
 11
1248.923583
 21
1332.692770
  0
LINE
  8
0
  6
CONTINUOUS
 62
1
 10
1267.775473
 20
1338.452770
 11
1268.435473
 21
1332.692770
  0
LINE
  8
0
  6
CONTINUOUS
 62
1
 10
1266.447464
 20
1330.562836
 11
1250.911592
 21
1330.562836
  0
POLYLINE
  8
0
  6
CONTINUOUS
 62
1
 66
1
 70
2
  0
VERTEX
  8
0
 10
1251.571592
 20
1340.162836
 70
0
 42
0.179121
  0
VERTEX
  8
0
 10
1250.236931
 20
1339.672779
 70
0
 42
0.189055
  0
VERTEX
  8
0
 10
1249.583583
 20
1338.452770
 70
0
  0
SEQEND
  0
POLYLINE
  8
0
  6
CONTINUOUS
 62
1
 66
1
 70
2
  0
VERTEX
  8
0
 10
1248.923583
 20
1332.692770
 70
0
 42
0.220328
  0
VERTEX
  8
0
 10
1249.422068
 20
1331.201562
 70
0
 42
0.207373
  0
VERTEX
  8
0
 10
1250.911592
 20
1330.562836
 70
0
  0
SEQEND
  0
POLYLINE
  8
0
  6
CONTINUOUS
 62
1
 66
1
 70
2
  0
VERTEX
  8
0
 10
1266.447464
 20
1330.562836
 70
0
 42
0.207373
  0
VERTEX
  8
0
 10
1267.936988
 20
1331.201562
 70
0
 42
0.220328
  0
VERTEX
  8
0
 10
1268.435473
 20
1332.692770
 70
0
  0
SEQEND
  0
POLYLINE
  8
0
  6
CONTINUOUS
 62
1
 66
1
 70
2
  0
VERTEX
  8
0
 10
1265.787464
 20
1340.162836
 70
0
 42
-0.179121
  0
VERTEX
  8
0
 10
1267.122125
 20
1339.672779
 70
0
 42
-0.189055
  0
VERTEX
  8
0
 10
1267.775473
 20
1338.452770
 70
0
  0
SEQEND
  0
POLYLINE
  8
0
  6
CONTINUOUS
 62
1
 66
1
 70
2
  0
VERTEX
  8
0
 10
1272.811592
 20
1340.162836
 70
0
 42
0.207373
  0
VERTEX
  8
0
 10
1271.322068
 20
1339.524111
 70
0
 42
0.220328
  0
VERTEX
  8
0
 10
1270.823583
 20
1338.032903
 70
0
  0
SEQEND
  0
POLYLINE
  8
0
  6
CONTINUOUS
 62
1
 66
1
 70
2
  0
VERTEX
  8
0
 10
1271.483583
 20
1332.272903
 70
0
 42
0.189055
  0
VERTEX
  8
0
 10
1272.136931
 20
1331.052894
 70
0
 42
0.179121
  0
VERTEX
  8
0
 10
1273.471592
 20
1330.562836
 70
0
  0
SEQEND
  0
POLYLINE
  8
0
  6
CONTINUOUS
 62
1
 66
1
 70
2
  0
VERTEX
  8
0
 10
1287.687464
 20
1330.562836
 70
0
 42
0.179121
  0
VERTEX
  8
0
 10
1289.022125
 20
1331.052894
 70
0
 42
0.189055
  0
VERTEX
  8
0
 10
1289.675473
 20
1332.272903
 70
0
  0
SEQEND
  0
POLYLINE
  8
0
  6
CONTINUOUS
 62
1
 66
1
 70
2
  0
VERTEX
  8
0
 10
1290.335473
 20
1338.032903
 70
0
 42
0.220328
  0
VERTEX
  8
0
 10
1289.836988
 20
1339.524111
 70
0
 42
0.207373
  0
VERTEX
  8
0
 10
1288.347464
 20
1340.162836
 70
0
  0
SEQEND
  0
LINE
  8
0
  6
CONTINUOUS
 62
1
 10
1331.487464
 20
1330.562836
 11
1317.271592
 21
1330.562836
  0
LINE
  8
0
  6
CONTINUOUS
 62
1
 10
1295.371592
 20
1340.162836
 11
1309.587464
 21
1340.162836
  0
LINE
  8
0
  6
CONTINUOUS
 62
1
 10
1316.611592
 20
1340.162836
 11
1332.147464
 21
1340.162836
  0
LINE
  8
0
  6
CONTINUOUS
 62
1
 10
1315.283583
 20
1332.272903
 11
1314.623583
 21
1338.032903
  0
LINE
  8
0
  6
CONTINUOUS
 62
1
 10
1333.475473
 20
1332.272903
 11
1334.135473
 21
1338.032903
  0
LINE
  8
0
  6
CONTINUOUS
 62
1
 10
1293.383583
 20
1338.452770
 11
1292.723583
 21
1332.692770
  0
LINE
  8
0
  6
CONTINUOUS
 62
1
 10
1311.575473
 20
1338.452770
 11
1312.235473
 21
1332.692770
  0
LINE
  8
0
  6
CONTINUOUS
 62
1
 10
1310.247464
 20
1330.562836
 11
1294.711592
 21
1330.562836
  0
POLYLINE
  8
0
  6
CONTINUOUS
 62
1
 66
1
 70
2
  0
VERTEX
  8
0
 10
1295.371592
 20
1340.162836
 70
0
 42
0.179121
  0
VERTEX
  8
0
 10
1294.036931
 20
1339.672779
 70
0
 42
0.189055
  0
VERTEX
  8
0
 10
1293.383583
 20
1338.452770
 70
0
  0
SEQEND
  0
POLYLINE
  8
0
  6
CONTINUOUS
 62
1
 66
1
 70
2
  0
VERTEX
  8
0
 10
1292.723583
 20
1332.692770
 70
0
 42
0.220328
  0
VERTEX
  8
0
 10
1293.222068
 20
1331.201562
 70
0
 42
0.207373
  0
VERTEX
  8
0
 10
1294.711592
 20
1330.562836
 70
0
  0
SEQEND
  0
POLYLINE
  8
0
  6
CONTINUOUS
 62
1
 66
1
 70
2
  0
VERTEX
  8
0
 10
1310.247464
 20
1330.562836
 70
0
 42
0.207373
  0
VERTEX
  8
0
 10
1311.736988
 20
1331.201562
 70
0
 42
0.220328
  0
VERTEX
  8
0
 10
1312.235473
 20
1332.692770
 70
0
  0
SEQEND
  0
POLYLINE
  8
0
  6
CONTINUOUS
 62
1
 66
1
 70
2
  0
VERTEX
  8
0
 10
1309.587464
 20
1340.162836
 70
0
 42
-0.179121
  0
VERTEX
  8
0
 10
1310.922125
 20
1339.672779
 70
0
 42
-0.189055
  0
VERTEX
  8
0
 10
1311.575473
 20
1338.452770
 70
0
  0
SEQEND
  0
POLYLINE
  8
0
  6
CONTINUOUS
 62
1
 66
1
 70
2
  0
VERTEX
  8
0
 10
1316.611592
 20
1340.162836
 70
0
 42
0.207373
  0
VERTEX
  8
0
 10
1315.122068
 20
1339.524111
 70
0
 42
0.220328
  0
VERTEX
  8
0
 10
1314.623583
 20
1338.032903
 70
0
  0
SEQEND
  0
POLYLINE
  8
0
  6
CONTINUOUS
 62
1
 66
1
 70
2
  0
VERTEX
  8
0
 10
1315.283583
 20
1332.272903
 70
0
 42
0.189055
  0
VERTEX
  8
0
 10
1315.936931
 20
1331.052894
 70
0
 42
0.179121
  0
VERTEX
  8
0
 10
1317.271592
 20
1330.562836
 70
0
  0
SEQEND
  0
POLYLINE
  8
0
  6
CONTINUOUS
 62
1
 66
1
 70
2
  0
VERTEX
  8
0
 10
1331.487464
 20
1330.562836
 70
0
 42
0.179121
  0
VERTEX
  8
0
 10
1332.822125
 20
1331.052894
 70
0
 42
0.189055
  0
VERTEX
  8
0
 10
1333.475473
 20
1332.272903
 70
0
  0
SEQEND
  0
POLYLINE
  8
0
  6
CONTINUOUS
 62
1
 66
1
 70
2
  0
VERTEX
  8
0
 10
1334.135473
 20
1338.032903
 70
0
 42
0.220328
  0
VERTEX
  8
0
 10
1333.636988
 20
1339.524111
 70
0
 42
0.207373
  0
VERTEX
  8
0
 10
1332.147464
 20
1340.162836
 70
0
  0
SEQEND
  0
LINE
  8
0
  6
CONTINUOUS
 62
1
 10
1375.287464
 20
1330.562836
 11
1361.071592
 21
1330.562836
  0
LINE
  8
0
  6
CONTINUOUS
 62
1
 10
1339.171592
 20
1340.162836
 11
1353.387464
 21
1340.162836
  0
LINE
  8
0
  6
CONTINUOUS
 62
1
 10
1360.411592
 20
1340.162836
 11
1375.947464
 21
1340.162836
  0
LINE
  8
0
  6
CONTINUOUS
 62
1
 10
1359.083583
 20
1332.272903
 11
1358.423583
 21
1338.032903
  0
LINE
  8
0
  6
CONTINUOUS
 62
1
 10
1377.275473
 20
1332.272903
 11
1377.935473
 21
1338.032903
  0
LINE
  8
0
  6
CONTINUOUS
 62
1
 10
1337.183583
 20
1338.452770
 11
1336.523583
 21
1332.692770
  0
LINE
  8
0
  6
CONTINUOUS
 62
1
 10
1355.375473
 20
1338.452770
 11
1356.035473
 21
1332.692770
  0
LINE
  8
0
  6
CONTINUOUS
 62
1
 10
1354.047464
 20
1330.562836
 11
1338.511592
 21
1330.562836
  0
POLYLINE
  8
0
  6
CONTINUOUS
 62
1
 66
1
 70
2
  0
VERTEX
  8
0
 10
1339.171592
 20
1340.162836
 70
0
 42
0.179121
  0
VERTEX
  8
0
 10
1337.836931
 20
1339.672779
 70
0
 42
0.189055
  0
VERTEX
  8
0
 10
1337.183583
 20
1338.452770
 70
0
  0
SEQEND
  0
POLYLINE
  8
0
  6
CONTINUOUS
 62
1
 66
1
 70
2
  0
VERTEX
  8
0
 10
1336.523583
 20
1332.692770
 70
0
 42
0.220328
  0
VERTEX
  8
0
 10
1337.022068
 20
1331.201562
 70
0
 42
0.207373
  0
VERTEX
  8
0
 10
1338.511592
 20
1330.562836
 70
0
  0
SEQEND
  0
POLYLINE
  8
0
  6
CONTINUOUS
 62
1
 66
1
 70
2
  0
VERTEX
  8
0
 10
1354.047464
 20
1330.562836
 70
0
 42
0.207373
  0
VERTEX
  8
0
 10
1355.536988
 20
1331.201562
 70
0
 42
0.220328
  0
VERTEX
  8
0
 10
1356.035473
 20
1332.692770
 70
0
  0
SEQEND
  0
POLYLINE
  8
0
  6
CONTINUOUS
 62
1
 66
1
 70
2
  0
VERTEX
  8
0
 10
1353.387464
 20
1340.162836
 70
0
 42
-0.179121
  0
VERTEX
  8
0
 10
1354.722125
 20
1339.672779
 70
0
 42
-0.189055
  0
VERTEX
  8
0
 10
1355.375473
 20
1338.452770
 70
0
  0
SEQEND
  0
POLYLINE
  8
0
  6
CONTINUOUS
 62
1
 66
1
 70
2
  0
VERTEX
  8
0
 10
1360.411592
 20
1340.162836
 70
0
 42
0.207373
  0
VERTEX
  8
0
 10
1358.922068
 20
1339.524111
 70
0
 42
0.220328
  0
VERTEX
  8
0
 10
1358.423583
 20
1338.032903
 70
0
  0
SEQEND
  0
POLYLINE
  8
0
  6
CONTINUOUS
 62
1
 66
1
 70
2
  0
VERTEX
  8
0
 10
1359.083583
 20
1332.272903
 70
0
 42
0.189055
  0
VERTEX
  8
0
 10
1359.736931
 20
1331.052894
 70
0
 42
0.179121
  0
VERTEX
  8
0
 10
1361.071592
 20
1330.562836
 70
0
  0
SEQEND
  0
POLYLINE
  8
0
  6
CONTINUOUS
 62
1
 66
1
 70
2
  0
VERTEX
  8
0
 10
1375.287464
 20
1330.562836
 70
0
 42
0.179121
  0
VERTEX
  8
0
 10
1376.622125
 20
1331.052894
 70
0
 42
0.189055
  0
VERTEX
  8
0
 10
1377.275473
 20
1332.272903
 70
0
  0
SEQEND
  0
POLYLINE
  8
0
  6
CONTINUOUS
 62
1
 66
1
 70
2
  0
VERTEX
  8
0
 10
1377.935473
 20
1338.032903
 70
0
 42
0.220328
  0
VERTEX
  8
0
 10
1377.436988
 20
1339.524111
 70
0
 42
0.207373
  0
VERTEX
  8
0
 10
1375.947464
 20
1340.162836
 70
0
  0
SEQEND
  0
LINE
  8
0
  6
CONTINUOUS
 62
1
 10
1419.087464
 20
1330.562836
 11
1404.871592
 21
1330.562836
  0
LINE
  8
0
  6
CONTINUOUS
 62
1
 10
1382.971592
 20
1340.162836
 11
1397.187464
 21
1340.162836
  0
LINE
  8
0
  6
CONTINUOUS
 62
1
 10
1404.211592
 20
1340.162836
 11
1419.747464
 21
1340.162836
  0
LINE
  8
0
  6
CONTINUOUS
 62
1
 10
1402.883583
 20
1332.272903
 11
1402.223583
 21
1338.032903
  0
LINE
  8
0
  6
CONTINUOUS
 62
1
 10
1421.075473
 20
1332.272903
 11
1421.735473
 21
1338.032903
  0
LINE
  8
0
  6
CONTINUOUS
 62
1
 10
1380.983583
 20
1338.452770
 11
1380.323583
 21
1332.692770
  0
LINE
  8
0
  6
CONTINUOUS
 62
1
 10
1399.175473
 20
1338.452770
 11
1399.835473
 21
1332.692770
  0
LINE
  8
0
  6
CONTINUOUS
 62
1
 10
1397.847464
 20
1330.562836
 11
1382.311592
 21
1330.562836
  0
POLYLINE
  8
0
  6
CONTINUOUS
 62
1
 66
1
 70
2
  0
VERTEX
  8
0
 10
1382.971592
 20
1340.162836
 70
0
 42
0.179121
  0
VERTEX
  8
0
 10
1381.636931
 20
1339.672779
 70
0
 42
0.189055
  0
VERTEX
  8
0
 10
1380.983583
 20
1338.452770
 70
0
  0
SEQEND
  0
POLYLINE
  8
0
  6
CONTINUOUS
 62
1
 66
1
 70
2
  0
VERTEX
  8
0
 10
1380.323583
 20
1332.692770
 70
0
 42
0.220328
  0
VERTEX
  8
0
 10
1380.822068
 20
1331.201562
 70
0
 42
0.207373
  0
VERTEX
  8
0
 10
1382.311592
 20
1330.562836
 70
0
  0
SEQEND
  0
POLYLINE
  8
0
  6
CONTINUOUS
 62
1
 66
1
 70
2
  0
VERTEX
  8
0
 10
1397.847464
 20
1330.562836
 70
0
 42
0.207373
  0
VERTEX
  8
0
 10
1399.336988
 20
1331.201562
 70
0
 42
0.220328
  0
VERTEX
  8
0
 10
1399.835473
 20
1332.692770
 70
0
  0
SEQEND
  0
POLYLINE
  8
0
  6
CONTINUOUS
 62
1
 66
1
 70
2
  0
VERTEX
  8
0
 10
1397.187464
 20
1340.162836
 70
0
 42
-0.179121
  0
VERTEX
  8
0
 10
1398.522125
 20
1339.672779
 70
0
 42
-0.189055
  0
VERTEX
  8
0
 10
1399.175473
 20
1338.452770
 70
0
  0
SEQEND
  0
POLYLINE
  8
0
  6
CONTINUOUS
 62
1
 66
1
 70
2
  0
VERTEX
  8
0
 10
1404.211592
 20
1340.162836
 70
0
 42
0.207373
  0
VERTEX
  8
0
 10
1402.722068
 20
1339.524111
 70
0
 42
0.220328
  0
VERTEX
  8
0
 10
1402.223583
 20
1338.032903
 70
0
  0
SEQEND
  0
POLYLINE
  8
0
  6
CONTINUOUS
 62
1
 66
1
 70
2
  0
VERTEX
  8
0
 10
1402.883583
 20
1332.272903
 70
0
 42
0.189055
  0
VERTEX
  8
0
 10
1403.536931
 20
1331.052894
 70
0
 42
0.179121
  0
VERTEX
  8
0
 10
1404.871592
 20
1330.562836
 70
0
  0
SEQEND
  0
POLYLINE
  8
0
  6
CONTINUOUS
 62
1
 66
1
 70
2
  0
VERTEX
  8
0
 10
1419.087464
 20
1330.562836
 70
0
 42
0.179121
  0
VERTEX
  8
0
 10
1420.422125
 20
1331.052894
 70
0
 42
0.189055
  0
VERTEX
  8
0
 10
1421.075473
 20
1332.272903
 70
0
  0
SEQEND
  0
POLYLINE
  8
0
  6
CONTINUOUS
 62
1
 66
1
 70
2
  0
VERTEX
  8
0
 10
1421.735473
 20
1338.032903
 70
0
 42
0.220328
  0
VERTEX
  8
0
 10
1421.236988
 20
1339.524111
 70
0
 42
0.207373
  0
VERTEX
  8
0
 10
1419.747464
 20
1340.162836
 70
0
  0
SEQEND
  0
LINE
  8
0
  6
CONTINUOUS
 62
1
 10
1462.887464
 20
1330.562836
 11
1448.671592
 21
1330.562836
  0
LINE
  8
0
  6
CONTINUOUS
 62
1
 10
1426.771592
 20
1340.162836
 11
1440.987464
 21
1340.162836
  0
LINE
  8
0
  6
CONTINUOUS
 62
1
 10
1448.011592
 20
1340.162836
 11
1463.547464
 21
1340.162836
  0
LINE
  8
0
  6
CONTINUOUS
 62
1
 10
1446.683583
 20
1332.272903
 11
1446.023583
 21
1338.032903
  0
LINE
  8
0
  6
CONTINUOUS
 62
1
 10
1464.875473
 20
1332.272903
 11
1465.535473
 21
1338.032903
  0
LINE
  8
0
  6
CONTINUOUS
 62
1
 10
1424.783583
 20
1338.452770
 11
1424.123583
 21
1332.692770
  0
LINE
  8
0
  6
CONTINUOUS
 62
1
 10
1442.975473
 20
1338.452770
 11
1443.635473
 21
1332.692770
  0
LINE
  8
0
  6
CONTINUOUS
 62
1
 10
1441.647464
 20
1330.562836
 11
1426.111592
 21
1330.562836
  0
POLYLINE
  8
0
  6
CONTINUOUS
 62
1
 66
1
 70
2
  0
VERTEX
  8
0
 10
1426.771592
 20
1340.162836
 70
0
 42
0.179121
  0
VERTEX
  8
0
 10
1425.436931
 20
1339.672779
 70
0
 42
0.189055
  0
VERTEX
  8
0
 10
1424.783583
 20
1338.452770
 70
0
  0
SEQEND
  0
POLYLINE
  8
0
  6
CONTINUOUS
 62
1
 66
1
 70
2
  0
VERTEX
  8
0
 10
1424.123583
 20
1332.692770
 70
0
 42
0.220328
  0
VERTEX
  8
0
 10
1424.622068
 20
1331.201562
 70
0
 42
0.207373
  0
VERTEX
  8
0
 10
1426.111592
 20
1330.562836
 70
0
  0
SEQEND
  0
POLYLINE
  8
0
  6
CONTINUOUS
 62
1
 66
1
 70
2
  0
VERTEX
  8
0
 10
1441.647464
 20
1330.562836
 70
0
 42
0.207373
  0
VERTEX
  8
0
 10
1443.136988
 20
1331.201562
 70
0
 42
0.220328
  0
VERTEX
  8
0
 10
1443.635473
 20
1332.692770
 70
0
  0
SEQEND
  0
POLYLINE
  8
0
  6
CONTINUOUS
 62
1
 66
1
 70
2
  0
VERTEX
  8
0
 10
1440.987464
 20
1340.162836
 70
0
 42
-0.179121
  0
VERTEX
  8
0
 10
1442.322125
 20
1339.672779
 70
0
 42
-0.189055
  0
VERTEX
  8
0
 10
1442.975473
 20
1338.452770
 70
0
  0
SEQEND
  0
POLYLINE
  8
0
  6
CONTINUOUS
 62
1
 66
1
 70
2
  0
VERTEX
  8
0
 10
1448.011592
 20
1340.162836
 70
0
 42
0.207373
  0
VERTEX
  8
0
 10
1446.522068
 20
1339.524111
 70
0
 42
0.220328
  0
VERTEX
  8
0
 10
1446.023583
 20
1338.032903
 70
0
  0
SEQEND
  0
POLYLINE
  8
0
  6
CONTINUOUS
 62
1
 66
1
 70
2
  0
VERTEX
  8
0
 10
1446.683583
 20
1332.272903
 70
0
 42
0.189055
  0
VERTEX
  8
0
 10
1447.336931
 20
1331.052894
 70
0
 42
0.179121
  0
VERTEX
  8
0
 10
1448.671592
 20
1330.562836
 70
0
  0
SEQEND
  0
POLYLINE
  8
0
  6
CONTINUOUS
 62
1
 66
1
 70
2
  0
VERTEX
  8
0
 10
1462.887464
 20
1330.562836
 70
0
 42
0.179121
  0
VERTEX
  8
0
 10
1464.222125
 20
1331.052894
 70
0
 42
0.189055
  0
VERTEX
  8
0
 10
1464.875473
 20
1332.272903
 70
0
  0
SEQEND
  0
POLYLINE
  8
0
  6
CONTINUOUS
 62
1
 66
1
 70
2
  0
VERTEX
  8
0
 10
1465.535473
 20
1338.032903
 70
0
 42
0.220328
  0
VERTEX
  8
0
 10
1465.036988
 20
1339.524111
 70
0
 42
0.207373
  0
VERTEX
  8
0
 10
1463.547464
 20
1340.162836
 70
0
  0
SEQEND
  0
LINE
  8
0
  6
CONTINUOUS
 62
1
 10
1506.687464
 20
1330.562836
 11
1492.471592
 21
1330.562836
  0
LINE
  8
0
  6
CONTINUOUS
 62
1
 10
1470.571592
 20
1340.162836
 11
1484.787464
 21
1340.162836
  0
LINE
  8
0
  6
CONTINUOUS
 62
1
 10
1491.811592
 20
1340.162836
 11
1507.347464
 21
1340.162836
  0
LINE
  8
0
  6
CONTINUOUS
 62
1
 10
1490.483583
 20
1332.272903
 11
1489.823583
 21
1338.032903
  0
LINE
  8
0
  6
CONTINUOUS
 62
1
 10
1508.675473
 20
1332.272903
 11
1509.335473
 21
1338.032903
  0
LINE
  8
0
  6
CONTINUOUS
 62
1
 10
1468.583583
 20
1338.452770
 11
1467.923583
 21
1332.692770
  0
LINE
  8
0
  6
CONTINUOUS
 62
1
 10
1486.775473
 20
1338.452770
 11
1487.435473
 21
1332.692770
  0
LINE
  8
0
  6
CONTINUOUS
 62
1
 10
1485.447464
 20
1330.562836
 11
1469.911592
 21
1330.562836
  0
POLYLINE
  8
0
  6
CONTINUOUS
 62
1
 66
1
 70
2
  0
VERTEX
  8
0
 10
1470.571592
 20
1340.162836
 70
0
 42
0.179121
  0
VERTEX
  8
0
 10
1469.236931
 20
1339.672779
 70
0
 42
0.189055
  0
VERTEX
  8
0
 10
1468.583583
 20
1338.452770
 70
0
  0
SEQEND
  0
POLYLINE
  8
0
  6
CONTINUOUS
 62
1
 66
1
 70
2
  0
VERTEX
  8
0
 10
1467.923583
 20
1332.692770
 70
0
 42
0.220328
  0
VERTEX
  8
0
 10
1468.422068
 20
1331.201562
 70
0
 42
0.207373
  0
VERTEX
  8
0
 10
1469.911592
 20
1330.562836
 70
0
  0
SEQEND
  0
POLYLINE
  8
0
  6
CONTINUOUS
 62
1
 66
1
 70
2
  0
VERTEX
  8
0
 10
1485.447464
 20
1330.562836
 70
0
 42
0.207373
  0
VERTEX
  8
0
 10
1486.936988
 20
1331.201562
 70
0
 42
0.220328
  0
VERTEX
  8
0
 10
1487.435473
 20
1332.692770
 70
0
  0
SEQEND
  0
POLYLINE
  8
0
  6
CONTINUOUS
 62
1
 66
1
 70
2
  0
VERTEX
  8
0
 10
1484.787464
 20
1340.162836
 70
0
 42
-0.179121
  0
VERTEX
  8
0
 10
1486.122125
 20
1339.672779
 70
0
 42
-0.189055
  0
VERTEX
  8
0
 10
1486.775473
 20
1338.452770
 70
0
  0
SEQEND
  0
POLYLINE
  8
0
  6
CONTINUOUS
 62
1
 66
1
 70
2
  0
VERTEX
  8
0
 10
1491.811592
 20
1340.162836
 70
0
 42
0.207373
  0
VERTEX
  8
0
 10
1490.322068
 20
1339.524111
 70
0
 42
0.220328
  0
VERTEX
  8
0
 10
1489.823583
 20
1338.032903
 70
0
  0
SEQEND
  0
POLYLINE
  8
0
  6
CONTINUOUS
 62
1
 66
1
 70
2
  0
VERTEX
  8
0
 10
1490.483583
 20
1332.272903
 70
0
 42
0.189055
  0
VERTEX
  8
0
 10
1491.136931
 20
1331.052894
 70
0
 42
0.179121
  0
VERTEX
  8
0
 10
1492.471592
 20
1330.562836
 70
0
  0
SEQEND
  0
POLYLINE
  8
0
  6
CONTINUOUS
 62
1
 66
1
 70
2
  0
VERTEX
  8
0
 10
1506.687464
 20
1330.562836
 70
0
 42
0.179121
  0
VERTEX
  8
0
 10
1508.022125
 20
1331.052894
 70
0
 42
0.189055
  0
VERTEX
  8
0
 10
1508.675473
 20
1332.272903
 70
0
  0
SEQEND
  0
POLYLINE
  8
0
  6
CONTINUOUS
 62
1
 66
1
 70
2
  0
VERTEX
  8
0
 10
1509.335473
 20
1338.032903
 70
0
 42
0.220328
  0
VERTEX
  8
0
 10
1508.836988
 20
1339.524111
 70
0
 42
0.207373
  0
VERTEX
  8
0
 10
1507.347464
 20
1340.162836
 70
0
  0
SEQEND
  0
LINE
  8
0
  6
CONTINUOUS
 62
1
 10
1514.371592
 20
1340.162836
 11
1528.587464
 21
1340.162836
  0
LINE
  8
0
  6
CONTINUOUS
 62
1
 10
1512.383583
 20
1338.452770
 11
1511.723583
 21
1332.692770
  0
LINE
  8
0
  6
CONTINUOUS
 62
1
 10
1530.575473
 20
1338.452770
 11
1531.235473
 21
1332.692770
  0
LINE
  8
0
  6
CONTINUOUS
 62
1
 10
1529.247464
 20
1330.562836
 11
1513.711592
 21
1330.562836
  0
POLYLINE
  8
0
  6
CONTINUOUS
 62
1
 66
1
 70
2
  0
VERTEX
  8
0
 10
1514.371592
 20
1340.162836
 70
0
 42
0.179121
  0
VERTEX
  8
0
 10
1513.036931
 20
1339.672779
 70
0
 42
0.189055
  0
VERTEX
  8
0
 10
1512.383583
 20
1338.452770
 70
0
  0
SEQEND
  0
POLYLINE
  8
0
  6
CONTINUOUS
 62
1
 66
1
 70
2
  0
VERTEX
  8
0
 10
1511.723583
 20
1332.692770
 70
0
 42
0.220328
  0
VERTEX
  8
0
 10
1512.222068
 20
1331.201562
 70
0
 42
0.207373
  0
VERTEX
  8
0
 10
1513.711592
 20
1330.562836
 70
0
  0
SEQEND
  0
POLYLINE
  8
0
  6
CONTINUOUS
 62
1
 66
1
 70
2
  0
VERTEX
  8
0
 10
1529.247464
 20
1330.562836
 70
0
 42
0.207373
  0
VERTEX
  8
0
 10
1530.736988
 20
1331.201562
 70
0
 42
0.220328
  0
VERTEX
  8
0
 10
1531.235473
 20
1332.692770
 70
0
  0
SEQEND
  0
POLYLINE
  8
0
  6
CONTINUOUS
 62
1
 66
1
 70
2
  0
VERTEX
  8
0
 10
1528.587464
 20
1340.162836
 70
0
 42
-0.179121
  0
VERTEX
  8
0
 10
1529.922125
 20
1339.672779
 70
0
 42
-0.189055
  0
VERTEX
  8
0
 10
1530.575473
 20
1338.452770
 70
0
  0
SEQEND
  0
LINE
  8
0
  6
CONTINUOUS
 62
1
 10
1550.487464
 20
1330.562836
 11
1536.271592
 21
1330.562836
  0
LINE
  8
0
  6
CONTINUOUS
 62
1
 10
1535.611592
 20
1340.162836
 11
1551.147464
 21
1340.162836
  0
LINE
  8
0
  6
CONTINUOUS
 62
1
 10
1534.283583
 20
1332.272903
 11
1533.623583
 21
1338.032903
  0
LINE
  8
0
  6
CONTINUOUS
 62
1
 10
1552.475473
 20
1332.272903
 11
1553.135473
 21
1338.032903
  0
POLYLINE
  8
0
  6
CONTINUOUS
 62
1
 66
1
 70
2
  0
VERTEX
  8
0
 10
1535.611592
 20
1340.162836
 70
0
 42
0.207373
  0
VERTEX
  8
0
 10
1534.122068
 20
1339.524111
 70
0
 42
0.220328
  0
VERTEX
  8
0
 10
1533.623583
 20
1338.032903
 70
0
  0
SEQEND
  0
POLYLINE
  8
0
  6
CONTINUOUS
 62
1
 66
1
 70
2
  0
VERTEX
  8
0
 10
1534.283583
 20
1332.272903
 70
0
 42
0.189055
  0
VERTEX
  8
0
 10
1534.936931
 20
1331.052894
 70
0
 42
0.179121
  0
VERTEX
  8
0
 10
1536.271592
 20
1330.562836
 70
0
  0
SEQEND
  0
POLYLINE
  8
0
  6
CONTINUOUS
 62
1
 66
1
 70
2
  0
VERTEX
  8
0
 10
1550.487464
 20
1330.562836
 70
0
 42
0.179121
  0
VERTEX
  8
0
 10
1551.822125
 20
1331.052894
 70
0
 42
0.189055
  0
VERTEX
  8
0
 10
1552.475473
 20
1332.272903
 70
0
  0
SEQEND
  0
POLYLINE
  8
0
  6
CONTINUOUS
 62
1
 66
1
 70
2
  0
VERTEX
  8
0
 10
1553.135473
 20
1338.032903
 70
0
 42
0.220328
  0
VERTEX
  8
0
 10
1552.636988
 20
1339.524111
 70
0
 42
0.207373
  0
VERTEX
  8
0
 10
1551.147464
 20
1340.162836
 70
0
  0
SEQEND
  0
LINE
  8
0
  6
CONTINUOUS
 62
1
 10
1558.171592
 20
1340.162836
 11
1572.387464
 21
1340.162836
  0
LINE
  8
0
  6
CONTINUOUS
 62
1
 10
1556.183583
 20
1338.452770
 11
1555.523583
 21
1332.692770
  0
LINE
  8
0
  6
CONTINUOUS
 62
1
 10
1574.375473
 20
1338.452770
 11
1575.035473
 21
1332.692770
  0
LINE
  8
0
  6
CONTINUOUS
 62
1
 10
1573.047464
 20
1330.562836
 11
1557.511592
 21
1330.562836
  0
POLYLINE
  8
0
  6
CONTINUOUS
 62
1
 66
1
 70
2
  0
VERTEX
  8
0
 10
1558.171592
 20
1340.162836
 70
0
 42
0.179121
  0
VERTEX
  8
0
 10
1556.836931
 20
1339.672779
 70
0
 42
0.189055
  0
VERTEX
  8
0
 10
1556.183583
 20
1338.452770
 70
0
  0
SEQEND
  0
POLYLINE
  8
0
  6
CONTINUOUS
 62
1
 66
1
 70
2
  0
VERTEX
  8
0
 10
1555.523583
 20
1332.692770
 70
0
 42
0.220328
  0
VERTEX
  8
0
 10
1556.022068
 20
1331.201562
 70
0
 42
0.207373
  0
VERTEX
  8
0
 10
1557.511592
 20
1330.562836
 70
0
  0
SEQEND
  0
POLYLINE
  8
0
  6
CONTINUOUS
 62
1
 66
1
 70
2
  0
VERTEX
  8
0
 10
1573.047464
 20
1330.562836
 70
0
 42
0.207373
  0
VERTEX
  8
0
 10
1574.536988
 20
1331.201562
 70
0
 42
0.220328
  0
VERTEX
  8
0
 10
1575.035473
 20
1332.692770
 70
0
  0
SEQEND
  0
POLYLINE
  8
0
  6
CONTINUOUS
 62
1
 66
1
 70
2
  0
VERTEX
  8
0
 10
1572.387464
 20
1340.162836
 70
0
 42
-0.179121
  0
VERTEX
  8
0
 10
1573.722125
 20
1339.672779
 70
0
 42
-0.189055
  0
VERTEX
  8
0
 10
1574.375473
 20
1338.452770
 70
0
  0
SEQEND
  0
LINE
  8
0
  6
CONTINUOUS
 62
1
 10
922.411592
 20
1340.162836
 11
937.947464
 21
1340.162836
  0
LINE
  8
0
  6
CONTINUOUS
 62
1
 10
944.971592
 20
1340.162836
 11
959.187464
 21
1340.162836
  0
LINE
  8
0
  6
CONTINUOUS
 62
1
 10
921.083583
 20
1332.272903
 11
920.423583
 21
1338.032903
  0
LINE
  8
0
  6
CONTINUOUS
 62
1
 10
939.275473
 20
1332.272903
 11
939.935473
 21
1338.032903
  0
LINE
  8
0
  6
CONTINUOUS
 62
1
 10
942.983583
 20
1338.452770
 11
942.323583
 21
1332.692770
  0
LINE
  8
0
  6
CONTINUOUS
 62
1
 10
961.175473
 20
1338.452770
 11
961.835473
 21
1332.692770
  0
LINE
  8
0
  6
CONTINUOUS
 62
1
 10
937.287464
 20
1330.562836
 11
923.071592
 21
1330.562836
  0
LINE
  8
0
  6
CONTINUOUS
 62
1
 10
959.847464
 20
1330.562836
 11
944.311592
 21
1330.562836
  0
POLYLINE
  8
0
  6
CONTINUOUS
 62
1
 66
1
 70
2
  0
VERTEX
  8
0
 10
922.411592
 20
1340.162836
 70
0
 42
0.207373
  0
VERTEX
  8
0
 10
920.922068
 20
1339.524111
 70
0
 42
0.220328
  0
VERTEX
  8
0
 10
920.423583
 20
1338.032903
 70
0
  0
SEQEND
  0
POLYLINE
  8
0
  6
CONTINUOUS
 62
1
 66
1
 70
2
  0
VERTEX
  8
0
 10
921.083583
 20
1332.272903
 70
0
 42
0.189055
  0
VERTEX
  8
0
 10
921.736931
 20
1331.052894
 70
0
 42
0.179121
  0
VERTEX
  8
0
 10
923.071592
 20
1330.562836
 70
0
  0
SEQEND
  0
POLYLINE
  8
0
  6
CONTINUOUS
 62
1
 66
1
 70
2
  0
VERTEX
  8
0
 10
937.287464
 20
1330.562836
 70
0
 42
0.179121
  0
VERTEX
  8
0
 10
938.622125
 20
1331.052894
 70
0
 42
0.189055
  0
VERTEX
  8
0
 10
939.275473
 20
1332.272903
 70
0
  0
SEQEND
  0
POLYLINE
  8
0
  6
CONTINUOUS
 62
1
 66
1
 70
2
  0
VERTEX
  8
0
 10
939.935473
 20
1338.032903
 70
0
 42
0.220328
  0
VERTEX
  8
0
 10
939.436988
 20
1339.524111
 70
0
 42
0.207373
  0
VERTEX
  8
0
 10
937.947464
 20
1340.162836
 70
0
  0
SEQEND
  0
POLYLINE
  8
0
  6
CONTINUOUS
 62
1
 66
1
 70
2
  0
VERTEX
  8
0
 10
942.983583
 20
1338.452770
 70
0
 42
-0.189055
  0
VERTEX
  8
0
 10
943.636931
 20
1339.672779
 70
0
 42
-0.179121
  0
VERTEX
  8
0
 10
944.971592
 20
1340.162836
 70
0
  0
SEQEND
  0
POLYLINE
  8
0
  6
CONTINUOUS
 62
1
 66
1
 70
2
  0
VERTEX
  8
0
 10
959.187464
 20
1340.162836
 70
0
 42
-0.179121
  0
VERTEX
  8
0
 10
960.522125
 20
1339.672779
 70
0
 42
-0.189055
  0
VERTEX
  8
0
 10
961.175473
 20
1338.452770
 70
0
  0
SEQEND
  0
POLYLINE
  8
0
  6
CONTINUOUS
 62
1
 66
1
 70
2
  0
VERTEX
  8
0
 10
961.835473
 20
1332.692770
 70
0
 42
-0.220328
  0
VERTEX
  8
0
 10
961.336988
 20
1331.201562
 70
0
 42
-0.207373
  0
VERTEX
  8
0
 10
959.847464
 20
1330.562836
 70
0
  0
SEQEND
  0
POLYLINE
  8
0
  6
CONTINUOUS
 62
1
 66
1
 70
2
  0
VERTEX
  8
0
 10
944.311592
 20
1330.562836
 70
0
 42
-0.207373
  0
VERTEX
  8
0
 10
942.822068
 20
1331.201562
 70
0
 42
-0.220328
  0
VERTEX
  8
0
 10
942.323583
 20
1332.692770
 70
0
  0
SEQEND
  0
LINE
  8
0
  6
CONTINUOUS
 62
1
 10
1200.087464
 20
1355.522836
 11
1185.871592
 21
1355.522836
  0
LINE
  8
0
  6
CONTINUOUS
 62
1
 10
1163.971592
 20
1365.122836
 11
1178.187464
 21
1365.122836
  0
LINE
  8
0
  6
CONTINUOUS
 62
1
 10
1185.211592
 20
1365.122836
 11
1200.747464
 21
1365.122836
  0
LINE
  8
0
  6
CONTINUOUS
 62
1
 10
1183.883583
 20
1357.232903
 11
1183.223583
 21
1362.992903
  0
LINE
  8
0
  6
CONTINUOUS
 62
1
 10
1202.075473
 20
1357.232903
 11
1202.735473
 21
1362.992903
  0
LINE
  8
0
  6
CONTINUOUS
 62
1
 10
1161.983583
 20
1363.412770
 11
1161.323583
 21
1357.652770
  0
LINE
  8
0
  6
CONTINUOUS
 62
1
 10
1180.175473
 20
1363.412770
 11
1180.835473
 21
1357.652770
  0
LINE
  8
0
  6
CONTINUOUS
 62
1
 10
1178.847464
 20
1355.522836
 11
1163.311592
 21
1355.522836
  0
POLYLINE
  8
0
  6
CONTINUOUS
 62
1
 66
1
 70
2
  0
VERTEX
  8
0
 10
1163.971592
 20
1365.122836
 70
0
 42
0.179121
  0
VERTEX
  8
0
 10
1162.636931
 20
1364.632779
 70
0
 42
0.189055
  0
VERTEX
  8
0
 10
1161.983583
 20
1363.412770
 70
0
  0
SEQEND
  0
POLYLINE
  8
0
  6
CONTINUOUS
 62
1
 66
1
 70
2
  0
VERTEX
  8
0
 10
1161.323583
 20
1357.652770
 70
0
 42
0.220328
  0
VERTEX
  8
0
 10
1161.822068
 20
1356.161562
 70
0
 42
0.207373
  0
VERTEX
  8
0
 10
1163.311592
 20
1355.522836
 70
0
  0
SEQEND
  0
POLYLINE
  8
0
  6
CONTINUOUS
 62
1
 66
1
 70
2
  0
VERTEX
  8
0
 10
1178.847464
 20
1355.522836
 70
0
 42
0.207373
  0
VERTEX
  8
0
 10
1180.336988
 20
1356.161562
 70
0
 42
0.220328
  0
VERTEX
  8
0
 10
1180.835473
 20
1357.652770
 70
0
  0
SEQEND
  0
POLYLINE
  8
0
  6
CONTINUOUS
 62
1
 66
1
 70
2
  0
VERTEX
  8
0
 10
1178.187464
 20
1365.122836
 70
0
 42
-0.179121
  0
VERTEX
  8
0
 10
1179.522125
 20
1364.632779
 70
0
 42
-0.189055
  0
VERTEX
  8
0
 10
1180.175473
 20
1363.412770
 70
0
  0
SEQEND
  0
POLYLINE
  8
0
  6
CONTINUOUS
 62
1
 66
1
 70
2
  0
VERTEX
  8
0
 10
1185.211592
 20
1365.122836
 70
0
 42
0.207373
  0
VERTEX
  8
0
 10
1183.722068
 20
1364.484111
 70
0
 42
0.220328
  0
VERTEX
  8
0
 10
1183.223583
 20
1362.992903
 70
0
  0
SEQEND
  0
POLYLINE
  8
0
  6
CONTINUOUS
 62
1
 66
1
 70
2
  0
VERTEX
  8
0
 10
1183.883583
 20
1357.232903
 70
0
 42
0.189055
  0
VERTEX
  8
0
 10
1184.536931
 20
1356.012894
 70
0
 42
0.179121
  0
VERTEX
  8
0
 10
1185.871592
 20
1355.522836
 70
0
  0
SEQEND
  0
POLYLINE
  8
0
  6
CONTINUOUS
 62
1
 66
1
 70
2
  0
VERTEX
  8
0
 10
1200.087464
 20
1355.522836
 70
0
 42
0.179121
  0
VERTEX
  8
0
 10
1201.422125
 20
1356.012894
 70
0
 42
0.189055
  0
VERTEX
  8
0
 10
1202.075473
 20
1357.232903
 70
0
  0
SEQEND
  0
POLYLINE
  8
0
  6
CONTINUOUS
 62
1
 66
1
 70
2
  0
VERTEX
  8
0
 10
1202.735473
 20
1362.992903
 70
0
 42
0.220328
  0
VERTEX
  8
0
 10
1202.236988
 20
1364.484111
 70
0
 42
0.207373
  0
VERTEX
  8
0
 10
1200.747464
 20
1365.122836
 70
0
  0
SEQEND
  0
LINE
  8
0
  6
CONTINUOUS
 62
1
 10
1189.137464
 20
1352.642836
 11
1174.921592
 21
1352.642836
  0
LINE
  8
0
  6
CONTINUOUS
 62
1
 10
1153.021592
 20
1343.042836
 11
1167.237464
 21
1343.042836
  0
LINE
  8
0
  6
CONTINUOUS
 62
1
 10
1174.261592
 20
1343.042836
 11
1189.797464
 21
1343.042836
  0
LINE
  8
0
  6
CONTINUOUS
 62
1
 10
1172.933583
 20
1350.932770
 11
1172.273583
 21
1345.172770
  0
LINE
  8
0
  6
CONTINUOUS
 62
1
 10
1191.125473
 20
1350.932770
 11
1191.785473
 21
1345.172770
  0
LINE
  8
0
  6
CONTINUOUS
 62
1
 10
1151.033583
 20
1344.752903
 11
1150.373583
 21
1350.512903
  0
LINE
  8
0
  6
CONTINUOUS
 62
1
 10
1169.225473
 20
1344.752903
 11
1169.885473
 21
1350.512903
  0
LINE
  8
0
  6
CONTINUOUS
 62
1
 10
1167.897464
 20
1352.642836
 11
1152.361592
 21
1352.642836
  0
POLYLINE
  8
0
  6
CONTINUOUS
 62
1
 66
1
 70
2
  0
VERTEX
  8
0
 10
1153.021592
 20
1343.042836
 70
0
 42
-0.179121
  0
VERTEX
  8
0
 10
1151.686931
 20
1343.532894
 70
0
 42
-0.189055
  0
VERTEX
  8
0
 10
1151.033583
 20
1344.752903
 70
0
  0
SEQEND
  0
POLYLINE
  8
0
  6
CONTINUOUS
 62
1
 66
1
 70
2
  0
VERTEX
  8
0
 10
1150.373583
 20
1350.512903
 70
0
 42
-0.220328
  0
VERTEX
  8
0
 10
1150.872068
 20
1352.004111
 70
0
 42
-0.207373
  0
VERTEX
  8
0
 10
1152.361592
 20
1352.642836
 70
0
  0
SEQEND
  0
POLYLINE
  8
0
  6
CONTINUOUS
 62
1
 66
1
 70
2
  0
VERTEX
  8
0
 10
1167.897464
 20
1352.642836
 70
0
 42
-0.207373
  0
VERTEX
  8
0
 10
1169.386988
 20
1352.004111
 70
0
 42
-0.220328
  0
VERTEX
  8
0
 10
1169.885473
 20
1350.512903
 70
0
  0
SEQEND
  0
POLYLINE
  8
0
  6
CONTINUOUS
 62
1
 66
1
 70
2
  0
VERTEX
  8
0
 10
1167.237464
 20
1343.042836
 70
0
 42
0.179121
  0
VERTEX
  8
0
 10
1168.572125
 20
1343.532894
 70
0
 42
0.189055
  0
VERTEX
  8
0
 10
1169.225473
 20
1344.752903
 70
0
  0
SEQEND
  0
POLYLINE
  8
0
  6
CONTINUOUS
 62
1
 66
1
 70
2
  0
VERTEX
  8
0
 10
1174.261592
 20
1343.042836
 70
0
 42
-0.207373
  0
VERTEX
  8
0
 10
1172.772068
 20
1343.681562
 70
0
 42
-0.220328
  0
VERTEX
  8
0
 10
1172.273583
 20
1345.172770
 70
0
  0
SEQEND
  0
POLYLINE
  8
0
  6
CONTINUOUS
 62
1
 66
1
 70
2
  0
VERTEX
  8
0
 10
1172.933583
 20
1350.932770
 70
0
 42
-0.189055
  0
VERTEX
  8
0
 10
1173.586931
 20
1352.152779
 70
0
 42
-0.179121
  0
VERTEX
  8
0
 10
1174.921592
 20
1352.642836
 70
0
  0
SEQEND
  0
POLYLINE
  8
0
  6
CONTINUOUS
 62
1
 66
1
 70
2
  0
VERTEX
  8
0
 10
1189.137464
 20
1352.642836
 70
0
 42
-0.179121
  0
VERTEX
  8
0
 10
1190.472125
 20
1352.152779
 70
0
 42
-0.189055
  0
VERTEX
  8
0
 10
1191.125473
 20
1350.932770
 70
0
  0
SEQEND
  0
POLYLINE
  8
0
  6
CONTINUOUS
 62
1
 66
1
 70
2
  0
VERTEX
  8
0
 10
1191.785473
 20
1345.172770
 70
0
 42
-0.220328
  0
VERTEX
  8
0
 10
1191.286988
 20
1343.681562
 70
0
 42
-0.207373
  0
VERTEX
  8
0
 10
1189.797464
 20
1343.042836
 70
0
  0
SEQEND
  0
LINE
  8
0
  6
CONTINUOUS
 62
1
 10
1243.887464
 20
1355.522836
 11
1229.671592
 21
1355.522836
  0
LINE
  8
0
  6
CONTINUOUS
 62
1
 10
1207.771592
 20
1365.122836
 11
1221.987464
 21
1365.122836
  0
LINE
  8
0
  6
CONTINUOUS
 62
1
 10
1229.011592
 20
1365.122836
 11
1244.547464
 21
1365.122836
  0
LINE
  8
0
  6
CONTINUOUS
 62
1
 10
1227.683583
 20
1357.232903
 11
1227.023583
 21
1362.992903
  0
LINE
  8
0
  6
CONTINUOUS
 62
1
 10
1245.875473
 20
1357.232903
 11
1246.535473
 21
1362.992903
  0
LINE
  8
0
  6
CONTINUOUS
 62
1
 10
1205.783583
 20
1363.412770
 11
1205.123583
 21
1357.652770
  0
LINE
  8
0
  6
CONTINUOUS
 62
1
 10
1223.975473
 20
1363.412770
 11
1224.635473
 21
1357.652770
  0
LINE
  8
0
  6
CONTINUOUS
 62
1
 10
1222.647464
 20
1355.522836
 11
1207.111592
 21
1355.522836
  0
POLYLINE
  8
0
  6
CONTINUOUS
 62
1
 66
1
 70
2
  0
VERTEX
  8
0
 10
1207.771592
 20
1365.122836
 70
0
 42
0.179121
  0
VERTEX
  8
0
 10
1206.436931
 20
1364.632779
 70
0
 42
0.189055
  0
VERTEX
  8
0
 10
1205.783583
 20
1363.412770
 70
0
  0
SEQEND
  0
POLYLINE
  8
0
  6
CONTINUOUS
 62
1
 66
1
 70
2
  0
VERTEX
  8
0
 10
1205.123583
 20
1357.652770
 70
0
 42
0.220328
  0
VERTEX
  8
0
 10
1205.622068
 20
1356.161562
 70
0
 42
0.207373
  0
VERTEX
  8
0
 10
1207.111592
 20
1355.522836
 70
0
  0
SEQEND
  0
POLYLINE
  8
0
  6
CONTINUOUS
 62
1
 66
1
 70
2
  0
VERTEX
  8
0
 10
1222.647464
 20
1355.522836
 70
0
 42
0.207373
  0
VERTEX
  8
0
 10
1224.136988
 20
1356.161562
 70
0
 42
0.220328
  0
VERTEX
  8
0
 10
1224.635473
 20
1357.652770
 70
0
  0
SEQEND
  0
POLYLINE
  8
0
  6
CONTINUOUS
 62
1
 66
1
 70
2
  0
VERTEX
  8
0
 10
1221.987464
 20
1365.122836
 70
0
 42
-0.179121
  0
VERTEX
  8
0
 10
1223.322125
 20
1364.632779
 70
0
 42
-0.189055
  0
VERTEX
  8
0
 10
1223.975473
 20
1363.412770
 70
0
  0
SEQEND
  0
POLYLINE
  8
0
  6
CONTINUOUS
 62
1
 66
1
 70
2
  0
VERTEX
  8
0
 10
1229.011592
 20
1365.122836
 70
0
 42
0.207373
  0
VERTEX
  8
0
 10
1227.522068
 20
1364.484111
 70
0
 42
0.220328
  0
VERTEX
  8
0
 10
1227.023583
 20
1362.992903
 70
0
  0
SEQEND
  0
POLYLINE
  8
0
  6
CONTINUOUS
 62
1
 66
1
 70
2
  0
VERTEX
  8
0
 10
1227.683583
 20
1357.232903
 70
0
 42
0.189055
  0
VERTEX
  8
0
 10
1228.336931
 20
1356.012894
 70
0
 42
0.179121
  0
VERTEX
  8
0
 10
1229.671592
 20
1355.522836
 70
0
  0
SEQEND
  0
POLYLINE
  8
0
  6
CONTINUOUS
 62
1
 66
1
 70
2
  0
VERTEX
  8
0
 10
1243.887464
 20
1355.522836
 70
0
 42
0.179121
  0
VERTEX
  8
0
 10
1245.222125
 20
1356.012894
 70
0
 42
0.189055
  0
VERTEX
  8
0
 10
1245.875473
 20
1357.232903
 70
0
  0
SEQEND
  0
POLYLINE
  8
0
  6
CONTINUOUS
 62
1
 66
1
 70
2
  0
VERTEX
  8
0
 10
1246.535473
 20
1362.992903
 70
0
 42
0.220328
  0
VERTEX
  8
0
 10
1246.036988
 20
1364.484111
 70
0
 42
0.207373
  0
VERTEX
  8
0
 10
1244.547464
 20
1365.122836
 70
0
  0
SEQEND
  0
LINE
  8
0
  6
CONTINUOUS
 62
1
 10
1232.937464
 20
1352.642836
 11
1218.721592
 21
1352.642836
  0
LINE
  8
0
  6
CONTINUOUS
 62
1
 10
1196.821592
 20
1343.042836
 11
1211.037464
 21
1343.042836
  0
LINE
  8
0
  6
CONTINUOUS
 62
1
 10
1218.061592
 20
1343.042836
 11
1233.597464
 21
1343.042836
  0
LINE
  8
0
  6
CONTINUOUS
 62
1
 10
1216.733583
 20
1350.932770
 11
1216.073583
 21
1345.172770
  0
LINE
  8
0
  6
CONTINUOUS
 62
1
 10
1234.925473
 20
1350.932770
 11
1235.585473
 21
1345.172770
  0
LINE
  8
0
  6
CONTINUOUS
 62
1
 10
1194.833583
 20
1344.752903
 11
1194.173583
 21
1350.512903
  0
LINE
  8
0
  6
CONTINUOUS
 62
1
 10
1213.025473
 20
1344.752903
 11
1213.685473
 21
1350.512903
  0
LINE
  8
0
  6
CONTINUOUS
 62
1
 10
1211.697464
 20
1352.642836
 11
1196.161592
 21
1352.642836
  0
POLYLINE
  8
0
  6
CONTINUOUS
 62
1
 66
1
 70
2
  0
VERTEX
  8
0
 10
1196.821592
 20
1343.042836
 70
0
 42
-0.179121
  0
VERTEX
  8
0
 10
1195.486931
 20
1343.532894
 70
0
 42
-0.189055
  0
VERTEX
  8
0
 10
1194.833583
 20
1344.752903
 70
0
  0
SEQEND
  0
POLYLINE
  8
0
  6
CONTINUOUS
 62
1
 66
1
 70
2
  0
VERTEX
  8
0
 10
1194.173583
 20
1350.512903
 70
0
 42
-0.220328
  0
VERTEX
  8
0
 10
1194.672068
 20
1352.004111
 70
0
 42
-0.207373
  0
VERTEX
  8
0
 10
1196.161592
 20
1352.642836
 70
0
  0
SEQEND
  0
POLYLINE
  8
0
  6
CONTINUOUS
 62
1
 66
1
 70
2
  0
VERTEX
  8
0
 10
1211.697464
 20
1352.642836
 70
0
 42
-0.207373
  0
VERTEX
  8
0
 10
1213.186988
 20
1352.004111
 70
0
 42
-0.220328
  0
VERTEX
  8
0
 10
1213.685473
 20
1350.512903
 70
0
  0
SEQEND
  0
POLYLINE
  8
0
  6
CONTINUOUS
 62
1
 66
1
 70
2
  0
VERTEX
  8
0
 10
1211.037464
 20
1343.042836
 70
0
 42
0.179121
  0
VERTEX
  8
0
 10
1212.372125
 20
1343.532894
 70
0
 42
0.189055
  0
VERTEX
  8
0
 10
1213.025473
 20
1344.752903
 70
0
  0
SEQEND
  0
POLYLINE
  8
0
  6
CONTINUOUS
 62
1
 66
1
 70
2
  0
VERTEX
  8
0
 10
1218.061592
 20
1343.042836
 70
0
 42
-0.207373
  0
VERTEX
  8
0
 10
1216.572068
 20
1343.681562
 70
0
 42
-0.220328
  0
VERTEX
  8
0
 10
1216.073583
 20
1345.172770
 70
0
  0
SEQEND
  0
POLYLINE
  8
0
  6
CONTINUOUS
 62
1
 66
1
 70
2
  0
VERTEX
  8
0
 10
1216.733583
 20
1350.932770
 70
0
 42
-0.189055
  0
VERTEX
  8
0
 10
1217.386931
 20
1352.152779
 70
0
 42
-0.179121
  0
VERTEX
  8
0
 10
1218.721592
 20
1352.642836
 70
0
  0
SEQEND
  0
POLYLINE
  8
0
  6
CONTINUOUS
 62
1
 66
1
 70
2
  0
VERTEX
  8
0
 10
1232.937464
 20
1352.642836
 70
0
 42
-0.179121
  0
VERTEX
  8
0
 10
1234.272125
 20
1352.152779
 70
0
 42
-0.189055
  0
VERTEX
  8
0
 10
1234.925473
 20
1350.932770
 70
0
  0
SEQEND
  0
POLYLINE
  8
0
  6
CONTINUOUS
 62
1
 66
1
 70
2
  0
VERTEX
  8
0
 10
1235.585473
 20
1345.172770
 70
0
 42
-0.220328
  0
VERTEX
  8
0
 10
1235.086988
 20
1343.681562
 70
0
 42
-0.207373
  0
VERTEX
  8
0
 10
1233.597464
 20
1343.042836
 70
0
  0
SEQEND
  0
LINE
  8
0
  6
CONTINUOUS
 62
1
 10
782.812704
 20
729.074735
 11
1670.812704
 21
729.074735
  0
LINE
  8
0
  6
CONTINUOUS
 62
1
 10
1670.812704
 20
1287.074735
 11
782.812704
 21
1287.074735
  0
LINE
  8
0
  6
CONTINUOUS
 62
1
 10
777.812704
 20
734.074735
 11
777.812704
 21
750.574735
  0
LINE
  8
0
  6
CONTINUOUS
 62
1
 10
1675.812704
 20
1282.074735
 11
1675.812704
 21
1265.574735
  0
ARC
  8
0
  6
CONTINUOUS
 62
1
 10
926.812704
 20
1148.074735
 40
64.032794
 50
3.712225
 51
86.256239
  0
ARC
  8
0
  6
CONTINUOUS
 62
1
 10
782.812704
 20
1282.074735
 40
5.000000
 50
90.000000
 51
180.000000
  0
ARC
  8
0
  6
CONTINUOUS
 62
1
 10
1670.812704
 20
1282.074735
 40
5.000000
 50
0.000000
 51
90.000000
  0
ARC
  8
0
  6
CONTINUOUS
 62
1
 10
782.812704
 20
734.074735
 40
5.000000
 50
180.000000
 51
270.000000
  0
ARC
  8
0
  6
CONTINUOUS
 62
1
 10
1670.812704
 20
734.074735
 40
5.000000
 50
270.000000
 51
0.000000
  0
LINE
  8
0
  6
DASHED
 62
7
 10
1675.812704
 20
1265.574735
 11
1675.812704
 21
750.574735
  0
LINE
  8
0
  6
CONTINUOUS
 62
1
 10
1675.812704
 20
750.574735
 11
1675.812704
 21
734.074735
  0
LINE
  8
0
  6
CONTINUOUS
 62
1
 10
777.812704
 20
1265.574735
 11
777.812704
 21
1282.074735
  0
LINE
  8
0
  6
CONTINUOUS
 62
4
 10
776.812704
 20
728.076975
 11
776.812704
 21
723.076975
  0
LINE
  8
0
  6
CONTINUOUS
 62
4
 10
1676.812704
 20
728.076975
 11
1676.812704
 21
723.076975
  0
ARC
  8
0
  6
CONTINUOUS
 62
1
 10
920.623330
 20
1286.074735
 40
2.000000
 50
11.012363
 51
90.000000
  0
ARC
  8
0
  6
CONTINUOUS
 62
1
 10
933.002152
 20
1286.074735
 40
2.000000
 50
90.000000
 51
168.987434
  0
LINE
  8
0
  6
CONTINUOUS
 62
1
 10
922.334231
 20
1277.302053
 11
921.028625
 21
1260.122411
  0
LINE
  8
0
  6
CONTINUOUS
 62
1
 10
931.291177
 20
1277.302053
 11
932.599775
 21
1260.189606
  0
LINE
  8
0
  6
CONTINUOUS
 62
1
 10
922.334231
 20
1287.110503
 11
922.334231
 21
1277.302053
  0
LINE
  8
0
  6
CONTINUOUS
 62
1
 10
931.291177
 20
1287.110503
 11
931.291177
 21
1277.302053
  0
LINE
  8
0
  6
CONTINUOUS
 62
1
 10
924.845400
 20
1274.849125
 11
924.845400
 21
1191.099671
  0
LINE
  8
0
  6
CONTINUOUS
 62
1
 10
928.780008
 20
1275.030942
 11
928.780008
 21
1191.099671
  0
ARC
  8
0
  6
CONTINUOUS
 62
1
 10
926.812719
 20
1191.091923
 40
1.967304
 50
180.000000
 51
0.225663
  0
ARC
  8
0
  6
CONTINUOUS
 62
1
 10
926.812719
 20
1275.038690
 40
1.967304
 50
180.000000
 51
0.225663
  0
LINE
  8
0
  6
CONTINUOUS
 62
1
 10
924.881641
 20
1274.662894
 11
922.586502
 21
1286.456777
  0
LINE
  8
0
  6
CONTINUOUS
 62
1
 10
928.743796
 20
1274.662888
 11
931.038982
 21
1286.456784
  0
ARC
  8
0
  6
CONTINUOUS
 62
1
 10
926.812704
 20
1191.574735
 40
3.500000
 50
182.022614
 51
357.977356
  0
ARC
  8
0
  6
CONTINUOUS
 62
1
 10
780.312704
 20
1141.885361
 40
2.000000
 50
101.012363
 51
180.000000
  0
ARC
  8
0
  6
CONTINUOUS
 62
1
 10
780.312704
 20
1154.264183
 40
2.000000
 50
180.000000
 51
258.987434
  0
LINE
  8
0
  6
CONTINUOUS
 62
1
 10
788.312704
 20
1143.596262
 11
809.506281
 21
1142.242552
  0
LINE
  8
0
  6
CONTINUOUS
 62
1
 10
788.312704
 20
1152.553208
 11
810.450460
 21
1153.877104
  0
LINE
  8
0
  6
CONTINUOUS
 62
1
 10
779.276936
 20
1143.596262
 11
788.312704
 21
1143.596262
  0
LINE
  8
0
  6
CONTINUOUS
 62
1
 10
779.276936
 20
1152.553208
 11
788.312704
 21
1152.553208
  0
LINE
  8
0
  6
CONTINUOUS
 62
1
 10
791.538315
 20
1146.107431
 11
883.787768
 21
1146.107431
  0
LINE
  8
0
  6
CONTINUOUS
 62
1
 10
791.356497
 20
1150.042039
 11
883.787768
 21
1150.042039
  0
ARC
  8
0
  6
CONTINUOUS
 62
1
 10
883.795517
 20
1148.074750
 40
1.967304
 50
270.000000
 51
90.225663
  0
ARC
  8
0
  6
CONTINUOUS
 62
1
 10
791.348749
 20
1148.074750
 40
1.967304
 50
270.000000
 51
90.225663
  0
LINE
  8
0
  6
CONTINUOUS
 62
1
 10
791.724545
 20
1146.143672
 11
779.930663
 21
1143.848533
  0
LINE
  8
0
  6
CONTINUOUS
 62
1
 10
791.724552
 20
1150.005827
 11
779.930656
 21
1152.301013
  0
ARC
  8
0
  6
CONTINUOUS
 62
1
 10
883.312704
 20
1148.074735
 40
3.500000
 50
272.022614
 51
87.977356
  0
LINE
  8
0
  6
CONTINUOUS
 62
1
 10
883.436239
 20
1144.576887
 11
809.506281
 21
1142.242552
  0
LINE
  8
0
  6
CONTINUOUS
 62
1
 10
883.436239
 20
1151.572568
 11
810.450460
 21
1153.877104
  0
LINE
  8
0
  6
CONTINUOUS
 62
1
 10
791.312712
 20
1278.074735
 11
798.834239
 21
1278.074735
  0
LINE
  8
0
  6
CONTINUOUS
 62
1
 10
808.191644
 20
1269.480567
 11
855.355459
 21
1222.316752
  0
LINE
  8
0
  6
CONTINUOUS
 62
1
 10
804.291025
 20
1267.825263
 11
852.573271
 21
1219.534564
  0
ARC
  8
0
  6
CONTINUOUS
 62
1
 10
853.969833
 20
1220.920168
 40
1.967304
 50
224.774337
 51
45.000000
  0
ARC
  8
0
  6
CONTINUOUS
 62
1
 10
853.628444
 20
1221.261579
 40
3.500000
 50
227.022644
 51
42.977386
  0
LINE
  8
0
  6
CONTINUOUS
 62
1
 10
856.189149
 20
1223.647579
 11
831.367405
 21
1250.455429
  0
LINE
  8
0
  6
CONTINUOUS
 62
1
 10
851.242455
 20
1218.700885
 11
823.381871
 21
1244.497357
  0
LINE
  8
0
  6
CONTINUOUS
 62
1
 10
801.686916
 20
1266.723670
 11
823.021544
 21
1244.921286
  0
LINE
  8
0
  6
CONTINUOUS
 62
1
 10
810.761058
 20
1270.507516
 11
834.839602
 21
1246.705405
  0
LINE
  8
0
  6
CONTINUOUS
 62
1
 10
881.291177
 20
1278.074735
 11
922.334231
 21
1278.074735
  0
LINE
  8
0
  6
CONTINUOUS
 62
1
 10
788.312712
 20
1152.553208
 11
788.312712
 21
1193.596262
  0
LINE
  8
0
  6
CONTINUOUS
 62
1
 10
788.312712
 20
1202.553208
 11
788.312712
 21
1275.074735
  0
LINE
  8
0
  6
CONTINUOUS
 62
1
 10
922.334231
 20
1018.847417
 11
920.812704
 21
1033.098960
  0
LINE
  8
0
  6
CONTINUOUS
 62
1
 10
931.291177
 20
1018.847417
 11
932.812704
 21
1033.098960
  0
LINE
  8
0
  6
CONTINUOUS
 62
1
 10
924.845400
 20
911.091923
 11
924.845400
 21
1105.049799
  0
LINE
  8
0
  6
CONTINUOUS
 62
1
 10
928.780008
 20
911.084174
 11
928.780008
 21
1105.049799
  0
ARC
  8
0
  6
CONTINUOUS
 62
1
 10
926.812719
 20
1105.057548
 40
1.967304
 50
359.774337
 51
180.000000
  0
ARC
  8
0
  6
CONTINUOUS
 62
1
 10
926.812704
 20
1104.574735
 40
3.500000
 50
2.022644
 51
177.977386
  0
LINE
  8
0
  6
CONTINUOUS
 62
1
 10
923.314856
 20
1104.698270
 11
920.997591
 21
1036.026062
  0
LINE
  8
0
  6
CONTINUOUS
 62
1
 10
930.310537
 20
1104.698270
 11
932.627816
 21
1036.026061
  0
LINE
  8
0
  6
CONTINUOUS
 62
1
 10
791.312712
 20
1018.074735
 11
798.834239
 21
1018.074735
  0
LINE
  8
0
  6
CONTINUOUS
 62
1
 10
808.191644
 20
1026.668903
 11
855.355459
 21
1073.832719
  0
LINE
  8
0
  6
CONTINUOUS
 62
1
 10
804.291025
 20
1028.324207
 11
852.573271
 21
1076.614907
  0
ARC
  8
0
  6
CONTINUOUS
 62
1
 10
853.969833
 20
1075.229302
 40
1.967304
 50
315.000000
 51
135.225663
  0
ARC
  8
0
  6
CONTINUOUS
 62
1
 10
853.628444
 20
1074.887892
 40
3.500000
 50
317.022614
 51
132.977356
  0
LINE
  8
0
  6
CONTINUOUS
 62
1
 10
856.189149
 20
1072.501892
 11
830.084370
 21
1044.308345
  0
LINE
  8
0
  6
CONTINUOUS
 62
1
 10
851.242455
 20
1077.448586
 11
819.354675
 21
1047.923280
  0
LINE
  8
0
  6
CONTINUOUS
 62
1
 10
801.631890
 20
1029.505014
 11
819.518232
 21
1048.074720
  0
LINE
  8
0
  6
CONTINUOUS
 62
1
 10
810.819773
 20
1025.575595
 11
830.084370
 21
1044.308345
  0
LINE
  8
0
  6
CONTINUOUS
 62
1
 10
881.291177
 20
1018.074735
 11
922.334231
 21
1018.074735
  0
LINE
  8
0
  6
CONTINUOUS
 62
1
 10
788.312712
 20
1093.596263
 11
788.312712
 21
1021.074735
  0
LINE
  8
0
  6
CONTINUOUS
 62
1
 10
788.312712
 20
1143.596262
 11
788.312712
 21
1102.553209
  0
LINE
  8
0
  6
CONTINUOUS
 62
1
 10
778.312712
 20
1285.074735
 11
778.312712
 21
731.074705
  0
LINE
  8
0
  6
CONTINUOUS
 62
1
 10
1072.312704
 20
1288.074735
 11
781.312712
 21
1288.074735
  0
ARC
  8
0
  6
CONTINUOUS
 62
1
 10
781.312712
 20
1285.074735
 40
3.000000
 50
90.000000
 51
180.000000
  0
LINE
  8
0
  6
CONTINUOUS
 62
1
 10
1075.312704
 20
1285.074735
 11
1075.312704
 21
731.074705
  0
ARC
  8
0
  6
CONTINUOUS
 62
1
 10
3424.146322
 20
1008.074720
 40
2620.833618
 50
175.219069
 51
176.741481
  0
ARC
  8
0
  6
CONTINUOUS
 62
1
 10
847.309714
 20
1223.594078
 40
35.000000
 50
96.451367
 51
115.429910
  0
ARC
  8
0
  6
CONTINUOUS
 62
1
 10
833.568701
 20
1252.493638
 40
3.000000
 50
115.429910
 51
222.797011
  0
ARC
  8
0
  6
CONTINUOUS
 62
1
 10
821.343663
 20
1242.296061
 40
3.000000
 50
47.203002
 51
144.236775
  0
ARC
  8
0
  6
CONTINUOUS
 62
1
 10
810.545139
 20
1156.875610
 40
3.000000
 50
176.741481
 51
268.191479
  0
ARC
  8
0
  6
CONTINUOUS
 62
1
 10
809.600958
 20
1139.244046
 40
3.000000
 50
91.808511
 51
177.127932
  0
LINE
  8
0
  6
CONTINUOUS
 62
1
 10
930.310537
 20
1191.451200
 11
932.596783
 21
1260.122411
  0
LINE
  8
0
  6
CONTINUOUS
 62
1
 10
923.314871
 20
1191.451200
 11
921.028625
 21
1260.122411
  0
ARC
  8
0
  6
CONTINUOUS
 62
1
 10
918.030286
 20
1260.022588
 40
3.000000
 50
1.906823
 51
90.680401
  0
ARC
  8
0
  6
CONTINUOUS
 62
1
 10
847.309714
 20
1223.594078
 40
35.000000
 50
144.236775
 51
175.219069
  0
ARC
  8
0
  6
CONTINUOUS
 62
1
 10
935.595122
 20
1260.022588
 40
3.000000
 50
89.319600
 51
178.093177
  0
ARC
  8
0
  6
CONTINUOUS
 62
1
 10
926.812708
 20
520.499773
 40
742.574962
 50
90.680401
 51
96.451367
  0
ARC
  8
0
  6
CONTINUOUS
 62
1
 10
3424.146322
 20
1008.074720
 40
2620.833618
 50
177.127932
 51
178.549578
  0
ARC
  8
0
  6
CONTINUOUS
 62
1
 10
839.141201
 20
1073.527162
 40
35.000000
 50
178.549578
 51
226.998074
  0
ARC
  8
0
  6
CONTINUOUS
 62
1
 10
817.316466
 20
1050.124577
 40
3.000000
 50
226.998074
 51
312.796998
  0
ARC
  8
0
  6
CONTINUOUS
 62
1
 10
832.285666
 20
1042.270136
 40
3.000000
 50
137.202989
 51
257.629323
  0
ARC
  8
0
  6
CONTINUOUS
 62
1
 10
839.141201
 20
1073.527162
 40
35.000000
 50
257.629323
 51
262.882521
  0
LINE
  8
0
  6
CONTINUOUS
 62
1
 10
791.538475
 20
1200.042039
 11
807.183964
 21
1200.042039
  0
LINE
  8
0
  6
CONTINUOUS
 62
1
 10
791.545565
 20
1196.108842
 11
807.183964
 21
1196.107431
  0
ARC
  8
0
  6
CONTINUOUS
 62
1
 10
807.191712
 20
1198.074720
 40
1.967304
 50
269.774337
 51
90.000000
  0
ARC
  8
0
  6
CONTINUOUS
 62
1
 10
806.708899
 20
1198.074735
 40
3.500000
 50
272.022644
 51
87.977386
  0
LINE
  8
0
  6
CONTINUOUS
 62
1
 10
806.832435
 20
1201.572584
 11
788.312712
 21
1202.549736
  0
LINE
  8
0
  6
CONTINUOUS
 62
1
 10
806.832435
 20
1194.576902
 11
788.312712
 21
1193.599736
  0
LINE
  8
0
  6
CONTINUOUS
 62
1
 10
791.538480
 20
1100.042039
 11
801.833534
 21
1100.042039
  0
LINE
  8
0
  6
CONTINUOUS
 62
1
 10
791.409051
 20
1096.108372
 11
801.833534
 21
1096.107431
  0
ARC
  8
0
  6
CONTINUOUS
 62
1
 10
801.841282
 20
1098.074720
 40
1.967304
 50
269.774337
 51
90.000000
  0
ARC
  8
0
  6
CONTINUOUS
 62
1
 10
801.358470
 20
1098.074735
 40
3.500000
 50
272.022644
 51
87.977386
  0
LINE
  8
0
  6
CONTINUOUS
 62
1
 10
801.482005
 20
1101.572584
 11
788.312712
 21
1102.466213
  0
LINE
  8
0
  6
CONTINUOUS
 62
1
 10
801.482005
 20
1094.576902
 11
788.312712
 21
1093.599736
  0
ARC
  8
0
  6
CONTINUOUS
 62
1
 10
935.626110
 20
1036.127236
 40
3.000000
 50
181.932659
 51
270.682801
  0
ARC
  8
0
  6
CONTINUOUS
 62
1
 10
917.999297
 20
1036.127236
 40
3.000000
 50
269.317198
 51
358.067353
  0
ARC
  8
0
  6
CONTINUOUS
 62
1
 10
926.812708
 20
1775.649682
 40
742.574962
 50
262.882521
 51
269.317198
  0
LINE
  8
0
  6
CONTINUOUS
 62
1
 10
878.780007
 20
1274.848960
 11
878.780007
 21
1264.414427
  0
LINE
  8
0
  6
CONTINUOUS
 62
1
 10
874.846340
 20
1274.844294
 11
874.845399
 21
1264.414427
  0
ARC
  8
0
  6
CONTINUOUS
 62
1
 10
876.812688
 20
1264.406679
 40
1.967304
 50
179.774337
 51
0.000000
  0
ARC
  8
0
  6
CONTINUOUS
 62
1
 10
876.812703
 20
1264.889491
 40
3.500000
 50
182.022644
 51
357.977386
  0
LINE
  8
0
  6
CONTINUOUS
 62
1
 10
880.310552
 20
1264.765956
 11
881.287704
 21
1278.074735
  0
LINE
  8
0
  6
CONTINUOUS
 62
1
 10
873.314870
 20
1264.765956
 11
872.337704
 21
1278.074735
  0
ARC
  8
0
  6
CONTINUOUS
 62
1
 10
780.312704
 20
1091.885362
 40
2.000000
 50
101.012363
 51
180.000000
  0
ARC
  8
0
  6
CONTINUOUS
 62
1
 10
780.312704
 20
1104.264184
 40
2.000000
 50
180.000000
 51
258.987434
  0
LINE
  8
0
  6
CONTINUOUS
 62
1
 10
779.276936
 20
1093.596263
 11
788.312704
 21
1093.596263
  0
LINE
  8
0
  6
CONTINUOUS
 62
1
 10
779.276936
 20
1102.553209
 11
788.312704
 21
1102.553209
  0
ARC
  8
0
  6
CONTINUOUS
 62
1
 10
791.348749
 20
1098.074751
 40
1.967304
 50
270.000000
 51
90.225663
  0
LINE
  8
0
  6
CONTINUOUS
 62
1
 10
791.724545
 20
1096.143673
 11
779.930663
 21
1093.848534
  0
LINE
  8
0
  6
CONTINUOUS
 62
1
 10
791.724552
 20
1100.005828
 11
779.930656
 21
1102.301014
  0
ARC
  8
0
  6
CONTINUOUS
 62
1
 10
780.312704
 20
1191.885361
 40
2.000000
 50
101.012363
 51
180.000000
  0
ARC
  8
0
  6
CONTINUOUS
 62
1
 10
780.312704
 20
1204.264183
 40
2.000000
 50
180.000000
 51
258.987434
  0
LINE
  8
0
  6
CONTINUOUS
 62
1
 10
779.276936
 20
1193.596262
 11
788.312704
 21
1193.596262
  0
LINE
  8
0
  6
CONTINUOUS
 62
1
 10
779.276936
 20
1202.553208
 11
788.312704
 21
1202.553208
  0
ARC
  8
0
  6
CONTINUOUS
 62
1
 10
791.348749
 20
1198.074750
 40
1.967304
 50
270.000000
 51
90.225663
  0
LINE
  8
0
  6
CONTINUOUS
 62
1
 10
791.724545
 20
1196.143672
 11
779.930663
 21
1193.848533
  0
LINE
  8
0
  6
CONTINUOUS
 62
1
 10
791.724552
 20
1200.005827
 11
779.930656
 21
1202.301013
  0
ARC
  8
0
  6
CONTINUOUS
 62
1
 10
870.623330
 20
1286.074735
 40
2.000000
 50
11.012363
 51
90.000000
  0
ARC
  8
0
  6
CONTINUOUS
 62
1
 10
883.002152
 20
1286.074735
 40
2.000000
 50
90.000000
 51
168.987434
  0
LINE
  8
0
  6
CONTINUOUS
 62
1
 10
872.334231
 20
1287.110503
 11
872.334231
 21
1278.074735
  0
LINE
  8
0
  6
CONTINUOUS
 62
1
 10
881.291177
 20
1287.110503
 11
881.291177
 21
1278.074735
  0
ARC
  8
0
  6
CONTINUOUS
 62
1
 10
876.812719
 20
1275.038690
 40
1.967304
 50
180.000000
 51
0.225663
  0
LINE
  8
0
  6
CONTINUOUS
 62
1
 10
874.881641
 20
1274.662894
 11
872.586502
 21
1286.456777
  0
LINE
  8
0
  6
CONTINUOUS
 62
1
 10
878.743796
 20
1274.662888
 11
881.038982
 21
1286.456784
  0
ARC
  8
0
  6
CONTINUOUS
 62
1
 10
797.123337
 20
1286.074735
 40
2.000000
 50
11.012363
 51
90.000000
  0
ARC
  8
0
  6
CONTINUOUS
 62
1
 10
809.502160
 20
1286.074735
 40
2.000000
 50
90.000000
 51
168.987434
  0
LINE
  8
0
  6
CONTINUOUS
 62
1
 10
798.834239
 20
1287.110503
 11
798.834239
 21
1273.717652
  0
LINE
  8
0
  6
CONTINUOUS
 62
1
 10
807.791185
 20
1287.110503
 11
807.791185
 21
1277.619289
  0
ARC
  8
0
  6
CONTINUOUS
 62
1
 10
803.312727
 20
1275.038690
 40
1.967304
 50
180.000000
 51
0.225663
  0
LINE
  8
0
  6
CONTINUOUS
 62
1
 10
801.381649
 20
1274.662894
 11
799.086509
 21
1286.456777
  0
LINE
  8
0
  6
CONTINUOUS
 62
1
 10
805.243804
 20
1274.662888
 11
807.538989
 21
1286.456784
  0
ARC
  8
0
  6
CONTINUOUS
 62
1
 10
817.791185
 20
1277.619289
 40
10.000000
 50
180.000000
 51
225.330786
  0
ARC
  8
0
  6
CONTINUOUS
 62
1
 10
815.262712
 20
1276.551635
 40
10.000000
 50
187.660367
 51
225.000000
  0
ARC
  8
0
  6
CONTINUOUS
 62
1
 10
811.362712
 20
1274.895712
 40
10.000000
 50
180.000000
 51
224.994985
  0
ARC
  8
0
  6
CONTINUOUS
 62
1
 10
808.834239
 20
1273.717652
 40
10.000000
 50
180.000000
 51
224.378737
  0
LINE
  8
0
  6
CONTINUOUS
 62
1
 10
798.834239
 20
1008.074720
 11
798.834239
 21
1022.567711
  0
LINE
  8
0
  6
CONTINUOUS
 62
1
 10
807.791185
 20
1008.074735
 11
807.791185
 21
1018.406256
  0
ARC
  8
0
  6
CONTINUOUS
 62
1
 10
815.262712
 20
1019.597835
 40
10.000000
 50
135.000000
 51
172.339633
  0
ARC
  8
0
  6
CONTINUOUS
 62
1
 10
811.362712
 20
1021.253758
 40
10.000000
 50
135.005015
 51
180.000000
  0
ARC
  8
0
  6
CONTINUOUS
 62
1
 10
808.834239
 20
1022.567711
 40
10.000000
 50
136.073877
 51
180.000000
  0
ARC
  8
0
  6
CONTINUOUS
 62
1
 10
817.791185
 20
1018.406256
 40
10.000000
 50
134.198086
 51
180.000000
  0
LINE
  8
0
  6
CONTINUOUS
 62
1
 10
805.280016
 20
1021.103032
 11
805.280016
 21
1008.074720
  0
LINE
  8
0
  6
CONTINUOUS
 62
1
 10
801.345423
 20
1021.110780
 11
801.345423
 21
1008.074720
  0
ARC
  8
0
  6
CONTINUOUS
 62
1
 10
876.812688
 20
1031.742792
 40
1.967304
 50
0.000000
 51
180.225663
  0
ARC
  8
0
  6
CONTINUOUS
 62
1
 10
876.812703
 20
1031.259979
 40
3.500000
 50
2.022614
 51
177.977356
  0
LINE
  8
0
  6
CONTINUOUS
 62
1
 10
880.310552
 20
1031.383514
 11
881.287704
 21
1018.074735
  0
LINE
  8
0
  6
CONTINUOUS
 62
1
 10
873.314870
 20
1031.383514
 11
872.337704
 21
1018.074735
  0
LINE
  8
0
  6
CONTINUOUS
 62
1
 10
807.791185
 20
1018.074735
 11
872.334231
 21
1018.074735
  0
ARC
  8
0
  6
CONTINUOUS
 62
1
 10
933.002079
 20
1286.074735
 40
2.000000
 50
90.000000
 51
168.987637
  0
ARC
  8
0
  6
CONTINUOUS
 62
1
 10
920.623256
 20
1286.074735
 40
2.000000
 50
11.012566
 51
90.000000
  0
LINE
  8
0
  6
CONTINUOUS
 62
1
 10
931.291177
 20
1277.302053
 11
932.596783
 21
1260.122411
  0
LINE
  8
0
  6
CONTINUOUS
 62
1
 10
922.334231
 20
1277.302053
 11
921.025634
 21
1260.189606
  0
LINE
  8
0
  6
CONTINUOUS
 62
1
 10
931.291177
 20
1287.110503
 11
931.291177
 21
1277.302053
  0
LINE
  8
0
  6
CONTINUOUS
 62
1
 10
922.334231
 20
1287.110503
 11
922.334231
 21
1277.302053
  0
LINE
  8
0
  6
CONTINUOUS
 62
1
 10
928.780008
 20
1274.849125
 11
928.780008
 21
1191.099671
  0
LINE
  8
0
  6
CONTINUOUS
 62
1
 10
924.845400
 20
1275.030942
 11
924.845400
 21
1191.099671
  0
ARC
  8
0
  6
CONTINUOUS
 62
1
 10
926.812689
 20
1191.091923
 40
1.967304
 50
179.774337
 51
0.000000
  0
ARC
  8
0
  6
CONTINUOUS
 62
1
 10
926.812689
 20
1275.038690
 40
1.967304
 50
179.774337
 51
0.000000
  0
LINE
  8
0
  6
CONTINUOUS
 62
1
 10
928.743767
 20
1274.662894
 11
931.038907
 21
1286.456777
  0
LINE
  8
0
  6
CONTINUOUS
 62
1
 10
924.881612
 20
1274.662888
 11
922.586427
 21
1286.456784
  0
ARC
  8
0
  6
CONTINUOUS
 62
1
 10
926.812704
 20
1191.574735
 40
3.500000
 50
182.022644
 51
357.977386
  0
ARC
  8
0
  6
CONTINUOUS
 62
1
 10
1073.312704
 20
1141.885361
 40
2.000000
 50
0.000000
 51
78.987637
  0
ARC
  8
0
  6
CONTINUOUS
 62
1
 10
1073.312704
 20
1154.264183
 40
2.000000
 50
281.012566
 51
0.000000
  0
LINE
  8
0
  6
CONTINUOUS
 62
1
 10
1065.312704
 20
1143.596262
 11
1044.119128
 21
1142.242552
  0
LINE
  8
0
  6
CONTINUOUS
 62
1
 10
1065.312704
 20
1152.553208
 11
1043.174948
 21
1153.877104
  0
LINE
  8
0
  6
CONTINUOUS
 62
1
 10
1074.348472
 20
1143.596262
 11
1065.312704
 21
1143.596262
  0
LINE
  8
0
  6
CONTINUOUS
 62
1
 10
1074.348472
 20
1152.553208
 11
1065.312704
 21
1152.553208
  0
LINE
  8
0
  6
CONTINUOUS
 62
1
 10
1062.087094
 20
1146.107431
 11
969.837640
 21
1146.107431
  0
LINE
  8
0
  6
CONTINUOUS
 62
1
 10
1062.268911
 20
1150.042039
 11
969.837640
 21
1150.042039
  0
ARC
  8
0
  6
CONTINUOUS
 62
1
 10
969.829892
 20
1148.074750
 40
1.967304
 50
89.774337
 51
270.000000
  0
ARC
  8
0
  6
CONTINUOUS
 62
1
 10
1062.276659
 20
1148.074750
 40
1.967304
 50
89.774337
 51
270.000000
  0
LINE
  8
0
  6
CONTINUOUS
 62
1
 10
1061.900863
 20
1146.143672
 11
1073.694746
 21
1143.848533
  0
LINE
  8
0
  6
CONTINUOUS
 62
1
 10
1061.900857
 20
1150.005827
 11
1073.694753
 21
1152.301013
  0
ARC
  8
0
  6
CONTINUOUS
 62
1
 10
970.312704
 20
1148.074735
 40
3.500000
 50
92.022644
 51
267.977386
  0
LINE
  8
0
  6
CONTINUOUS
 62
1
 10
970.189169
 20
1144.576887
 11
1044.119128
 21
1142.242552
  0
LINE
  8
0
  6
CONTINUOUS
 62
1
 10
970.189169
 20
1151.572568
 11
1043.174948
 21
1153.877104
  0
LINE
  8
0
  6
CONTINUOUS
 62
1
 10
1062.312697
 20
1278.074735
 11
1054.791169
 21
1278.074735
  0
LINE
  8
0
  6
CONTINUOUS
 62
1
 10
1045.433764
 20
1269.480567
 11
998.269949
 21
1222.316752
  0
LINE
  8
0
  6
CONTINUOUS
 62
1
 10
1049.334383
 20
1267.825263
 11
1001.052137
 21
1219.534564
  0
ARC
  8
0
  6
CONTINUOUS
 62
1
 10
999.655575
 20
1220.920168
 40
1.967304
 50
135.000000
 51
315.225663
  0
ARC
  8
0
  6
CONTINUOUS
 62
1
 10
999.996964
 20
1221.261579
 40
3.500000
 50
137.022614
 51
312.977356
  0
LINE
  8
0
  6
CONTINUOUS
 62
1
 10
997.436259
 20
1223.647579
 11
1022.258003
 21
1250.455429
  0
LINE
  8
0
  6
CONTINUOUS
 62
1
 10
1002.382953
 20
1218.700885
 11
1030.243537
 21
1244.497357
  0
LINE
  8
0
  6
CONTINUOUS
 62
1
 10
1051.938492
 20
1266.723670
 11
1030.603864
 21
1244.921286
  0
LINE
  8
0
  6
CONTINUOUS
 62
1
 10
1042.864350
 20
1270.507516
 11
1018.785807
 21
1246.705405
  0
LINE
  8
0
  6
CONTINUOUS
 62
1
 10
972.334231
 20
1278.074735
 11
931.291177
 21
1278.074735
  0
LINE
  8
0
  6
CONTINUOUS
 62
1
 10
1065.312697
 20
1152.553208
 11
1065.312697
 21
1193.596262
  0
LINE
  8
0
  6
CONTINUOUS
 62
1
 10
1065.312697
 20
1202.553208
 11
1065.312697
 21
1275.074735
  0
LINE
  8
0
  6
CONTINUOUS
 62
1
 10
931.291177
 20
1018.847417
 11
932.812704
 21
1033.098960
  0
LINE
  8
0
  6
CONTINUOUS
 62
1
 10
922.334231
 20
1018.847417
 11
920.812704
 21
1033.098960
  0
ARC
  8
0
  6
CONTINUOUS
 62
1
 10
926.812689
 20
1105.057548
 40
1.967304
 50
0.000000
 51
180.225663
  0
ARC
  8
0
  6
CONTINUOUS
 62
1
 10
926.812704
 20
1104.574735
 40
3.500000
 50
2.022614
 51
177.977356
  0
LINE
  8
0
  6
CONTINUOUS
 62
1
 10
930.310553
 20
1104.698270
 11
932.627818
 21
1036.026062
  0
LINE
  8
0
  6
CONTINUOUS
 62
1
 10
923.314871
 20
1104.698270
 11
920.997592
 21
1036.026061
  0
LINE
  8
0
  6
CONTINUOUS
 62
1
 10
1062.312697
 20
1018.074735
 11
1054.791169
 21
1018.074735
  0
LINE
  8
0
  6
CONTINUOUS
 62
1
 10
1045.433764
 20
1026.668903
 11
998.269949
 21
1073.832719
  0
LINE
  8
0
  6
CONTINUOUS
 62
1
 10
1049.334383
 20
1028.324207
 11
1001.052137
 21
1076.614907
  0
ARC
  8
0
  6
CONTINUOUS
 62
1
 10
999.655575
 20
1075.229302
 40
1.967304
 50
44.774337
 51
225.000000
  0
ARC
  8
0
  6
CONTINUOUS
 62
1
 10
999.996964
 20
1074.887892
 40
3.500000
 50
47.022644
 51
222.977386
  0
LINE
  8
0
  6
CONTINUOUS
 62
1
 10
997.436259
 20
1072.501892
 11
1023.541038
 21
1044.308345
  0
LINE
  8
0
  6
CONTINUOUS
 62
1
 10
1002.382953
 20
1077.448586
 11
1034.270733
 21
1047.923280
  0
LINE
  8
0
  6
CONTINUOUS
 62
1
 10
1051.993518
 20
1029.505014
 11
1034.107176
 21
1048.074720
  0
LINE
  8
0
  6
CONTINUOUS
 62
1
 10
1042.805635
 20
1025.575595
 11
1023.541038
 21
1044.308345
  0
LINE
  8
0
  6
CONTINUOUS
 62
1
 10
972.334231
 20
1018.074735
 11
931.291177
 21
1018.074735
  0
LINE
  8
0
  6
CONTINUOUS
 62
1
 10
1065.312697
 20
1093.596263
 11
1065.312697
 21
1021.074735
  0
LINE
  8
0
  6
CONTINUOUS
 62
1
 10
1065.312697
 20
1143.596262
 11
1065.312697
 21
1102.553209
  0
ARC
  8
0
  6
CONTINUOUS
 62
1
 10
1072.312697
 20
1285.074735
 40
3.000000
 50
0.000000
 51
90.000000
  0
ARC
  8
0
  6
CONTINUOUS
 62
1
 10
1006.315695
 20
1223.594078
 40
35.000000
 50
64.570090
 51
83.548633
  0
ARC
  8
0
  6
CONTINUOUS
 62
1
 10
1020.056707
 20
1252.493638
 40
3.000000
 50
317.202989
 51
64.570090
  0
ARC
  8
0
  6
CONTINUOUS
 62
1
 10
1032.281746
 20
1242.296061
 40
3.000000
 50
35.763225
 51
132.796998
  0
ARC
  8
0
  6
CONTINUOUS
 62
1
 10
1043.080270
 20
1156.875610
 40
3.000000
 50
271.808521
 51
3.258519
  0
ARC
  8
0
  6
CONTINUOUS
 62
1
 10
1044.024450
 20
1139.244046
 40
3.000000
 50
2.872068
 51
88.191489
  0
LINE
  8
0
  6
CONTINUOUS
 62
1
 10
923.314871
 20
1191.451200
 11
921.028625
 21
1260.122411
  0
LINE
  8
0
  6
CONTINUOUS
 62
1
 10
930.310537
 20
1191.451200
 11
932.596783
 21
1260.122411
  0
ARC
  8
0
  6
CONTINUOUS
 62
1
 10
935.595122
 20
1260.022588
 40
3.000000
 50
89.319599
 51
178.093177
  0
ARC
  8
0
  6
CONTINUOUS
 62
1
 10
1006.315695
 20
1223.594078
 40
35.000000
 50
4.780931
 51
35.763225
  0
ARC
  8
0
  6
CONTINUOUS
 62
1
 10
918.030286
 20
1260.022588
 40
3.000000
 50
1.906823
 51
90.680400
  0
ARC
  8
0
  6
CONTINUOUS
 62
1
 10
-1570.520914
 20
1008.074720
 40
2620.833618
 50
1.450422
 51
2.872068
  0
ARC
  8
0
  6
CONTINUOUS
 62
1
 10
1014.484208
 20
1073.527162
 40
35.000000
 50
313.001926
 51
1.450422
  0
ARC
  8
0
  6
CONTINUOUS
 62
1
 10
1036.308942
 20
1050.124577
 40
3.000000
 50
227.203002
 51
313.001926
  0
ARC
  8
0
  6
CONTINUOUS
 62
1
 10
1021.339742
 20
1042.270136
 40
3.000000
 50
282.370677
 51
42.797011
  0
ARC
  8
0
  6
CONTINUOUS
 62
1
 10
1014.484208
 20
1073.527162
 40
35.000000
 50
277.117479
 51
282.370677
  0
LINE
  8
0
  6
CONTINUOUS
 62
1
 10
1062.086933
 20
1200.042039
 11
1046.441445
 21
1200.042039
  0
LINE
  8
0
  6
CONTINUOUS
 62
1
 10
1062.079843
 20
1196.108842
 11
1046.441445
 21
1196.107431
  0
ARC
  8
0
  6
CONTINUOUS
 62
1
 10
1046.433696
 20
1198.074720
 40
1.967304
 50
90.000000
 51
270.225663
  0
ARC
  8
0
  6
CONTINUOUS
 62
1
 10
1046.916509
 20
1198.074735
 40
3.500000
 50
92.022614
 51
267.977356
  0
LINE
  8
0
  6
CONTINUOUS
 62
1
 10
1046.792974
 20
1201.572584
 11
1065.312697
 21
1202.549736
  0
LINE
  8
0
  6
CONTINUOUS
 62
1
 10
1046.792974
 20
1194.576902
 11
1065.312697
 21
1193.599736
  0
LINE
  8
0
  6
CONTINUOUS
 62
1
 10
1062.086928
 20
1100.042039
 11
1051.791874
 21
1100.042039
  0
LINE
  8
0
  6
CONTINUOUS
 62
1
 10
1062.216358
 20
1096.108372
 11
1051.791874
 21
1096.107431
  0
ARC
  8
0
  6
CONTINUOUS
 62
1
 10
1051.784126
 20
1098.074720
 40
1.967304
 50
90.000000
 51
270.225663
  0
ARC
  8
0
  6
CONTINUOUS
 62
1
 10
1052.266938
 20
1098.074735
 40
3.500000
 50
92.022614
 51
267.977356
  0
LINE
  8
0
  6
CONTINUOUS
 62
1
 10
1052.143403
 20
1101.572584
 11
1065.312697
 21
1102.466213
  0
LINE
  8
0
  6
CONTINUOUS
 62
1
 10
1052.143403
 20
1094.576902
 11
1065.312697
 21
1093.599736
  0
ARC
  8
0
  6
CONTINUOUS
 62
1
 10
917.999299
 20
1036.127236
 40
3.000000
 50
269.317199
 51
358.067341
  0
ARC
  8
0
  6
CONTINUOUS
 62
1
 10
935.626111
 20
1036.127236
 40
3.000000
 50
181.932647
 51
270.682802
  0
ARC
  8
0
  6
CONTINUOUS
 62
1
 10
926.812700
 20
1775.649682
 40
742.574962
 50
270.682802
 51
277.117479
  0
LINE
  8
0
  6
CONTINUOUS
 62
1
 10
974.845401
 20
1274.848960
 11
974.845401
 21
1264.414427
  0
LINE
  8
0
  6
CONTINUOUS
 62
1
 10
978.779068
 20
1274.844294
 11
978.780009
 21
1264.414427
  0
ARC
  8
0
  6
CONTINUOUS
 62
1
 10
976.812720
 20
1264.406679
 40
1.967304
 50
180.000000
 51
0.225663
  0
ARC
  8
0
  6
CONTINUOUS
 62
1
 10
976.812705
 20
1264.889491
 40
3.500000
 50
182.022614
 51
357.977356
  0
LINE
  8
0
  6
CONTINUOUS
 62
1
 10
973.314857
 20
1264.765956
 11
972.337704
 21
1278.074735
  0
LINE
  8
0
  6
CONTINUOUS
 62
1
 10
980.310538
 20
1264.765956
 11
981.287704
 21
1278.074735
  0
ARC
  8
0
  6
CONTINUOUS
 62
1
 10
1073.312704
 20
1091.885362
 40
2.000000
 50
0.000000
 51
78.987637
  0
ARC
  8
0
  6
CONTINUOUS
 62
1
 10
1073.312704
 20
1104.264184
 40
2.000000
 50
281.012566
 51
0.000000
  0
LINE
  8
0
  6
CONTINUOUS
 62
1
 10
1074.348472
 20
1093.596263
 11
1065.312704
 21
1093.596263
  0
LINE
  8
0
  6
CONTINUOUS
 62
1
 10
1074.348472
 20
1102.553209
 11
1065.312704
 21
1102.553209
  0
ARC
  8
0
  6
CONTINUOUS
 62
1
 10
1062.276659
 20
1098.074751
 40
1.967304
 50
89.774337
 51
270.000000
  0
LINE
  8
0
  6
CONTINUOUS
 62
1
 10
1061.900863
 20
1096.143673
 11
1073.694746
 21
1093.848534
  0
LINE
  8
0
  6
CONTINUOUS
 62
1
 10
1061.900857
 20
1100.005828
 11
1073.694753
 21
1102.301014
  0
ARC
  8
0
  6
CONTINUOUS
 62
1
 10
1073.312704
 20
1191.885361
 40
2.000000
 50
0.000000
 51
78.987637
  0
ARC
  8
0
  6
CONTINUOUS
 62
1
 10
1073.312704
 20
1204.264183
 40
2.000000
 50
281.012566
 51
0.000000
  0
LINE
  8
0
  6
CONTINUOUS
 62
1
 10
1074.348472
 20
1193.596262
 11
1065.312704
 21
1193.596262
  0
LINE
  8
0
  6
CONTINUOUS
 62
1
 10
1074.348472
 20
1202.553208
 11
1065.312704
 21
1202.553208
  0
ARC
  8
0
  6
CONTINUOUS
 62
1
 10
1062.276659
 20
1198.074750
 40
1.967304
 50
89.774337
 51
270.000000
  0
LINE
  8
0
  6
CONTINUOUS
 62
1
 10
1061.900863
 20
1196.143672
 11
1073.694746
 21
1193.848533
  0
LINE
  8
0
  6
CONTINUOUS
 62
1
 10
1061.900857
 20
1200.005827
 11
1073.694753
 21
1202.301013
  0
ARC
  8
0
  6
CONTINUOUS
 62
1
 10
983.002079
 20
1286.074735
 40
2.000000
 50
90.000000
 51
168.987637
  0
ARC
  8
0
  6
CONTINUOUS
 62
1
 10
970.623256
 20
1286.074735
 40
2.000000
 50
11.012566
 51
90.000000
  0
LINE
  8
0
  6
CONTINUOUS
 62
1
 10
981.291177
 20
1287.110503
 11
981.291177
 21
1278.074735
  0
LINE
  8
0
  6
CONTINUOUS
 62
1
 10
972.334231
 20
1287.110503
 11
972.334231
 21
1278.074735
  0
ARC
  8
0
  6
CONTINUOUS
 62
1
 10
976.812689
 20
1275.038690
 40
1.967304
 50
179.774337
 51
0.000000
  0
LINE
  8
0
  6
CONTINUOUS
 62
1
 10
978.743767
 20
1274.662894
 11
981.038907
 21
1286.456777
  0
LINE
  8
0
  6
CONTINUOUS
 62
1
 10
974.881612
 20
1274.662888
 11
972.586427
 21
1286.456784
  0
ARC
  8
0
  6
CONTINUOUS
 62
1
 10
1056.502071
 20
1286.074735
 40
2.000000
 50
90.000000
 51
168.987637
  0
ARC
  8
0
  6
CONTINUOUS
 62
1
 10
1044.123248
 20
1286.074735
 40
2.000000
 50
11.012566
 51
90.000000
  0
LINE
  8
0
  6
CONTINUOUS
 62
1
 10
1054.791169
 20
1287.110503
 11
1054.791169
 21
1273.717652
  0
LINE
  8
0
  6
CONTINUOUS
 62
1
 10
1045.834224
 20
1287.110503
 11
1045.834224
 21
1277.619289
  0
ARC
  8
0
  6
CONTINUOUS
 62
1
 10
1050.312681
 20
1275.038690
 40
1.967304
 50
179.774337
 51
0.000000
  0
LINE
  8
0
  6
CONTINUOUS
 62
1
 10
1052.243759
 20
1274.662894
 11
1054.538899
 21
1286.456777
  0
LINE
  8
0
  6
CONTINUOUS
 62
1
 10
1048.381604
 20
1274.662888
 11
1046.086419
 21
1286.456784
  0
ARC
  8
0
  6
CONTINUOUS
 62
1
 10
1035.834224
 20
1277.619289
 40
10.000000
 50
314.669214
 51
0.000000
  0
ARC
  8
0
  6
CONTINUOUS
 62
1
 10
1038.362697
 20
1276.551635
 40
10.000000
 50
315.000000
 51
352.339633
  0
ARC
  8
0
  6
CONTINUOUS
 62
1
 10
1042.262697
 20
1274.895712
 40
10.000000
 50
315.005015
 51
0.000000
  0
ARC
  8
0
  6
CONTINUOUS
 62
1
 10
1044.791169
 20
1273.717652
 40
10.000000
 50
315.621263
 51
0.000000
  0
LINE
  8
0
  6
CONTINUOUS
 62
1
 10
1054.791169
 20
1008.074720
 11
1054.791169
 21
1022.567711
  0
LINE
  8
0
  6
CONTINUOUS
 62
1
 10
1045.834224
 20
1008.074735
 11
1045.834224
 21
1018.406256
  0
ARC
  8
0
  6
CONTINUOUS
 62
1
 10
1038.362697
 20
1019.597835
 40
10.000000
 50
7.660367
 51
45.000000
  0
ARC
  8
0
  6
CONTINUOUS
 62
1
 10
1042.262697
 20
1021.253758
 40
10.000000
 50
0.000000
 51
44.994985
  0
ARC
  8
0
  6
CONTINUOUS
 62
1
 10
1044.791169
 20
1022.567711
 40
10.000000
 50
0.000000
 51
43.926123
  0
ARC
  8
0
  6
CONTINUOUS
 62
1
 10
1035.834224
 20
1018.406256
 40
10.000000
 50
0.000000
 51
45.801914
  0
LINE
  8
0
  6
CONTINUOUS
 62
1
 10
1048.345392
 20
1021.103032
 11
1048.345392
 21
1008.074720
  0
LINE
  8
0
  6
CONTINUOUS
 62
1
 10
1052.279985
 20
1021.110780
 11
1052.279985
 21
1008.074720
  0
ARC
  8
0
  6
CONTINUOUS
 62
1
 10
976.812720
 20
1031.742792
 40
1.967304
 50
359.774337
 51
180.000000
  0
ARC
  8
0
  6
CONTINUOUS
 62
1
 10
976.812705
 20
1031.259979
 40
3.500000
 50
2.022644
 51
177.977386
  0
LINE
  8
0
  6
CONTINUOUS
 62
1
 10
973.314857
 20
1031.383514
 11
972.337704
 21
1018.074735
  0
LINE
  8
0
  6
CONTINUOUS
 62
1
 10
980.310538
 20
1031.383514
 11
981.287704
 21
1018.074735
  0
LINE
  8
0
  6
CONTINUOUS
 62
1
 10
981.291177
 20
998.074705
 11
981.291177
 21
1018.074735
  0
LINE
  8
0
  6
CONTINUOUS
 62
1
 10
972.334231
 20
998.074705
 11
972.334231
 21
1018.074735
  0
LINE
  8
0
  6
CONTINUOUS
 62
1
 10
1045.834224
 20
1018.074735
 11
981.291177
 21
1018.074735
  0
LINE
  8
0
  6
CONTINUOUS
 62
1
 10
791.312712
 20
1278.074735
 11
798.834239
 21
1278.074735
  0
LINE
  8
0
  6
CONTINUOUS
 62
1
 10
1045.834224
 20
1278.074735
 11
981.291177
 21
1278.074735
  0
ARC
  8
0
  6
CONTINUOUS
 62
1
 10
920.623330
 20
730.074705
 40
2.000000
 50
270.000000
 51
348.987637
  0
ARC
  8
0
  6
CONTINUOUS
 62
1
 10
933.002152
 20
730.074705
 40
2.000000
 50
191.012566
 51
270.000000
  0
LINE
  8
0
  6
CONTINUOUS
 62
1
 10
922.334231
 20
738.847387
 11
921.028625
 21
756.027029
  0
LINE
  8
0
  6
CONTINUOUS
 62
1
 10
931.291177
 20
738.847387
 11
932.599775
 21
755.959834
  0
LINE
  8
0
  6
CONTINUOUS
 62
1
 10
922.334231
 20
729.038937
 11
922.334231
 21
738.847387
  0
LINE
  8
0
  6
CONTINUOUS
 62
1
 10
931.291177
 20
729.038937
 11
931.291177
 21
738.847387
  0
LINE
  8
0
  6
CONTINUOUS
 62
1
 10
924.845400
 20
741.300315
 11
924.845400
 21
825.049769
  0
LINE
  8
0
  6
CONTINUOUS
 62
1
 10
928.780008
 20
741.118498
 11
928.780008
 21
825.049769
  0
ARC
  8
0
  6
CONTINUOUS
 62
1
 10
926.812719
 20
825.057517
 40
1.967304
 50
359.774337
 51
180.000000
  0
ARC
  8
0
  6
CONTINUOUS
 62
1
 10
926.812719
 20
741.110749
 40
1.967304
 50
359.774337
 51
180.000000
  0
LINE
  8
0
  6
CONTINUOUS
 62
1
 10
924.881641
 20
741.486545
 11
922.586502
 21
729.692663
  0
LINE
  8
0
  6
CONTINUOUS
 62
1
 10
928.743796
 20
741.486552
 11
931.038982
 21
729.692656
  0
ARC
  8
0
  6
CONTINUOUS
 62
1
 10
926.812704
 20
824.574705
 40
3.500000
 50
2.022644
 51
177.977386
  0
ARC
  8
0
  6
CONTINUOUS
 62
1
 10
780.312704
 20
874.264079
 40
2.000000
 50
180.000000
 51
258.987637
  0
ARC
  8
0
  6
CONTINUOUS
 62
1
 10
780.312704
 20
861.885256
 40
2.000000
 50
101.012566
 51
180.000000
  0
LINE
  8
0
  6
CONTINUOUS
 62
1
 10
788.312704
 20
872.553178
 11
809.506281
 21
873.906888
  0
LINE
  8
0
  6
CONTINUOUS
 62
1
 10
788.312704
 20
863.596232
 11
810.450460
 21
862.272336
  0
LINE
  8
0
  6
CONTINUOUS
 62
1
 10
779.276936
 20
872.553178
 11
788.312704
 21
872.553178
  0
LINE
  8
0
  6
CONTINUOUS
 62
1
 10
779.276936
 20
863.596232
 11
788.312704
 21
863.596232
  0
LINE
  8
0
  6
CONTINUOUS
 62
1
 10
791.538315
 20
870.042009
 11
883.787768
 21
870.042009
  0
LINE
  8
0
  6
CONTINUOUS
 62
1
 10
791.356497
 20
866.107401
 11
883.787768
 21
866.107401
  0
ARC
  8
0
  6
CONTINUOUS
 62
1
 10
883.795517
 20
868.074689
 40
1.967304
 50
269.774337
 51
90.000000
  0
ARC
  8
0
  6
CONTINUOUS
 62
1
 10
791.348749
 20
868.074689
 40
1.967304
 50
269.774337
 51
90.000000
  0
LINE
  8
0
  6
CONTINUOUS
 62
1
 10
791.724545
 20
870.005768
 11
779.930663
 21
872.300907
  0
LINE
  8
0
  6
CONTINUOUS
 62
1
 10
791.724552
 20
866.143613
 11
779.930656
 21
863.848427
  0
ARC
  8
0
  6
CONTINUOUS
 62
1
 10
883.312704
 20
868.074705
 40
3.500000
 50
272.022644
 51
87.977386
  0
LINE
  8
0
  6
CONTINUOUS
 62
1
 10
883.436239
 20
871.572553
 11
809.506281
 21
873.906888
  0
LINE
  8
0
  6
CONTINUOUS
 62
1
 10
883.436239
 20
864.576871
 11
810.450460
 21
862.272336
  0
LINE
  8
0
  6
CONTINUOUS
 62
1
 10
791.312712
 20
738.074705
 11
798.834239
 21
738.074705
  0
LINE
  8
0
  6
CONTINUOUS
 62
1
 10
808.191644
 20
746.668873
 11
855.355459
 21
793.832688
  0
LINE
  8
0
  6
CONTINUOUS
 62
1
 10
804.291025
 20
748.324177
 11
852.573271
 21
796.614876
  0
ARC
  8
0
  6
CONTINUOUS
 62
1
 10
853.969833
 20
795.229272
 40
1.967304
 50
315.000000
 51
135.225663
  0
ARC
  8
0
  6
CONTINUOUS
 62
1
 10
853.628444
 20
794.887861
 40
3.500000
 50
317.022614
 51
132.977356
  0
LINE
  8
0
  6
CONTINUOUS
 62
1
 10
856.189149
 20
792.501861
 11
831.367405
 21
765.694011
  0
LINE
  8
0
  6
CONTINUOUS
 62
1
 10
851.242455
 20
797.448555
 11
823.381871
 21
771.652083
  0
LINE
  8
0
  6
CONTINUOUS
 62
1
 10
801.686916
 20
749.425770
 11
823.021544
 21
771.228154
  0
LINE
  8
0
  6
CONTINUOUS
 62
1
 10
810.761058
 20
745.641924
 11
834.839602
 21
769.444035
  0
LINE
  8
0
  6
CONTINUOUS
 62
1
 10
881.291177
 20
738.074705
 11
922.334231
 21
738.074705
  0
LINE
  8
0
  6
CONTINUOUS
 62
1
 10
788.312712
 20
863.596231
 11
788.312712
 21
822.553178
  0
LINE
  8
0
  6
CONTINUOUS
 62
1
 10
788.312712
 20
813.596232
 11
788.312712
 21
741.074705
  0
LINE
  8
0
  6
CONTINUOUS
 62
1
 10
922.334231
 20
997.302023
 11
920.812704
 21
983.050480
  0
LINE
  8
0
  6
CONTINUOUS
 62
1
 10
931.291177
 20
997.302023
 11
932.812704
 21
983.050480
  0
LINE
  8
0
  6
CONTINUOUS
 62
1
 10
922.334231
 20
1018.847417
 11
922.334231
 21
997.302023
  0
LINE
  8
0
  6
CONTINUOUS
 62
1
 10
931.291177
 20
1018.847417
 11
931.291177
 21
997.302023
  0
ARC
  8
0
  6
CONTINUOUS
 62
1
 10
926.812719
 20
911.091892
 40
1.967304
 50
180.000000
 51
0.225663
  0
ARC
  8
0
  6
CONTINUOUS
 62
1
 10
926.812704
 20
911.574705
 40
3.500000
 50
182.022614
 51
357.977356
  0
LINE
  8
0
  6
CONTINUOUS
 62
1
 10
923.314856
 20
911.451170
 11
920.997591
 21
980.123378
  0
LINE
  8
0
  6
CONTINUOUS
 62
1
 10
930.310537
 20
911.451170
 11
932.627816
 21
980.123379
  0
LINE
  8
0
  6
CONTINUOUS
 62
1
 10
791.312712
 20
998.074705
 11
798.834239
 21
998.074705
  0
LINE
  8
0
  6
CONTINUOUS
 62
1
 10
808.191644
 20
989.480537
 11
855.355459
 21
942.316721
  0
LINE
  8
0
  6
CONTINUOUS
 62
1
 10
804.291025
 20
987.825233
 11
852.573271
 21
939.534533
  0
ARC
  8
0
  6
CONTINUOUS
 62
1
 10
853.969833
 20
940.920138
 40
1.967304
 50
224.774337
 51
45.000000
  0
ARC
  8
0
  6
CONTINUOUS
 62
1
 10
853.628444
 20
941.261548
 40
3.500000
 50
227.022644
 51
42.977386
  0
LINE
  8
0
  6
CONTINUOUS
 62
1
 10
856.189149
 20
943.647548
 11
830.084370
 21
971.841095
  0
LINE
  8
0
  6
CONTINUOUS
 62
1
 10
851.242455
 20
938.700854
 11
819.354675
 21
968.226159
  0
LINE
  8
0
  6
CONTINUOUS
 62
1
 10
801.631890
 20
986.644426
 11
819.518232
 21
968.074720
  0
LINE
  8
0
  6
CONTINUOUS
 62
1
 10
810.819773
 20
990.573845
 11
830.084370
 21
971.841095
  0
LINE
  8
0
  6
CONTINUOUS
 62
1
 10
881.291177
 20
998.074705
 11
922.334231
 21
998.074705
  0
LINE
  8
0
  6
CONTINUOUS
 62
1
 10
788.312712
 20
922.553177
 11
788.312712
 21
995.074705
  0
LINE
  8
0
  6
CONTINUOUS
 62
1
 10
788.312712
 20
872.553178
 11
788.312712
 21
913.596231
  0
LINE
  8
0
  6
CONTINUOUS
 62
1
 10
1072.312704
 20
728.074705
 11
781.312712
 21
728.074705
  0
ARC
  8
0
  6
CONTINUOUS
 62
1
 10
781.312712
 20
731.074705
 40
3.000000
 50
180.000000
 51
270.000000
  0
CIRCLE
  8
0
  6
DASHED
 62
7
 10
926.812704
 20
737.074705
 40
2.500000
  0
CIRCLE
  8
0
  6
DASHED
 62
7
 10
926.812704
 20
737.074705
 40
5.000000
  0
ARC
  8
0
  6
CONTINUOUS
 62
1
 10
3424.146322
 20
1008.074720
 40
2620.833618
 50
183.258519
 51
184.780931
  0
ARC
  8
0
  6
CONTINUOUS
 62
1
 10
847.309714
 20
792.555362
 40
35.000000
 50
244.570090
 51
263.548633
  0
ARC
  8
0
  6
CONTINUOUS
 62
1
 10
833.568701
 20
763.655802
 40
3.000000
 50
137.202989
 51
244.570090
  0
ARC
  8
0
  6
CONTINUOUS
 62
1
 10
821.343663
 20
773.853379
 40
3.000000
 50
215.763225
 51
312.796998
  0
ARC
  8
0
  6
CONTINUOUS
 62
1
 10
810.545139
 20
859.273830
 40
3.000000
 50
91.808521
 51
183.258519
  0
ARC
  8
0
  6
CONTINUOUS
 62
1
 10
809.600958
 20
876.905394
 40
3.000000
 50
182.872068
 51
268.191489
  0
LINE
  8
0
  6
CONTINUOUS
 62
1
 10
930.310537
 20
824.698240
 11
932.596783
 21
756.027029
  0
LINE
  8
0
  6
CONTINUOUS
 62
1
 10
923.314871
 20
824.698240
 11
921.028625
 21
756.027029
  0
ARC
  8
0
  6
CONTINUOUS
 62
1
 10
918.030286
 20
756.126852
 40
3.000000
 50
269.319599
 51
358.093177
  0
ARC
  8
0
  6
CONTINUOUS
 62
1
 10
847.309714
 20
792.555362
 40
35.000000
 50
184.780931
 51
215.763225
  0
ARC
  8
0
  6
CONTINUOUS
 62
1
 10
935.595122
 20
756.126852
 40
3.000000
 50
181.906823
 51
270.680400
  0
ARC
  8
0
  6
CONTINUOUS
 62
1
 10
926.812708
 20
1495.649667
 40
742.574962
 50
263.548633
 51
269.319599
  0
ARC
  8
0
  6
CONTINUOUS
 62
1
 10
3424.146322
 20
1008.074720
 40
2620.833618
 50
181.450422
 51
182.872068
  0
ARC
  8
0
  6
CONTINUOUS
 62
1
 10
839.141201
 20
942.622278
 40
35.000000
 50
133.001926
 51
181.450422
  0
ARC
  8
0
  6
CONTINUOUS
 62
1
 10
817.316466
 20
966.024863
 40
3.000000
 50
47.203002
 51
133.001926
  0
ARC
  8
0
  6
CONTINUOUS
 62
1
 10
832.285666
 20
973.879304
 40
3.000000
 50
102.370677
 51
222.797011
  0
ARC
  8
0
  6
CONTINUOUS
 62
1
 10
839.141201
 20
942.622278
 40
35.000000
 50
97.117479
 51
102.370677
  0
LINE
  8
0
  6
CONTINUOUS
 62
1
 10
791.538475
 20
816.107401
 11
807.183964
 21
816.107401
  0
LINE
  8
0
  6
CONTINUOUS
 62
1
 10
791.545565
 20
820.040598
 11
807.183964
 21
820.042009
  0
ARC
  8
0
  6
CONTINUOUS
 62
1
 10
807.191712
 20
818.074720
 40
1.967304
 50
270.000000
 51
90.225663
  0
ARC
  8
0
  6
CONTINUOUS
 62
1
 10
806.708899
 20
818.074705
 40
3.500000
 50
272.022614
 51
87.977356
  0
LINE
  8
0
  6
CONTINUOUS
 62
1
 10
806.832435
 20
814.576856
 11
788.312712
 21
813.599704
  0
LINE
  8
0
  6
CONTINUOUS
 62
1
 10
806.832435
 20
821.572538
 11
788.312712
 21
822.549704
  0
LINE
  8
0
  6
CONTINUOUS
 62
1
 10
791.538480
 20
916.107401
 11
801.833534
 21
916.107401
  0
LINE
  8
0
  6
CONTINUOUS
 62
1
 10
791.409051
 20
920.041068
 11
801.833534
 21
920.042009
  0
ARC
  8
0
  6
CONTINUOUS
 62
1
 10
801.841282
 20
918.074720
 40
1.967304
 50
270.000000
 51
90.225663
  0
ARC
  8
0
  6
CONTINUOUS
 62
1
 10
801.358470
 20
918.074705
 40
3.500000
 50
272.022614
 51
87.977356
  0
LINE
  8
0
  6
CONTINUOUS
 62
1
 10
801.482005
 20
914.576856
 11
788.312712
 21
913.683227
  0
LINE
  8
0
  6
CONTINUOUS
 62
1
 10
801.482005
 20
921.572538
 11
788.312712
 21
922.549704
  0
ARC
  8
0
  6
CONTINUOUS
 62
1
 10
935.626110
 20
980.022204
 40
3.000000
 50
89.317199
 51
178.067341
  0
ARC
  8
0
  6
CONTINUOUS
 62
1
 10
917.999297
 20
980.022204
 40
3.000000
 50
1.932647
 51
90.682802
  0
ARC
  8
0
  6
CONTINUOUS
 62
1
 10
926.812708
 20
240.499758
 40
742.574962
 50
90.682802
 51
97.117479
  0
LINE
  8
0
  6
CONTINUOUS
 62
1
 10
878.780007
 20
741.300480
 11
878.780007
 21
751.735013
  0
LINE
  8
0
  6
CONTINUOUS
 62
1
 10
874.846340
 20
741.305146
 11
874.845399
 21
751.735013
  0
ARC
  8
0
  6
CONTINUOUS
 62
1
 10
876.812688
 20
751.742761
 40
1.967304
 50
0.000000
 51
180.225663
  0
ARC
  8
0
  6
CONTINUOUS
 62
1
 10
876.812703
 20
751.259949
 40
3.500000
 50
2.022614
 51
177.977356
  0
LINE
  8
0
  6
CONTINUOUS
 62
1
 10
880.310552
 20
751.383484
 11
881.287704
 21
738.074705
  0
LINE
  8
0
  6
CONTINUOUS
 62
1
 10
873.314870
 20
751.383484
 11
872.337704
 21
738.074705
  0
ARC
  8
0
  6
CONTINUOUS
 62
1
 10
780.312704
 20
924.264078
 40
2.000000
 50
180.000000
 51
258.987637
  0
ARC
  8
0
  6
CONTINUOUS
 62
1
 10
780.312704
 20
911.885256
 40
2.000000
 50
101.012566
 51
180.000000
  0
LINE
  8
0
  6
CONTINUOUS
 62
1
 10
779.276936
 20
922.553177
 11
788.312704
 21
922.553177
  0
LINE
  8
0
  6
CONTINUOUS
 62
1
 10
779.276936
 20
913.596231
 11
788.312704
 21
913.596231
  0
ARC
  8
0
  6
CONTINUOUS
 62
1
 10
791.348749
 20
918.074689
 40
1.967304
 50
269.774337
 51
90.000000
  0
LINE
  8
0
  6
CONTINUOUS
 62
1
 10
791.724545
 20
920.005767
 11
779.930663
 21
922.300906
  0
LINE
  8
0
  6
CONTINUOUS
 62
1
 10
791.724552
 20
916.143612
 11
779.930656
 21
913.848426
  0
ARC
  8
0
  6
CONTINUOUS
 62
1
 10
780.312704
 20
824.264079
 40
2.000000
 50
180.000000
 51
258.987637
  0
ARC
  8
0
  6
CONTINUOUS
 62
1
 10
780.312704
 20
811.885256
 40
2.000000
 50
101.012566
 51
180.000000
  0
LINE
  8
0
  6
CONTINUOUS
 62
1
 10
779.276936
 20
822.553178
 11
788.312704
 21
822.553178
  0
LINE
  8
0
  6
CONTINUOUS
 62
1
 10
779.276936
 20
813.596232
 11
788.312704
 21
813.596232
  0
ARC
  8
0
  6
CONTINUOUS
 62
1
 10
791.348749
 20
818.074689
 40
1.967304
 50
269.774337
 51
90.000000
  0
LINE
  8
0
  6
CONTINUOUS
 62
1
 10
791.724545
 20
820.005768
 11
779.930663
 21
822.300907
  0
LINE
  8
0
  6
CONTINUOUS
 62
1
 10
791.724552
 20
816.143613
 11
779.930656
 21
813.848427
  0
ARC
  8
0
  6
CONTINUOUS
 62
1
 10
870.623330
 20
730.074705
 40
2.000000
 50
270.000000
 51
348.987637
  0
ARC
  8
0
  6
CONTINUOUS
 62
1
 10
883.002152
 20
730.074705
 40
2.000000
 50
191.012566
 51
270.000000
  0
LINE
  8
0
  6
CONTINUOUS
 62
1
 10
872.334231
 20
729.038937
 11
872.334231
 21
738.074705
  0
LINE
  8
0
  6
CONTINUOUS
 62
1
 10
881.291177
 20
729.038937
 11
881.291177
 21
738.074705
  0
ARC
  8
0
  6
CONTINUOUS
 62
1
 10
876.812719
 20
741.110749
 40
1.967304
 50
359.774337
 51
180.000000
  0
LINE
  8
0
  6
CONTINUOUS
 62
1
 10
874.881641
 20
741.486545
 11
872.586502
 21
729.692663
  0
LINE
  8
0
  6
CONTINUOUS
 62
1
 10
878.743796
 20
741.486552
 11
881.038982
 21
729.692656
  0
ARC
  8
0
  6
CONTINUOUS
 62
1
 10
797.123337
 20
730.074705
 40
2.000000
 50
270.000000
 51
348.987637
  0
ARC
  8
0
  6
CONTINUOUS
 62
1
 10
809.502160
 20
730.074705
 40
2.000000
 50
191.012566
 51
270.000000
  0
LINE
  8
0
  6
CONTINUOUS
 62
1
 10
798.834239
 20
729.038937
 11
798.834239
 21
742.431788
  0
LINE
  8
0
  6
CONTINUOUS
 62
1
 10
807.791185
 20
729.038937
 11
807.791185
 21
738.530151
  0
ARC
  8
0
  6
CONTINUOUS
 62
1
 10
803.312727
 20
741.110749
 40
1.967304
 50
359.774337
 51
180.000000
  0
LINE
  8
0
  6
CONTINUOUS
 62
1
 10
801.381649
 20
741.486545
 11
799.086509
 21
729.692663
  0
LINE
  8
0
  6
CONTINUOUS
 62
1
 10
805.243804
 20
741.486552
 11
807.538989
 21
729.692656
  0
ARC
  8
0
  6
CONTINUOUS
 62
1
 10
817.791185
 20
738.530151
 40
10.000000
 50
134.669214
 51
180.000000
  0
ARC
  8
0
  6
CONTINUOUS
 62
1
 10
815.262712
 20
739.597805
 40
10.000000
 50
135.000000
 51
172.339633
  0
ARC
  8
0
  6
CONTINUOUS
 62
1
 10
811.362712
 20
741.253728
 40
10.000000
 50
135.005015
 51
180.000000
  0
ARC
  8
0
  6
CONTINUOUS
 62
1
 10
808.834239
 20
742.431788
 40
10.000000
 50
135.621263
 51
180.000000
  0
LINE
  8
0
  6
CONTINUOUS
 62
1
 10
798.834239
 20
1008.074720
 11
798.834239
 21
993.581729
  0
LINE
  8
0
  6
CONTINUOUS
 62
1
 10
807.791185
 20
1008.074705
 11
807.791185
 21
997.743184
  0
ARC
  8
0
  6
CONTINUOUS
 62
1
 10
815.262712
 20
996.551604
 40
10.000000
 50
187.660367
 51
225.000000
  0
ARC
  8
0
  6
CONTINUOUS
 62
1
 10
811.362712
 20
994.895682
 40
10.000000
 50
180.000000
 51
224.994985
  0
ARC
  8
0
  6
CONTINUOUS
 62
1
 10
808.834239
 20
993.581729
 40
10.000000
 50
180.000000
 51
223.926123
  0
ARC
  8
0
  6
CONTINUOUS
 62
1
 10
817.791185
 20
997.743184
 40
10.000000
 50
180.000000
 51
225.801914
  0
LINE
  8
0
  6
CONTINUOUS
 62
1
 10
805.280016
 20
995.046408
 11
805.280016
 21
1008.074720
  0
LINE
  8
0
  6
CONTINUOUS
 62
1
 10
801.345423
 20
995.038660
 11
801.345423
 21
1008.074720
  0
ARC
  8
0
  6
CONTINUOUS
 62
1
 10
876.812688
 20
984.406648
 40
1.967304
 50
179.774337
 51
0.000000
  0
ARC
  8
0
  6
CONTINUOUS
 62
1
 10
876.812703
 20
984.889461
 40
3.500000
 50
182.022644
 51
357.977386
  0
LINE
  8
0
  6
CONTINUOUS
 62
1
 10
880.310552
 20
984.765926
 11
881.287704
 21
998.074705
  0
LINE
  8
0
  6
CONTINUOUS
 62
1
 10
873.314870
 20
984.765926
 11
872.337704
 21
998.074705
  0
LINE
  8
0
  6
CONTINUOUS
 62
1
 10
872.334231
 20
1018.074735
 11
872.334231
 21
998.074705
  0
LINE
  8
0
  6
CONTINUOUS
 62
1
 10
881.291177
 20
1018.074735
 11
881.291177
 21
998.074705
  0
LINE
  8
0
  6
CONTINUOUS
 62
1
 10
807.791185
 20
998.074705
 11
872.334231
 21
998.074705
  0
ARC
  8
0
  6
CONTINUOUS
 62
1
 10
933.002079
 20
730.074705
 40
2.000000
 50
191.012363
 51
270.000000
  0
ARC
  8
0
  6
CONTINUOUS
 62
1
 10
920.623256
 20
730.074705
 40
2.000000
 50
270.000000
 51
348.987434
  0
LINE
  8
0
  6
CONTINUOUS
 62
1
 10
931.291177
 20
738.847387
 11
932.596783
 21
756.027029
  0
LINE
  8
0
  6
CONTINUOUS
 62
1
 10
922.334231
 20
738.847387
 11
921.025634
 21
755.959834
  0
LINE
  8
0
  6
CONTINUOUS
 62
1
 10
931.291177
 20
729.038937
 11
931.291177
 21
738.847387
  0
LINE
  8
0
  6
CONTINUOUS
 62
1
 10
922.334231
 20
729.038937
 11
922.334231
 21
738.847387
  0
LINE
  8
0
  6
CONTINUOUS
 62
1
 10
928.780008
 20
741.300315
 11
928.780008
 21
825.049769
  0
LINE
  8
0
  6
CONTINUOUS
 62
1
 10
924.845400
 20
741.118498
 11
924.845400
 21
825.049769
  0
ARC
  8
0
  6
CONTINUOUS
 62
1
 10
926.812689
 20
825.057517
 40
1.967304
 50
0.000000
 51
180.225663
  0
ARC
  8
0
  6
CONTINUOUS
 62
1
 10
926.812689
 20
741.110749
 40
1.967304
 50
0.000000
 51
180.225663
  0
LINE
  8
0
  6
CONTINUOUS
 62
1
 10
928.743767
 20
741.486545
 11
931.038907
 21
729.692663
  0
LINE
  8
0
  6
CONTINUOUS
 62
1
 10
924.881612
 20
741.486552
 11
922.586427
 21
729.692656
  0
ARC
  8
0
  6
CONTINUOUS
 62
1
 10
926.812704
 20
824.574705
 40
3.500000
 50
2.022614
 51
177.977356
  0
ARC
  8
0
  6
CONTINUOUS
 62
1
 10
1073.312704
 20
874.264079
 40
2.000000
 50
281.012363
 51
0.000000
  0
ARC
  8
0
  6
CONTINUOUS
 62
1
 10
1073.312704
 20
861.885256
 40
2.000000
 50
0.000000
 51
78.987434
  0
LINE
  8
0
  6
CONTINUOUS
 62
1
 10
1065.312704
 20
872.553178
 11
1044.119128
 21
873.906888
  0
LINE
  8
0
  6
CONTINUOUS
 62
1
 10
1065.312704
 20
863.596232
 11
1043.174948
 21
862.272336
  0
LINE
  8
0
  6
CONTINUOUS
 62
1
 10
1074.348472
 20
872.553178
 11
1065.312704
 21
872.553178
  0
LINE
  8
0
  6
CONTINUOUS
 62
1
 10
1074.348472
 20
863.596232
 11
1065.312704
 21
863.596232
  0
LINE
  8
0
  6
CONTINUOUS
 62
1
 10
1062.087094
 20
870.042009
 11
969.837640
 21
870.042009
  0
LINE
  8
0
  6
CONTINUOUS
 62
1
 10
1062.268911
 20
866.107401
 11
969.837640
 21
866.107401
  0
ARC
  8
0
  6
CONTINUOUS
 62
1
 10
969.829892
 20
868.074689
 40
1.967304
 50
90.000000
 51
270.225663
  0
ARC
  8
0
  6
CONTINUOUS
 62
1
 10
1062.276659
 20
868.074689
 40
1.967304
 50
90.000000
 51
270.225663
  0
LINE
  8
0
  6
CONTINUOUS
 62
1
 10
1061.900863
 20
870.005768
 11
1073.694746
 21
872.300907
  0
LINE
  8
0
  6
CONTINUOUS
 62
1
 10
1061.900857
 20
866.143613
 11
1073.694753
 21
863.848427
  0
ARC
  8
0
  6
CONTINUOUS
 62
1
 10
970.312704
 20
868.074705
 40
3.500000
 50
92.022614
 51
267.977356
  0
LINE
  8
0
  6
CONTINUOUS
 62
1
 10
970.189169
 20
871.572553
 11
1044.119128
 21
873.906888
  0
LINE
  8
0
  6
CONTINUOUS
 62
1
 10
970.189169
 20
864.576871
 11
1043.174948
 21
862.272336
  0
LINE
  8
0
  6
CONTINUOUS
 62
1
 10
1062.312697
 20
738.074705
 11
1054.791169
 21
738.074705
  0
LINE
  8
0
  6
CONTINUOUS
 62
1
 10
1045.433764
 20
746.668873
 11
998.269949
 21
793.832688
  0
LINE
  8
0
  6
CONTINUOUS
 62
1
 10
1049.334383
 20
748.324177
 11
1001.052137
 21
796.614876
  0
ARC
  8
0
  6
CONTINUOUS
 62
1
 10
999.655575
 20
795.229272
 40
1.967304
 50
44.774337
 51
225.000000
  0
ARC
  8
0
  6
CONTINUOUS
 62
1
 10
999.996964
 20
794.887861
 40
3.500000
 50
47.022644
 51
222.977386
  0
LINE
  8
0
  6
CONTINUOUS
 62
1
 10
997.436259
 20
792.501861
 11
1022.258003
 21
765.694011
  0
LINE
  8
0
  6
CONTINUOUS
 62
1
 10
1002.382953
 20
797.448555
 11
1030.243537
 21
771.652083
  0
LINE
  8
0
  6
CONTINUOUS
 62
1
 10
1051.938492
 20
749.425770
 11
1030.603864
 21
771.228154
  0
LINE
  8
0
  6
CONTINUOUS
 62
1
 10
1042.864350
 20
745.641924
 11
1018.785807
 21
769.444035
  0
LINE
  8
0
  6
CONTINUOUS
 62
1
 10
972.334231
 20
738.074705
 11
931.291177
 21
738.074705
  0
LINE
  8
0
  6
CONTINUOUS
 62
1
 10
1065.312697
 20
863.596231
 11
1065.312697
 21
822.553178
  0
LINE
  8
0
  6
CONTINUOUS
 62
1
 10
1065.312697
 20
813.596232
 11
1065.312697
 21
741.074705
  0
LINE
  8
0
  6
CONTINUOUS
 62
1
 10
931.291177
 20
997.302023
 11
932.812704
 21
983.050480
  0
LINE
  8
0
  6
CONTINUOUS
 62
1
 10
922.334231
 20
997.302023
 11
920.812704
 21
983.050480
  0
LINE
  8
0
  6
CONTINUOUS
 62
1
 10
931.291177
 20
1018.074735
 11
931.291177
 21
997.302023
  0
LINE
  8
0
  6
CONTINUOUS
 62
1
 10
922.334231
 20
1018.074735
 11
922.334231
 21
997.302023
  0
ARC
  8
0
  6
CONTINUOUS
 62
1
 10
926.812689
 20
911.091892
 40
1.967304
 50
179.774337
 51
0.000000
  0
ARC
  8
0
  6
CONTINUOUS
 62
1
 10
926.812704
 20
911.574705
 40
3.500000
 50
182.022644
 51
357.977386
  0
LINE
  8
0
  6
CONTINUOUS
 62
1
 10
930.310553
 20
911.451170
 11
932.627818
 21
980.123378
  0
LINE
  8
0
  6
CONTINUOUS
 62
1
 10
923.314871
 20
911.451170
 11
920.997592
 21
980.123379
  0
LINE
  8
0
  6
CONTINUOUS
 62
1
 10
1062.312697
 20
998.074705
 11
1054.791169
 21
998.074705
  0
LINE
  8
0
  6
CONTINUOUS
 62
1
 10
1045.433764
 20
989.480537
 11
998.269949
 21
942.316721
  0
LINE
  8
0
  6
CONTINUOUS
 62
1
 10
1049.334383
 20
987.825233
 11
1001.052137
 21
939.534533
  0
ARC
  8
0
  6
CONTINUOUS
 62
1
 10
999.655575
 20
940.920138
 40
1.967304
 50
135.000000
 51
315.225663
  0
ARC
  8
0
  6
CONTINUOUS
 62
1
 10
999.996964
 20
941.261548
 40
3.500000
 50
137.022614
 51
312.977356
  0
LINE
  8
0
  6
CONTINUOUS
 62
1
 10
997.436259
 20
943.647548
 11
1023.541038
 21
971.841095
  0
LINE
  8
0
  6
CONTINUOUS
 62
1
 10
1002.382953
 20
938.700854
 11
1034.270733
 21
968.226159
  0
LINE
  8
0
  6
CONTINUOUS
 62
1
 10
1051.993518
 20
986.644426
 11
1034.107176
 21
968.074720
  0
LINE
  8
0
  6
CONTINUOUS
 62
1
 10
1042.805635
 20
990.573845
 11
1023.541038
 21
971.841095
  0
LINE
  8
0
  6
CONTINUOUS
 62
1
 10
972.334231
 20
998.074705
 11
931.291177
 21
998.074705
  0
LINE
  8
0
  6
CONTINUOUS
 62
1
 10
1065.312697
 20
922.553177
 11
1065.312697
 21
995.074705
  0
LINE
  8
0
  6
CONTINUOUS
 62
1
 10
1065.312697
 20
872.553178
 11
1065.312697
 21
913.596231
  0
ARC
  8
0
  6
CONTINUOUS
 62
1
 10
1072.312697
 20
731.074705
 40
3.000000
 50
270.000000
 51
0.000000
  0
CIRCLE
  8
0
  6
DASHED
 62
7
 10
926.812704
 20
737.074705
 40
2.500000
  0
CIRCLE
  8
0
  6
DASHED
 62
7
 10
926.812704
 20
737.074705
 40
5.000000
  0
ARC
  8
0
  6
CONTINUOUS
 62
1
 10
-1570.520914
 20
1008.074720
 40
2620.833618
 50
355.219069
 51
356.741481
  0
ARC
  8
0
  6
CONTINUOUS
 62
1
 10
1006.315695
 20
792.555362
 40
35.000000
 50
276.451367
 51
295.429910
  0
ARC
  8
0
  6
CONTINUOUS
 62
1
 10
1020.056707
 20
763.655802
 40
3.000000
 50
295.429910
 51
42.797011
  0
ARC
  8
0
  6
CONTINUOUS
 62
1
 10
1032.281746
 20
773.853379
 40
3.000000
 50
227.203002
 51
324.236775
  0
ARC
  8
0
  6
CONTINUOUS
 62
1
 10
1043.080270
 20
859.273830
 40
3.000000
 50
356.741481
 51
88.191479
  0
ARC
  8
0
  6
CONTINUOUS
 62
1
 10
1044.024450
 20
876.905394
 40
3.000000
 50
271.808511
 51
357.127932
  0
LINE
  8
0
  6
CONTINUOUS
 62
1
 10
923.314871
 20
824.698240
 11
921.028625
 21
756.027029
  0
LINE
  8
0
  6
CONTINUOUS
 62
1
 10
930.310537
 20
824.698240
 11
932.596783
 21
756.027029
  0
ARC
  8
0
  6
CONTINUOUS
 62
1
 10
935.595122
 20
756.126852
 40
3.000000
 50
181.906823
 51
270.680401
  0
ARC
  8
0
  6
CONTINUOUS
 62
1
 10
1006.315695
 20
792.555362
 40
35.000000
 50
324.236775
 51
355.219069
  0
ARC
  8
0
  6
CONTINUOUS
 62
1
 10
918.030286
 20
756.126852
 40
3.000000
 50
269.319600
 51
358.093177
  0
ARC
  8
0
  6
CONTINUOUS
 62
1
 10
926.812700
 20
1495.649667
 40
742.574962
 50
270.680401
 51
276.451367
  0
ARC
  8
0
  6
CONTINUOUS
 62
1
 10
-1570.520914
 20
1008.074720
 40
2620.833618
 50
357.127932
 51
358.549578
  0
ARC
  8
0
  6
CONTINUOUS
 62
1
 10
1014.484208
 20
942.622278
 40
35.000000
 50
358.549578
 51
46.998074
  0
ARC
  8
0
  6
CONTINUOUS
 62
1
 10
1036.308942
 20
966.024863
 40
3.000000
 50
46.998074
 51
132.796998
  0
ARC
  8
0
  6
CONTINUOUS
 62
1
 10
1021.339742
 20
973.879304
 40
3.000000
 50
317.202989
 51
77.629323
  0
ARC
  8
0
  6
CONTINUOUS
 62
1
 10
1014.484208
 20
942.622278
 40
35.000000
 50
77.629323
 51
82.882521
  0
LINE
  8
0
  6
CONTINUOUS
 62
1
 10
1062.086933
 20
816.107401
 11
1046.441445
 21
816.107401
  0
LINE
  8
0
  6
CONTINUOUS
 62
1
 10
1062.079843
 20
820.040598
 11
1046.441445
 21
820.042009
  0
ARC
  8
0
  6
CONTINUOUS
 62
1
 10
1046.433696
 20
818.074720
 40
1.967304
 50
89.774337
 51
270.000000
  0
ARC
  8
0
  6
CONTINUOUS
 62
1
 10
1046.916509
 20
818.074705
 40
3.500000
 50
92.022644
 51
267.977386
  0
LINE
  8
0
  6
CONTINUOUS
 62
1
 10
1046.792974
 20
814.576856
 11
1065.312697
 21
813.599704
  0
LINE
  8
0
  6
CONTINUOUS
 62
1
 10
1046.792974
 20
821.572538
 11
1065.312697
 21
822.549704
  0
LINE
  8
0
  6
CONTINUOUS
 62
1
 10
1062.086928
 20
916.107401
 11
1051.791874
 21
916.107401
  0
LINE
  8
0
  6
CONTINUOUS
 62
1
 10
1062.216358
 20
920.041068
 11
1051.791874
 21
920.042009
  0
ARC
  8
0
  6
CONTINUOUS
 62
1
 10
1051.784126
 20
918.074720
 40
1.967304
 50
89.774337
 51
270.000000
  0
ARC
  8
0
  6
CONTINUOUS
 62
1
 10
1052.266938
 20
918.074705
 40
3.500000
 50
92.022644
 51
267.977386
  0
LINE
  8
0
  6
CONTINUOUS
 62
1
 10
1052.143403
 20
914.576856
 11
1065.312697
 21
913.683227
  0
LINE
  8
0
  6
CONTINUOUS
 62
1
 10
1052.143403
 20
921.572538
 11
1065.312697
 21
922.549704
  0
ARC
  8
0
  6
CONTINUOUS
 62
1
 10
917.999299
 20
980.022204
 40
3.000000
 50
1.932659
 51
90.682801
  0
ARC
  8
0
  6
CONTINUOUS
 62
1
 10
935.626111
 20
980.022204
 40
3.000000
 50
89.317198
 51
178.067353
  0
ARC
  8
0
  6
CONTINUOUS
 62
1
 10
926.812700
 20
240.499758
 40
742.574962
 50
82.882521
 51
89.317198
  0
LINE
  8
0
  6
CONTINUOUS
 62
1
 10
974.845401
 20
741.300480
 11
974.845401
 21
751.735013
  0
LINE
  8
0
  6
CONTINUOUS
 62
1
 10
978.779068
 20
741.305146
 11
978.780009
 21
751.735013
  0
ARC
  8
0
  6
CONTINUOUS
 62
1
 10
976.812720
 20
751.742761
 40
1.967304
 50
359.774337
 51
180.000000
  0
ARC
  8
0
  6
CONTINUOUS
 62
1
 10
976.812705
 20
751.259949
 40
3.500000
 50
2.022644
 51
177.977386
  0
LINE
  8
0
  6
CONTINUOUS
 62
1
 10
973.314857
 20
751.383484
 11
972.337704
 21
738.074705
  0
LINE
  8
0
  6
CONTINUOUS
 62
1
 10
980.310538
 20
751.383484
 11
981.287704
 21
738.074705
  0
ARC
  8
0
  6
CONTINUOUS
 62
1
 10
1073.312704
 20
924.264078
 40
2.000000
 50
281.012363
 51
0.000000
  0
ARC
  8
0
  6
CONTINUOUS
 62
1
 10
1073.312704
 20
911.885256
 40
2.000000
 50
0.000000
 51
78.987434
  0
LINE
  8
0
  6
CONTINUOUS
 62
1
 10
1074.348472
 20
922.553177
 11
1065.312704
 21
922.553177
  0
LINE
  8
0
  6
CONTINUOUS
 62
1
 10
1074.348472
 20
913.596231
 11
1065.312704
 21
913.596231
  0
ARC
  8
0
  6
CONTINUOUS
 62
1
 10
1062.276659
 20
918.074689
 40
1.967304
 50
90.000000
 51
270.225663
  0
LINE
  8
0
  6
CONTINUOUS
 62
1
 10
1061.900863
 20
920.005767
 11
1073.694746
 21
922.300906
  0
LINE
  8
0
  6
CONTINUOUS
 62
1
 10
1061.900857
 20
916.143612
 11
1073.694753
 21
913.848426
  0
ARC
  8
0
  6
CONTINUOUS
 62
1
 10
1073.312704
 20
824.264079
 40
2.000000
 50
281.012363
 51
0.000000
  0
ARC
  8
0
  6
CONTINUOUS
 62
1
 10
1073.312704
 20
811.885256
 40
2.000000
 50
0.000000
 51
78.987434
  0
LINE
  8
0
  6
CONTINUOUS
 62
1
 10
1074.348472
 20
822.553178
 11
1065.312704
 21
822.553178
  0
LINE
  8
0
  6
CONTINUOUS
 62
1
 10
1074.348472
 20
813.596232
 11
1065.312704
 21
813.596232
  0
ARC
  8
0
  6
CONTINUOUS
 62
1
 10
1062.276659
 20
818.074689
 40
1.967304
 50
90.000000
 51
270.225663
  0
LINE
  8
0
  6
CONTINUOUS
 62
1
 10
1061.900863
 20
820.005768
 11
1073.694746
 21
822.300907
  0
LINE
  8
0
  6
CONTINUOUS
 62
1
 10
1061.900857
 20
816.143613
 11
1073.694753
 21
813.848427
  0
ARC
  8
0
  6
CONTINUOUS
 62
1
 10
983.002079
 20
730.074705
 40
2.000000
 50
191.012363
 51
270.000000
  0
ARC
  8
0
  6
CONTINUOUS
 62
1
 10
970.623256
 20
730.074705
 40
2.000000
 50
270.000000
 51
348.987434
  0
LINE
  8
0
  6
CONTINUOUS
 62
1
 10
981.291177
 20
729.038937
 11
981.291177
 21
738.074705
  0
LINE
  8
0
  6
CONTINUOUS
 62
1
 10
972.334231
 20
729.038937
 11
972.334231
 21
738.074705
  0
ARC
  8
0
  6
CONTINUOUS
 62
1
 10
976.812689
 20
741.110749
 40
1.967304
 50
0.000000
 51
180.225663
  0
LINE
  8
0
  6
CONTINUOUS
 62
1
 10
978.743767
 20
741.486545
 11
981.038907
 21
729.692663
  0
LINE
  8
0
  6
CONTINUOUS
 62
1
 10
974.881612
 20
741.486552
 11
972.586427
 21
729.692656
  0
ARC
  8
0
  6
CONTINUOUS
 62
1
 10
1056.502071
 20
730.074705
 40
2.000000
 50
191.012363
 51
270.000000
  0
ARC
  8
0
  6
CONTINUOUS
 62
1
 10
1044.123248
 20
730.074705
 40
2.000000
 50
270.000000
 51
348.987434
  0
LINE
  8
0
  6
CONTINUOUS
 62
1
 10
1054.791169
 20
729.038937
 11
1054.791169
 21
742.431788
  0
LINE
  8
0
  6
CONTINUOUS
 62
1
 10
1045.834224
 20
729.038937
 11
1045.834224
 21
738.530151
  0
ARC
  8
0
  6
CONTINUOUS
 62
1
 10
1050.312681
 20
741.110749
 40
1.967304
 50
0.000000
 51
180.225663
  0
LINE
  8
0
  6
CONTINUOUS
 62
1
 10
1052.243759
 20
741.486545
 11
1054.538899
 21
729.692663
  0
LINE
  8
0
  6
CONTINUOUS
 62
1
 10
1048.381604
 20
741.486552
 11
1046.086419
 21
729.692656
  0
ARC
  8
0
  6
CONTINUOUS
 62
1
 10
1035.834224
 20
738.530151
 40
10.000000
 50
0.000000
 51
45.330786
  0
ARC
  8
0
  6
CONTINUOUS
 62
1
 10
1038.362697
 20
739.597805
 40
10.000000
 50
7.660367
 51
45.000000
  0
ARC
  8
0
  6
CONTINUOUS
 62
1
 10
1042.262697
 20
741.253728
 40
10.000000
 50
0.000000
 51
44.994985
  0
ARC
  8
0
  6
CONTINUOUS
 62
1
 10
1044.791169
 20
742.431788
 40
10.000000
 50
0.000000
 51
44.378737
  0
LINE
  8
0
  6
CONTINUOUS
 62
1
 10
1054.791169
 20
1008.074720
 11
1054.791169
 21
993.581729
  0
LINE
  8
0
  6
CONTINUOUS
 62
1
 10
1045.834224
 20
1008.074705
 11
1045.834224
 21
997.743184
  0
ARC
  8
0
  6
CONTINUOUS
 62
1
 10
1038.362697
 20
996.551604
 40
10.000000
 50
315.000000
 51
352.339633
  0
ARC
  8
0
  6
CONTINUOUS
 62
1
 10
1042.262697
 20
994.895682
 40
10.000000
 50
315.005015
 51
0.000000
  0
ARC
  8
0
  6
CONTINUOUS
 62
1
 10
1044.791169
 20
993.581729
 40
10.000000
 50
316.073877
 51
0.000000
  0
ARC
  8
0
  6
CONTINUOUS
 62
1
 10
1035.834224
 20
997.743184
 40
10.000000
 50
314.198086
 51
0.000000
  0
LINE
  8
0
  6
CONTINUOUS
 62
1
 10
1048.345392
 20
995.046408
 11
1048.345392
 21
1008.074720
  0
LINE
  8
0
  6
CONTINUOUS
 62
1
 10
1052.279985
 20
995.038660
 11
1052.279985
 21
1008.074720
  0
ARC
  8
0
  6
CONTINUOUS
 62
1
 10
976.812720
 20
984.406648
 40
1.967304
 50
180.000000
 51
0.225663
  0
ARC
  8
0
  6
CONTINUOUS
 62
1
 10
976.812705
 20
984.889461
 40
3.500000
 50
182.022614
 51
357.977356
  0
LINE
  8
0
  6
CONTINUOUS
 62
1
 10
973.314857
 20
984.765926
 11
972.337704
 21
998.074705
  0
LINE
  8
0
  6
CONTINUOUS
 62
1
 10
980.310538
 20
984.765926
 11
981.287704
 21
998.074705
  0
LINE
  8
0
  6
CONTINUOUS
 62
1
 10
1045.834224
 20
998.074705
 11
981.291177
 21
998.074705
  0
LINE
  8
0
  6
CONTINUOUS
 62
1
 10
807.791185
 20
738.074705
 11
872.334231
 21
738.074705
  0
LINE
  8
0
  6
CONTINUOUS
 62
1
 10
1045.834224
 20
738.074705
 11
981.291177
 21
738.074705
  0
LINE
  8
0
  6
CONTINUOUS
 62
1
 10
978.780009
 20
1031.735043
 11
978.780009
 21
984.398900
  0
LINE
  8
0
  6
CONTINUOUS
 62
1
 10
974.845432
 20
984.398900
 11
974.845416
 21
1031.742792
  0
LINE
  8
0
  6
CONTINUOUS
 62
1
 10
878.779992
 20
1031.742792
 11
878.779992
 21
984.406648
  0
LINE
  8
0
  6
CONTINUOUS
 62
1
 10
874.845384
 20
984.406648
 11
874.845399
 21
1031.735043
  0
ARC
  8
0
  6
CONTINUOUS
 62
1
 10
-1570.520914
 20
1008.074720
 40
2620.833618
 50
3.258519
 51
4.780931
  0
ARC
  8
0
  6
CONTINUOUS
 62
1
 10
926.812700
 20
520.499773
 40
742.574962
 50
83.548633
 51
89.319599
  0
LINE
  8
0
  6
DASHED
 62
7
 10
926.812708
 20
1288.074735
 11
928.071171
 21
1288.074735
  0
ARC
  8
0
  6
CONTINUOUS
 62
1
 10
1062.312697
 20
1275.074735
 40
3.000000
 50
0.000000
 51
90.000000
  0
ARC
  8
0
  6
CONTINUOUS
 62
1
 10
1062.312697
 20
1021.074735
 40
3.000000
 50
270.000000
 51
0.000000
  0
ARC
  8
0
  6
CONTINUOUS
 62
1
 10
1062.312697
 20
995.074705
 40
3.000000
 50
0.000000
 51
90.000000
  0
ARC
  8
0
  6
CONTINUOUS
 62
1
 10
1062.312697
 20
741.074705
 40
3.000000
 50
270.000000
 51
0.000000
  0
ARC
  8
0
  6
CONTINUOUS
 62
1
 10
791.312712
 20
741.074705
 40
3.000000
 50
180.000000
 51
270.000000
  0
ARC
  8
0
  6
CONTINUOUS
 62
1
 10
791.312712
 20
995.074705
 40
3.000000
 50
90.000000
 51
180.000000
  0
ARC
  8
0
  6
CONTINUOUS
 62
1
 10
791.312712
 20
1021.074735
 40
3.000000
 50
180.000000
 51
270.000000
  0
ARC
  8
0
  6
CONTINUOUS
 62
1
 10
1220.623330
 20
1286.074735
 40
2.000000
 50
11.012363
 51
90.000000
  0
ARC
  8
0
  6
CONTINUOUS
 62
1
 10
1233.002152
 20
1286.074735
 40
2.000000
 50
90.000000
 51
168.987434
  0
LINE
  8
0
  6
CONTINUOUS
 62
1
 10
1222.334231
 20
1277.302053
 11
1221.028625
 21
1260.122411
  0
LINE
  8
0
  6
CONTINUOUS
 62
1
 10
1231.291177
 20
1277.302053
 11
1232.599775
 21
1260.189606
  0
LINE
  8
0
  6
CONTINUOUS
 62
1
 10
1222.334231
 20
1287.110503
 11
1222.334231
 21
1277.302053
  0
LINE
  8
0
  6
CONTINUOUS
 62
1
 10
1231.291177
 20
1287.110503
 11
1231.291177
 21
1277.302053
  0
LINE
  8
0
  6
CONTINUOUS
 62
1
 10
1224.845400
 20
1274.849125
 11
1224.845400
 21
1191.099671
  0
LINE
  8
0
  6
CONTINUOUS
 62
1
 10
1228.780008
 20
1275.030942
 11
1228.780008
 21
1191.099671
  0
ARC
  8
0
  6
CONTINUOUS
 62
1
 10
1226.812719
 20
1191.091923
 40
1.967304
 50
180.000000
 51
0.225663
  0
ARC
  8
0
  6
CONTINUOUS
 62
1
 10
1226.812719
 20
1275.038690
 40
1.967304
 50
180.000000
 51
0.225663
  0
LINE
  8
0
  6
CONTINUOUS
 62
1
 10
1224.881641
 20
1274.662894
 11
1222.586502
 21
1286.456777
  0
LINE
  8
0
  6
CONTINUOUS
 62
1
 10
1228.743796
 20
1274.662888
 11
1231.038982
 21
1286.456784
  0
ARC
  8
0
  6
CONTINUOUS
 62
1
 10
1226.812704
 20
1191.574735
 40
3.500000
 50
182.022614
 51
357.977356
  0
ARC
  8
0
  6
CONTINUOUS
 62
1
 10
1080.312704
 20
1141.885361
 40
2.000000
 50
101.012363
 51
180.000000
  0
ARC
  8
0
  6
CONTINUOUS
 62
1
 10
1080.312704
 20
1154.264183
 40
2.000000
 50
180.000000
 51
258.987434
  0
LINE
  8
0
  6
CONTINUOUS
 62
1
 10
1088.312704
 20
1143.596262
 11
1109.506281
 21
1142.242552
  0
LINE
  8
0
  6
CONTINUOUS
 62
1
 10
1088.312704
 20
1152.553208
 11
1110.450460
 21
1153.877104
  0
LINE
  8
0
  6
CONTINUOUS
 62
1
 10
1079.276936
 20
1143.596262
 11
1088.312704
 21
1143.596262
  0
LINE
  8
0
  6
CONTINUOUS
 62
1
 10
1079.276936
 20
1152.553208
 11
1088.312704
 21
1152.553208
  0
LINE
  8
0
  6
CONTINUOUS
 62
1
 10
1091.538315
 20
1146.107431
 11
1183.787768
 21
1146.107431
  0
LINE
  8
0
  6
CONTINUOUS
 62
1
 10
1091.356497
 20
1150.042039
 11
1183.787768
 21
1150.042039
  0
ARC
  8
0
  6
CONTINUOUS
 62
1
 10
1183.795517
 20
1148.074750
 40
1.967304
 50
270.000000
 51
90.225663
  0
ARC
  8
0
  6
CONTINUOUS
 62
1
 10
1091.348749
 20
1148.074750
 40
1.967304
 50
270.000000
 51
90.225663
  0
LINE
  8
0
  6
CONTINUOUS
 62
1
 10
1091.724545
 20
1146.143672
 11
1079.930663
 21
1143.848533
  0
LINE
  8
0
  6
CONTINUOUS
 62
1
 10
1091.724552
 20
1150.005827
 11
1079.930656
 21
1152.301013
  0
ARC
  8
0
  6
CONTINUOUS
 62
1
 10
1183.312704
 20
1148.074735
 40
3.500000
 50
272.022614
 51
87.977356
  0
LINE
  8
0
  6
CONTINUOUS
 62
1
 10
1183.436239
 20
1144.576887
 11
1109.506281
 21
1142.242552
  0
LINE
  8
0
  6
CONTINUOUS
 62
1
 10
1183.436239
 20
1151.572568
 11
1110.450460
 21
1153.877104
  0
LINE
  8
0
  6
CONTINUOUS
 62
1
 10
1091.312712
 20
1278.074735
 11
1098.834239
 21
1278.074735
  0
LINE
  8
0
  6
CONTINUOUS
 62
1
 10
1108.191644
 20
1269.480567
 11
1155.355459
 21
1222.316752
  0
LINE
  8
0
  6
CONTINUOUS
 62
1
 10
1104.291025
 20
1267.825263
 11
1152.573271
 21
1219.534564
  0
ARC
  8
0
  6
CONTINUOUS
 62
1
 10
1153.969833
 20
1220.920168
 40
1.967304
 50
224.774337
 51
45.000000
  0
ARC
  8
0
  6
CONTINUOUS
 62
1
 10
1153.628444
 20
1221.261579
 40
3.500000
 50
227.022644
 51
42.977386
  0
LINE
  8
0
  6
CONTINUOUS
 62
1
 10
1156.189149
 20
1223.647579
 11
1131.367405
 21
1250.455429
  0
LINE
  8
0
  6
CONTINUOUS
 62
1
 10
1151.242455
 20
1218.700885
 11
1123.381871
 21
1244.497357
  0
LINE
  8
0
  6
CONTINUOUS
 62
1
 10
1101.686916
 20
1266.723670
 11
1123.021544
 21
1244.921286
  0
LINE
  8
0
  6
CONTINUOUS
 62
1
 10
1110.761058
 20
1270.507516
 11
1134.839602
 21
1246.705405
  0
LINE
  8
0
  6
CONTINUOUS
 62
1
 10
1181.291177
 20
1278.074735
 11
1222.334231
 21
1278.074735
  0
LINE
  8
0
  6
CONTINUOUS
 62
1
 10
1088.312712
 20
1152.553208
 11
1088.312712
 21
1193.596262
  0
LINE
  8
0
  6
CONTINUOUS
 62
1
 10
1088.312712
 20
1202.553208
 11
1088.312712
 21
1275.074735
  0
LINE
  8
0
  6
CONTINUOUS
 62
1
 10
1222.334231
 20
1018.847417
 11
1220.812704
 21
1033.098960
  0
LINE
  8
0
  6
CONTINUOUS
 62
1
 10
1231.291177
 20
1018.847417
 11
1232.812704
 21
1033.098960
  0
LINE
  8
0
  6
CONTINUOUS
 62
1
 10
1224.845400
 20
911.091923
 11
1224.845400
 21
1105.049799
  0
LINE
  8
0
  6
CONTINUOUS
 62
1
 10
1228.780008
 20
911.084174
 11
1228.780008
 21
1105.049799
  0
ARC
  8
0
  6
CONTINUOUS
 62
1
 10
1226.812719
 20
1105.057548
 40
1.967304
 50
359.774337
 51
180.000000
  0
ARC
  8
0
  6
CONTINUOUS
 62
1
 10
1226.812704
 20
1104.574735
 40
3.500000
 50
2.022644
 51
177.977386
  0
LINE
  8
0
  6
CONTINUOUS
 62
1
 10
1223.314856
 20
1104.698270
 11
1220.997591
 21
1036.026062
  0
LINE
  8
0
  6
CONTINUOUS
 62
1
 10
1230.310537
 20
1104.698270
 11
1232.627816
 21
1036.026061
  0
LINE
  8
0
  6
CONTINUOUS
 62
1
 10
1091.312712
 20
1018.074735
 11
1098.834239
 21
1018.074735
  0
LINE
  8
0
  6
CONTINUOUS
 62
1
 10
1108.191644
 20
1026.668903
 11
1155.355459
 21
1073.832719
  0
LINE
  8
0
  6
CONTINUOUS
 62
1
 10
1104.291025
 20
1028.324207
 11
1152.573271
 21
1076.614907
  0
ARC
  8
0
  6
CONTINUOUS
 62
1
 10
1153.969833
 20
1075.229302
 40
1.967304
 50
315.000000
 51
135.225663
  0
ARC
  8
0
  6
CONTINUOUS
 62
1
 10
1153.628444
 20
1074.887892
 40
3.500000
 50
317.022614
 51
132.977356
  0
LINE
  8
0
  6
CONTINUOUS
 62
1
 10
1156.189149
 20
1072.501892
 11
1130.084370
 21
1044.308345
  0
LINE
  8
0
  6
CONTINUOUS
 62
1
 10
1151.242455
 20
1077.448586
 11
1119.354675
 21
1047.923280
  0
LINE
  8
0
  6
CONTINUOUS
 62
1
 10
1101.631890
 20
1029.505014
 11
1119.518232
 21
1048.074720
  0
LINE
  8
0
  6
CONTINUOUS
 62
1
 10
1110.819773
 20
1025.575595
 11
1130.084370
 21
1044.308345
  0
LINE
  8
0
  6
CONTINUOUS
 62
1
 10
1181.291177
 20
1018.074735
 11
1222.334231
 21
1018.074735
  0
LINE
  8
0
  6
CONTINUOUS
 62
1
 10
1088.312712
 20
1093.596263
 11
1088.312712
 21
1021.074735
  0
LINE
  8
0
  6
CONTINUOUS
 62
1
 10
1088.312712
 20
1143.596262
 11
1088.312712
 21
1102.553209
  0
LINE
  8
0
  6
CONTINUOUS
 62
1
 10
1078.312712
 20
1285.074735
 11
1078.312712
 21
731.074705
  0
LINE
  8
0
  6
CONTINUOUS
 62
1
 10
1372.312704
 20
1288.074735
 11
1081.312712
 21
1288.074735
  0
ARC
  8
0
  6
CONTINUOUS
 62
1
 10
1081.312712
 20
1285.074735
 40
3.000000
 50
90.000000
 51
180.000000
  0
LINE
  8
0
  6
CONTINUOUS
 62
1
 10
1375.312704
 20
1285.074735
 11
1375.312704
 21
731.074705
  0
ARC
  8
0
  6
CONTINUOUS
 62
1
 10
3724.146322
 20
1008.074720
 40
2620.833618
 50
175.219069
 51
176.741481
  0
ARC
  8
0
  6
CONTINUOUS
 62
1
 10
1147.309714
 20
1223.594078
 40
35.000000
 50
96.451367
 51
115.429910
  0
ARC
  8
0
  6
CONTINUOUS
 62
1
 10
1133.568701
 20
1252.493638
 40
3.000000
 50
115.429910
 51
222.797011
  0
ARC
  8
0
  6
CONTINUOUS
 62
1
 10
1121.343663
 20
1242.296061
 40
3.000000
 50
47.203002
 51
144.236775
  0
ARC
  8
0
  6
CONTINUOUS
 62
1
 10
1110.545139
 20
1156.875610
 40
3.000000
 50
176.741481
 51
268.191479
  0
ARC
  8
0
  6
CONTINUOUS
 62
1
 10
1109.600958
 20
1139.244046
 40
3.000000
 50
91.808511
 51
177.127932
  0
LINE
  8
0
  6
CONTINUOUS
 62
1
 10
1230.310537
 20
1191.451200
 11
1232.596783
 21
1260.122411
  0
LINE
  8
0
  6
CONTINUOUS
 62
1
 10
1223.314871
 20
1191.451200
 11
1221.028625
 21
1260.122411
  0
ARC
  8
0
  6
CONTINUOUS
 62
1
 10
1218.030286
 20
1260.022588
 40
3.000000
 50
1.906823
 51
90.680401
  0
ARC
  8
0
  6
CONTINUOUS
 62
1
 10
1147.309714
 20
1223.594078
 40
35.000000
 50
144.236775
 51
175.219069
  0
ARC
  8
0
  6
CONTINUOUS
 62
1
 10
1235.595122
 20
1260.022588
 40
3.000000
 50
89.319600
 51
178.093177
  0
ARC
  8
0
  6
CONTINUOUS
 62
1
 10
1226.812708
 20
520.499773
 40
742.574962
 50
90.680401
 51
96.451367
  0
ARC
  8
0
  6
CONTINUOUS
 62
1
 10
3724.146322
 20
1008.074720
 40
2620.833618
 50
177.127932
 51
178.549578
  0
ARC
  8
0
  6
CONTINUOUS
 62
1
 10
1139.141201
 20
1073.527162
 40
35.000000
 50
178.549578
 51
226.998074
  0
ARC
  8
0
  6
CONTINUOUS
 62
1
 10
1117.316466
 20
1050.124577
 40
3.000000
 50
226.998074
 51
312.796998
  0
ARC
  8
0
  6
CONTINUOUS
 62
1
 10
1132.285666
 20
1042.270136
 40
3.000000
 50
137.202989
 51
257.629323
  0
ARC
  8
0
  6
CONTINUOUS
 62
1
 10
1139.141201
 20
1073.527162
 40
35.000000
 50
257.629323
 51
262.882521
  0
LINE
  8
0
  6
CONTINUOUS
 62
1
 10
1091.538475
 20
1200.042039
 11
1107.183964
 21
1200.042039
  0
LINE
  8
0
  6
CONTINUOUS
 62
1
 10
1091.545565
 20
1196.108842
 11
1107.183964
 21
1196.107431
  0
ARC
  8
0
  6
CONTINUOUS
 62
1
 10
1107.191712
 20
1198.074720
 40
1.967304
 50
269.774337
 51
90.000000
  0
ARC
  8
0
  6
CONTINUOUS
 62
1
 10
1106.708899
 20
1198.074735
 40
3.500000
 50
272.022644
 51
87.977386
  0
LINE
  8
0
  6
CONTINUOUS
 62
1
 10
1106.832435
 20
1201.572584
 11
1088.312712
 21
1202.549736
  0
LINE
  8
0
  6
CONTINUOUS
 62
1
 10
1106.832435
 20
1194.576902
 11
1088.312712
 21
1193.599736
  0
LINE
  8
0
  6
CONTINUOUS
 62
1
 10
1091.538480
 20
1100.042039
 11
1101.833534
 21
1100.042039
  0
LINE
  8
0
  6
CONTINUOUS
 62
1
 10
1091.409051
 20
1096.108372
 11
1101.833534
 21
1096.107431
  0
ARC
  8
0
  6
CONTINUOUS
 62
1
 10
1101.841282
 20
1098.074720
 40
1.967304
 50
269.774337
 51
90.000000
  0
ARC
  8
0
  6
CONTINUOUS
 62
1
 10
1101.358470
 20
1098.074735
 40
3.500000
 50
272.022644
 51
87.977386
  0
LINE
  8
0
  6
CONTINUOUS
 62
1
 10
1101.482005
 20
1101.572584
 11
1088.312712
 21
1102.466213
  0
LINE
  8
0
  6
CONTINUOUS
 62
1
 10
1101.482005
 20
1094.576902
 11
1088.312712
 21
1093.599736
  0
ARC
  8
0
  6
CONTINUOUS
 62
1
 10
1235.626110
 20
1036.127236
 40
3.000000
 50
181.932659
 51
270.682801
  0
ARC
  8
0
  6
CONTINUOUS
 62
1
 10
1217.999297
 20
1036.127236
 40
3.000000
 50
269.317198
 51
358.067353
  0
ARC
  8
0
  6
CONTINUOUS
 62
1
 10
1226.812708
 20
1775.649682
 40
742.574962
 50
262.882521
 51
269.317198
  0
LINE
  8
0
  6
CONTINUOUS
 62
1
 10
1178.780007
 20
1274.848960
 11
1178.780007
 21
1264.414427
  0
LINE
  8
0
  6
CONTINUOUS
 62
1
 10
1174.846340
 20
1274.844294
 11
1174.845399
 21
1264.414427
  0
ARC
  8
0
  6
CONTINUOUS
 62
1
 10
1176.812688
 20
1264.406679
 40
1.967304
 50
179.774337
 51
0.000000
  0
ARC
  8
0
  6
CONTINUOUS
 62
1
 10
1176.812703
 20
1264.889491
 40
3.500000
 50
182.022644
 51
357.977386
  0
LINE
  8
0
  6
CONTINUOUS
 62
1
 10
1180.310552
 20
1264.765956
 11
1181.287704
 21
1278.074735
  0
LINE
  8
0
  6
CONTINUOUS
 62
1
 10
1173.314870
 20
1264.765956
 11
1172.337704
 21
1278.074735
  0
ARC
  8
0
  6
CONTINUOUS
 62
1
 10
1080.312704
 20
1091.885362
 40
2.000000
 50
101.012363
 51
180.000000
  0
ARC
  8
0
  6
CONTINUOUS
 62
1
 10
1080.312704
 20
1104.264184
 40
2.000000
 50
180.000000
 51
258.987434
  0
LINE
  8
0
  6
CONTINUOUS
 62
1
 10
1079.276936
 20
1093.596263
 11
1088.312704
 21
1093.596263
  0
LINE
  8
0
  6
CONTINUOUS
 62
1
 10
1079.276936
 20
1102.553209
 11
1088.312704
 21
1102.553209
  0
ARC
  8
0
  6
CONTINUOUS
 62
1
 10
1091.348749
 20
1098.074751
 40
1.967304
 50
270.000000
 51
90.225663
  0
LINE
  8
0
  6
CONTINUOUS
 62
1
 10
1091.724545
 20
1096.143673
 11
1079.930663
 21
1093.848534
  0
LINE
  8
0
  6
CONTINUOUS
 62
1
 10
1091.724552
 20
1100.005828
 11
1079.930656
 21
1102.301014
  0
ARC
  8
0
  6
CONTINUOUS
 62
1
 10
1080.312704
 20
1191.885361
 40
2.000000
 50
101.012363
 51
180.000000
  0
ARC
  8
0
  6
CONTINUOUS
 62
1
 10
1080.312704
 20
1204.264183
 40
2.000000
 50
180.000000
 51
258.987434
  0
LINE
  8
0
  6
CONTINUOUS
 62
1
 10
1079.276936
 20
1193.596262
 11
1088.312704
 21
1193.596262
  0
LINE
  8
0
  6
CONTINUOUS
 62
1
 10
1079.276936
 20
1202.553208
 11
1088.312704
 21
1202.553208
  0
ARC
  8
0
  6
CONTINUOUS
 62
1
 10
1091.348749
 20
1198.074750
 40
1.967304
 50
270.000000
 51
90.225663
  0
LINE
  8
0
  6
CONTINUOUS
 62
1
 10
1091.724545
 20
1196.143672
 11
1079.930663
 21
1193.848533
  0
LINE
  8
0
  6
CONTINUOUS
 62
1
 10
1091.724552
 20
1200.005827
 11
1079.930656
 21
1202.301013
  0
ARC
  8
0
  6
CONTINUOUS
 62
1
 10
1170.623330
 20
1286.074735
 40
2.000000
 50
11.012363
 51
90.000000
  0
ARC
  8
0
  6
CONTINUOUS
 62
1
 10
1183.002152
 20
1286.074735
 40
2.000000
 50
90.000000
 51
168.987434
  0
LINE
  8
0
  6
CONTINUOUS
 62
1
 10
1172.334231
 20
1287.110503
 11
1172.334231
 21
1278.074735
  0
LINE
  8
0
  6
CONTINUOUS
 62
1
 10
1181.291177
 20
1287.110503
 11
1181.291177
 21
1278.074735
  0
ARC
  8
0
  6
CONTINUOUS
 62
1
 10
1176.812719
 20
1275.038690
 40
1.967304
 50
180.000000
 51
0.225663
  0
LINE
  8
0
  6
CONTINUOUS
 62
1
 10
1174.881641
 20
1274.662894
 11
1172.586502
 21
1286.456777
  0
LINE
  8
0
  6
CONTINUOUS
 62
1
 10
1178.743796
 20
1274.662888
 11
1181.038982
 21
1286.456784
  0
ARC
  8
0
  6
CONTINUOUS
 62
1
 10
1097.123337
 20
1286.074735
 40
2.000000
 50
11.012363
 51
90.000000
  0
ARC
  8
0
  6
CONTINUOUS
 62
1
 10
1109.502160
 20
1286.074735
 40
2.000000
 50
90.000000
 51
168.987434
  0
LINE
  8
0
  6
CONTINUOUS
 62
1
 10
1098.834239
 20
1287.110503
 11
1098.834239
 21
1273.717652
  0
LINE
  8
0
  6
CONTINUOUS
 62
1
 10
1107.791185
 20
1287.110503
 11
1107.791185
 21
1277.619289
  0
ARC
  8
0
  6
CONTINUOUS
 62
1
 10
1103.312727
 20
1275.038690
 40
1.967304
 50
180.000000
 51
0.225663
  0
LINE
  8
0
  6
CONTINUOUS
 62
1
 10
1101.381649
 20
1274.662894
 11
1099.086509
 21
1286.456777
  0
LINE
  8
0
  6
CONTINUOUS
 62
1
 10
1105.243804
 20
1274.662888
 11
1107.538989
 21
1286.456784
  0
ARC
  8
0
  6
CONTINUOUS
 62
1
 10
1117.791185
 20
1277.619289
 40
10.000000
 50
180.000000
 51
225.330786
  0
ARC
  8
0
  6
CONTINUOUS
 62
1
 10
1115.262712
 20
1276.551635
 40
10.000000
 50
187.660367
 51
225.000000
  0
ARC
  8
0
  6
CONTINUOUS
 62
1
 10
1111.362712
 20
1274.895712
 40
10.000000
 50
180.000000
 51
224.994985
  0
ARC
  8
0
  6
CONTINUOUS
 62
1
 10
1108.834239
 20
1273.717652
 40
10.000000
 50
180.000000
 51
224.378737
  0
LINE
  8
0
  6
CONTINUOUS
 62
1
 10
1098.834239
 20
1008.074720
 11
1098.834239
 21
1022.567711
  0
LINE
  8
0
  6
CONTINUOUS
 62
1
 10
1107.791185
 20
1008.074735
 11
1107.791185
 21
1018.406256
  0
ARC
  8
0
  6
CONTINUOUS
 62
1
 10
1115.262712
 20
1019.597835
 40
10.000000
 50
135.000000
 51
172.339633
  0
ARC
  8
0
  6
CONTINUOUS
 62
1
 10
1111.362712
 20
1021.253758
 40
10.000000
 50
135.005015
 51
180.000000
  0
ARC
  8
0
  6
CONTINUOUS
 62
1
 10
1108.834239
 20
1022.567711
 40
10.000000
 50
136.073877
 51
180.000000
  0
ARC
  8
0
  6
CONTINUOUS
 62
1
 10
1117.791185
 20
1018.406256
 40
10.000000
 50
134.198086
 51
180.000000
  0
LINE
  8
0
  6
CONTINUOUS
 62
1
 10
1105.280016
 20
1021.103032
 11
1105.280016
 21
1008.074720
  0
LINE
  8
0
  6
CONTINUOUS
 62
1
 10
1101.345423
 20
1021.110780
 11
1101.345423
 21
1008.074720
  0
ARC
  8
0
  6
CONTINUOUS
 62
1
 10
1176.812688
 20
1031.742792
 40
1.967304
 50
0.000000
 51
180.225663
  0
ARC
  8
0
  6
CONTINUOUS
 62
1
 10
1176.812703
 20
1031.259979
 40
3.500000
 50
2.022614
 51
177.977356
  0
LINE
  8
0
  6
CONTINUOUS
 62
1
 10
1180.310552
 20
1031.383514
 11
1181.287704
 21
1018.074735
  0
LINE
  8
0
  6
CONTINUOUS
 62
1
 10
1173.314870
 20
1031.383514
 11
1172.337704
 21
1018.074735
  0
LINE
  8
0
  6
CONTINUOUS
 62
1
 10
1107.791185
 20
1018.074735
 11
1172.334231
 21
1018.074735
  0
ARC
  8
0
  6
CONTINUOUS
 62
1
 10
1233.002079
 20
1286.074735
 40
2.000000
 50
90.000000
 51
168.987637
  0
ARC
  8
0
  6
CONTINUOUS
 62
1
 10
1220.623256
 20
1286.074735
 40
2.000000
 50
11.012566
 51
90.000000
  0
LINE
  8
0
  6
CONTINUOUS
 62
1
 10
1231.291177
 20
1277.302053
 11
1232.596783
 21
1260.122411
  0
LINE
  8
0
  6
CONTINUOUS
 62
1
 10
1222.334231
 20
1277.302053
 11
1221.025634
 21
1260.189606
  0
LINE
  8
0
  6
CONTINUOUS
 62
1
 10
1231.291177
 20
1287.110503
 11
1231.291177
 21
1277.302053
  0
LINE
  8
0
  6
CONTINUOUS
 62
1
 10
1222.334231
 20
1287.110503
 11
1222.334231
 21
1277.302053
  0
LINE
  8
0
  6
CONTINUOUS
 62
1
 10
1228.780008
 20
1274.849125
 11
1228.780008
 21
1191.099671
  0
LINE
  8
0
  6
CONTINUOUS
 62
1
 10
1224.845400
 20
1275.030942
 11
1224.845400
 21
1191.099671
  0
ARC
  8
0
  6
CONTINUOUS
 62
1
 10
1226.812689
 20
1191.091923
 40
1.967304
 50
179.774337
 51
0.000000
  0
ARC
  8
0
  6
CONTINUOUS
 62
1
 10
1226.812689
 20
1275.038690
 40
1.967304
 50
179.774337
 51
0.000000
  0
LINE
  8
0
  6
CONTINUOUS
 62
1
 10
1228.743767
 20
1274.662894
 11
1231.038907
 21
1286.456777
  0
LINE
  8
0
  6
CONTINUOUS
 62
1
 10
1224.881612
 20
1274.662888
 11
1222.586427
 21
1286.456784
  0
ARC
  8
0
  6
CONTINUOUS
 62
1
 10
1226.812704
 20
1191.574735
 40
3.500000
 50
182.022644
 51
357.977386
  0
ARC
  8
0
  6
CONTINUOUS
 62
1
 10
1373.312704
 20
1141.885361
 40
2.000000
 50
0.000000
 51
78.987637
  0
ARC
  8
0
  6
CONTINUOUS
 62
1
 10
1373.312704
 20
1154.264183
 40
2.000000
 50
281.012566
 51
0.000000
  0
LINE
  8
0
  6
CONTINUOUS
 62
1
 10
1365.312704
 20
1143.596262
 11
1344.119128
 21
1142.242552
  0
LINE
  8
0
  6
CONTINUOUS
 62
1
 10
1365.312704
 20
1152.553208
 11
1343.174948
 21
1153.877104
  0
LINE
  8
0
  6
CONTINUOUS
 62
1
 10
1374.348472
 20
1143.596262
 11
1365.312704
 21
1143.596262
  0
LINE
  8
0
  6
CONTINUOUS
 62
1
 10
1374.348472
 20
1152.553208
 11
1365.312704
 21
1152.553208
  0
LINE
  8
0
  6
CONTINUOUS
 62
1
 10
1362.087094
 20
1146.107431
 11
1269.837640
 21
1146.107431
  0
LINE
  8
0
  6
CONTINUOUS
 62
1
 10
1362.268911
 20
1150.042039
 11
1269.837640
 21
1150.042039
  0
ARC
  8
0
  6
CONTINUOUS
 62
1
 10
1269.829892
 20
1148.074750
 40
1.967304
 50
89.774337
 51
270.000000
  0
ARC
  8
0
  6
CONTINUOUS
 62
1
 10
1362.276659
 20
1148.074750
 40
1.967304
 50
89.774337
 51
270.000000
  0
LINE
  8
0
  6
CONTINUOUS
 62
1
 10
1361.900863
 20
1146.143672
 11
1373.694746
 21
1143.848533
  0
LINE
  8
0
  6
CONTINUOUS
 62
1
 10
1361.900857
 20
1150.005827
 11
1373.694753
 21
1152.301013
  0
ARC
  8
0
  6
CONTINUOUS
 62
1
 10
1270.312704
 20
1148.074735
 40
3.500000
 50
92.022644
 51
267.977386
  0
LINE
  8
0
  6
CONTINUOUS
 62
1
 10
1270.189169
 20
1144.576887
 11
1344.119128
 21
1142.242552
  0
LINE
  8
0
  6
CONTINUOUS
 62
1
 10
1270.189169
 20
1151.572568
 11
1343.174948
 21
1153.877104
  0
LINE
  8
0
  6
CONTINUOUS
 62
1
 10
1362.312697
 20
1278.074735
 11
1354.791169
 21
1278.074735
  0
LINE
  8
0
  6
CONTINUOUS
 62
1
 10
1345.433764
 20
1269.480567
 11
1298.269949
 21
1222.316752
  0
LINE
  8
0
  6
CONTINUOUS
 62
1
 10
1349.334383
 20
1267.825263
 11
1301.052137
 21
1219.534564
  0
ARC
  8
0
  6
CONTINUOUS
 62
1
 10
1299.655575
 20
1220.920168
 40
1.967304
 50
135.000000
 51
315.225663
  0
ARC
  8
0
  6
CONTINUOUS
 62
1
 10
1299.996964
 20
1221.261579
 40
3.500000
 50
137.022614
 51
312.977356
  0
LINE
  8
0
  6
CONTINUOUS
 62
1
 10
1297.436259
 20
1223.647579
 11
1322.258003
 21
1250.455429
  0
LINE
  8
0
  6
CONTINUOUS
 62
1
 10
1302.382953
 20
1218.700885
 11
1330.243537
 21
1244.497357
  0
LINE
  8
0
  6
CONTINUOUS
 62
1
 10
1351.938492
 20
1266.723670
 11
1330.603864
 21
1244.921286
  0
LINE
  8
0
  6
CONTINUOUS
 62
1
 10
1342.864350
 20
1270.507516
 11
1318.785807
 21
1246.705405
  0
LINE
  8
0
  6
CONTINUOUS
 62
1
 10
1272.334231
 20
1278.074735
 11
1231.291177
 21
1278.074735
  0
LINE
  8
0
  6
CONTINUOUS
 62
1
 10
1365.312697
 20
1152.553208
 11
1365.312697
 21
1193.596262
  0
LINE
  8
0
  6
CONTINUOUS
 62
1
 10
1365.312697
 20
1202.553208
 11
1365.312697
 21
1275.074735
  0
LINE
  8
0
  6
CONTINUOUS
 62
1
 10
1231.291177
 20
1018.847417
 11
1232.812704
 21
1033.098960
  0
LINE
  8
0
  6
CONTINUOUS
 62
1
 10
1222.334231
 20
1018.847417
 11
1220.812704
 21
1033.098960
  0
ARC
  8
0
  6
CONTINUOUS
 62
1
 10
1226.812689
 20
1105.057548
 40
1.967304
 50
0.000000
 51
180.225663
  0
ARC
  8
0
  6
CONTINUOUS
 62
1
 10
1226.812704
 20
1104.574735
 40
3.500000
 50
2.022614
 51
177.977356
  0
LINE
  8
0
  6
CONTINUOUS
 62
1
 10
1230.310553
 20
1104.698270
 11
1232.627818
 21
1036.026062
  0
LINE
  8
0
  6
CONTINUOUS
 62
1
 10
1223.314871
 20
1104.698270
 11
1220.997592
 21
1036.026061
  0
LINE
  8
0
  6
CONTINUOUS
 62
1
 10
1362.312697
 20
1018.074735
 11
1354.791169
 21
1018.074735
  0
LINE
  8
0
  6
CONTINUOUS
 62
1
 10
1345.433764
 20
1026.668903
 11
1298.269949
 21
1073.832719
  0
LINE
  8
0
  6
CONTINUOUS
 62
1
 10
1349.334383
 20
1028.324207
 11
1301.052137
 21
1076.614907
  0
ARC
  8
0
  6
CONTINUOUS
 62
1
 10
1299.655575
 20
1075.229302
 40
1.967304
 50
44.774337
 51
225.000000
  0
ARC
  8
0
  6
CONTINUOUS
 62
1
 10
1299.996964
 20
1074.887892
 40
3.500000
 50
47.022644
 51
222.977386
  0
LINE
  8
0
  6
CONTINUOUS
 62
1
 10
1297.436259
 20
1072.501892
 11
1323.541038
 21
1044.308345
  0
LINE
  8
0
  6
CONTINUOUS
 62
1
 10
1302.382953
 20
1077.448586
 11
1334.270733
 21
1047.923280
  0
LINE
  8
0
  6
CONTINUOUS
 62
1
 10
1351.993518
 20
1029.505014
 11
1334.107176
 21
1048.074720
  0
LINE
  8
0
  6
CONTINUOUS
 62
1
 10
1342.805635
 20
1025.575595
 11
1323.541038
 21
1044.308345
  0
LINE
  8
0
  6
CONTINUOUS
 62
1
 10
1272.334231
 20
1018.074735
 11
1231.291177
 21
1018.074735
  0
LINE
  8
0
  6
CONTINUOUS
 62
1
 10
1365.312697
 20
1093.596263
 11
1365.312697
 21
1021.074735
  0
LINE
  8
0
  6
CONTINUOUS
 62
1
 10
1365.312697
 20
1143.596262
 11
1365.312697
 21
1102.553209
  0
ARC
  8
0
  6
CONTINUOUS
 62
1
 10
1372.312697
 20
1285.074735
 40
3.000000
 50
0.000000
 51
90.000000
  0
ARC
  8
0
  6
CONTINUOUS
 62
1
 10
1306.315695
 20
1223.594078
 40
35.000000
 50
64.570090
 51
83.548633
  0
ARC
  8
0
  6
CONTINUOUS
 62
1
 10
1320.056707
 20
1252.493638
 40
3.000000
 50
317.202989
 51
64.570090
  0
ARC
  8
0
  6
CONTINUOUS
 62
1
 10
1332.281746
 20
1242.296061
 40
3.000000
 50
35.763225
 51
132.796998
  0
ARC
  8
0
  6
CONTINUOUS
 62
1
 10
1343.080270
 20
1156.875610
 40
3.000000
 50
271.808521
 51
3.258519
  0
ARC
  8
0
  6
CONTINUOUS
 62
1
 10
1344.024450
 20
1139.244046
 40
3.000000
 50
2.872068
 51
88.191489
  0
LINE
  8
0
  6
CONTINUOUS
 62
1
 10
1223.314871
 20
1191.451200
 11
1221.028625
 21
1260.122411
  0
LINE
  8
0
  6
CONTINUOUS
 62
1
 10
1230.310537
 20
1191.451200
 11
1232.596783
 21
1260.122411
  0
ARC
  8
0
  6
CONTINUOUS
 62
1
 10
1235.595122
 20
1260.022588
 40
3.000000
 50
89.319599
 51
178.093177
  0
ARC
  8
0
  6
CONTINUOUS
 62
1
 10
1306.315695
 20
1223.594078
 40
35.000000
 50
4.780931
 51
35.763225
  0
ARC
  8
0
  6
CONTINUOUS
 62
1
 10
1218.030286
 20
1260.022588
 40
3.000000
 50
1.906823
 51
90.680400
  0
ARC
  8
0
  6
CONTINUOUS
 62
1
 10
-1270.520914
 20
1008.074720
 40
2620.833618
 50
1.450422
 51
2.872068
  0
ARC
  8
0
  6
CONTINUOUS
 62
1
 10
1314.484208
 20
1073.527162
 40
35.000000
 50
313.001926
 51
1.450422
  0
ARC
  8
0
  6
CONTINUOUS
 62
1
 10
1336.308942
 20
1050.124577
 40
3.000000
 50
227.203002
 51
313.001926
  0
ARC
  8
0
  6
CONTINUOUS
 62
1
 10
1321.339742
 20
1042.270136
 40
3.000000
 50
282.370677
 51
42.797011
  0
ARC
  8
0
  6
CONTINUOUS
 62
1
 10
1314.484208
 20
1073.527162
 40
35.000000
 50
277.117479
 51
282.370677
  0
LINE
  8
0
  6
CONTINUOUS
 62
1
 10
1362.086933
 20
1200.042039
 11
1346.441445
 21
1200.042039
  0
LINE
  8
0
  6
CONTINUOUS
 62
1
 10
1362.079843
 20
1196.108842
 11
1346.441445
 21
1196.107431
  0
ARC
  8
0
  6
CONTINUOUS
 62
1
 10
1346.433696
 20
1198.074720
 40
1.967304
 50
90.000000
 51
270.225663
  0
ARC
  8
0
  6
CONTINUOUS
 62
1
 10
1346.916509
 20
1198.074735
 40
3.500000
 50
92.022614
 51
267.977356
  0
LINE
  8
0
  6
CONTINUOUS
 62
1
 10
1346.792974
 20
1201.572584
 11
1365.312697
 21
1202.549736
  0
LINE
  8
0
  6
CONTINUOUS
 62
1
 10
1346.792974
 20
1194.576902
 11
1365.312697
 21
1193.599736
  0
LINE
  8
0
  6
CONTINUOUS
 62
1
 10
1362.086928
 20
1100.042039
 11
1351.791874
 21
1100.042039
  0
LINE
  8
0
  6
CONTINUOUS
 62
1
 10
1362.216358
 20
1096.108372
 11
1351.791874
 21
1096.107431
  0
ARC
  8
0
  6
CONTINUOUS
 62
1
 10
1351.784126
 20
1098.074720
 40
1.967304
 50
90.000000
 51
270.225663
  0
ARC
  8
0
  6
CONTINUOUS
 62
1
 10
1352.266938
 20
1098.074735
 40
3.500000
 50
92.022614
 51
267.977356
  0
LINE
  8
0
  6
CONTINUOUS
 62
1
 10
1352.143403
 20
1101.572584
 11
1365.312697
 21
1102.466213
  0
LINE
  8
0
  6
CONTINUOUS
 62
1
 10
1352.143403
 20
1094.576902
 11
1365.312697
 21
1093.599736
  0
ARC
  8
0
  6
CONTINUOUS
 62
1
 10
1217.999299
 20
1036.127236
 40
3.000000
 50
269.317199
 51
358.067341
  0
ARC
  8
0
  6
CONTINUOUS
 62
1
 10
1235.626111
 20
1036.127236
 40
3.000000
 50
181.932647
 51
270.682802
  0
ARC
  8
0
  6
CONTINUOUS
 62
1
 10
1226.812700
 20
1775.649682
 40
742.574962
 50
270.682802
 51
277.117479
  0
LINE
  8
0
  6
CONTINUOUS
 62
1
 10
1274.845401
 20
1274.848960
 11
1274.845401
 21
1264.414427
  0
LINE
  8
0
  6
CONTINUOUS
 62
1
 10
1278.779068
 20
1274.844294
 11
1278.780009
 21
1264.414427
  0
ARC
  8
0
  6
CONTINUOUS
 62
1
 10
1276.812720
 20
1264.406679
 40
1.967304
 50
180.000000
 51
0.225663
  0
ARC
  8
0
  6
CONTINUOUS
 62
1
 10
1276.812705
 20
1264.889491
 40
3.500000
 50
182.022614
 51
357.977356
  0
LINE
  8
0
  6
CONTINUOUS
 62
1
 10
1273.314857
 20
1264.765956
 11
1272.337704
 21
1278.074735
  0
LINE
  8
0
  6
CONTINUOUS
 62
1
 10
1280.310538
 20
1264.765956
 11
1281.287704
 21
1278.074735
  0
ARC
  8
0
  6
CONTINUOUS
 62
1
 10
1373.312704
 20
1091.885362
 40
2.000000
 50
0.000000
 51
78.987637
  0
ARC
  8
0
  6
CONTINUOUS
 62
1
 10
1373.312704
 20
1104.264184
 40
2.000000
 50
281.012566
 51
0.000000
  0
LINE
  8
0
  6
CONTINUOUS
 62
1
 10
1374.348472
 20
1093.596263
 11
1365.312704
 21
1093.596263
  0
LINE
  8
0
  6
CONTINUOUS
 62
1
 10
1374.348472
 20
1102.553209
 11
1365.312704
 21
1102.553209
  0
ARC
  8
0
  6
CONTINUOUS
 62
1
 10
1362.276659
 20
1098.074751
 40
1.967304
 50
89.774337
 51
270.000000
  0
LINE
  8
0
  6
CONTINUOUS
 62
1
 10
1361.900863
 20
1096.143673
 11
1373.694746
 21
1093.848534
  0
LINE
  8
0
  6
CONTINUOUS
 62
1
 10
1361.900857
 20
1100.005828
 11
1373.694753
 21
1102.301014
  0
ARC
  8
0
  6
CONTINUOUS
 62
1
 10
1373.312704
 20
1191.885361
 40
2.000000
 50
0.000000
 51
78.987637
  0
ARC
  8
0
  6
CONTINUOUS
 62
1
 10
1373.312704
 20
1204.264183
 40
2.000000
 50
281.012566
 51
0.000000
  0
LINE
  8
0
  6
CONTINUOUS
 62
1
 10
1374.348472
 20
1193.596262
 11
1365.312704
 21
1193.596262
  0
LINE
  8
0
  6
CONTINUOUS
 62
1
 10
1374.348472
 20
1202.553208
 11
1365.312704
 21
1202.553208
  0
ARC
  8
0
  6
CONTINUOUS
 62
1
 10
1362.276659
 20
1198.074750
 40
1.967304
 50
89.774337
 51
270.000000
  0
LINE
  8
0
  6
CONTINUOUS
 62
1
 10
1361.900863
 20
1196.143672
 11
1373.694746
 21
1193.848533
  0
LINE
  8
0
  6
CONTINUOUS
 62
1
 10
1361.900857
 20
1200.005827
 11
1373.694753
 21
1202.301013
  0
ARC
  8
0
  6
CONTINUOUS
 62
1
 10
1283.002079
 20
1286.074735
 40
2.000000
 50
90.000000
 51
168.987637
  0
ARC
  8
0
  6
CONTINUOUS
 62
1
 10
1270.623256
 20
1286.074735
 40
2.000000
 50
11.012566
 51
90.000000
  0
LINE
  8
0
  6
CONTINUOUS
 62
1
 10
1281.291177
 20
1287.110503
 11
1281.291177
 21
1278.074735
  0
LINE
  8
0
  6
CONTINUOUS
 62
1
 10
1272.334231
 20
1287.110503
 11
1272.334231
 21
1278.074735
  0
ARC
  8
0
  6
CONTINUOUS
 62
1
 10
1276.812689
 20
1275.038690
 40
1.967304
 50
179.774337
 51
0.000000
  0
LINE
  8
0
  6
CONTINUOUS
 62
1
 10
1278.743767
 20
1274.662894
 11
1281.038907
 21
1286.456777
  0
LINE
  8
0
  6
CONTINUOUS
 62
1
 10
1274.881612
 20
1274.662888
 11
1272.586427
 21
1286.456784
  0
ARC
  8
0
  6
CONTINUOUS
 62
1
 10
1356.502071
 20
1286.074735
 40
2.000000
 50
90.000000
 51
168.987637
  0
ARC
  8
0
  6
CONTINUOUS
 62
1
 10
1344.123248
 20
1286.074735
 40
2.000000
 50
11.012566
 51
90.000000
  0
LINE
  8
0
  6
CONTINUOUS
 62
1
 10
1354.791169
 20
1287.110503
 11
1354.791169
 21
1273.717652
  0
LINE
  8
0
  6
CONTINUOUS
 62
1
 10
1345.834224
 20
1287.110503
 11
1345.834224
 21
1277.619289
  0
ARC
  8
0
  6
CONTINUOUS
 62
1
 10
1350.312681
 20
1275.038690
 40
1.967304
 50
179.774337
 51
0.000000
  0
LINE
  8
0
  6
CONTINUOUS
 62
1
 10
1352.243759
 20
1274.662894
 11
1354.538899
 21
1286.456777
  0
LINE
  8
0
  6
CONTINUOUS
 62
1
 10
1348.381604
 20
1274.662888
 11
1346.086419
 21
1286.456784
  0
ARC
  8
0
  6
CONTINUOUS
 62
1
 10
1335.834224
 20
1277.619289
 40
10.000000
 50
314.669214
 51
0.000000
  0
ARC
  8
0
  6
CONTINUOUS
 62
1
 10
1338.362697
 20
1276.551635
 40
10.000000
 50
315.000000
 51
352.339633
  0
ARC
  8
0
  6
CONTINUOUS
 62
1
 10
1342.262697
 20
1274.895712
 40
10.000000
 50
315.005015
 51
0.000000
  0
ARC
  8
0
  6
CONTINUOUS
 62
1
 10
1344.791169
 20
1273.717652
 40
10.000000
 50
315.621263
 51
0.000000
  0
LINE
  8
0
  6
CONTINUOUS
 62
1
 10
1354.791169
 20
1008.074720
 11
1354.791169
 21
1022.567711
  0
LINE
  8
0
  6
CONTINUOUS
 62
1
 10
1345.834224
 20
1008.074735
 11
1345.834224
 21
1018.406256
  0
ARC
  8
0
  6
CONTINUOUS
 62
1
 10
1338.362697
 20
1019.597835
 40
10.000000
 50
7.660367
 51
45.000000
  0
ARC
  8
0
  6
CONTINUOUS
 62
1
 10
1342.262697
 20
1021.253758
 40
10.000000
 50
0.000000
 51
44.994985
  0
ARC
  8
0
  6
CONTINUOUS
 62
1
 10
1344.791169
 20
1022.567711
 40
10.000000
 50
0.000000
 51
43.926123
  0
ARC
  8
0
  6
CONTINUOUS
 62
1
 10
1335.834224
 20
1018.406256
 40
10.000000
 50
0.000000
 51
45.801914
  0
LINE
  8
0
  6
CONTINUOUS
 62
1
 10
1348.345392
 20
1021.103032
 11
1348.345392
 21
1008.074720
  0
LINE
  8
0
  6
CONTINUOUS
 62
1
 10
1352.279985
 20
1021.110780
 11
1352.279985
 21
1008.074720
  0
ARC
  8
0
  6
CONTINUOUS
 62
1
 10
1276.812720
 20
1031.742792
 40
1.967304
 50
359.774337
 51
180.000000
  0
ARC
  8
0
  6
CONTINUOUS
 62
1
 10
1276.812705
 20
1031.259979
 40
3.500000
 50
2.022644
 51
177.977386
  0
LINE
  8
0
  6
CONTINUOUS
 62
1
 10
1273.314857
 20
1031.383514
 11
1272.337704
 21
1018.074735
  0
LINE
  8
0
  6
CONTINUOUS
 62
1
 10
1280.310538
 20
1031.383514
 11
1281.287704
 21
1018.074735
  0
LINE
  8
0
  6
CONTINUOUS
 62
1
 10
1281.291177
 20
998.074705
 11
1281.291177
 21
1018.074735
  0
LINE
  8
0
  6
CONTINUOUS
 62
1
 10
1272.334231
 20
998.074705
 11
1272.334231
 21
1018.074735
  0
LINE
  8
0
  6
CONTINUOUS
 62
1
 10
1345.834224
 20
1018.074735
 11
1281.291177
 21
1018.074735
  0
LINE
  8
0
  6
CONTINUOUS
 62
1
 10
1091.312712
 20
1278.074735
 11
1098.834239
 21
1278.074735
  0
LINE
  8
0
  6
CONTINUOUS
 62
1
 10
1345.834224
 20
1278.074735
 11
1281.291177
 21
1278.074735
  0
ARC
  8
0
  6
CONTINUOUS
 62
1
 10
1220.623330
 20
730.074705
 40
2.000000
 50
270.000000
 51
348.987637
  0
ARC
  8
0
  6
CONTINUOUS
 62
1
 10
1233.002152
 20
730.074705
 40
2.000000
 50
191.012566
 51
270.000000
  0
LINE
  8
0
  6
CONTINUOUS
 62
1
 10
1222.334231
 20
738.847387
 11
1221.028625
 21
756.027029
  0
LINE
  8
0
  6
CONTINUOUS
 62
1
 10
1231.291177
 20
738.847387
 11
1232.599775
 21
755.959834
  0
LINE
  8
0
  6
CONTINUOUS
 62
1
 10
1222.334231
 20
729.038937
 11
1222.334231
 21
738.847387
  0
LINE
  8
0
  6
CONTINUOUS
 62
1
 10
1231.291177
 20
729.038937
 11
1231.291177
 21
738.847387
  0
LINE
  8
0
  6
CONTINUOUS
 62
1
 10
1224.845400
 20
741.300315
 11
1224.845400
 21
825.049769
  0
LINE
  8
0
  6
CONTINUOUS
 62
1
 10
1228.780008
 20
741.118498
 11
1228.780008
 21
825.049769
  0
ARC
  8
0
  6
CONTINUOUS
 62
1
 10
1226.812719
 20
825.057517
 40
1.967304
 50
359.774337
 51
180.000000
  0
ARC
  8
0
  6
CONTINUOUS
 62
1
 10
1226.812719
 20
741.110749
 40
1.967304
 50
359.774337
 51
180.000000
  0
LINE
  8
0
  6
CONTINUOUS
 62
1
 10
1224.881641
 20
741.486545
 11
1222.586502
 21
729.692663
  0
LINE
  8
0
  6
CONTINUOUS
 62
1
 10
1228.743796
 20
741.486552
 11
1231.038982
 21
729.692656
  0
ARC
  8
0
  6
CONTINUOUS
 62
1
 10
1226.812704
 20
824.574705
 40
3.500000
 50
2.022644
 51
177.977386
  0
ARC
  8
0
  6
CONTINUOUS
 62
1
 10
1080.312704
 20
874.264079
 40
2.000000
 50
180.000000
 51
258.987637
  0
ARC
  8
0
  6
CONTINUOUS
 62
1
 10
1080.312704
 20
861.885256
 40
2.000000
 50
101.012566
 51
180.000000
  0
LINE
  8
0
  6
CONTINUOUS
 62
1
 10
1088.312704
 20
872.553178
 11
1109.506281
 21
873.906888
  0
LINE
  8
0
  6
CONTINUOUS
 62
1
 10
1088.312704
 20
863.596232
 11
1110.450460
 21
862.272336
  0
LINE
  8
0
  6
CONTINUOUS
 62
1
 10
1079.276936
 20
872.553178
 11
1088.312704
 21
872.553178
  0
LINE
  8
0
  6
CONTINUOUS
 62
1
 10
1079.276936
 20
863.596232
 11
1088.312704
 21
863.596232
  0
LINE
  8
0
  6
CONTINUOUS
 62
1
 10
1091.538315
 20
870.042009
 11
1183.787768
 21
870.042009
  0
LINE
  8
0
  6
CONTINUOUS
 62
1
 10
1091.356497
 20
866.107401
 11
1183.787768
 21
866.107401
  0
ARC
  8
0
  6
CONTINUOUS
 62
1
 10
1183.795517
 20
868.074689
 40
1.967304
 50
269.774337
 51
90.000000
  0
ARC
  8
0
  6
CONTINUOUS
 62
1
 10
1091.348749
 20
868.074689
 40
1.967304
 50
269.774337
 51
90.000000
  0
LINE
  8
0
  6
CONTINUOUS
 62
1
 10
1091.724545
 20
870.005768
 11
1079.930663
 21
872.300907
  0
LINE
  8
0
  6
CONTINUOUS
 62
1
 10
1091.724552
 20
866.143613
 11
1079.930656
 21
863.848427
  0
ARC
  8
0
  6
CONTINUOUS
 62
1
 10
1183.312704
 20
868.074705
 40
3.500000
 50
272.022644
 51
87.977386
  0
LINE
  8
0
  6
CONTINUOUS
 62
1
 10
1183.436239
 20
871.572553
 11
1109.506281
 21
873.906888
  0
LINE
  8
0
  6
CONTINUOUS
 62
1
 10
1183.436239
 20
864.576871
 11
1110.450460
 21
862.272336
  0
LINE
  8
0
  6
CONTINUOUS
 62
1
 10
1091.312712
 20
738.074705
 11
1098.834239
 21
738.074705
  0
LINE
  8
0
  6
CONTINUOUS
 62
1
 10
1108.191644
 20
746.668873
 11
1155.355459
 21
793.832688
  0
LINE
  8
0
  6
CONTINUOUS
 62
1
 10
1104.291025
 20
748.324177
 11
1152.573271
 21
796.614876
  0
ARC
  8
0
  6
CONTINUOUS
 62
1
 10
1153.969833
 20
795.229272
 40
1.967304
 50
315.000000
 51
135.225663
  0
ARC
  8
0
  6
CONTINUOUS
 62
1
 10
1153.628444
 20
794.887861
 40
3.500000
 50
317.022614
 51
132.977356
  0
LINE
  8
0
  6
CONTINUOUS
 62
1
 10
1156.189149
 20
792.501861
 11
1131.367405
 21
765.694011
  0
LINE
  8
0
  6
CONTINUOUS
 62
1
 10
1151.242455
 20
797.448555
 11
1123.381871
 21
771.652083
  0
LINE
  8
0
  6
CONTINUOUS
 62
1
 10
1101.686916
 20
749.425770
 11
1123.021544
 21
771.228154
  0
LINE
  8
0
  6
CONTINUOUS
 62
1
 10
1110.761058
 20
745.641924
 11
1134.839602
 21
769.444035
  0
LINE
  8
0
  6
CONTINUOUS
 62
1
 10
1181.291177
 20
738.074705
 11
1222.334231
 21
738.074705
  0
LINE
  8
0
  6
CONTINUOUS
 62
1
 10
1088.312712
 20
863.596231
 11
1088.312712
 21
822.553178
  0
LINE
  8
0
  6
CONTINUOUS
 62
1
 10
1088.312712
 20
813.596232
 11
1088.312712
 21
741.074705
  0
LINE
  8
0
  6
CONTINUOUS
 62
1
 10
1222.334231
 20
997.302023
 11
1220.812704
 21
983.050480
  0
LINE
  8
0
  6
CONTINUOUS
 62
1
 10
1231.291177
 20
997.302023
 11
1232.812704
 21
983.050480
  0
LINE
  8
0
  6
CONTINUOUS
 62
1
 10
1222.334231
 20
1018.847417
 11
1222.334231
 21
997.302023
  0
LINE
  8
0
  6
CONTINUOUS
 62
1
 10
1231.291177
 20
1018.847417
 11
1231.291177
 21
997.302023
  0
ARC
  8
0
  6
CONTINUOUS
 62
1
 10
1226.812719
 20
911.091892
 40
1.967304
 50
180.000000
 51
0.225663
  0
ARC
  8
0
  6
CONTINUOUS
 62
1
 10
1226.812704
 20
911.574705
 40
3.500000
 50
182.022614
 51
357.977356
  0
LINE
  8
0
  6
CONTINUOUS
 62
1
 10
1223.314856
 20
911.451170
 11
1220.997591
 21
980.123378
  0
LINE
  8
0
  6
CONTINUOUS
 62
1
 10
1230.310537
 20
911.451170
 11
1232.627816
 21
980.123379
  0
LINE
  8
0
  6
CONTINUOUS
 62
1
 10
1091.312712
 20
998.074705
 11
1098.834239
 21
998.074705
  0
LINE
  8
0
  6
CONTINUOUS
 62
1
 10
1108.191644
 20
989.480537
 11
1155.355459
 21
942.316721
  0
LINE
  8
0
  6
CONTINUOUS
 62
1
 10
1104.291025
 20
987.825233
 11
1152.573271
 21
939.534533
  0
ARC
  8
0
  6
CONTINUOUS
 62
1
 10
1153.969833
 20
940.920138
 40
1.967304
 50
224.774337
 51
45.000000
  0
ARC
  8
0
  6
CONTINUOUS
 62
1
 10
1153.628444
 20
941.261548
 40
3.500000
 50
227.022644
 51
42.977386
  0
LINE
  8
0
  6
CONTINUOUS
 62
1
 10
1156.189149
 20
943.647548
 11
1130.084370
 21
971.841095
  0
LINE
  8
0
  6
CONTINUOUS
 62
1
 10
1151.242455
 20
938.700854
 11
1119.354675
 21
968.226159
  0
LINE
  8
0
  6
CONTINUOUS
 62
1
 10
1101.631890
 20
986.644426
 11
1119.518232
 21
968.074720
  0
LINE
  8
0
  6
CONTINUOUS
 62
1
 10
1110.819773
 20
990.573845
 11
1130.084370
 21
971.841095
  0
LINE
  8
0
  6
CONTINUOUS
 62
1
 10
1181.291177
 20
998.074705
 11
1222.334231
 21
998.074705
  0
LINE
  8
0
  6
CONTINUOUS
 62
1
 10
1088.312712
 20
922.553177
 11
1088.312712
 21
995.074705
  0
LINE
  8
0
  6
CONTINUOUS
 62
1
 10
1088.312712
 20
872.553178
 11
1088.312712
 21
913.596231
  0
LINE
  8
0
  6
CONTINUOUS
 62
1
 10
1372.312704
 20
728.074705
 11
1081.312712
 21
728.074705
  0
ARC
  8
0
  6
CONTINUOUS
 62
1
 10
1081.312712
 20
731.074705
 40
3.000000
 50
180.000000
 51
270.000000
  0
CIRCLE
  8
0
  6
DASHED
 62
7
 10
1226.812704
 20
737.074705
 40
2.500000
  0
CIRCLE
  8
0
  6
DASHED
 62
7
 10
1226.812704
 20
737.074705
 40
5.000000
  0
ARC
  8
0
  6
CONTINUOUS
 62
1
 10
3724.146322
 20
1008.074720
 40
2620.833618
 50
183.258519
 51
184.780931
  0
ARC
  8
0
  6
CONTINUOUS
 62
1
 10
1147.309714
 20
792.555362
 40
35.000000
 50
244.570090
 51
263.548633
  0
ARC
  8
0
  6
CONTINUOUS
 62
1
 10
1133.568701
 20
763.655802
 40
3.000000
 50
137.202989
 51
244.570090
  0
ARC
  8
0
  6
CONTINUOUS
 62
1
 10
1121.343663
 20
773.853379
 40
3.000000
 50
215.763225
 51
312.796998
  0
ARC
  8
0
  6
CONTINUOUS
 62
1
 10
1110.545139
 20
859.273830
 40
3.000000
 50
91.808521
 51
183.258519
  0
ARC
  8
0
  6
CONTINUOUS
 62
1
 10
1109.600958
 20
876.905394
 40
3.000000
 50
182.872068
 51
268.191489
  0
LINE
  8
0
  6
CONTINUOUS
 62
1
 10
1230.310537
 20
824.698240
 11
1232.596783
 21
756.027029
  0
LINE
  8
0
  6
CONTINUOUS
 62
1
 10
1223.314871
 20
824.698240
 11
1221.028625
 21
756.027029
  0
ARC
  8
0
  6
CONTINUOUS
 62
1
 10
1218.030286
 20
756.126852
 40
3.000000
 50
269.319599
 51
358.093177
  0
ARC
  8
0
  6
CONTINUOUS
 62
1
 10
1147.309714
 20
792.555362
 40
35.000000
 50
184.780931
 51
215.763225
  0
ARC
  8
0
  6
CONTINUOUS
 62
1
 10
1235.595122
 20
756.126852
 40
3.000000
 50
181.906823
 51
270.680400
  0
ARC
  8
0
  6
CONTINUOUS
 62
1
 10
1226.812708
 20
1495.649667
 40
742.574962
 50
263.548633
 51
269.319599
  0
ARC
  8
0
  6
CONTINUOUS
 62
1
 10
3724.146322
 20
1008.074720
 40
2620.833618
 50
181.450422
 51
182.872068
  0
ARC
  8
0
  6
CONTINUOUS
 62
1
 10
1139.141201
 20
942.622278
 40
35.000000
 50
133.001926
 51
181.450422
  0
ARC
  8
0
  6
CONTINUOUS
 62
1
 10
1117.316466
 20
966.024863
 40
3.000000
 50
47.203002
 51
133.001926
  0
ARC
  8
0
  6
CONTINUOUS
 62
1
 10
1132.285666
 20
973.879304
 40
3.000000
 50
102.370677
 51
222.797011
  0
ARC
  8
0
  6
CONTINUOUS
 62
1
 10
1139.141201
 20
942.622278
 40
35.000000
 50
97.117479
 51
102.370677
  0
LINE
  8
0
  6
CONTINUOUS
 62
1
 10
1091.538475
 20
816.107401
 11
1107.183964
 21
816.107401
  0
LINE
  8
0
  6
CONTINUOUS
 62
1
 10
1091.545565
 20
820.040598
 11
1107.183964
 21
820.042009
  0
ARC
  8
0
  6
CONTINUOUS
 62
1
 10
1107.191712
 20
818.074720
 40
1.967304
 50
270.000000
 51
90.225663
  0
ARC
  8
0
  6
CONTINUOUS
 62
1
 10
1106.708899
 20
818.074705
 40
3.500000
 50
272.022614
 51
87.977356
  0
LINE
  8
0
  6
CONTINUOUS
 62
1
 10
1106.832435
 20
814.576856
 11
1088.312712
 21
813.599704
  0
LINE
  8
0
  6
CONTINUOUS
 62
1
 10
1106.832435
 20
821.572538
 11
1088.312712
 21
822.549704
  0
LINE
  8
0
  6
CONTINUOUS
 62
1
 10
1091.538480
 20
916.107401
 11
1101.833534
 21
916.107401
  0
LINE
  8
0
  6
CONTINUOUS
 62
1
 10
1091.409051
 20
920.041068
 11
1101.833534
 21
920.042009
  0
ARC
  8
0
  6
CONTINUOUS
 62
1
 10
1101.841282
 20
918.074720
 40
1.967304
 50
270.000000
 51
90.225663
  0
ARC
  8
0
  6
CONTINUOUS
 62
1
 10
1101.358470
 20
918.074705
 40
3.500000
 50
272.022614
 51
87.977356
  0
LINE
  8
0
  6
CONTINUOUS
 62
1
 10
1101.482005
 20
914.576856
 11
1088.312712
 21
913.683227
  0
LINE
  8
0
  6
CONTINUOUS
 62
1
 10
1101.482005
 20
921.572538
 11
1088.312712
 21
922.549704
  0
ARC
  8
0
  6
CONTINUOUS
 62
1
 10
1235.626110
 20
980.022204
 40
3.000000
 50
89.317199
 51
178.067341
  0
ARC
  8
0
  6
CONTINUOUS
 62
1
 10
1217.999297
 20
980.022204
 40
3.000000
 50
1.932647
 51
90.682802
  0
ARC
  8
0
  6
CONTINUOUS
 62
1
 10
1226.812708
 20
240.499758
 40
742.574962
 50
90.682802
 51
97.117479
  0
LINE
  8
0
  6
CONTINUOUS
 62
1
 10
1178.780007
 20
741.300480
 11
1178.780007
 21
751.735013
  0
LINE
  8
0
  6
CONTINUOUS
 62
1
 10
1174.846340
 20
741.305146
 11
1174.845399
 21
751.735013
  0
ARC
  8
0
  6
CONTINUOUS
 62
1
 10
1176.812688
 20
751.742761
 40
1.967304
 50
0.000000
 51
180.225663
  0
ARC
  8
0
  6
CONTINUOUS
 62
1
 10
1176.812703
 20
751.259949
 40
3.500000
 50
2.022614
 51
177.977356
  0
LINE
  8
0
  6
CONTINUOUS
 62
1
 10
1180.310552
 20
751.383484
 11
1181.287704
 21
738.074705
  0
LINE
  8
0
  6
CONTINUOUS
 62
1
 10
1173.314870
 20
751.383484
 11
1172.337704
 21
738.074705
  0
ARC
  8
0
  6
CONTINUOUS
 62
1
 10
1080.312704
 20
924.264078
 40
2.000000
 50
180.000000
 51
258.987637
  0
ARC
  8
0
  6
CONTINUOUS
 62
1
 10
1080.312704
 20
911.885256
 40
2.000000
 50
101.012566
 51
180.000000
  0
LINE
  8
0
  6
CONTINUOUS
 62
1
 10
1079.276936
 20
922.553177
 11
1088.312704
 21
922.553177
  0
LINE
  8
0
  6
CONTINUOUS
 62
1
 10
1079.276936
 20
913.596231
 11
1088.312704
 21
913.596231
  0
ARC
  8
0
  6
CONTINUOUS
 62
1
 10
1091.348749
 20
918.074689
 40
1.967304
 50
269.774337
 51
90.000000
  0
LINE
  8
0
  6
CONTINUOUS
 62
1
 10
1091.724545
 20
920.005767
 11
1079.930663
 21
922.300906
  0
LINE
  8
0
  6
CONTINUOUS
 62
1
 10
1091.724552
 20
916.143612
 11
1079.930656
 21
913.848426
  0
ARC
  8
0
  6
CONTINUOUS
 62
1
 10
1080.312704
 20
824.264079
 40
2.000000
 50
180.000000
 51
258.987637
  0
ARC
  8
0
  6
CONTINUOUS
 62
1
 10
1080.312704
 20
811.885256
 40
2.000000
 50
101.012566
 51
180.000000
  0
LINE
  8
0
  6
CONTINUOUS
 62
1
 10
1079.276936
 20
822.553178
 11
1088.312704
 21
822.553178
  0
LINE
  8
0
  6
CONTINUOUS
 62
1
 10
1079.276936
 20
813.596232
 11
1088.312704
 21
813.596232
  0
ARC
  8
0
  6
CONTINUOUS
 62
1
 10
1091.348749
 20
818.074689
 40
1.967304
 50
269.774337
 51
90.000000
  0
LINE
  8
0
  6
CONTINUOUS
 62
1
 10
1091.724545
 20
820.005768
 11
1079.930663
 21
822.300907
  0
LINE
  8
0
  6
CONTINUOUS
 62
1
 10
1091.724552
 20
816.143613
 11
1079.930656
 21
813.848427
  0
ARC
  8
0
  6
CONTINUOUS
 62
1
 10
1170.623330
 20
730.074705
 40
2.000000
 50
270.000000
 51
348.987637
  0
ARC
  8
0
  6
CONTINUOUS
 62
1
 10
1183.002152
 20
730.074705
 40
2.000000
 50
191.012566
 51
270.000000
  0
LINE
  8
0
  6
CONTINUOUS
 62
1
 10
1172.334231
 20
729.038937
 11
1172.334231
 21
738.074705
  0
LINE
  8
0
  6
CONTINUOUS
 62
1
 10
1181.291177
 20
729.038937
 11
1181.291177
 21
738.074705
  0
ARC
  8
0
  6
CONTINUOUS
 62
1
 10
1176.812719
 20
741.110749
 40
1.967304
 50
359.774337
 51
180.000000
  0
LINE
  8
0
  6
CONTINUOUS
 62
1
 10
1174.881641
 20
741.486545
 11
1172.586502
 21
729.692663
  0
LINE
  8
0
  6
CONTINUOUS
 62
1
 10
1178.743796
 20
741.486552
 11
1181.038982
 21
729.692656
  0
ARC
  8
0
  6
CONTINUOUS
 62
1
 10
1097.123337
 20
730.074705
 40
2.000000
 50
270.000000
 51
348.987637
  0
ARC
  8
0
  6
CONTINUOUS
 62
1
 10
1109.502160
 20
730.074705
 40
2.000000
 50
191.012566
 51
270.000000
  0
LINE
  8
0
  6
CONTINUOUS
 62
1
 10
1098.834239
 20
729.038937
 11
1098.834239
 21
742.431788
  0
LINE
  8
0
  6
CONTINUOUS
 62
1
 10
1107.791185
 20
729.038937
 11
1107.791185
 21
738.530151
  0
ARC
  8
0
  6
CONTINUOUS
 62
1
 10
1103.312727
 20
741.110749
 40
1.967304
 50
359.774337
 51
180.000000
  0
LINE
  8
0
  6
CONTINUOUS
 62
1
 10
1101.381649
 20
741.486545
 11
1099.086509
 21
729.692663
  0
LINE
  8
0
  6
CONTINUOUS
 62
1
 10
1105.243804
 20
741.486552
 11
1107.538989
 21
729.692656
  0
ARC
  8
0
  6
CONTINUOUS
 62
1
 10
1117.791185
 20
738.530151
 40
10.000000
 50
134.669214
 51
180.000000
  0
ARC
  8
0
  6
CONTINUOUS
 62
1
 10
1115.262712
 20
739.597805
 40
10.000000
 50
135.000000
 51
172.339633
  0
ARC
  8
0
  6
CONTINUOUS
 62
1
 10
1111.362712
 20
741.253728
 40
10.000000
 50
135.005015
 51
180.000000
  0
ARC
  8
0
  6
CONTINUOUS
 62
1
 10
1108.834239
 20
742.431788
 40
10.000000
 50
135.621263
 51
180.000000
  0
LINE
  8
0
  6
CONTINUOUS
 62
1
 10
1098.834239
 20
1008.074720
 11
1098.834239
 21
993.581729
  0
LINE
  8
0
  6
CONTINUOUS
 62
1
 10
1107.791185
 20
1008.074705
 11
1107.791185
 21
997.743184
  0
ARC
  8
0
  6
CONTINUOUS
 62
1
 10
1115.262712
 20
996.551604
 40
10.000000
 50
187.660367
 51
225.000000
  0
ARC
  8
0
  6
CONTINUOUS
 62
1
 10
1111.362712
 20
994.895682
 40
10.000000
 50
180.000000
 51
224.994985
  0
ARC
  8
0
  6
CONTINUOUS
 62
1
 10
1108.834239
 20
993.581729
 40
10.000000
 50
180.000000
 51
223.926123
  0
ARC
  8
0
  6
CONTINUOUS
 62
1
 10
1117.791185
 20
997.743184
 40
10.000000
 50
180.000000
 51
225.801914
  0
LINE
  8
0
  6
CONTINUOUS
 62
1
 10
1105.280016
 20
995.046408
 11
1105.280016
 21
1008.074720
  0
LINE
  8
0
  6
CONTINUOUS
 62
1
 10
1101.345423
 20
995.038660
 11
1101.345423
 21
1008.074720
  0
ARC
  8
0
  6
CONTINUOUS
 62
1
 10
1176.812688
 20
984.406648
 40
1.967304
 50
179.774337
 51
0.000000
  0
ARC
  8
0
  6
CONTINUOUS
 62
1
 10
1176.812703
 20
984.889461
 40
3.500000
 50
182.022644
 51
357.977386
  0
LINE
  8
0
  6
CONTINUOUS
 62
1
 10
1180.310552
 20
984.765926
 11
1181.287704
 21
998.074705
  0
LINE
  8
0
  6
CONTINUOUS
 62
1
 10
1173.314870
 20
984.765926
 11
1172.337704
 21
998.074705
  0
LINE
  8
0
  6
CONTINUOUS
 62
1
 10
1172.334231
 20
1018.074735
 11
1172.334231
 21
998.074705
  0
LINE
  8
0
  6
CONTINUOUS
 62
1
 10
1181.291177
 20
1018.074735
 11
1181.291177
 21
998.074705
  0
LINE
  8
0
  6
CONTINUOUS
 62
1
 10
1107.791185
 20
998.074705
 11
1172.334231
 21
998.074705
  0
ARC
  8
0
  6
CONTINUOUS
 62
1
 10
1233.002079
 20
730.074705
 40
2.000000
 50
191.012363
 51
270.000000
  0
ARC
  8
0
  6
CONTINUOUS
 62
1
 10
1220.623256
 20
730.074705
 40
2.000000
 50
270.000000
 51
348.987434
  0
LINE
  8
0
  6
CONTINUOUS
 62
1
 10
1231.291177
 20
738.847387
 11
1232.596783
 21
756.027029
  0
LINE
  8
0
  6
CONTINUOUS
 62
1
 10
1222.334231
 20
738.847387
 11
1221.025634
 21
755.959834
  0
LINE
  8
0
  6
CONTINUOUS
 62
1
 10
1231.291177
 20
729.038937
 11
1231.291177
 21
738.847387
  0
LINE
  8
0
  6
CONTINUOUS
 62
1
 10
1222.334231
 20
729.038937
 11
1222.334231
 21
738.847387
  0
LINE
  8
0
  6
CONTINUOUS
 62
1
 10
1228.780008
 20
741.300315
 11
1228.780008
 21
825.049769
  0
LINE
  8
0
  6
CONTINUOUS
 62
1
 10
1224.845400
 20
741.118498
 11
1224.845400
 21
825.049769
  0
ARC
  8
0
  6
CONTINUOUS
 62
1
 10
1226.812689
 20
825.057517
 40
1.967304
 50
0.000000
 51
180.225663
  0
ARC
  8
0
  6
CONTINUOUS
 62
1
 10
1226.812689
 20
741.110749
 40
1.967304
 50
0.000000
 51
180.225663
  0
LINE
  8
0
  6
CONTINUOUS
 62
1
 10
1228.743767
 20
741.486545
 11
1231.038907
 21
729.692663
  0
LINE
  8
0
  6
CONTINUOUS
 62
1
 10
1224.881612
 20
741.486552
 11
1222.586427
 21
729.692656
  0
ARC
  8
0
  6
CONTINUOUS
 62
1
 10
1226.812704
 20
824.574705
 40
3.500000
 50
2.022614
 51
177.977356
  0
ARC
  8
0
  6
CONTINUOUS
 62
1
 10
1373.312704
 20
874.264079
 40
2.000000
 50
281.012363
 51
0.000000
  0
ARC
  8
0
  6
CONTINUOUS
 62
1
 10
1373.312704
 20
861.885256
 40
2.000000
 50
0.000000
 51
78.987434
  0
LINE
  8
0
  6
CONTINUOUS
 62
1
 10
1365.312704
 20
872.553178
 11
1344.119128
 21
873.906888
  0
LINE
  8
0
  6
CONTINUOUS
 62
1
 10
1365.312704
 20
863.596232
 11
1343.174948
 21
862.272336
  0
LINE
  8
0
  6
CONTINUOUS
 62
1
 10
1374.348472
 20
872.553178
 11
1365.312704
 21
872.553178
  0
LINE
  8
0
  6
CONTINUOUS
 62
1
 10
1374.348472
 20
863.596232
 11
1365.312704
 21
863.596232
  0
LINE
  8
0
  6
CONTINUOUS
 62
1
 10
1362.087094
 20
870.042009
 11
1269.837640
 21
870.042009
  0
LINE
  8
0
  6
CONTINUOUS
 62
1
 10
1362.268911
 20
866.107401
 11
1269.837640
 21
866.107401
  0
ARC
  8
0
  6
CONTINUOUS
 62
1
 10
1269.829892
 20
868.074689
 40
1.967304
 50
90.000000
 51
270.225663
  0
ARC
  8
0
  6
CONTINUOUS
 62
1
 10
1362.276659
 20
868.074689
 40
1.967304
 50
90.000000
 51
270.225663
  0
LINE
  8
0
  6
CONTINUOUS
 62
1
 10
1361.900863
 20
870.005768
 11
1373.694746
 21
872.300907
  0
LINE
  8
0
  6
CONTINUOUS
 62
1
 10
1361.900857
 20
866.143613
 11
1373.694753
 21
863.848427
  0
ARC
  8
0
  6
CONTINUOUS
 62
1
 10
1270.312704
 20
868.074705
 40
3.500000
 50
92.022614
 51
267.977356
  0
LINE
  8
0
  6
CONTINUOUS
 62
1
 10
1270.189169
 20
871.572553
 11
1344.119128
 21
873.906888
  0
LINE
  8
0
  6
CONTINUOUS
 62
1
 10
1270.189169
 20
864.576871
 11
1343.174948
 21
862.272336
  0
LINE
  8
0
  6
CONTINUOUS
 62
1
 10
1362.312697
 20
738.074705
 11
1354.791169
 21
738.074705
  0
LINE
  8
0
  6
CONTINUOUS
 62
1
 10
1345.433764
 20
746.668873
 11
1298.269949
 21
793.832688
  0
LINE
  8
0
  6
CONTINUOUS
 62
1
 10
1349.334383
 20
748.324177
 11
1301.052137
 21
796.614876
  0
ARC
  8
0
  6
CONTINUOUS
 62
1
 10
1299.655575
 20
795.229272
 40
1.967304
 50
44.774337
 51
225.000000
  0
ARC
  8
0
  6
CONTINUOUS
 62
1
 10
1299.996964
 20
794.887861
 40
3.500000
 50
47.022644
 51
222.977386
  0
LINE
  8
0
  6
CONTINUOUS
 62
1
 10
1297.436259
 20
792.501861
 11
1322.258003
 21
765.694011
  0
LINE
  8
0
  6
CONTINUOUS
 62
1
 10
1302.382953
 20
797.448555
 11
1330.243537
 21
771.652083
  0
LINE
  8
0
  6
CONTINUOUS
 62
1
 10
1351.938492
 20
749.425770
 11
1330.603864
 21
771.228154
  0
LINE
  8
0
  6
CONTINUOUS
 62
1
 10
1342.864350
 20
745.641924
 11
1318.785807
 21
769.444035
  0
LINE
  8
0
  6
CONTINUOUS
 62
1
 10
1272.334231
 20
738.074705
 11
1231.291177
 21
738.074705
  0
LINE
  8
0
  6
CONTINUOUS
 62
1
 10
1365.312697
 20
863.596231
 11
1365.312697
 21
822.553178
  0
LINE
  8
0
  6
CONTINUOUS
 62
1
 10
1365.312697
 20
813.596232
 11
1365.312697
 21
741.074705
  0
LINE
  8
0
  6
CONTINUOUS
 62
1
 10
1231.291177
 20
997.302023
 11
1232.812704
 21
983.050480
  0
LINE
  8
0
  6
CONTINUOUS
 62
1
 10
1222.334231
 20
997.302023
 11
1220.812704
 21
983.050480
  0
LINE
  8
0
  6
CONTINUOUS
 62
1
 10
1231.291177
 20
1018.074735
 11
1231.291177
 21
997.302023
  0
LINE
  8
0
  6
CONTINUOUS
 62
1
 10
1222.334231
 20
1018.074735
 11
1222.334231
 21
997.302023
  0
ARC
  8
0
  6
CONTINUOUS
 62
1
 10
1226.812689
 20
911.091892
 40
1.967304
 50
179.774337
 51
0.000000
  0
ARC
  8
0
  6
CONTINUOUS
 62
1
 10
1226.812704
 20
911.574705
 40
3.500000
 50
182.022644
 51
357.977386
  0
LINE
  8
0
  6
CONTINUOUS
 62
1
 10
1230.310553
 20
911.451170
 11
1232.627818
 21
980.123378
  0
LINE
  8
0
  6
CONTINUOUS
 62
1
 10
1223.314871
 20
911.451170
 11
1220.997592
 21
980.123379
  0
LINE
  8
0
  6
CONTINUOUS
 62
1
 10
1362.312697
 20
998.074705
 11
1354.791169
 21
998.074705
  0
LINE
  8
0
  6
CONTINUOUS
 62
1
 10
1345.433764
 20
989.480537
 11
1298.269949
 21
942.316721
  0
LINE
  8
0
  6
CONTINUOUS
 62
1
 10
1349.334383
 20
987.825233
 11
1301.052137
 21
939.534533
  0
ARC
  8
0
  6
CONTINUOUS
 62
1
 10
1299.655575
 20
940.920138
 40
1.967304
 50
135.000000
 51
315.225663
  0
ARC
  8
0
  6
CONTINUOUS
 62
1
 10
1299.996964
 20
941.261548
 40
3.500000
 50
137.022614
 51
312.977356
  0
LINE
  8
0
  6
CONTINUOUS
 62
1
 10
1297.436259
 20
943.647548
 11
1323.541038
 21
971.841095
  0
LINE
  8
0
  6
CONTINUOUS
 62
1
 10
1302.382953
 20
938.700854
 11
1334.270733
 21
968.226159
  0
LINE
  8
0
  6
CONTINUOUS
 62
1
 10
1351.993518
 20
986.644426
 11
1334.107176
 21
968.074720
  0
LINE
  8
0
  6
CONTINUOUS
 62
1
 10
1342.805635
 20
990.573845
 11
1323.541038
 21
971.841095
  0
LINE
  8
0
  6
CONTINUOUS
 62
1
 10
1272.334231
 20
998.074705
 11
1231.291177
 21
998.074705
  0
LINE
  8
0
  6
CONTINUOUS
 62
1
 10
1365.312697
 20
922.553177
 11
1365.312697
 21
995.074705
  0
LINE
  8
0
  6
CONTINUOUS
 62
1
 10
1365.312697
 20
872.553178
 11
1365.312697
 21
913.596231
  0
ARC
  8
0
  6
CONTINUOUS
 62
1
 10
1372.312697
 20
731.074705
 40
3.000000
 50
270.000000
 51
0.000000
  0
CIRCLE
  8
0
  6
DASHED
 62
7
 10
1226.812704
 20
737.074705
 40
2.500000
  0
CIRCLE
  8
0
  6
DASHED
 62
7
 10
1226.812704
 20
737.074705
 40
5.000000
  0
ARC
  8
0
  6
CONTINUOUS
 62
1
 10
-1270.520914
 20
1008.074720
 40
2620.833618
 50
355.219069
 51
356.741481
  0
ARC
  8
0
  6
CONTINUOUS
 62
1
 10
1306.315695
 20
792.555362
 40
35.000000
 50
276.451367
 51
295.429910
  0
ARC
  8
0
  6
CONTINUOUS
 62
1
 10
1320.056707
 20
763.655802
 40
3.000000
 50
295.429910
 51
42.797011
  0
ARC
  8
0
  6
CONTINUOUS
 62
1
 10
1332.281746
 20
773.853379
 40
3.000000
 50
227.203002
 51
324.236775
  0
ARC
  8
0
  6
CONTINUOUS
 62
1
 10
1343.080270
 20
859.273830
 40
3.000000
 50
356.741481
 51
88.191479
  0
ARC
  8
0
  6
CONTINUOUS
 62
1
 10
1344.024450
 20
876.905394
 40
3.000000
 50
271.808511
 51
357.127932
  0
LINE
  8
0
  6
CONTINUOUS
 62
1
 10
1223.314871
 20
824.698240
 11
1221.028625
 21
756.027029
  0
LINE
  8
0
  6
CONTINUOUS
 62
1
 10
1230.310537
 20
824.698240
 11
1232.596783
 21
756.027029
  0
ARC
  8
0
  6
CONTINUOUS
 62
1
 10
1235.595122
 20
756.126852
 40
3.000000
 50
181.906823
 51
270.680401
  0
ARC
  8
0
  6
CONTINUOUS
 62
1
 10
1306.315695
 20
792.555362
 40
35.000000
 50
324.236775
 51
355.219069
  0
ARC
  8
0
  6
CONTINUOUS
 62
1
 10
1218.030286
 20
756.126852
 40
3.000000
 50
269.319600
 51
358.093177
  0
ARC
  8
0
  6
CONTINUOUS
 62
1
 10
1226.812700
 20
1495.649667
 40
742.574962
 50
270.680401
 51
276.451367
  0
ARC
  8
0
  6
CONTINUOUS
 62
1
 10
-1270.520914
 20
1008.074720
 40
2620.833618
 50
357.127932
 51
358.549578
  0
ARC
  8
0
  6
CONTINUOUS
 62
1
 10
1314.484208
 20
942.622278
 40
35.000000
 50
358.549578
 51
46.998074
  0
ARC
  8
0
  6
CONTINUOUS
 62
1
 10
1336.308942
 20
966.024863
 40
3.000000
 50
46.998074
 51
132.796998
  0
ARC
  8
0
  6
CONTINUOUS
 62
1
 10
1321.339742
 20
973.879304
 40
3.000000
 50
317.202989
 51
77.629323
  0
ARC
  8
0
  6
CONTINUOUS
 62
1
 10
1314.484208
 20
942.622278
 40
35.000000
 50
77.629323
 51
82.882521
  0
LINE
  8
0
  6
CONTINUOUS
 62
1
 10
1362.086933
 20
816.107401
 11
1346.441445
 21
816.107401
  0
LINE
  8
0
  6
CONTINUOUS
 62
1
 10
1362.079843
 20
820.040598
 11
1346.441445
 21
820.042009
  0
ARC
  8
0
  6
CONTINUOUS
 62
1
 10
1346.433696
 20
818.074720
 40
1.967304
 50
89.774337
 51
270.000000
  0
ARC
  8
0
  6
CONTINUOUS
 62
1
 10
1346.916509
 20
818.074705
 40
3.500000
 50
92.022644
 51
267.977386
  0
LINE
  8
0
  6
CONTINUOUS
 62
1
 10
1346.792974
 20
814.576856
 11
1365.312697
 21
813.599704
  0
LINE
  8
0
  6
CONTINUOUS
 62
1
 10
1346.792974
 20
821.572538
 11
1365.312697
 21
822.549704
  0
LINE
  8
0
  6
CONTINUOUS
 62
1
 10
1362.086928
 20
916.107401
 11
1351.791874
 21
916.107401
  0
LINE
  8
0
  6
CONTINUOUS
 62
1
 10
1362.216358
 20
920.041068
 11
1351.791874
 21
920.042009
  0
ARC
  8
0
  6
CONTINUOUS
 62
1
 10
1351.784126
 20
918.074720
 40
1.967304
 50
89.774337
 51
270.000000
  0
ARC
  8
0
  6
CONTINUOUS
 62
1
 10
1352.266938
 20
918.074705
 40
3.500000
 50
92.022644
 51
267.977386
  0
LINE
  8
0
  6
CONTINUOUS
 62
1
 10
1352.143403
 20
914.576856
 11
1365.312697
 21
913.683227
  0
LINE
  8
0
  6
CONTINUOUS
 62
1
 10
1352.143403
 20
921.572538
 11
1365.312697
 21
922.549704
  0
ARC
  8
0
  6
CONTINUOUS
 62
1
 10
1217.999299
 20
980.022204
 40
3.000000
 50
1.932659
 51
90.682801
  0
ARC
  8
0
  6
CONTINUOUS
 62
1
 10
1235.626111
 20
980.022204
 40
3.000000
 50
89.317198
 51
178.067353
  0
ARC
  8
0
  6
CONTINUOUS
 62
1
 10
1226.812700
 20
240.499758
 40
742.574962
 50
82.882521
 51
89.317198
  0
LINE
  8
0
  6
CONTINUOUS
 62
1
 10
1274.845401
 20
741.300480
 11
1274.845401
 21
751.735013
  0
LINE
  8
0
  6
CONTINUOUS
 62
1
 10
1278.779068
 20
741.305146
 11
1278.780009
 21
751.735013
  0
ARC
  8
0
  6
CONTINUOUS
 62
1
 10
1276.812720
 20
751.742761
 40
1.967304
 50
359.774337
 51
180.000000
  0
ARC
  8
0
  6
CONTINUOUS
 62
1
 10
1276.812705
 20
751.259949
 40
3.500000
 50
2.022644
 51
177.977386
  0
LINE
  8
0
  6
CONTINUOUS
 62
1
 10
1273.314857
 20
751.383484
 11
1272.337704
 21
738.074705
  0
LINE
  8
0
  6
CONTINUOUS
 62
1
 10
1280.310538
 20
751.383484
 11
1281.287704
 21
738.074705
  0
ARC
  8
0
  6
CONTINUOUS
 62
1
 10
1373.312704
 20
924.264078
 40
2.000000
 50
281.012363
 51
0.000000
  0
ARC
  8
0
  6
CONTINUOUS
 62
1
 10
1373.312704
 20
911.885256
 40
2.000000
 50
0.000000
 51
78.987434
  0
LINE
  8
0
  6
CONTINUOUS
 62
1
 10
1374.348472
 20
922.553177
 11
1365.312704
 21
922.553177
  0
LINE
  8
0
  6
CONTINUOUS
 62
1
 10
1374.348472
 20
913.596231
 11
1365.312704
 21
913.596231
  0
ARC
  8
0
  6
CONTINUOUS
 62
1
 10
1362.276659
 20
918.074689
 40
1.967304
 50
90.000000
 51
270.225663
  0
LINE
  8
0
  6
CONTINUOUS
 62
1
 10
1361.900863
 20
920.005767
 11
1373.694746
 21
922.300906
  0
LINE
  8
0
  6
CONTINUOUS
 62
1
 10
1361.900857
 20
916.143612
 11
1373.694753
 21
913.848426
  0
ARC
  8
0
  6
CONTINUOUS
 62
1
 10
1373.312704
 20
824.264079
 40
2.000000
 50
281.012363
 51
0.000000
  0
ARC
  8
0
  6
CONTINUOUS
 62
1
 10
1373.312704
 20
811.885256
 40
2.000000
 50
0.000000
 51
78.987434
  0
LINE
  8
0
  6
CONTINUOUS
 62
1
 10
1374.348472
 20
822.553178
 11
1365.312704
 21
822.553178
  0
LINE
  8
0
  6
CONTINUOUS
 62
1
 10
1374.348472
 20
813.596232
 11
1365.312704
 21
813.596232
  0
ARC
  8
0
  6
CONTINUOUS
 62
1
 10
1362.276659
 20
818.074689
 40
1.967304
 50
90.000000
 51
270.225663
  0
LINE
  8
0
  6
CONTINUOUS
 62
1
 10
1361.900863
 20
820.005768
 11
1373.694746
 21
822.300907
  0
LINE
  8
0
  6
CONTINUOUS
 62
1
 10
1361.900857
 20
816.143613
 11
1373.694753
 21
813.848427
  0
ARC
  8
0
  6
CONTINUOUS
 62
1
 10
1283.002079
 20
730.074705
 40
2.000000
 50
191.012363
 51
270.000000
  0
ARC
  8
0
  6
CONTINUOUS
 62
1
 10
1270.623256
 20
730.074705
 40
2.000000
 50
270.000000
 51
348.987434
  0
LINE
  8
0
  6
CONTINUOUS
 62
1
 10
1281.291177
 20
729.038937
 11
1281.291177
 21
738.074705
  0
LINE
  8
0
  6
CONTINUOUS
 62
1
 10
1272.334231
 20
729.038937
 11
1272.334231
 21
738.074705
  0
ARC
  8
0
  6
CONTINUOUS
 62
1
 10
1276.812689
 20
741.110749
 40
1.967304
 50
0.000000
 51
180.225663
  0
LINE
  8
0
  6
CONTINUOUS
 62
1
 10
1278.743767
 20
741.486545
 11
1281.038907
 21
729.692663
  0
LINE
  8
0
  6
CONTINUOUS
 62
1
 10
1274.881612
 20
741.486552
 11
1272.586427
 21
729.692656
  0
ARC
  8
0
  6
CONTINUOUS
 62
1
 10
1356.502071
 20
730.074705
 40
2.000000
 50
191.012363
 51
270.000000
  0
ARC
  8
0
  6
CONTINUOUS
 62
1
 10
1344.123248
 20
730.074705
 40
2.000000
 50
270.000000
 51
348.987434
  0
LINE
  8
0
  6
CONTINUOUS
 62
1
 10
1354.791169
 20
729.038937
 11
1354.791169
 21
742.431788
  0
LINE
  8
0
  6
CONTINUOUS
 62
1
 10
1345.834224
 20
729.038937
 11
1345.834224
 21
738.530151
  0
ARC
  8
0
  6
CONTINUOUS
 62
1
 10
1350.312681
 20
741.110749
 40
1.967304
 50
0.000000
 51
180.225663
  0
LINE
  8
0
  6
CONTINUOUS
 62
1
 10
1352.243759
 20
741.486545
 11
1354.538899
 21
729.692663
  0
LINE
  8
0
  6
CONTINUOUS
 62
1
 10
1348.381604
 20
741.486552
 11
1346.086419
 21
729.692656
  0
ARC
  8
0
  6
CONTINUOUS
 62
1
 10
1335.834224
 20
738.530151
 40
10.000000
 50
0.000000
 51
45.330786
  0
ARC
  8
0
  6
CONTINUOUS
 62
1
 10
1338.362697
 20
739.597805
 40
10.000000
 50
7.660367
 51
45.000000
  0
ARC
  8
0
  6
CONTINUOUS
 62
1
 10
1342.262697
 20
741.253728
 40
10.000000
 50
0.000000
 51
44.994985
  0
ARC
  8
0
  6
CONTINUOUS
 62
1
 10
1344.791169
 20
742.431788
 40
10.000000
 50
0.000000
 51
44.378737
  0
LINE
  8
0
  6
CONTINUOUS
 62
1
 10
1354.791169
 20
1008.074720
 11
1354.791169
 21
993.581729
  0
LINE
  8
0
  6
CONTINUOUS
 62
1
 10
1345.834224
 20
1008.074705
 11
1345.834224
 21
997.743184
  0
ARC
  8
0
  6
CONTINUOUS
 62
1
 10
1338.362697
 20
996.551604
 40
10.000000
 50
315.000000
 51
352.339633
  0
ARC
  8
0
  6
CONTINUOUS
 62
1
 10
1342.262697
 20
994.895682
 40
10.000000
 50
315.005015
 51
0.000000
  0
ARC
  8
0
  6
CONTINUOUS
 62
1
 10
1344.791169
 20
993.581729
 40
10.000000
 50
316.073877
 51
0.000000
  0
ARC
  8
0
  6
CONTINUOUS
 62
1
 10
1335.834224
 20
997.743184
 40
10.000000
 50
314.198086
 51
0.000000
  0
LINE
  8
0
  6
CONTINUOUS
 62
1
 10
1348.345392
 20
995.046408
 11
1348.345392
 21
1008.074720
  0
LINE
  8
0
  6
CONTINUOUS
 62
1
 10
1352.279985
 20
995.038660
 11
1352.279985
 21
1008.074720
  0
ARC
  8
0
  6
CONTINUOUS
 62
1
 10
1276.812720
 20
984.406648
 40
1.967304
 50
180.000000
 51
0.225663
  0
ARC
  8
0
  6
CONTINUOUS
 62
1
 10
1276.812705
 20
984.889461
 40
3.500000
 50
182.022614
 51
357.977356
  0
LINE
  8
0
  6
CONTINUOUS
 62
1
 10
1273.314857
 20
984.765926
 11
1272.337704
 21
998.074705
  0
LINE
  8
0
  6
CONTINUOUS
 62
1
 10
1280.310538
 20
984.765926
 11
1281.287704
 21
998.074705
  0
LINE
  8
0
  6
CONTINUOUS
 62
1
 10
1345.834224
 20
998.074705
 11
1281.291177
 21
998.074705
  0
LINE
  8
0
  6
CONTINUOUS
 62
1
 10
1107.791185
 20
738.074705
 11
1172.334231
 21
738.074705
  0
LINE
  8
0
  6
CONTINUOUS
 62
1
 10
1345.834224
 20
738.074705
 11
1281.291177
 21
738.074705
  0
LINE
  8
0
  6
CONTINUOUS
 62
1
 10
1278.780009
 20
1031.735043
 11
1278.780009
 21
984.398900
  0
LINE
  8
0
  6
CONTINUOUS
 62
1
 10
1274.845432
 20
984.398900
 11
1274.845416
 21
1031.742792
  0
LINE
  8
0
  6
CONTINUOUS
 62
1
 10
1178.779992
 20
1031.742792
 11
1178.779992
 21
984.406648
  0
LINE
  8
0
  6
CONTINUOUS
 62
1
 10
1174.845384
 20
984.406648
 11
1174.845399
 21
1031.735043
  0
ARC
  8
0
  6
CONTINUOUS
 62
1
 10
-1270.520914
 20
1008.074720
 40
2620.833618
 50
3.258519
 51
4.780931
  0
ARC
  8
0
  6
CONTINUOUS
 62
1
 10
1226.812700
 20
520.499773
 40
742.574962
 50
83.548633
 51
89.319599
  0
LINE
  8
0
  6
DASHED
 62
7
 10
1226.812708
 20
1288.074735
 11
1228.071171
 21
1288.074735
  0
ARC
  8
0
  6
CONTINUOUS
 62
1
 10
1362.312697
 20
1275.074735
 40
3.000000
 50
0.000000
 51
90.000000
  0
ARC
  8
0
  6
CONTINUOUS
 62
1
 10
1362.312697
 20
1021.074735
 40
3.000000
 50
270.000000
 51
0.000000
  0
ARC
  8
0
  6
CONTINUOUS
 62
1
 10
1362.312697
 20
995.074705
 40
3.000000
 50
0.000000
 51
90.000000
  0
ARC
  8
0
  6
CONTINUOUS
 62
1
 10
1362.312697
 20
741.074705
 40
3.000000
 50
270.000000
 51
0.000000
  0
ARC
  8
0
  6
CONTINUOUS
 62
1
 10
1091.312712
 20
741.074705
 40
3.000000
 50
180.000000
 51
270.000000
  0
ARC
  8
0
  6
CONTINUOUS
 62
1
 10
1091.312712
 20
995.074705
 40
3.000000
 50
90.000000
 51
180.000000
  0
ARC
  8
0
  6
CONTINUOUS
 62
1
 10
1091.312712
 20
1021.074735
 40
3.000000
 50
180.000000
 51
270.000000
  0
ARC
  8
0
  6
CONTINUOUS
 62
1
 10
1520.623330
 20
1286.074735
 40
2.000000
 50
11.012363
 51
90.000000
  0
ARC
  8
0
  6
CONTINUOUS
 62
1
 10
1533.002152
 20
1286.074735
 40
2.000000
 50
90.000000
 51
168.987434
  0
LINE
  8
0
  6
CONTINUOUS
 62
1
 10
1522.334231
 20
1277.302053
 11
1521.028625
 21
1260.122411
  0
LINE
  8
0
  6
CONTINUOUS
 62
1
 10
1531.291177
 20
1277.302053
 11
1532.599775
 21
1260.189606
  0
LINE
  8
0
  6
CONTINUOUS
 62
1
 10
1522.334231
 20
1287.110503
 11
1522.334231
 21
1277.302053
  0
LINE
  8
0
  6
CONTINUOUS
 62
1
 10
1531.291177
 20
1287.110503
 11
1531.291177
 21
1277.302053
  0
LINE
  8
0
  6
CONTINUOUS
 62
1
 10
1524.845400
 20
1274.849125
 11
1524.845400
 21
1191.099671
  0
LINE
  8
0
  6
CONTINUOUS
 62
1
 10
1528.780008
 20
1275.030942
 11
1528.780008
 21
1191.099671
  0
ARC
  8
0
  6
CONTINUOUS
 62
1
 10
1526.812719
 20
1191.091923
 40
1.967304
 50
180.000000
 51
0.225663
  0
ARC
  8
0
  6
CONTINUOUS
 62
1
 10
1526.812719
 20
1275.038690
 40
1.967304
 50
180.000000
 51
0.225663
  0
LINE
  8
0
  6
CONTINUOUS
 62
1
 10
1524.881641
 20
1274.662894
 11
1522.586502
 21
1286.456777
  0
LINE
  8
0
  6
CONTINUOUS
 62
1
 10
1528.743796
 20
1274.662888
 11
1531.038982
 21
1286.456784
  0
ARC
  8
0
  6
CONTINUOUS
 62
1
 10
1526.812704
 20
1191.574735
 40
3.500000
 50
182.022614
 51
357.977356
  0
ARC
  8
0
  6
CONTINUOUS
 62
1
 10
1380.312704
 20
1141.885361
 40
2.000000
 50
101.012363
 51
180.000000
  0
ARC
  8
0
  6
CONTINUOUS
 62
1
 10
1380.312704
 20
1154.264183
 40
2.000000
 50
180.000000
 51
258.987434
  0
LINE
  8
0
  6
CONTINUOUS
 62
1
 10
1388.312704
 20
1143.596262
 11
1409.506281
 21
1142.242552
  0
LINE
  8
0
  6
CONTINUOUS
 62
1
 10
1388.312704
 20
1152.553208
 11
1410.450460
 21
1153.877104
  0
LINE
  8
0
  6
CONTINUOUS
 62
1
 10
1379.276936
 20
1143.596262
 11
1388.312704
 21
1143.596262
  0
LINE
  8
0
  6
CONTINUOUS
 62
1
 10
1379.276936
 20
1152.553208
 11
1388.312704
 21
1152.553208
  0
LINE
  8
0
  6
CONTINUOUS
 62
1
 10
1391.538315
 20
1146.107431
 11
1483.787768
 21
1146.107431
  0
LINE
  8
0
  6
CONTINUOUS
 62
1
 10
1391.356497
 20
1150.042039
 11
1483.787768
 21
1150.042039
  0
ARC
  8
0
  6
CONTINUOUS
 62
1
 10
1483.795517
 20
1148.074750
 40
1.967304
 50
270.000000
 51
90.225663
  0
ARC
  8
0
  6
CONTINUOUS
 62
1
 10
1391.348749
 20
1148.074750
 40
1.967304
 50
270.000000
 51
90.225663
  0
LINE
  8
0
  6
CONTINUOUS
 62
1
 10
1391.724545
 20
1146.143672
 11
1379.930663
 21
1143.848533
  0
LINE
  8
0
  6
CONTINUOUS
 62
1
 10
1391.724552
 20
1150.005827
 11
1379.930656
 21
1152.301013
  0
ARC
  8
0
  6
CONTINUOUS
 62
1
 10
1483.312704
 20
1148.074735
 40
3.500000
 50
272.022614
 51
87.977356
  0
LINE
  8
0
  6
CONTINUOUS
 62
1
 10
1483.436239
 20
1144.576887
 11
1409.506281
 21
1142.242552
  0
LINE
  8
0
  6
CONTINUOUS
 62
1
 10
1483.436239
 20
1151.572568
 11
1410.450460
 21
1153.877104
  0
LINE
  8
0
  6
CONTINUOUS
 62
1
 10
1391.312712
 20
1278.074735
 11
1398.834239
 21
1278.074735
  0
LINE
  8
0
  6
CONTINUOUS
 62
1
 10
1408.191644
 20
1269.480567
 11
1455.355459
 21
1222.316752
  0
LINE
  8
0
  6
CONTINUOUS
 62
1
 10
1404.291025
 20
1267.825263
 11
1452.573271
 21
1219.534564
  0
ARC
  8
0
  6
CONTINUOUS
 62
1
 10
1453.969833
 20
1220.920168
 40
1.967304
 50
224.774337
 51
45.000000
  0
ARC
  8
0
  6
CONTINUOUS
 62
1
 10
1453.628444
 20
1221.261579
 40
3.500000
 50
227.022644
 51
42.977386
  0
LINE
  8
0
  6
CONTINUOUS
 62
1
 10
1456.189149
 20
1223.647579
 11
1431.367405
 21
1250.455429
  0
LINE
  8
0
  6
CONTINUOUS
 62
1
 10
1451.242455
 20
1218.700885
 11
1423.381871
 21
1244.497357
  0
LINE
  8
0
  6
CONTINUOUS
 62
1
 10
1401.686916
 20
1266.723670
 11
1423.021544
 21
1244.921286
  0
LINE
  8
0
  6
CONTINUOUS
 62
1
 10
1410.761058
 20
1270.507516
 11
1434.839602
 21
1246.705405
  0
LINE
  8
0
  6
CONTINUOUS
 62
1
 10
1481.291177
 20
1278.074735
 11
1522.334231
 21
1278.074735
  0
LINE
  8
0
  6
CONTINUOUS
 62
1
 10
1388.312712
 20
1152.553208
 11
1388.312712
 21
1193.596262
  0
LINE
  8
0
  6
CONTINUOUS
 62
1
 10
1388.312712
 20
1202.553208
 11
1388.312712
 21
1275.074735
  0
LINE
  8
0
  6
CONTINUOUS
 62
1
 10
1522.334231
 20
1018.847417
 11
1520.812704
 21
1033.098960
  0
LINE
  8
0
  6
CONTINUOUS
 62
1
 10
1531.291177
 20
1018.847417
 11
1532.812704
 21
1033.098960
  0
LINE
  8
0
  6
CONTINUOUS
 62
1
 10
1524.845400
 20
911.091923
 11
1524.845400
 21
1105.049799
  0
LINE
  8
0
  6
CONTINUOUS
 62
1
 10
1528.780008
 20
911.084174
 11
1528.780008
 21
1105.049799
  0
ARC
  8
0
  6
CONTINUOUS
 62
1
 10
1526.812719
 20
1105.057548
 40
1.967304
 50
359.774337
 51
180.000000
  0
ARC
  8
0
  6
CONTINUOUS
 62
1
 10
1526.812704
 20
1104.574735
 40
3.500000
 50
2.022644
 51
177.977386
  0
LINE
  8
0
  6
CONTINUOUS
 62
1
 10
1523.314856
 20
1104.698270
 11
1520.997591
 21
1036.026062
  0
LINE
  8
0
  6
CONTINUOUS
 62
1
 10
1530.310537
 20
1104.698270
 11
1532.627816
 21
1036.026061
  0
LINE
  8
0
  6
CONTINUOUS
 62
1
 10
1391.312712
 20
1018.074735
 11
1398.834239
 21
1018.074735
  0
LINE
  8
0
  6
CONTINUOUS
 62
1
 10
1408.191644
 20
1026.668903
 11
1455.355459
 21
1073.832719
  0
LINE
  8
0
  6
CONTINUOUS
 62
1
 10
1404.291025
 20
1028.324207
 11
1452.573271
 21
1076.614907
  0
ARC
  8
0
  6
CONTINUOUS
 62
1
 10
1453.969833
 20
1075.229302
 40
1.967304
 50
315.000000
 51
135.225663
  0
ARC
  8
0
  6
CONTINUOUS
 62
1
 10
1453.628444
 20
1074.887892
 40
3.500000
 50
317.022614
 51
132.977356
  0
LINE
  8
0
  6
CONTINUOUS
 62
1
 10
1456.189149
 20
1072.501892
 11
1430.084370
 21
1044.308345
  0
LINE
  8
0
  6
CONTINUOUS
 62
1
 10
1451.242455
 20
1077.448586
 11
1419.354675
 21
1047.923280
  0
LINE
  8
0
  6
CONTINUOUS
 62
1
 10
1401.631890
 20
1029.505014
 11
1419.518232
 21
1048.074720
  0
LINE
  8
0
  6
CONTINUOUS
 62
1
 10
1410.819773
 20
1025.575595
 11
1430.084370
 21
1044.308345
  0
LINE
  8
0
  6
CONTINUOUS
 62
1
 10
1481.291177
 20
1018.074735
 11
1522.334231
 21
1018.074735
  0
LINE
  8
0
  6
CONTINUOUS
 62
1
 10
1388.312712
 20
1093.596263
 11
1388.312712
 21
1021.074735
  0
LINE
  8
0
  6
CONTINUOUS
 62
1
 10
1388.312712
 20
1143.596262
 11
1388.312712
 21
1102.553209
  0
LINE
  8
0
  6
CONTINUOUS
 62
1
 10
1378.312712
 20
1285.074735
 11
1378.312712
 21
731.074705
  0
LINE
  8
0
  6
CONTINUOUS
 62
1
 10
1672.312704
 20
1288.074735
 11
1381.312712
 21
1288.074735
  0
ARC
  8
0
  6
CONTINUOUS
 62
1
 10
1381.312712
 20
1285.074735
 40
3.000000
 50
90.000000
 51
180.000000
  0
LINE
  8
0
  6
CONTINUOUS
 62
1
 10
1675.312704
 20
1285.074735
 11
1675.312704
 21
731.074705
  0
ARC
  8
0
  6
CONTINUOUS
 62
1
 10
4024.146322
 20
1008.074720
 40
2620.833618
 50
175.219069
 51
176.741481
  0
ARC
  8
0
  6
CONTINUOUS
 62
1
 10
1447.309714
 20
1223.594078
 40
35.000000
 50
96.451367
 51
115.429910
  0
ARC
  8
0
  6
CONTINUOUS
 62
1
 10
1433.568701
 20
1252.493638
 40
3.000000
 50
115.429910
 51
222.797011
  0
ARC
  8
0
  6
CONTINUOUS
 62
1
 10
1421.343663
 20
1242.296061
 40
3.000000
 50
47.203002
 51
144.236775
  0
ARC
  8
0
  6
CONTINUOUS
 62
1
 10
1410.545139
 20
1156.875610
 40
3.000000
 50
176.741481
 51
268.191479
  0
ARC
  8
0
  6
CONTINUOUS
 62
1
 10
1409.600958
 20
1139.244046
 40
3.000000
 50
91.808511
 51
177.127932
  0
LINE
  8
0
  6
CONTINUOUS
 62
1
 10
1530.310537
 20
1191.451200
 11
1532.596783
 21
1260.122411
  0
LINE
  8
0
  6
CONTINUOUS
 62
1
 10
1523.314871
 20
1191.451200
 11
1521.028625
 21
1260.122411
  0
ARC
  8
0
  6
CONTINUOUS
 62
1
 10
1518.030286
 20
1260.022588
 40
3.000000
 50
1.906823
 51
90.680401
  0
ARC
  8
0
  6
CONTINUOUS
 62
1
 10
1447.309714
 20
1223.594078
 40
35.000000
 50
144.236775
 51
175.219069
  0
ARC
  8
0
  6
CONTINUOUS
 62
1
 10
1535.595122
 20
1260.022588
 40
3.000000
 50
89.319600
 51
178.093177
  0
ARC
  8
0
  6
CONTINUOUS
 62
1
 10
1526.812708
 20
520.499773
 40
742.574962
 50
90.680401
 51
96.451367
  0
ARC
  8
0
  6
CONTINUOUS
 62
1
 10
4024.146322
 20
1008.074720
 40
2620.833618
 50
177.127932
 51
178.549578
  0
ARC
  8
0
  6
CONTINUOUS
 62
1
 10
1439.141201
 20
1073.527162
 40
35.000000
 50
178.549578
 51
226.998074
  0
ARC
  8
0
  6
CONTINUOUS
 62
1
 10
1417.316466
 20
1050.124577
 40
3.000000
 50
226.998074
 51
312.796998
  0
ARC
  8
0
  6
CONTINUOUS
 62
1
 10
1432.285666
 20
1042.270136
 40
3.000000
 50
137.202989
 51
257.629323
  0
ARC
  8
0
  6
CONTINUOUS
 62
1
 10
1439.141201
 20
1073.527162
 40
35.000000
 50
257.629323
 51
262.882521
  0
LINE
  8
0
  6
CONTINUOUS
 62
1
 10
1391.538475
 20
1200.042039
 11
1407.183964
 21
1200.042039
  0
LINE
  8
0
  6
CONTINUOUS
 62
1
 10
1391.545565
 20
1196.108842
 11
1407.183964
 21
1196.107431
  0
ARC
  8
0
  6
CONTINUOUS
 62
1
 10
1407.191712
 20
1198.074720
 40
1.967304
 50
269.774337
 51
90.000000
  0
ARC
  8
0
  6
CONTINUOUS
 62
1
 10
1406.708899
 20
1198.074735
 40
3.500000
 50
272.022644
 51
87.977386
  0
LINE
  8
0
  6
CONTINUOUS
 62
1
 10
1406.832435
 20
1201.572584
 11
1388.312712
 21
1202.549736
  0
LINE
  8
0
  6
CONTINUOUS
 62
1
 10
1406.832435
 20
1194.576902
 11
1388.312712
 21
1193.599736
  0
LINE
  8
0
  6
CONTINUOUS
 62
1
 10
1391.538480
 20
1100.042039
 11
1401.833534
 21
1100.042039
  0
LINE
  8
0
  6
CONTINUOUS
 62
1
 10
1391.409051
 20
1096.108372
 11
1401.833534
 21
1096.107431
  0
ARC
  8
0
  6
CONTINUOUS
 62
1
 10
1401.841282
 20
1098.074720
 40
1.967304
 50
269.774337
 51
90.000000
  0
ARC
  8
0
  6
CONTINUOUS
 62
1
 10
1401.358470
 20
1098.074735
 40
3.500000
 50
272.022644
 51
87.977386
  0
LINE
  8
0
  6
CONTINUOUS
 62
1
 10
1401.482005
 20
1101.572584
 11
1388.312712
 21
1102.466213
  0
LINE
  8
0
  6
CONTINUOUS
 62
1
 10
1401.482005
 20
1094.576902
 11
1388.312712
 21
1093.599736
  0
ARC
  8
0
  6
CONTINUOUS
 62
1
 10
1535.626110
 20
1036.127236
 40
3.000000
 50
181.932659
 51
270.682801
  0
ARC
  8
0
  6
CONTINUOUS
 62
1
 10
1517.999297
 20
1036.127236
 40
3.000000
 50
269.317198
 51
358.067353
  0
ARC
  8
0
  6
CONTINUOUS
 62
1
 10
1526.812708
 20
1775.649682
 40
742.574962
 50
262.882521
 51
269.317198
  0
LINE
  8
0
  6
CONTINUOUS
 62
1
 10
1478.780007
 20
1274.848960
 11
1478.780007
 21
1264.414427
  0
LINE
  8
0
  6
CONTINUOUS
 62
1
 10
1474.846340
 20
1274.844294
 11
1474.845399
 21
1264.414427
  0
ARC
  8
0
  6
CONTINUOUS
 62
1
 10
1476.812688
 20
1264.406679
 40
1.967304
 50
179.774337
 51
0.000000
  0
ARC
  8
0
  6
CONTINUOUS
 62
1
 10
1476.812703
 20
1264.889491
 40
3.500000
 50
182.022644
 51
357.977386
  0
LINE
  8
0
  6
CONTINUOUS
 62
1
 10
1480.310552
 20
1264.765956
 11
1481.287704
 21
1278.074735
  0
LINE
  8
0
  6
CONTINUOUS
 62
1
 10
1473.314870
 20
1264.765956
 11
1472.337704
 21
1278.074735
  0
ARC
  8
0
  6
CONTINUOUS
 62
1
 10
1380.312704
 20
1091.885362
 40
2.000000
 50
101.012363
 51
180.000000
  0
ARC
  8
0
  6
CONTINUOUS
 62
1
 10
1380.312704
 20
1104.264184
 40
2.000000
 50
180.000000
 51
258.987434
  0
LINE
  8
0
  6
CONTINUOUS
 62
1
 10
1379.276936
 20
1093.596263
 11
1388.312704
 21
1093.596263
  0
LINE
  8
0
  6
CONTINUOUS
 62
1
 10
1379.276936
 20
1102.553209
 11
1388.312704
 21
1102.553209
  0
ARC
  8
0
  6
CONTINUOUS
 62
1
 10
1391.348749
 20
1098.074751
 40
1.967304
 50
270.000000
 51
90.225663
  0
LINE
  8
0
  6
CONTINUOUS
 62
1
 10
1391.724545
 20
1096.143673
 11
1379.930663
 21
1093.848534
  0
LINE
  8
0
  6
CONTINUOUS
 62
1
 10
1391.724552
 20
1100.005828
 11
1379.930656
 21
1102.301014
  0
ARC
  8
0
  6
CONTINUOUS
 62
1
 10
1380.312704
 20
1191.885361
 40
2.000000
 50
101.012363
 51
180.000000
  0
ARC
  8
0
  6
CONTINUOUS
 62
1
 10
1380.312704
 20
1204.264183
 40
2.000000
 50
180.000000
 51
258.987434
  0
LINE
  8
0
  6
CONTINUOUS
 62
1
 10
1379.276936
 20
1193.596262
 11
1388.312704
 21
1193.596262
  0
LINE
  8
0
  6
CONTINUOUS
 62
1
 10
1379.276936
 20
1202.553208
 11
1388.312704
 21
1202.553208
  0
ARC
  8
0
  6
CONTINUOUS
 62
1
 10
1391.348749
 20
1198.074750
 40
1.967304
 50
270.000000
 51
90.225663
  0
LINE
  8
0
  6
CONTINUOUS
 62
1
 10
1391.724545
 20
1196.143672
 11
1379.930663
 21
1193.848533
  0
LINE
  8
0
  6
CONTINUOUS
 62
1
 10
1391.724552
 20
1200.005827
 11
1379.930656
 21
1202.301013
  0
ARC
  8
0
  6
CONTINUOUS
 62
1
 10
1470.623330
 20
1286.074735
 40
2.000000
 50
11.012363
 51
90.000000
  0
ARC
  8
0
  6
CONTINUOUS
 62
1
 10
1483.002152
 20
1286.074735
 40
2.000000
 50
90.000000
 51
168.987434
  0
LINE
  8
0
  6
CONTINUOUS
 62
1
 10
1472.334231
 20
1287.110503
 11
1472.334231
 21
1278.074735
  0
LINE
  8
0
  6
CONTINUOUS
 62
1
 10
1481.291177
 20
1287.110503
 11
1481.291177
 21
1278.074735
  0
ARC
  8
0
  6
CONTINUOUS
 62
1
 10
1476.812719
 20
1275.038690
 40
1.967304
 50
180.000000
 51
0.225663
  0
LINE
  8
0
  6
CONTINUOUS
 62
1
 10
1474.881641
 20
1274.662894
 11
1472.586502
 21
1286.456777
  0
LINE
  8
0
  6
CONTINUOUS
 62
1
 10
1478.743796
 20
1274.662888
 11
1481.038982
 21
1286.456784
  0
ARC
  8
0
  6
CONTINUOUS
 62
1
 10
1397.123337
 20
1286.074735
 40
2.000000
 50
11.012363
 51
90.000000
  0
ARC
  8
0
  6
CONTINUOUS
 62
1
 10
1409.502160
 20
1286.074735
 40
2.000000
 50
90.000000
 51
168.987434
  0
LINE
  8
0
  6
CONTINUOUS
 62
1
 10
1398.834239
 20
1287.110503
 11
1398.834239
 21
1273.717652
  0
LINE
  8
0
  6
CONTINUOUS
 62
1
 10
1407.791185
 20
1287.110503
 11
1407.791185
 21
1277.619289
  0
ARC
  8
0
  6
CONTINUOUS
 62
1
 10
1403.312727
 20
1275.038690
 40
1.967304
 50
180.000000
 51
0.225663
  0
LINE
  8
0
  6
CONTINUOUS
 62
1
 10
1401.381649
 20
1274.662894
 11
1399.086509
 21
1286.456777
  0
LINE
  8
0
  6
CONTINUOUS
 62
1
 10
1405.243804
 20
1274.662888
 11
1407.538989
 21
1286.456784
  0
ARC
  8
0
  6
CONTINUOUS
 62
1
 10
1417.791185
 20
1277.619289
 40
10.000000
 50
180.000000
 51
225.330786
  0
ARC
  8
0
  6
CONTINUOUS
 62
1
 10
1415.262712
 20
1276.551635
 40
10.000000
 50
187.660367
 51
225.000000
  0
ARC
  8
0
  6
CONTINUOUS
 62
1
 10
1411.362712
 20
1274.895712
 40
10.000000
 50
180.000000
 51
224.994985
  0
ARC
  8
0
  6
CONTINUOUS
 62
1
 10
1408.834239
 20
1273.717652
 40
10.000000
 50
180.000000
 51
224.378737
  0
LINE
  8
0
  6
CONTINUOUS
 62
1
 10
1398.834239
 20
1008.074720
 11
1398.834239
 21
1022.567711
  0
LINE
  8
0
  6
CONTINUOUS
 62
1
 10
1407.791185
 20
1008.074735
 11
1407.791185
 21
1018.406256
  0
ARC
  8
0
  6
CONTINUOUS
 62
1
 10
1415.262712
 20
1019.597835
 40
10.000000
 50
135.000000
 51
172.339633
  0
ARC
  8
0
  6
CONTINUOUS
 62
1
 10
1411.362712
 20
1021.253758
 40
10.000000
 50
135.005015
 51
180.000000
  0
ARC
  8
0
  6
CONTINUOUS
 62
1
 10
1408.834239
 20
1022.567711
 40
10.000000
 50
136.073877
 51
180.000000
  0
ARC
  8
0
  6
CONTINUOUS
 62
1
 10
1417.791185
 20
1018.406256
 40
10.000000
 50
134.198086
 51
180.000000
  0
LINE
  8
0
  6
CONTINUOUS
 62
1
 10
1405.280016
 20
1021.103032
 11
1405.280016
 21
1008.074720
  0
LINE
  8
0
  6
CONTINUOUS
 62
1
 10
1401.345423
 20
1021.110780
 11
1401.345423
 21
1008.074720
  0
ARC
  8
0
  6
CONTINUOUS
 62
1
 10
1476.812688
 20
1031.742792
 40
1.967304
 50
0.000000
 51
180.225663
  0
ARC
  8
0
  6
CONTINUOUS
 62
1
 10
1476.812703
 20
1031.259979
 40
3.500000
 50
2.022614
 51
177.977356
  0
LINE
  8
0
  6
CONTINUOUS
 62
1
 10
1480.310552
 20
1031.383514
 11
1481.287704
 21
1018.074735
  0
LINE
  8
0
  6
CONTINUOUS
 62
1
 10
1473.314870
 20
1031.383514
 11
1472.337704
 21
1018.074735
  0
LINE
  8
0
  6
CONTINUOUS
 62
1
 10
1407.791185
 20
1018.074735
 11
1472.334231
 21
1018.074735
  0
ARC
  8
0
  6
CONTINUOUS
 62
1
 10
1533.002079
 20
1286.074735
 40
2.000000
 50
90.000000
 51
168.987637
  0
ARC
  8
0
  6
CONTINUOUS
 62
1
 10
1520.623256
 20
1286.074735
 40
2.000000
 50
11.012566
 51
90.000000
  0
LINE
  8
0
  6
CONTINUOUS
 62
1
 10
1531.291177
 20
1277.302053
 11
1532.596783
 21
1260.122411
  0
LINE
  8
0
  6
CONTINUOUS
 62
1
 10
1522.334231
 20
1277.302053
 11
1521.025634
 21
1260.189606
  0
LINE
  8
0
  6
CONTINUOUS
 62
1
 10
1531.291177
 20
1287.110503
 11
1531.291177
 21
1277.302053
  0
LINE
  8
0
  6
CONTINUOUS
 62
1
 10
1522.334231
 20
1287.110503
 11
1522.334231
 21
1277.302053
  0
LINE
  8
0
  6
CONTINUOUS
 62
1
 10
1528.780008
 20
1274.849125
 11
1528.780008
 21
1191.099671
  0
LINE
  8
0
  6
CONTINUOUS
 62
1
 10
1524.845400
 20
1275.030942
 11
1524.845400
 21
1191.099671
  0
ARC
  8
0
  6
CONTINUOUS
 62
1
 10
1526.812689
 20
1191.091923
 40
1.967304
 50
179.774337
 51
0.000000
  0
ARC
  8
0
  6
CONTINUOUS
 62
1
 10
1526.812689
 20
1275.038690
 40
1.967304
 50
179.774337
 51
0.000000
  0
LINE
  8
0
  6
CONTINUOUS
 62
1
 10
1528.743767
 20
1274.662894
 11
1531.038907
 21
1286.456777
  0
LINE
  8
0
  6
CONTINUOUS
 62
1
 10
1524.881612
 20
1274.662888
 11
1522.586427
 21
1286.456784
  0
ARC
  8
0
  6
CONTINUOUS
 62
1
 10
1526.812704
 20
1191.574735
 40
3.500000
 50
182.022644
 51
357.977386
  0
ARC
  8
0
  6
CONTINUOUS
 62
1
 10
1673.312704
 20
1141.885361
 40
2.000000
 50
0.000000
 51
78.987637
  0
ARC
  8
0
  6
CONTINUOUS
 62
1
 10
1673.312704
 20
1154.264183
 40
2.000000
 50
281.012566
 51
0.000000
  0
LINE
  8
0
  6
CONTINUOUS
 62
1
 10
1665.312704
 20
1143.596262
 11
1644.119128
 21
1142.242552
  0
LINE
  8
0
  6
CONTINUOUS
 62
1
 10
1665.312704
 20
1152.553208
 11
1643.174948
 21
1153.877104
  0
LINE
  8
0
  6
CONTINUOUS
 62
1
 10
1674.348472
 20
1143.596262
 11
1665.312704
 21
1143.596262
  0
LINE
  8
0
  6
CONTINUOUS
 62
1
 10
1674.348472
 20
1152.553208
 11
1665.312704
 21
1152.553208
  0
LINE
  8
0
  6
CONTINUOUS
 62
1
 10
1662.087094
 20
1146.107431
 11
1569.837640
 21
1146.107431
  0
LINE
  8
0
  6
CONTINUOUS
 62
1
 10
1662.268911
 20
1150.042039
 11
1569.837640
 21
1150.042039
  0
ARC
  8
0
  6
CONTINUOUS
 62
1
 10
1569.829892
 20
1148.074750
 40
1.967304
 50
89.774337
 51
270.000000
  0
ARC
  8
0
  6
CONTINUOUS
 62
1
 10
1662.276659
 20
1148.074750
 40
1.967304
 50
89.774337
 51
270.000000
  0
LINE
  8
0
  6
CONTINUOUS
 62
1
 10
1661.900863
 20
1146.143672
 11
1673.694746
 21
1143.848533
  0
LINE
  8
0
  6
CONTINUOUS
 62
1
 10
1661.900857
 20
1150.005827
 11
1673.694753
 21
1152.301013
  0
ARC
  8
0
  6
CONTINUOUS
 62
1
 10
1570.312704
 20
1148.074735
 40
3.500000
 50
92.022644
 51
267.977386
  0
LINE
  8
0
  6
CONTINUOUS
 62
1
 10
1570.189169
 20
1144.576887
 11
1644.119128
 21
1142.242552
  0
LINE
  8
0
  6
CONTINUOUS
 62
1
 10
1570.189169
 20
1151.572568
 11
1643.174948
 21
1153.877104
  0
LINE
  8
0
  6
CONTINUOUS
 62
1
 10
1662.312697
 20
1278.074735
 11
1654.791169
 21
1278.074735
  0
LINE
  8
0
  6
CONTINUOUS
 62
1
 10
1645.433764
 20
1269.480567
 11
1598.269949
 21
1222.316752
  0
LINE
  8
0
  6
CONTINUOUS
 62
1
 10
1649.334383
 20
1267.825263
 11
1601.052137
 21
1219.534564
  0
ARC
  8
0
  6
CONTINUOUS
 62
1
 10
1599.655575
 20
1220.920168
 40
1.967304
 50
135.000000
 51
315.225663
  0
ARC
  8
0
  6
CONTINUOUS
 62
1
 10
1599.996964
 20
1221.261579
 40
3.500000
 50
137.022614
 51
312.977356
  0
LINE
  8
0
  6
CONTINUOUS
 62
1
 10
1597.436259
 20
1223.647579
 11
1622.258003
 21
1250.455429
  0
LINE
  8
0
  6
CONTINUOUS
 62
1
 10
1602.382953
 20
1218.700885
 11
1630.243537
 21
1244.497357
  0
LINE
  8
0
  6
CONTINUOUS
 62
1
 10
1651.938492
 20
1266.723670
 11
1630.603864
 21
1244.921286
  0
LINE
  8
0
  6
CONTINUOUS
 62
1
 10
1642.864350
 20
1270.507516
 11
1618.785807
 21
1246.705405
  0
LINE
  8
0
  6
CONTINUOUS
 62
1
 10
1572.334231
 20
1278.074735
 11
1531.291177
 21
1278.074735
  0
LINE
  8
0
  6
CONTINUOUS
 62
1
 10
1665.312697
 20
1152.553208
 11
1665.312697
 21
1193.596262
  0
LINE
  8
0
  6
CONTINUOUS
 62
1
 10
1665.312697
 20
1202.553208
 11
1665.312697
 21
1275.074735
  0
LINE
  8
0
  6
CONTINUOUS
 62
1
 10
1531.291177
 20
1018.847417
 11
1532.812704
 21
1033.098960
  0
LINE
  8
0
  6
CONTINUOUS
 62
1
 10
1522.334231
 20
1018.847417
 11
1520.812704
 21
1033.098960
  0
ARC
  8
0
  6
CONTINUOUS
 62
1
 10
1526.812689
 20
1105.057548
 40
1.967304
 50
0.000000
 51
180.225663
  0
ARC
  8
0
  6
CONTINUOUS
 62
1
 10
1526.812704
 20
1104.574735
 40
3.500000
 50
2.022614
 51
177.977356
  0
LINE
  8
0
  6
CONTINUOUS
 62
1
 10
1530.310553
 20
1104.698270
 11
1532.627818
 21
1036.026062
  0
LINE
  8
0
  6
CONTINUOUS
 62
1
 10
1523.314871
 20
1104.698270
 11
1520.997592
 21
1036.026061
  0
LINE
  8
0
  6
CONTINUOUS
 62
1
 10
1662.312697
 20
1018.074735
 11
1654.791169
 21
1018.074735
  0
LINE
  8
0
  6
CONTINUOUS
 62
1
 10
1645.433764
 20
1026.668903
 11
1598.269949
 21
1073.832719
  0
LINE
  8
0
  6
CONTINUOUS
 62
1
 10
1649.334383
 20
1028.324207
 11
1601.052137
 21
1076.614907
  0
ARC
  8
0
  6
CONTINUOUS
 62
1
 10
1599.655575
 20
1075.229302
 40
1.967304
 50
44.774337
 51
225.000000
  0
ARC
  8
0
  6
CONTINUOUS
 62
1
 10
1599.996964
 20
1074.887892
 40
3.500000
 50
47.022644
 51
222.977386
  0
LINE
  8
0
  6
CONTINUOUS
 62
1
 10
1597.436259
 20
1072.501892
 11
1623.541038
 21
1044.308345
  0
LINE
  8
0
  6
CONTINUOUS
 62
1
 10
1602.382953
 20
1077.448586
 11
1634.270733
 21
1047.923280
  0
LINE
  8
0
  6
CONTINUOUS
 62
1
 10
1651.993518
 20
1029.505014
 11
1634.107176
 21
1048.074720
  0
LINE
  8
0
  6
CONTINUOUS
 62
1
 10
1642.805635
 20
1025.575595
 11
1623.541038
 21
1044.308345
  0
LINE
  8
0
  6
CONTINUOUS
 62
1
 10
1572.334231
 20
1018.074735
 11
1531.291177
 21
1018.074735
  0
LINE
  8
0
  6
CONTINUOUS
 62
1
 10
1665.312697
 20
1093.596263
 11
1665.312697
 21
1021.074735
  0
LINE
  8
0
  6
CONTINUOUS
 62
1
 10
1665.312697
 20
1143.596262
 11
1665.312697
 21
1102.553209
  0
ARC
  8
0
  6
CONTINUOUS
 62
1
 10
1672.312697
 20
1285.074735
 40
3.000000
 50
0.000000
 51
90.000000
  0
ARC
  8
0
  6
CONTINUOUS
 62
1
 10
1606.315695
 20
1223.594078
 40
35.000000
 50
64.570090
 51
83.548633
  0
ARC
  8
0
  6
CONTINUOUS
 62
1
 10
1620.056707
 20
1252.493638
 40
3.000000
 50
317.202989
 51
64.570090
  0
ARC
  8
0
  6
CONTINUOUS
 62
1
 10
1632.281746
 20
1242.296061
 40
3.000000
 50
35.763225
 51
132.796998
  0
ARC
  8
0
  6
CONTINUOUS
 62
1
 10
1643.080270
 20
1156.875610
 40
3.000000
 50
271.808521
 51
3.258519
  0
ARC
  8
0
  6
CONTINUOUS
 62
1
 10
1644.024450
 20
1139.244046
 40
3.000000
 50
2.872068
 51
88.191489
  0
LINE
  8
0
  6
CONTINUOUS
 62
1
 10
1523.314871
 20
1191.451200
 11
1521.028625
 21
1260.122411
  0
LINE
  8
0
  6
CONTINUOUS
 62
1
 10
1530.310537
 20
1191.451200
 11
1532.596783
 21
1260.122411
  0
ARC
  8
0
  6
CONTINUOUS
 62
1
 10
1535.595122
 20
1260.022588
 40
3.000000
 50
89.319599
 51
178.093177
  0
ARC
  8
0
  6
CONTINUOUS
 62
1
 10
1606.315695
 20
1223.594078
 40
35.000000
 50
4.780931
 51
35.763225
  0
ARC
  8
0
  6
CONTINUOUS
 62
1
 10
1518.030286
 20
1260.022588
 40
3.000000
 50
1.906823
 51
90.680400
  0
ARC
  8
0
  6
CONTINUOUS
 62
1
 10
-970.520914
 20
1008.074720
 40
2620.833618
 50
1.450422
 51
2.872068
  0
ARC
  8
0
  6
CONTINUOUS
 62
1
 10
1614.484208
 20
1073.527162
 40
35.000000
 50
313.001926
 51
1.450422
  0
ARC
  8
0
  6
CONTINUOUS
 62
1
 10
1636.308942
 20
1050.124577
 40
3.000000
 50
227.203002
 51
313.001926
  0
ARC
  8
0
  6
CONTINUOUS
 62
1
 10
1621.339742
 20
1042.270136
 40
3.000000
 50
282.370677
 51
42.797011
  0
ARC
  8
0
  6
CONTINUOUS
 62
1
 10
1614.484208
 20
1073.527162
 40
35.000000
 50
277.117479
 51
282.370677
  0
LINE
  8
0
  6
CONTINUOUS
 62
1
 10
1662.086933
 20
1200.042039
 11
1646.441445
 21
1200.042039
  0
LINE
  8
0
  6
CONTINUOUS
 62
1
 10
1662.079843
 20
1196.108842
 11
1646.441445
 21
1196.107431
  0
ARC
  8
0
  6
CONTINUOUS
 62
1
 10
1646.433696
 20
1198.074720
 40
1.967304
 50
90.000000
 51
270.225663
  0
ARC
  8
0
  6
CONTINUOUS
 62
1
 10
1646.916509
 20
1198.074735
 40
3.500000
 50
92.022614
 51
267.977356
  0
LINE
  8
0
  6
CONTINUOUS
 62
1
 10
1646.792974
 20
1201.572584
 11
1665.312697
 21
1202.549736
  0
LINE
  8
0
  6
CONTINUOUS
 62
1
 10
1646.792974
 20
1194.576902
 11
1665.312697
 21
1193.599736
  0
LINE
  8
0
  6
CONTINUOUS
 62
1
 10
1662.086928
 20
1100.042039
 11
1651.791874
 21
1100.042039
  0
LINE
  8
0
  6
CONTINUOUS
 62
1
 10
1662.216358
 20
1096.108372
 11
1651.791874
 21
1096.107431
  0
ARC
  8
0
  6
CONTINUOUS
 62
1
 10
1651.784126
 20
1098.074720
 40
1.967304
 50
90.000000
 51
270.225663
  0
ARC
  8
0
  6
CONTINUOUS
 62
1
 10
1652.266938
 20
1098.074735
 40
3.500000
 50
92.022614
 51
267.977356
  0
LINE
  8
0
  6
CONTINUOUS
 62
1
 10
1652.143403
 20
1101.572584
 11
1665.312697
 21
1102.466213
  0
LINE
  8
0
  6
CONTINUOUS
 62
1
 10
1652.143403
 20
1094.576902
 11
1665.312697
 21
1093.599736
  0
ARC
  8
0
  6
CONTINUOUS
 62
1
 10
1517.999299
 20
1036.127236
 40
3.000000
 50
269.317199
 51
358.067341
  0
ARC
  8
0
  6
CONTINUOUS
 62
1
 10
1535.626111
 20
1036.127236
 40
3.000000
 50
181.932647
 51
270.682802
  0
ARC
  8
0
  6
CONTINUOUS
 62
1
 10
1526.812700
 20
1775.649682
 40
742.574962
 50
270.682802
 51
277.117479
  0
LINE
  8
0
  6
CONTINUOUS
 62
1
 10
1574.845401
 20
1274.848960
 11
1574.845401
 21
1264.414427
  0
LINE
  8
0
  6
CONTINUOUS
 62
1
 10
1578.779068
 20
1274.844294
 11
1578.780009
 21
1264.414427
  0
ARC
  8
0
  6
CONTINUOUS
 62
1
 10
1576.812720
 20
1264.406679
 40
1.967304
 50
180.000000
 51
0.225663
  0
ARC
  8
0
  6
CONTINUOUS
 62
1
 10
1576.812705
 20
1264.889491
 40
3.500000
 50
182.022614
 51
357.977356
  0
LINE
  8
0
  6
CONTINUOUS
 62
1
 10
1573.314857
 20
1264.765956
 11
1572.337704
 21
1278.074735
  0
LINE
  8
0
  6
CONTINUOUS
 62
1
 10
1580.310538
 20
1264.765956
 11
1581.287704
 21
1278.074735
  0
ARC
  8
0
  6
CONTINUOUS
 62
1
 10
1673.312704
 20
1091.885362
 40
2.000000
 50
0.000000
 51
78.987637
  0
ARC
  8
0
  6
CONTINUOUS
 62
1
 10
1673.312704
 20
1104.264184
 40
2.000000
 50
281.012566
 51
0.000000
  0
LINE
  8
0
  6
CONTINUOUS
 62
1
 10
1674.348472
 20
1093.596263
 11
1665.312704
 21
1093.596263
  0
LINE
  8
0
  6
CONTINUOUS
 62
1
 10
1674.348472
 20
1102.553209
 11
1665.312704
 21
1102.553209
  0
ARC
  8
0
  6
CONTINUOUS
 62
1
 10
1662.276659
 20
1098.074751
 40
1.967304
 50
89.774337
 51
270.000000
  0
LINE
  8
0
  6
CONTINUOUS
 62
1
 10
1661.900863
 20
1096.143673
 11
1673.694746
 21
1093.848534
  0
LINE
  8
0
  6
CONTINUOUS
 62
1
 10
1661.900857
 20
1100.005828
 11
1673.694753
 21
1102.301014
  0
ARC
  8
0
  6
CONTINUOUS
 62
1
 10
1673.312704
 20
1191.885361
 40
2.000000
 50
0.000000
 51
78.987637
  0
ARC
  8
0
  6
CONTINUOUS
 62
1
 10
1673.312704
 20
1204.264183
 40
2.000000
 50
281.012566
 51
0.000000
  0
LINE
  8
0
  6
CONTINUOUS
 62
1
 10
1674.348472
 20
1193.596262
 11
1665.312704
 21
1193.596262
  0
LINE
  8
0
  6
CONTINUOUS
 62
1
 10
1674.348472
 20
1202.553208
 11
1665.312704
 21
1202.553208
  0
ARC
  8
0
  6
CONTINUOUS
 62
1
 10
1662.276659
 20
1198.074750
 40
1.967304
 50
89.774337
 51
270.000000
  0
LINE
  8
0
  6
CONTINUOUS
 62
1
 10
1661.900863
 20
1196.143672
 11
1673.694746
 21
1193.848533
  0
LINE
  8
0
  6
CONTINUOUS
 62
1
 10
1661.900857
 20
1200.005827
 11
1673.694753
 21
1202.301013
  0
ARC
  8
0
  6
CONTINUOUS
 62
1
 10
1583.002079
 20
1286.074735
 40
2.000000
 50
90.000000
 51
168.987637
  0
ARC
  8
0
  6
CONTINUOUS
 62
1
 10
1570.623256
 20
1286.074735
 40
2.000000
 50
11.012566
 51
90.000000
  0
LINE
  8
0
  6
CONTINUOUS
 62
1
 10
1581.291177
 20
1287.110503
 11
1581.291177
 21
1278.074735
  0
LINE
  8
0
  6
CONTINUOUS
 62
1
 10
1572.334231
 20
1287.110503
 11
1572.334231
 21
1278.074735
  0
ARC
  8
0
  6
CONTINUOUS
 62
1
 10
1576.812689
 20
1275.038690
 40
1.967304
 50
179.774337
 51
0.000000
  0
LINE
  8
0
  6
CONTINUOUS
 62
1
 10
1578.743767
 20
1274.662894
 11
1581.038907
 21
1286.456777
  0
LINE
  8
0
  6
CONTINUOUS
 62
1
 10
1574.881612
 20
1274.662888
 11
1572.586427
 21
1286.456784
  0
ARC
  8
0
  6
CONTINUOUS
 62
1
 10
1656.502071
 20
1286.074735
 40
2.000000
 50
90.000000
 51
168.987637
  0
ARC
  8
0
  6
CONTINUOUS
 62
1
 10
1644.123248
 20
1286.074735
 40
2.000000
 50
11.012566
 51
90.000000
  0
LINE
  8
0
  6
CONTINUOUS
 62
1
 10
1654.791169
 20
1287.110503
 11
1654.791169
 21
1273.717652
  0
LINE
  8
0
  6
CONTINUOUS
 62
1
 10
1645.834224
 20
1287.110503
 11
1645.834224
 21
1277.619289
  0
ARC
  8
0
  6
CONTINUOUS
 62
1
 10
1650.312681
 20
1275.038690
 40
1.967304
 50
179.774337
 51
0.000000
  0
LINE
  8
0
  6
CONTINUOUS
 62
1
 10
1652.243759
 20
1274.662894
 11
1654.538899
 21
1286.456777
  0
LINE
  8
0
  6
CONTINUOUS
 62
1
 10
1648.381604
 20
1274.662888
 11
1646.086419
 21
1286.456784
  0
ARC
  8
0
  6
CONTINUOUS
 62
1
 10
1635.834224
 20
1277.619289
 40
10.000000
 50
314.669214
 51
0.000000
  0
ARC
  8
0
  6
CONTINUOUS
 62
1
 10
1638.362697
 20
1276.551635
 40
10.000000
 50
315.000000
 51
352.339633
  0
ARC
  8
0
  6
CONTINUOUS
 62
1
 10
1642.262697
 20
1274.895712
 40
10.000000
 50
315.005015
 51
0.000000
  0
ARC
  8
0
  6
CONTINUOUS
 62
1
 10
1644.791169
 20
1273.717652
 40
10.000000
 50
315.621263
 51
0.000000
  0
LINE
  8
0
  6
CONTINUOUS
 62
1
 10
1654.791169
 20
1008.074720
 11
1654.791169
 21
1022.567711
  0
LINE
  8
0
  6
CONTINUOUS
 62
1
 10
1645.834224
 20
1008.074735
 11
1645.834224
 21
1018.406256
  0
ARC
  8
0
  6
CONTINUOUS
 62
1
 10
1638.362697
 20
1019.597835
 40
10.000000
 50
7.660367
 51
45.000000
  0
ARC
  8
0
  6
CONTINUOUS
 62
1
 10
1642.262697
 20
1021.253758
 40
10.000000
 50
0.000000
 51
44.994985
  0
ARC
  8
0
  6
CONTINUOUS
 62
1
 10
1644.791169
 20
1022.567711
 40
10.000000
 50
0.000000
 51
43.926123
  0
ARC
  8
0
  6
CONTINUOUS
 62
1
 10
1635.834224
 20
1018.406256
 40
10.000000
 50
0.000000
 51
45.801914
  0
LINE
  8
0
  6
CONTINUOUS
 62
1
 10
1648.345392
 20
1021.103032
 11
1648.345392
 21
1008.074720
  0
LINE
  8
0
  6
CONTINUOUS
 62
1
 10
1652.279985
 20
1021.110780
 11
1652.279985
 21
1008.074720
  0
ARC
  8
0
  6
CONTINUOUS
 62
1
 10
1576.812720
 20
1031.742792
 40
1.967304
 50
359.774337
 51
180.000000
  0
ARC
  8
0
  6
CONTINUOUS
 62
1
 10
1576.812705
 20
1031.259979
 40
3.500000
 50
2.022644
 51
177.977386
  0
LINE
  8
0
  6
CONTINUOUS
 62
1
 10
1573.314857
 20
1031.383514
 11
1572.337704
 21
1018.074735
  0
LINE
  8
0
  6
CONTINUOUS
 62
1
 10
1580.310538
 20
1031.383514
 11
1581.287704
 21
1018.074735
  0
LINE
  8
0
  6
CONTINUOUS
 62
1
 10
1581.291177
 20
998.074705
 11
1581.291177
 21
1018.074735
  0
LINE
  8
0
  6
CONTINUOUS
 62
1
 10
1572.334231
 20
998.074705
 11
1572.334231
 21
1018.074735
  0
LINE
  8
0
  6
CONTINUOUS
 62
1
 10
1645.834224
 20
1018.074735
 11
1581.291177
 21
1018.074735
  0
LINE
  8
0
  6
CONTINUOUS
 62
1
 10
1391.312712
 20
1278.074735
 11
1398.834239
 21
1278.074735
  0
LINE
  8
0
  6
CONTINUOUS
 62
1
 10
1645.834224
 20
1278.074735
 11
1581.291177
 21
1278.074735
  0
ARC
  8
0
  6
CONTINUOUS
 62
1
 10
1520.623330
 20
730.074705
 40
2.000000
 50
270.000000
 51
348.987637
  0
ARC
  8
0
  6
CONTINUOUS
 62
1
 10
1533.002152
 20
730.074705
 40
2.000000
 50
191.012566
 51
270.000000
  0
LINE
  8
0
  6
CONTINUOUS
 62
1
 10
1522.334231
 20
738.847387
 11
1521.028625
 21
756.027029
  0
LINE
  8
0
  6
CONTINUOUS
 62
1
 10
1531.291177
 20
738.847387
 11
1532.599775
 21
755.959834
  0
LINE
  8
0
  6
CONTINUOUS
 62
1
 10
1522.334231
 20
729.038937
 11
1522.334231
 21
738.847387
  0
LINE
  8
0
  6
CONTINUOUS
 62
1
 10
1531.291177
 20
729.038937
 11
1531.291177
 21
738.847387
  0
LINE
  8
0
  6
CONTINUOUS
 62
1
 10
1524.845400
 20
741.300315
 11
1524.845400
 21
825.049769
  0
LINE
  8
0
  6
CONTINUOUS
 62
1
 10
1528.780008
 20
741.118498
 11
1528.780008
 21
825.049769
  0
ARC
  8
0
  6
CONTINUOUS
 62
1
 10
1526.812719
 20
825.057517
 40
1.967304
 50
359.774337
 51
180.000000
  0
ARC
  8
0
  6
CONTINUOUS
 62
1
 10
1526.812719
 20
741.110749
 40
1.967304
 50
359.774337
 51
180.000000
  0
LINE
  8
0
  6
CONTINUOUS
 62
1
 10
1524.881641
 20
741.486545
 11
1522.586502
 21
729.692663
  0
LINE
  8
0
  6
CONTINUOUS
 62
1
 10
1528.743796
 20
741.486552
 11
1531.038982
 21
729.692656
  0
ARC
  8
0
  6
CONTINUOUS
 62
1
 10
1526.812704
 20
824.574705
 40
3.500000
 50
2.022644
 51
177.977386
  0
ARC
  8
0
  6
CONTINUOUS
 62
1
 10
1380.312704
 20
874.264079
 40
2.000000
 50
180.000000
 51
258.987637
  0
ARC
  8
0
  6
CONTINUOUS
 62
1
 10
1380.312704
 20
861.885256
 40
2.000000
 50
101.012566
 51
180.000000
  0
LINE
  8
0
  6
CONTINUOUS
 62
1
 10
1388.312704
 20
872.553178
 11
1409.506281
 21
873.906888
  0
LINE
  8
0
  6
CONTINUOUS
 62
1
 10
1388.312704
 20
863.596232
 11
1410.450460
 21
862.272336
  0
LINE
  8
0
  6
CONTINUOUS
 62
1
 10
1379.276936
 20
872.553178
 11
1388.312704
 21
872.553178
  0
LINE
  8
0
  6
CONTINUOUS
 62
1
 10
1379.276936
 20
863.596232
 11
1388.312704
 21
863.596232
  0
LINE
  8
0
  6
CONTINUOUS
 62
1
 10
1391.538315
 20
870.042009
 11
1483.787768
 21
870.042009
  0
LINE
  8
0
  6
CONTINUOUS
 62
1
 10
1391.356497
 20
866.107401
 11
1483.787768
 21
866.107401
  0
ARC
  8
0
  6
CONTINUOUS
 62
1
 10
1483.795517
 20
868.074689
 40
1.967304
 50
269.774337
 51
90.000000
  0
ARC
  8
0
  6
CONTINUOUS
 62
1
 10
1391.348749
 20
868.074689
 40
1.967304
 50
269.774337
 51
90.000000
  0
LINE
  8
0
  6
CONTINUOUS
 62
1
 10
1391.724545
 20
870.005768
 11
1379.930663
 21
872.300907
  0
LINE
  8
0
  6
CONTINUOUS
 62
1
 10
1391.724552
 20
866.143613
 11
1379.930656
 21
863.848427
  0
ARC
  8
0
  6
CONTINUOUS
 62
1
 10
1483.312704
 20
868.074705
 40
3.500000
 50
272.022644
 51
87.977386
  0
LINE
  8
0
  6
CONTINUOUS
 62
1
 10
1483.436239
 20
871.572553
 11
1409.506281
 21
873.906888
  0
LINE
  8
0
  6
CONTINUOUS
 62
1
 10
1483.436239
 20
864.576871
 11
1410.450460
 21
862.272336
  0
LINE
  8
0
  6
CONTINUOUS
 62
1
 10
1391.312712
 20
738.074705
 11
1398.834239
 21
738.074705
  0
LINE
  8
0
  6
CONTINUOUS
 62
1
 10
1408.191644
 20
746.668873
 11
1455.355459
 21
793.832688
  0
LINE
  8
0
  6
CONTINUOUS
 62
1
 10
1404.291025
 20
748.324177
 11
1452.573271
 21
796.614876
  0
ARC
  8
0
  6
CONTINUOUS
 62
1
 10
1453.969833
 20
795.229272
 40
1.967304
 50
315.000000
 51
135.225663
  0
ARC
  8
0
  6
CONTINUOUS
 62
1
 10
1453.628444
 20
794.887861
 40
3.500000
 50
317.022614
 51
132.977356
  0
LINE
  8
0
  6
CONTINUOUS
 62
1
 10
1456.189149
 20
792.501861
 11
1431.367405
 21
765.694011
  0
LINE
  8
0
  6
CONTINUOUS
 62
1
 10
1451.242455
 20
797.448555
 11
1423.381871
 21
771.652083
  0
LINE
  8
0
  6
CONTINUOUS
 62
1
 10
1401.686916
 20
749.425770
 11
1423.021544
 21
771.228154
  0
LINE
  8
0
  6
CONTINUOUS
 62
1
 10
1410.761058
 20
745.641924
 11
1434.839602
 21
769.444035
  0
LINE
  8
0
  6
CONTINUOUS
 62
1
 10
1481.291177
 20
738.074705
 11
1522.334231
 21
738.074705
  0
LINE
  8
0
  6
CONTINUOUS
 62
1
 10
1388.312712
 20
863.596231
 11
1388.312712
 21
822.553178
  0
LINE
  8
0
  6
CONTINUOUS
 62
1
 10
1388.312712
 20
813.596232
 11
1388.312712
 21
741.074705
  0
LINE
  8
0
  6
CONTINUOUS
 62
1
 10
1522.334231
 20
997.302023
 11
1520.812704
 21
983.050480
  0
LINE
  8
0
  6
CONTINUOUS
 62
1
 10
1531.291177
 20
997.302023
 11
1532.812704
 21
983.050480
  0
LINE
  8
0
  6
CONTINUOUS
 62
1
 10
1522.334231
 20
1018.847417
 11
1522.334231
 21
997.302023
  0
LINE
  8
0
  6
CONTINUOUS
 62
1
 10
1531.291177
 20
1018.847417
 11
1531.291177
 21
997.302023
  0
ARC
  8
0
  6
CONTINUOUS
 62
1
 10
1526.812719
 20
911.091892
 40
1.967304
 50
180.000000
 51
0.225663
  0
ARC
  8
0
  6
CONTINUOUS
 62
1
 10
1526.812704
 20
911.574705
 40
3.500000
 50
182.022614
 51
357.977356
  0
LINE
  8
0
  6
CONTINUOUS
 62
1
 10
1523.314856
 20
911.451170
 11
1520.997591
 21
980.123378
  0
LINE
  8
0
  6
CONTINUOUS
 62
1
 10
1530.310537
 20
911.451170
 11
1532.627816
 21
980.123379
  0
LINE
  8
0
  6
CONTINUOUS
 62
1
 10
1391.312712
 20
998.074705
 11
1398.834239
 21
998.074705
  0
LINE
  8
0
  6
CONTINUOUS
 62
1
 10
1408.191644
 20
989.480537
 11
1455.355459
 21
942.316721
  0
LINE
  8
0
  6
CONTINUOUS
 62
1
 10
1404.291025
 20
987.825233
 11
1452.573271
 21
939.534533
  0
ARC
  8
0
  6
CONTINUOUS
 62
1
 10
1453.969833
 20
940.920138
 40
1.967304
 50
224.774337
 51
45.000000
  0
ARC
  8
0
  6
CONTINUOUS
 62
1
 10
1453.628444
 20
941.261548
 40
3.500000
 50
227.022644
 51
42.977386
  0
LINE
  8
0
  6
CONTINUOUS
 62
1
 10
1456.189149
 20
943.647548
 11
1430.084370
 21
971.841095
  0
LINE
  8
0
  6
CONTINUOUS
 62
1
 10
1451.242455
 20
938.700854
 11
1419.354675
 21
968.226159
  0
LINE
  8
0
  6
CONTINUOUS
 62
1
 10
1401.631890
 20
986.644426
 11
1419.518232
 21
968.074720
  0
LINE
  8
0
  6
CONTINUOUS
 62
1
 10
1410.819773
 20
990.573845
 11
1430.084370
 21
971.841095
  0
LINE
  8
0
  6
CONTINUOUS
 62
1
 10
1481.291177
 20
998.074705
 11
1522.334231
 21
998.074705
  0
LINE
  8
0
  6
CONTINUOUS
 62
1
 10
1388.312712
 20
922.553177
 11
1388.312712
 21
995.074705
  0
LINE
  8
0
  6
CONTINUOUS
 62
1
 10
1388.312712
 20
872.553178
 11
1388.312712
 21
913.596231
  0
LINE
  8
0
  6
CONTINUOUS
 62
1
 10
1672.312704
 20
728.074705
 11
1381.312712
 21
728.074705
  0
ARC
  8
0
  6
CONTINUOUS
 62
1
 10
1381.312712
 20
731.074705
 40
3.000000
 50
180.000000
 51
270.000000
  0
CIRCLE
  8
0
  6
DASHED
 62
7
 10
1526.812704
 20
737.074705
 40
2.500000
  0
CIRCLE
  8
0
  6
DASHED
 62
7
 10
1526.812704
 20
737.074705
 40
5.000000
  0
ARC
  8
0
  6
CONTINUOUS
 62
1
 10
4024.146322
 20
1008.074720
 40
2620.833618
 50
183.258519
 51
184.780931
  0
ARC
  8
0
  6
CONTINUOUS
 62
1
 10
1447.309714
 20
792.555362
 40
35.000000
 50
244.570090
 51
263.548633
  0
ARC
  8
0
  6
CONTINUOUS
 62
1
 10
1433.568701
 20
763.655802
 40
3.000000
 50
137.202989
 51
244.570090
  0
ARC
  8
0
  6
CONTINUOUS
 62
1
 10
1421.343663
 20
773.853379
 40
3.000000
 50
215.763225
 51
312.796998
  0
ARC
  8
0
  6
CONTINUOUS
 62
1
 10
1410.545139
 20
859.273830
 40
3.000000
 50
91.808521
 51
183.258519
  0
ARC
  8
0
  6
CONTINUOUS
 62
1
 10
1409.600958
 20
876.905394
 40
3.000000
 50
182.872068
 51
268.191489
  0
LINE
  8
0
  6
CONTINUOUS
 62
1
 10
1530.310537
 20
824.698240
 11
1532.596783
 21
756.027029
  0
LINE
  8
0
  6
CONTINUOUS
 62
1
 10
1523.314871
 20
824.698240
 11
1521.028625
 21
756.027029
  0
ARC
  8
0
  6
CONTINUOUS
 62
1
 10
1518.030286
 20
756.126852
 40
3.000000
 50
269.319599
 51
358.093177
  0
ARC
  8
0
  6
CONTINUOUS
 62
1
 10
1447.309714
 20
792.555362
 40
35.000000
 50
184.780931
 51
215.763225
  0
ARC
  8
0
  6
CONTINUOUS
 62
1
 10
1535.595122
 20
756.126852
 40
3.000000
 50
181.906823
 51
270.680400
  0
ARC
  8
0
  6
CONTINUOUS
 62
1
 10
1526.812708
 20
1495.649667
 40
742.574962
 50
263.548633
 51
269.319599
  0
ARC
  8
0
  6
CONTINUOUS
 62
1
 10
4024.146322
 20
1008.074720
 40
2620.833618
 50
181.450422
 51
182.872068
  0
ARC
  8
0
  6
CONTINUOUS
 62
1
 10
1439.141201
 20
942.622278
 40
35.000000
 50
133.001926
 51
181.450422
  0
ARC
  8
0
  6
CONTINUOUS
 62
1
 10
1417.316466
 20
966.024863
 40
3.000000
 50
47.203002
 51
133.001926
  0
ARC
  8
0
  6
CONTINUOUS
 62
1
 10
1432.285666
 20
973.879304
 40
3.000000
 50
102.370677
 51
222.797011
  0
ARC
  8
0
  6
CONTINUOUS
 62
1
 10
1439.141201
 20
942.622278
 40
35.000000
 50
97.117479
 51
102.370677
  0
LINE
  8
0
  6
CONTINUOUS
 62
1
 10
1391.538475
 20
816.107401
 11
1407.183964
 21
816.107401
  0
LINE
  8
0
  6
CONTINUOUS
 62
1
 10
1391.545565
 20
820.040598
 11
1407.183964
 21
820.042009
  0
ARC
  8
0
  6
CONTINUOUS
 62
1
 10
1407.191712
 20
818.074720
 40
1.967304
 50
270.000000
 51
90.225663
  0
ARC
  8
0
  6
CONTINUOUS
 62
1
 10
1406.708899
 20
818.074705
 40
3.500000
 50
272.022614
 51
87.977356
  0
LINE
  8
0
  6
CONTINUOUS
 62
1
 10
1406.832435
 20
814.576856
 11
1388.312712
 21
813.599704
  0
LINE
  8
0
  6
CONTINUOUS
 62
1
 10
1406.832435
 20
821.572538
 11
1388.312712
 21
822.549704
  0
LINE
  8
0
  6
CONTINUOUS
 62
1
 10
1391.538480
 20
916.107401
 11
1401.833534
 21
916.107401
  0
LINE
  8
0
  6
CONTINUOUS
 62
1
 10
1391.409051
 20
920.041068
 11
1401.833534
 21
920.042009
  0
ARC
  8
0
  6
CONTINUOUS
 62
1
 10
1401.841282
 20
918.074720
 40
1.967304
 50
270.000000
 51
90.225663
  0
ARC
  8
0
  6
CONTINUOUS
 62
1
 10
1401.358470
 20
918.074705
 40
3.500000
 50
272.022614
 51
87.977356
  0
LINE
  8
0
  6
CONTINUOUS
 62
1
 10
1401.482005
 20
914.576856
 11
1388.312712
 21
913.683227
  0
LINE
  8
0
  6
CONTINUOUS
 62
1
 10
1401.482005
 20
921.572538
 11
1388.312712
 21
922.549704
  0
ARC
  8
0
  6
CONTINUOUS
 62
1
 10
1535.626110
 20
980.022204
 40
3.000000
 50
89.317199
 51
178.067341
  0
ARC
  8
0
  6
CONTINUOUS
 62
1
 10
1517.999297
 20
980.022204
 40
3.000000
 50
1.932647
 51
90.682802
  0
ARC
  8
0
  6
CONTINUOUS
 62
1
 10
1526.812708
 20
240.499758
 40
742.574962
 50
90.682802
 51
97.117479
  0
LINE
  8
0
  6
CONTINUOUS
 62
1
 10
1478.780007
 20
741.300480
 11
1478.780007
 21
751.735013
  0
LINE
  8
0
  6
CONTINUOUS
 62
1
 10
1474.846340
 20
741.305146
 11
1474.845399
 21
751.735013
  0
ARC
  8
0
  6
CONTINUOUS
 62
1
 10
1476.812688
 20
751.742761
 40
1.967304
 50
0.000000
 51
180.225663
  0
ARC
  8
0
  6
CONTINUOUS
 62
1
 10
1476.812703
 20
751.259949
 40
3.500000
 50
2.022614
 51
177.977356
  0
LINE
  8
0
  6
CONTINUOUS
 62
1
 10
1480.310552
 20
751.383484
 11
1481.287704
 21
738.074705
  0
LINE
  8
0
  6
CONTINUOUS
 62
1
 10
1473.314870
 20
751.383484
 11
1472.337704
 21
738.074705
  0
ARC
  8
0
  6
CONTINUOUS
 62
1
 10
1380.312704
 20
924.264078
 40
2.000000
 50
180.000000
 51
258.987637
  0
ARC
  8
0
  6
CONTINUOUS
 62
1
 10
1380.312704
 20
911.885256
 40
2.000000
 50
101.012566
 51
180.000000
  0
LINE
  8
0
  6
CONTINUOUS
 62
1
 10
1379.276936
 20
922.553177
 11
1388.312704
 21
922.553177
  0
LINE
  8
0
  6
CONTINUOUS
 62
1
 10
1379.276936
 20
913.596231
 11
1388.312704
 21
913.596231
  0
ARC
  8
0
  6
CONTINUOUS
 62
1
 10
1391.348749
 20
918.074689
 40
1.967304
 50
269.774337
 51
90.000000
  0
LINE
  8
0
  6
CONTINUOUS
 62
1
 10
1391.724545
 20
920.005767
 11
1379.930663
 21
922.300906
  0
LINE
  8
0
  6
CONTINUOUS
 62
1
 10
1391.724552
 20
916.143612
 11
1379.930656
 21
913.848426
  0
ARC
  8
0
  6
CONTINUOUS
 62
1
 10
1380.312704
 20
824.264079
 40
2.000000
 50
180.000000
 51
258.987637
  0
ARC
  8
0
  6
CONTINUOUS
 62
1
 10
1380.312704
 20
811.885256
 40
2.000000
 50
101.012566
 51
180.000000
  0
LINE
  8
0
  6
CONTINUOUS
 62
1
 10
1379.276936
 20
822.553178
 11
1388.312704
 21
822.553178
  0
LINE
  8
0
  6
CONTINUOUS
 62
1
 10
1379.276936
 20
813.596232
 11
1388.312704
 21
813.596232
  0
ARC
  8
0
  6
CONTINUOUS
 62
1
 10
1391.348749
 20
818.074689
 40
1.967304
 50
269.774337
 51
90.000000
  0
LINE
  8
0
  6
CONTINUOUS
 62
1
 10
1391.724545
 20
820.005768
 11
1379.930663
 21
822.300907
  0
LINE
  8
0
  6
CONTINUOUS
 62
1
 10
1391.724552
 20
816.143613
 11
1379.930656
 21
813.848427
  0
ARC
  8
0
  6
CONTINUOUS
 62
1
 10
1470.623330
 20
730.074705
 40
2.000000
 50
270.000000
 51
348.987637
  0
ARC
  8
0
  6
CONTINUOUS
 62
1
 10
1483.002152
 20
730.074705
 40
2.000000
 50
191.012566
 51
270.000000
  0
LINE
  8
0
  6
CONTINUOUS
 62
1
 10
1472.334231
 20
729.038937
 11
1472.334231
 21
738.074705
  0
LINE
  8
0
  6
CONTINUOUS
 62
1
 10
1481.291177
 20
729.038937
 11
1481.291177
 21
738.074705
  0
ARC
  8
0
  6
CONTINUOUS
 62
1
 10
1476.812719
 20
741.110749
 40
1.967304
 50
359.774337
 51
180.000000
  0
LINE
  8
0
  6
CONTINUOUS
 62
1
 10
1474.881641
 20
741.486545
 11
1472.586502
 21
729.692663
  0
LINE
  8
0
  6
CONTINUOUS
 62
1
 10
1478.743796
 20
741.486552
 11
1481.038982
 21
729.692656
  0
ARC
  8
0
  6
CONTINUOUS
 62
1
 10
1397.123337
 20
730.074705
 40
2.000000
 50
270.000000
 51
348.987637
  0
ARC
  8
0
  6
CONTINUOUS
 62
1
 10
1409.502160
 20
730.074705
 40
2.000000
 50
191.012566
 51
270.000000
  0
LINE
  8
0
  6
CONTINUOUS
 62
1
 10
1398.834239
 20
729.038937
 11
1398.834239
 21
742.431788
  0
LINE
  8
0
  6
CONTINUOUS
 62
1
 10
1407.791185
 20
729.038937
 11
1407.791185
 21
738.530151
  0
ARC
  8
0
  6
CONTINUOUS
 62
1
 10
1403.312727
 20
741.110749
 40
1.967304
 50
359.774337
 51
180.000000
  0
LINE
  8
0
  6
CONTINUOUS
 62
1
 10
1401.381649
 20
741.486545
 11
1399.086509
 21
729.692663
  0
LINE
  8
0
  6
CONTINUOUS
 62
1
 10
1405.243804
 20
741.486552
 11
1407.538989
 21
729.692656
  0
ARC
  8
0
  6
CONTINUOUS
 62
1
 10
1417.791185
 20
738.530151
 40
10.000000
 50
134.669214
 51
180.000000
  0
ARC
  8
0
  6
CONTINUOUS
 62
1
 10
1415.262712
 20
739.597805
 40
10.000000
 50
135.000000
 51
172.339633
  0
ARC
  8
0
  6
CONTINUOUS
 62
1
 10
1411.362712
 20
741.253728
 40
10.000000
 50
135.005015
 51
180.000000
  0
ARC
  8
0
  6
CONTINUOUS
 62
1
 10
1408.834239
 20
742.431788
 40
10.000000
 50
135.621263
 51
180.000000
  0
LINE
  8
0
  6
CONTINUOUS
 62
1
 10
1398.834239
 20
1008.074720
 11
1398.834239
 21
993.581729
  0
LINE
  8
0
  6
CONTINUOUS
 62
1
 10
1407.791185
 20
1008.074705
 11
1407.791185
 21
997.743184
  0
ARC
  8
0
  6
CONTINUOUS
 62
1
 10
1415.262712
 20
996.551604
 40
10.000000
 50
187.660367
 51
225.000000
  0
ARC
  8
0
  6
CONTINUOUS
 62
1
 10
1411.362712
 20
994.895682
 40
10.000000
 50
180.000000
 51
224.994985
  0
ARC
  8
0
  6
CONTINUOUS
 62
1
 10
1408.834239
 20
993.581729
 40
10.000000
 50
180.000000
 51
223.926123
  0
ARC
  8
0
  6
CONTINUOUS
 62
1
 10
1417.791185
 20
997.743184
 40
10.000000
 50
180.000000
 51
225.801914
  0
LINE
  8
0
  6
CONTINUOUS
 62
1
 10
1405.280016
 20
995.046408
 11
1405.280016
 21
1008.074720
  0
LINE
  8
0
  6
CONTINUOUS
 62
1
 10
1401.345423
 20
995.038660
 11
1401.345423
 21
1008.074720
  0
ARC
  8
0
  6
CONTINUOUS
 62
1
 10
1476.812688
 20
984.406648
 40
1.967304
 50
179.774337
 51
0.000000
  0
ARC
  8
0
  6
CONTINUOUS
 62
1
 10
1476.812703
 20
984.889461
 40
3.500000
 50
182.022644
 51
357.977386
  0
LINE
  8
0
  6
CONTINUOUS
 62
1
 10
1480.310552
 20
984.765926
 11
1481.287704
 21
998.074705
  0
LINE
  8
0
  6
CONTINUOUS
 62
1
 10
1473.314870
 20
984.765926
 11
1472.337704
 21
998.074705
  0
LINE
  8
0
  6
CONTINUOUS
 62
1
 10
1472.334231
 20
1018.074735
 11
1472.334231
 21
998.074705
  0
LINE
  8
0
  6
CONTINUOUS
 62
1
 10
1481.291177
 20
1018.074735
 11
1481.291177
 21
998.074705
  0
LINE
  8
0
  6
CONTINUOUS
 62
1
 10
1407.791185
 20
998.074705
 11
1472.334231
 21
998.074705
  0
ARC
  8
0
  6
CONTINUOUS
 62
1
 10
1533.002079
 20
730.074705
 40
2.000000
 50
191.012363
 51
270.000000
  0
ARC
  8
0
  6
CONTINUOUS
 62
1
 10
1520.623256
 20
730.074705
 40
2.000000
 50
270.000000
 51
348.987434
  0
LINE
  8
0
  6
CONTINUOUS
 62
1
 10
1531.291177
 20
738.847387
 11
1532.596783
 21
756.027029
  0
LINE
  8
0
  6
CONTINUOUS
 62
1
 10
1522.334231
 20
738.847387
 11
1521.025634
 21
755.959834
  0
LINE
  8
0
  6
CONTINUOUS
 62
1
 10
1531.291177
 20
729.038937
 11
1531.291177
 21
738.847387
  0
LINE
  8
0
  6
CONTINUOUS
 62
1
 10
1522.334231
 20
729.038937
 11
1522.334231
 21
738.847387
  0
LINE
  8
0
  6
CONTINUOUS
 62
1
 10
1528.780008
 20
741.300315
 11
1528.780008
 21
825.049769
  0
LINE
  8
0
  6
CONTINUOUS
 62
1
 10
1524.845400
 20
741.118498
 11
1524.845400
 21
825.049769
  0
ARC
  8
0
  6
CONTINUOUS
 62
1
 10
1526.812689
 20
825.057517
 40
1.967304
 50
0.000000
 51
180.225663
  0
ARC
  8
0
  6
CONTINUOUS
 62
1
 10
1526.812689
 20
741.110749
 40
1.967304
 50
0.000000
 51
180.225663
  0
LINE
  8
0
  6
CONTINUOUS
 62
1
 10
1528.743767
 20
741.486545
 11
1531.038907
 21
729.692663
  0
LINE
  8
0
  6
CONTINUOUS
 62
1
 10
1524.881612
 20
741.486552
 11
1522.586427
 21
729.692656
  0
ARC
  8
0
  6
CONTINUOUS
 62
1
 10
1526.812704
 20
824.574705
 40
3.500000
 50
2.022614
 51
177.977356
  0
ARC
  8
0
  6
CONTINUOUS
 62
1
 10
1673.312704
 20
874.264079
 40
2.000000
 50
281.012363
 51
0.000000
  0
ARC
  8
0
  6
CONTINUOUS
 62
1
 10
1673.312704
 20
861.885256
 40
2.000000
 50
0.000000
 51
78.987434
  0
LINE
  8
0
  6
CONTINUOUS
 62
1
 10
1665.312704
 20
872.553178
 11
1644.119128
 21
873.906888
  0
LINE
  8
0
  6
CONTINUOUS
 62
1
 10
1665.312704
 20
863.596232
 11
1643.174948
 21
862.272336
  0
LINE
  8
0
  6
CONTINUOUS
 62
1
 10
1674.348472
 20
872.553178
 11
1665.312704
 21
872.553178
  0
LINE
  8
0
  6
CONTINUOUS
 62
1
 10
1674.348472
 20
863.596232
 11
1665.312704
 21
863.596232
  0
LINE
  8
0
  6
CONTINUOUS
 62
1
 10
1662.087094
 20
870.042009
 11
1569.837640
 21
870.042009
  0
LINE
  8
0
  6
CONTINUOUS
 62
1
 10
1662.268911
 20
866.107401
 11
1569.837640
 21
866.107401
  0
ARC
  8
0
  6
CONTINUOUS
 62
1
 10
1569.829892
 20
868.074689
 40
1.967304
 50
90.000000
 51
270.225663
  0
ARC
  8
0
  6
CONTINUOUS
 62
1
 10
1662.276659
 20
868.074689
 40
1.967304
 50
90.000000
 51
270.225663
  0
LINE
  8
0
  6
CONTINUOUS
 62
1
 10
1661.900863
 20
870.005768
 11
1673.694746
 21
872.300907
  0
LINE
  8
0
  6
CONTINUOUS
 62
1
 10
1661.900857
 20
866.143613
 11
1673.694753
 21
863.848427
  0
ARC
  8
0
  6
CONTINUOUS
 62
1
 10
1570.312704
 20
868.074705
 40
3.500000
 50
92.022614
 51
267.977356
  0
LINE
  8
0
  6
CONTINUOUS
 62
1
 10
1570.189169
 20
871.572553
 11
1644.119128
 21
873.906888
  0
LINE
  8
0
  6
CONTINUOUS
 62
1
 10
1570.189169
 20
864.576871
 11
1643.174948
 21
862.272336
  0
LINE
  8
0
  6
CONTINUOUS
 62
1
 10
1662.312697
 20
738.074705
 11
1654.791169
 21
738.074705
  0
LINE
  8
0
  6
CONTINUOUS
 62
1
 10
1645.433764
 20
746.668873
 11
1598.269949
 21
793.832688
  0
LINE
  8
0
  6
CONTINUOUS
 62
1
 10
1649.334383
 20
748.324177
 11
1601.052137
 21
796.614876
  0
ARC
  8
0
  6
CONTINUOUS
 62
1
 10
1599.655575
 20
795.229272
 40
1.967304
 50
44.774337
 51
225.000000
  0
ARC
  8
0
  6
CONTINUOUS
 62
1
 10
1599.996964
 20
794.887861
 40
3.500000
 50
47.022644
 51
222.977386
  0
LINE
  8
0
  6
CONTINUOUS
 62
1
 10
1597.436259
 20
792.501861
 11
1622.258003
 21
765.694011
  0
LINE
  8
0
  6
CONTINUOUS
 62
1
 10
1602.382953
 20
797.448555
 11
1630.243537
 21
771.652083
  0
LINE
  8
0
  6
CONTINUOUS
 62
1
 10
1651.938492
 20
749.425770
 11
1630.603864
 21
771.228154
  0
LINE
  8
0
  6
CONTINUOUS
 62
1
 10
1642.864350
 20
745.641924
 11
1618.785807
 21
769.444035
  0
LINE
  8
0
  6
CONTINUOUS
 62
1
 10
1572.334231
 20
738.074705
 11
1531.291177
 21
738.074705
  0
LINE
  8
0
  6
CONTINUOUS
 62
1
 10
1665.312697
 20
863.596231
 11
1665.312697
 21
822.553178
  0
LINE
  8
0
  6
CONTINUOUS
 62
1
 10
1665.312697
 20
813.596232
 11
1665.312697
 21
741.074705
  0
LINE
  8
0
  6
CONTINUOUS
 62
1
 10
1531.291177
 20
997.302023
 11
1532.812704
 21
983.050480
  0
LINE
  8
0
  6
CONTINUOUS
 62
1
 10
1522.334231
 20
997.302023
 11
1520.812704
 21
983.050480
  0
LINE
  8
0
  6
CONTINUOUS
 62
1
 10
1531.291177
 20
1018.074735
 11
1531.291177
 21
997.302023
  0
LINE
  8
0
  6
CONTINUOUS
 62
1
 10
1522.334231
 20
1018.074735
 11
1522.334231
 21
997.302023
  0
ARC
  8
0
  6
CONTINUOUS
 62
1
 10
1526.812689
 20
911.091892
 40
1.967304
 50
179.774337
 51
0.000000
  0
ARC
  8
0
  6
CONTINUOUS
 62
1
 10
1526.812704
 20
911.574705
 40
3.500000
 50
182.022644
 51
357.977386
  0
LINE
  8
0
  6
CONTINUOUS
 62
1
 10
1530.310553
 20
911.451170
 11
1532.627818
 21
980.123378
  0
LINE
  8
0
  6
CONTINUOUS
 62
1
 10
1523.314871
 20
911.451170
 11
1520.997592
 21
980.123379
  0
LINE
  8
0
  6
CONTINUOUS
 62
1
 10
1662.312697
 20
998.074705
 11
1654.791169
 21
998.074705
  0
LINE
  8
0
  6
CONTINUOUS
 62
1
 10
1645.433764
 20
989.480537
 11
1598.269949
 21
942.316721
  0
LINE
  8
0
  6
CONTINUOUS
 62
1
 10
1649.334383
 20
987.825233
 11
1601.052137
 21
939.534533
  0
ARC
  8
0
  6
CONTINUOUS
 62
1
 10
1599.655575
 20
940.920138
 40
1.967304
 50
135.000000
 51
315.225663
  0
ARC
  8
0
  6
CONTINUOUS
 62
1
 10
1599.996964
 20
941.261548
 40
3.500000
 50
137.022614
 51
312.977356
  0
LINE
  8
0
  6
CONTINUOUS
 62
1
 10
1597.436259
 20
943.647548
 11
1623.541038
 21
971.841095
  0
LINE
  8
0
  6
CONTINUOUS
 62
1
 10
1602.382953
 20
938.700854
 11
1634.270733
 21
968.226159
  0
LINE
  8
0
  6
CONTINUOUS
 62
1
 10
1651.993518
 20
986.644426
 11
1634.107176
 21
968.074720
  0
LINE
  8
0
  6
CONTINUOUS
 62
1
 10
1642.805635
 20
990.573845
 11
1623.541038
 21
971.841095
  0
LINE
  8
0
  6
CONTINUOUS
 62
1
 10
1572.334231
 20
998.074705
 11
1531.291177
 21
998.074705
  0
LINE
  8
0
  6
CONTINUOUS
 62
1
 10
1665.312697
 20
922.553177
 11
1665.312697
 21
995.074705
  0
LINE
  8
0
  6
CONTINUOUS
 62
1
 10
1665.312697
 20
872.553178
 11
1665.312697
 21
913.596231
  0
ARC
  8
0
  6
CONTINUOUS
 62
1
 10
1672.312697
 20
731.074705
 40
3.000000
 50
270.000000
 51
0.000000
  0
CIRCLE
  8
0
  6
DASHED
 62
7
 10
1526.812704
 20
737.074705
 40
2.500000
  0
CIRCLE
  8
0
  6
DASHED
 62
7
 10
1526.812704
 20
737.074705
 40
5.000000
  0
ARC
  8
0
  6
CONTINUOUS
 62
1
 10
-970.520914
 20
1008.074720
 40
2620.833618
 50
355.219069
 51
356.741481
  0
ARC
  8
0
  6
CONTINUOUS
 62
1
 10
1606.315695
 20
792.555362
 40
35.000000
 50
276.451367
 51
295.429910
  0
ARC
  8
0
  6
CONTINUOUS
 62
1
 10
1620.056707
 20
763.655802
 40
3.000000
 50
295.429910
 51
42.797011
  0
ARC
  8
0
  6
CONTINUOUS
 62
1
 10
1632.281746
 20
773.853379
 40
3.000000
 50
227.203002
 51
324.236775
  0
ARC
  8
0
  6
CONTINUOUS
 62
1
 10
1643.080270
 20
859.273830
 40
3.000000
 50
356.741481
 51
88.191479
  0
ARC
  8
0
  6
CONTINUOUS
 62
1
 10
1644.024450
 20
876.905394
 40
3.000000
 50
271.808511
 51
357.127932
  0
LINE
  8
0
  6
CONTINUOUS
 62
1
 10
1523.314871
 20
824.698240
 11
1521.028625
 21
756.027029
  0
LINE
  8
0
  6
CONTINUOUS
 62
1
 10
1530.310537
 20
824.698240
 11
1532.596783
 21
756.027029
  0
ARC
  8
0
  6
CONTINUOUS
 62
1
 10
1535.595122
 20
756.126852
 40
3.000000
 50
181.906823
 51
270.680401
  0
ARC
  8
0
  6
CONTINUOUS
 62
1
 10
1606.315695
 20
792.555362
 40
35.000000
 50
324.236775
 51
355.219069
  0
ARC
  8
0
  6
CONTINUOUS
 62
1
 10
1518.030286
 20
756.126852
 40
3.000000
 50
269.319600
 51
358.093177
  0
ARC
  8
0
  6
CONTINUOUS
 62
1
 10
1526.812700
 20
1495.649667
 40
742.574962
 50
270.680401
 51
276.451367
  0
ARC
  8
0
  6
CONTINUOUS
 62
1
 10
-970.520914
 20
1008.074720
 40
2620.833618
 50
357.127932
 51
358.549578
  0
ARC
  8
0
  6
CONTINUOUS
 62
1
 10
1614.484208
 20
942.622278
 40
35.000000
 50
358.549578
 51
46.998074
  0
ARC
  8
0
  6
CONTINUOUS
 62
1
 10
1636.308942
 20
966.024863
 40
3.000000
 50
46.998074
 51
132.796998
  0
ARC
  8
0
  6
CONTINUOUS
 62
1
 10
1621.339742
 20
973.879304
 40
3.000000
 50
317.202989
 51
77.629323
  0
ARC
  8
0
  6
CONTINUOUS
 62
1
 10
1614.484208
 20
942.622278
 40
35.000000
 50
77.629323
 51
82.882521
  0
LINE
  8
0
  6
CONTINUOUS
 62
1
 10
1662.086933
 20
816.107401
 11
1646.441445
 21
816.107401
  0
LINE
  8
0
  6
CONTINUOUS
 62
1
 10
1662.079843
 20
820.040598
 11
1646.441445
 21
820.042009
  0
ARC
  8
0
  6
CONTINUOUS
 62
1
 10
1646.433696
 20
818.074720
 40
1.967304
 50
89.774337
 51
270.000000
  0
ARC
  8
0
  6
CONTINUOUS
 62
1
 10
1646.916509
 20
818.074705
 40
3.500000
 50
92.022644
 51
267.977386
  0
LINE
  8
0
  6
CONTINUOUS
 62
1
 10
1646.792974
 20
814.576856
 11
1665.312697
 21
813.599704
  0
LINE
  8
0
  6
CONTINUOUS
 62
1
 10
1646.792974
 20
821.572538
 11
1665.312697
 21
822.549704
  0
LINE
  8
0
  6
CONTINUOUS
 62
1
 10
1662.086928
 20
916.107401
 11
1651.791874
 21
916.107401
  0
LINE
  8
0
  6
CONTINUOUS
 62
1
 10
1662.216358
 20
920.041068
 11
1651.791874
 21
920.042009
  0
ARC
  8
0
  6
CONTINUOUS
 62
1
 10
1651.784126
 20
918.074720
 40
1.967304
 50
89.774337
 51
270.000000
  0
ARC
  8
0
  6
CONTINUOUS
 62
1
 10
1652.266938
 20
918.074705
 40
3.500000
 50
92.022644
 51
267.977386
  0
LINE
  8
0
  6
CONTINUOUS
 62
1
 10
1652.143403
 20
914.576856
 11
1665.312697
 21
913.683227
  0
LINE
  8
0
  6
CONTINUOUS
 62
1
 10
1652.143403
 20
921.572538
 11
1665.312697
 21
922.549704
  0
ARC
  8
0
  6
CONTINUOUS
 62
1
 10
1517.999299
 20
980.022204
 40
3.000000
 50
1.932659
 51
90.682801
  0
ARC
  8
0
  6
CONTINUOUS
 62
1
 10
1535.626111
 20
980.022204
 40
3.000000
 50
89.317198
 51
178.067353
  0
ARC
  8
0
  6
CONTINUOUS
 62
1
 10
1526.812700
 20
240.499758
 40
742.574962
 50
82.882521
 51
89.317198
  0
LINE
  8
0
  6
CONTINUOUS
 62
1
 10
1574.845401
 20
741.300480
 11
1574.845401
 21
751.735013
  0
LINE
  8
0
  6
CONTINUOUS
 62
1
 10
1578.779068
 20
741.305146
 11
1578.780009
 21
751.735013
  0
ARC
  8
0
  6
CONTINUOUS
 62
1
 10
1576.812720
 20
751.742761
 40
1.967304
 50
359.774337
 51
180.000000
  0
ARC
  8
0
  6
CONTINUOUS
 62
1
 10
1576.812705
 20
751.259949
 40
3.500000
 50
2.022644
 51
177.977386
  0
LINE
  8
0
  6
CONTINUOUS
 62
1
 10
1573.314857
 20
751.383484
 11
1572.337704
 21
738.074705
  0
LINE
  8
0
  6
CONTINUOUS
 62
1
 10
1580.310538
 20
751.383484
 11
1581.287704
 21
738.074705
  0
ARC
  8
0
  6
CONTINUOUS
 62
1
 10
1673.312704
 20
924.264078
 40
2.000000
 50
281.012363
 51
0.000000
  0
ARC
  8
0
  6
CONTINUOUS
 62
1
 10
1673.312704
 20
911.885256
 40
2.000000
 50
0.000000
 51
78.987434
  0
LINE
  8
0
  6
CONTINUOUS
 62
1
 10
1674.348472
 20
922.553177
 11
1665.312704
 21
922.553177
  0
LINE
  8
0
  6
CONTINUOUS
 62
1
 10
1674.348472
 20
913.596231
 11
1665.312704
 21
913.596231
  0
ARC
  8
0
  6
CONTINUOUS
 62
1
 10
1662.276659
 20
918.074689
 40
1.967304
 50
90.000000
 51
270.225663
  0
LINE
  8
0
  6
CONTINUOUS
 62
1
 10
1661.900863
 20
920.005767
 11
1673.694746
 21
922.300906
  0
LINE
  8
0
  6
CONTINUOUS
 62
1
 10
1661.900857
 20
916.143612
 11
1673.694753
 21
913.848426
  0
ARC
  8
0
  6
CONTINUOUS
 62
1
 10
1673.312704
 20
824.264079
 40
2.000000
 50
281.012363
 51
0.000000
  0
ARC
  8
0
  6
CONTINUOUS
 62
1
 10
1673.312704
 20
811.885256
 40
2.000000
 50
0.000000
 51
78.987434
  0
LINE
  8
0
  6
CONTINUOUS
 62
1
 10
1674.348472
 20
822.553178
 11
1665.312704
 21
822.553178
  0
LINE
  8
0
  6
CONTINUOUS
 62
1
 10
1674.348472
 20
813.596232
 11
1665.312704
 21
813.596232
  0
ARC
  8
0
  6
CONTINUOUS
 62
1
 10
1662.276659
 20
818.074689
 40
1.967304
 50
90.000000
 51
270.225663
  0
LINE
  8
0
  6
CONTINUOUS
 62
1
 10
1661.900863
 20
820.005768
 11
1673.694746
 21
822.300907
  0
LINE
  8
0
  6
CONTINUOUS
 62
1
 10
1661.900857
 20
816.143613
 11
1673.694753
 21
813.848427
  0
ARC
  8
0
  6
CONTINUOUS
 62
1
 10
1583.002079
 20
730.074705
 40
2.000000
 50
191.012363
 51
270.000000
  0
ARC
  8
0
  6
CONTINUOUS
 62
1
 10
1570.623256
 20
730.074705
 40
2.000000
 50
270.000000
 51
348.987434
  0
LINE
  8
0
  6
CONTINUOUS
 62
1
 10
1581.291177
 20
729.038937
 11
1581.291177
 21
738.074705
  0
LINE
  8
0
  6
CONTINUOUS
 62
1
 10
1572.334231
 20
729.038937
 11
1572.334231
 21
738.074705
  0
ARC
  8
0
  6
CONTINUOUS
 62
1
 10
1576.812689
 20
741.110749
 40
1.967304
 50
0.000000
 51
180.225663
  0
LINE
  8
0
  6
CONTINUOUS
 62
1
 10
1578.743767
 20
741.486545
 11
1581.038907
 21
729.692663
  0
LINE
  8
0
  6
CONTINUOUS
 62
1
 10
1574.881612
 20
741.486552
 11
1572.586427
 21
729.692656
  0
ARC
  8
0
  6
CONTINUOUS
 62
1
 10
1656.502071
 20
730.074705
 40
2.000000
 50
191.012363
 51
270.000000
  0
ARC
  8
0
  6
CONTINUOUS
 62
1
 10
1644.123248
 20
730.074705
 40
2.000000
 50
270.000000
 51
348.987434
  0
LINE
  8
0
  6
CONTINUOUS
 62
1
 10
1654.791169
 20
729.038937
 11
1654.791169
 21
742.431788
  0
LINE
  8
0
  6
CONTINUOUS
 62
1
 10
1645.834224
 20
729.038937
 11
1645.834224
 21
738.530151
  0
ARC
  8
0
  6
CONTINUOUS
 62
1
 10
1650.312681
 20
741.110749
 40
1.967304
 50
0.000000
 51
180.225663
  0
LINE
  8
0
  6
CONTINUOUS
 62
1
 10
1652.243759
 20
741.486545
 11
1654.538899
 21
729.692663
  0
LINE
  8
0
  6
CONTINUOUS
 62
1
 10
1648.381604
 20
741.486552
 11
1646.086419
 21
729.692656
  0
ARC
  8
0
  6
CONTINUOUS
 62
1
 10
1635.834224
 20
738.530151
 40
10.000000
 50
0.000000
 51
45.330786
  0
ARC
  8
0
  6
CONTINUOUS
 62
1
 10
1638.362697
 20
739.597805
 40
10.000000
 50
7.660367
 51
45.000000
  0
ARC
  8
0
  6
CONTINUOUS
 62
1
 10
1642.262697
 20
741.253728
 40
10.000000
 50
0.000000
 51
44.994985
  0
ARC
  8
0
  6
CONTINUOUS
 62
1
 10
1644.791169
 20
742.431788
 40
10.000000
 50
0.000000
 51
44.378737
  0
LINE
  8
0
  6
CONTINUOUS
 62
1
 10
1654.791169
 20
1008.074720
 11
1654.791169
 21
993.581729
  0
LINE
  8
0
  6
CONTINUOUS
 62
1
 10
1645.834224
 20
1008.074705
 11
1645.834224
 21
997.743184
  0
ARC
  8
0
  6
CONTINUOUS
 62
1
 10
1638.362697
 20
996.551604
 40
10.000000
 50
315.000000
 51
352.339633
  0
ARC
  8
0
  6
CONTINUOUS
 62
1
 10
1642.262697
 20
994.895682
 40
10.000000
 50
315.005015
 51
0.000000
  0
ARC
  8
0
  6
CONTINUOUS
 62
1
 10
1644.791169
 20
993.581729
 40
10.000000
 50
316.073877
 51
0.000000
  0
ARC
  8
0
  6
CONTINUOUS
 62
1
 10
1635.834224
 20
997.743184
 40
10.000000
 50
314.198086
 51
0.000000
  0
LINE
  8
0
  6
CONTINUOUS
 62
1
 10
1648.345392
 20
995.046408
 11
1648.345392
 21
1008.074720
  0
LINE
  8
0
  6
CONTINUOUS
 62
1
 10
1652.279985
 20
995.038660
 11
1652.279985
 21
1008.074720
  0
ARC
  8
0
  6
CONTINUOUS
 62
1
 10
1576.812720
 20
984.406648
 40
1.967304
 50
180.000000
 51
0.225663
  0
ARC
  8
0
  6
CONTINUOUS
 62
1
 10
1576.812705
 20
984.889461
 40
3.500000
 50
182.022614
 51
357.977356
  0
LINE
  8
0
  6
CONTINUOUS
 62
1
 10
1573.314857
 20
984.765926
 11
1572.337704
 21
998.074705
  0
LINE
  8
0
  6
CONTINUOUS
 62
1
 10
1580.310538
 20
984.765926
 11
1581.287704
 21
998.074705
  0
LINE
  8
0
  6
CONTINUOUS
 62
1
 10
1645.834224
 20
998.074705
 11
1581.291177
 21
998.074705
  0
LINE
  8
0
  6
CONTINUOUS
 62
1
 10
1407.791185
 20
738.074705
 11
1472.334231
 21
738.074705
  0
LINE
  8
0
  6
CONTINUOUS
 62
1
 10
1645.834224
 20
738.074705
 11
1581.291177
 21
738.074705
  0
LINE
  8
0
  6
CONTINUOUS
 62
1
 10
1578.780009
 20
1031.735043
 11
1578.780009
 21
984.398900
  0
LINE
  8
0
  6
CONTINUOUS
 62
1
 10
1574.845432
 20
984.398900
 11
1574.845416
 21
1031.742792
  0
LINE
  8
0
  6
CONTINUOUS
 62
1
 10
1478.779992
 20
1031.742792
 11
1478.779992
 21
984.406648
  0
LINE
  8
0
  6
CONTINUOUS
 62
1
 10
1474.845384
 20
984.406648
 11
1474.845399
 21
1031.735043
  0
ARC
  8
0
  6
CONTINUOUS
 62
1
 10
-970.520914
 20
1008.074720
 40
2620.833618
 50
3.258519
 51
4.780931
  0
ARC
  8
0
  6
CONTINUOUS
 62
1
 10
1526.812700
 20
520.499773
 40
742.574962
 50
83.548633
 51
89.319599
  0
LINE
  8
0
  6
DASHED
 62
7
 10
1526.812708
 20
1288.074735
 11
1528.071171
 21
1288.074735
  0
ARC
  8
0
  6
CONTINUOUS
 62
1
 10
1662.312697
 20
1275.074735
 40
3.000000
 50
0.000000
 51
90.000000
  0
ARC
  8
0
  6
CONTINUOUS
 62
1
 10
1662.312697
 20
1021.074735
 40
3.000000
 50
270.000000
 51
0.000000
  0
ARC
  8
0
  6
CONTINUOUS
 62
1
 10
1662.312697
 20
995.074705
 40
3.000000
 50
0.000000
 51
90.000000
  0
ARC
  8
0
  6
CONTINUOUS
 62
1
 10
1662.312697
 20
741.074705
 40
3.000000
 50
270.000000
 51
0.000000
  0
ARC
  8
0
  6
CONTINUOUS
 62
1
 10
1391.312712
 20
741.074705
 40
3.000000
 50
180.000000
 51
270.000000
  0
ARC
  8
0
  6
CONTINUOUS
 62
1
 10
1391.312712
 20
995.074705
 40
3.000000
 50
90.000000
 51
180.000000
  0
ARC
  8
0
  6
CONTINUOUS
 62
1
 10
1391.312712
 20
1021.074735
 40
3.000000
 50
180.000000
 51
270.000000
  0
ARC
  8
0
  6
CONTINUOUS
 62
1
 10
1091.312712
 20
1275.074735
 40
3.000000
 50
90.000000
 51
180.000000
  0
ARC
  8
0
  6
CONTINUOUS
 62
1
 10
1391.312712
 20
1275.074735
 40
3.000000
 50
90.000000
 51
180.000000
  0
ARC
  8
0
  6
CONTINUOUS
 62
1
 10
791.312712
 20
1275.074735
 40
3.000000
 50
90.000000
 51
180.000000
  0
LINE
  8
0
  6
CONTINUOUS
 62
1
 10
807.791185
 20
1278.074735
 11
872.334231
 21
1278.074735
  0
LINE
  8
0
  6
CONTINUOUS
 62
1
 10
1407.791185
 20
1278.074735
 11
1472.334231
 21
1278.074735
  0
LINE
  8
0
  6
CONTINUOUS
 62
1
 10
1107.791185
 20
1278.074735
 11
1172.334231
 21
1278.074735
  0
ARC
  8
0
  6
CONTINUOUS
 62
1
 10
926.812704
 20
1148.074735
 40
57.500000
 50
3.928605
 51
86.047453
  0
ARC
  8
0
  6
CONTINUOUS
 62
1
 10
926.812704
 20
1148.074735
 40
57.500000
 50
93.952547
 51
176.071395
  0
ARC
  8
0
  6
CONTINUOUS
 62
1
 10
926.812704
 20
1148.074735
 40
64.032794
 50
93.743761
 51
176.287775
  0
ARC
  8
0
  6
CONTINUOUS
 62
1
 10
926.812704
 20
1148.074735
 40
64.032794
 50
183.712235
 51
266.247951
  0
ARC
  8
0
  6
CONTINUOUS
 62
1
 10
926.812704
 20
1148.074735
 40
57.500000
 50
183.928618
 51
266.041161
  0
ARC
  8
0
  6
CONTINUOUS
 62
1
 10
926.812704
 20
1148.074735
 40
64.032794
 50
273.752049
 51
356.287765
  0
ARC
  8
0
  6
CONTINUOUS
 62
1
 10
926.812704
 20
1148.074735
 40
57.500000
 50
273.958851
 51
356.071382
  0
ARC
  8
0
  6
CONTINUOUS
 62
1
 10
926.812704
 20
868.074735
 40
64.032794
 50
3.712225
 51
86.256239
  0
ARC
  8
0
  6
CONTINUOUS
 62
1
 10
926.812704
 20
868.074735
 40
57.500000
 50
3.928605
 51
86.047453
  0
ARC
  8
0
  6
CONTINUOUS
 62
1
 10
926.812704
 20
868.074735
 40
57.500000
 50
93.952547
 51
176.071395
  0
ARC
  8
0
  6
CONTINUOUS
 62
1
 10
926.812704
 20
868.074735
 40
64.032794
 50
93.743761
 51
176.287775
  0
ARC
  8
0
  6
CONTINUOUS
 62
1
 10
926.812704
 20
868.074735
 40
64.032794
 50
183.712235
 51
266.247951
  0
ARC
  8
0
  6
CONTINUOUS
 62
1
 10
926.812704
 20
868.074735
 40
57.500000
 50
183.928618
 51
266.041161
  0
ARC
  8
0
  6
CONTINUOUS
 62
1
 10
926.812704
 20
868.074735
 40
64.032794
 50
273.752049
 51
356.287765
  0
ARC
  8
0
  6
CONTINUOUS
 62
1
 10
926.812704
 20
868.074735
 40
57.500000
 50
273.958851
 51
356.071382
  0
ARC
  8
0
  6
CONTINUOUS
 62
1
 10
1226.812704
 20
868.074735
 40
64.032794
 50
3.712225
 51
86.256239
  0
ARC
  8
0
  6
CONTINUOUS
 62
1
 10
1226.812704
 20
868.074735
 40
57.500000
 50
3.928605
 51
86.047453
  0
ARC
  8
0
  6
CONTINUOUS
 62
1
 10
1226.812704
 20
868.074735
 40
57.500000
 50
93.952547
 51
176.071395
  0
ARC
  8
0
  6
CONTINUOUS
 62
1
 10
1226.812704
 20
868.074735
 40
64.032794
 50
93.743761
 51
176.287775
  0
ARC
  8
0
  6
CONTINUOUS
 62
1
 10
1226.812704
 20
868.074735
 40
64.032794
 50
183.712235
 51
266.247951
  0
ARC
  8
0
  6
CONTINUOUS
 62
1
 10
1226.812704
 20
868.074735
 40
57.500000
 50
183.928618
 51
266.041161
  0
ARC
  8
0
  6
CONTINUOUS
 62
1
 10
1226.812704
 20
868.074735
 40
64.032794
 50
273.752049
 51
356.287765
  0
ARC
  8
0
  6
CONTINUOUS
 62
1
 10
1226.812704
 20
868.074735
 40
57.500000
 50
273.958851
 51
356.071382
  0
ARC
  8
0
  6
CONTINUOUS
 62
1
 10
1526.812704
 20
868.074735
 40
64.032794
 50
3.712225
 51
86.256239
  0
ARC
  8
0
  6
CONTINUOUS
 62
1
 10
1526.812704
 20
868.074735
 40
57.500000
 50
3.928605
 51
86.047453
  0
ARC
  8
0
  6
CONTINUOUS
 62
1
 10
1526.812704
 20
868.074735
 40
57.500000
 50
93.952547
 51
176.071395
  0
ARC
  8
0
  6
CONTINUOUS
 62
1
 10
1526.812704
 20
868.074735
 40
64.032794
 50
93.743761
 51
176.287775
  0
ARC
  8
0
  6
CONTINUOUS
 62
1
 10
1526.812704
 20
868.074735
 40
64.032794
 50
183.712235
 51
266.247951
  0
ARC
  8
0
  6
CONTINUOUS
 62
1
 10
1526.812704
 20
868.074735
 40
57.500000
 50
183.928618
 51
266.041161
  0
ARC
  8
0
  6
CONTINUOUS
 62
1
 10
1526.812704
 20
868.074735
 40
64.032794
 50
273.752049
 51
356.287765
  0
ARC
  8
0
  6
CONTINUOUS
 62
1
 10
1526.812704
 20
868.074735
 40
57.500000
 50
273.958851
 51
356.071382
  0
ARC
  8
0
  6
CONTINUOUS
 62
1
 10
1526.812704
 20
1148.074735
 40
64.032794
 50
3.712225
 51
86.256239
  0
ARC
  8
0
  6
CONTINUOUS
 62
1
 10
1526.812704
 20
1148.074735
 40
57.500000
 50
3.928605
 51
86.047453
  0
ARC
  8
0
  6
CONTINUOUS
 62
1
 10
1526.812704
 20
1148.074735
 40
57.500000
 50
93.952547
 51
176.071395
  0
ARC
  8
0
  6
CONTINUOUS
 62
1
 10
1526.812704
 20
1148.074735
 40
64.032794
 50
93.743761
 51
176.287775
  0
ARC
  8
0
  6
CONTINUOUS
 62
1
 10
1526.812704
 20
1148.074735
 40
64.032794
 50
183.712235
 51
266.247951
  0
ARC
  8
0
  6
CONTINUOUS
 62
1
 10
1526.812704
 20
1148.074735
 40
57.500000
 50
183.928618
 51
266.041161
  0
ARC
  8
0
  6
CONTINUOUS
 62
1
 10
1526.812704
 20
1148.074735
 40
64.032794
 50
273.752049
 51
356.287765
  0
ARC
  8
0
  6
CONTINUOUS
 62
1
 10
1526.812704
 20
1148.074735
 40
57.500000
 50
273.958851
 51
356.071382
  0
ARC
  8
0
  6
CONTINUOUS
 62
1
 10
1226.812704
 20
1148.074735
 40
64.032794
 50
3.712225
 51
86.256239
  0
ARC
  8
0
  6
CONTINUOUS
 62
1
 10
1226.812704
 20
1148.074735
 40
57.500000
 50
3.928605
 51
86.047453
  0
ARC
  8
0
  6
CONTINUOUS
 62
1
 10
1226.812704
 20
1148.074735
 40
57.500000
 50
93.952547
 51
176.071395
  0
ARC
  8
0
  6
CONTINUOUS
 62
1
 10
1226.812704
 20
1148.074735
 40
64.032794
 50
93.743761
 51
176.287775
  0
ARC
  8
0
  6
CONTINUOUS
 62
1
 10
1226.812704
 20
1148.074735
 40
64.032794
 50
183.712235
 51
266.247951
  0
ARC
  8
0
  6
CONTINUOUS
 62
1
 10
1226.812704
 20
1148.074735
 40
57.500000
 50
183.928618
 51
266.041161
  0
ARC
  8
0
  6
CONTINUOUS
 62
1
 10
1226.812704
 20
1148.074735
 40
64.032794
 50
273.752049
 51
356.287765
  0
ARC
  8
0
  6
CONTINUOUS
 62
1
 10
1226.812704
 20
1148.074735
 40
57.500000
 50
273.958851
 51
356.071382
  0
ARC
  8
0
  6
CONTINUOUS
 62
1
 10
1177.979765
 20
2645.443632
 40
2130.149234
 50
263.004957
 51
267.563916
  0
LINE
  8
0
  6
CONTINUOUS
 62
1
 10
1084.313324
 20
579.831820
 11
1076.977353
 21
545.597286
  0
LINE
  8
0
  6
CONTINUOUS
 62
1
 10
1106.812758
 20
579.831820
 11
1094.580183
 21
522.746470
  0
LINE
  8
0
  6
CONTINUOUS
 62
1
 10
903.313324
 20
579.831820
 11
912.570654
 21
536.630950
  0
LINE
  8
0
  6
CONTINUOUS
 62
1
 10
925.812758
 20
579.831820
 11
930.786813
 21
556.619560
  0
ARC
  8
0
  6
CONTINUOUS
 62
1
 10
1177.979765
 20
2645.443632
 40
2108.149234
 50
263.431616
 51
267.057850
  0
ARC
  8
0
  6
CONTINUOUS
 62
1
 10
1087.735566
 20
524.213174
 40
7.000000
 50
267.563916
 51
347.905243
  0
ARC
  8
0
  6
CONTINUOUS
 62
1
 10
919.415271
 20
538.097653
 40
7.000000
 50
192.094757
 51
263.004957
  0
ARC
  8
0
  6
CONTINUOUS
 62
1
 10
1070.132736
 20
547.063989
 40
7.000000
 50
267.057850
 51
347.905243
  0
ARC
  8
0
  6
CONTINUOUS
 62
1
 10
937.631430
 20
558.086263
 40
7.000000
 50
192.094757
 51
263.431616
  0
ARC
  8
0
  6
CONTINUOUS
 62
1
 10
1175.645952
 20
2645.443632
 40
2130.149234
 50
272.436084
 51
276.995043
  0
LINE
  8
0
  6
CONTINUOUS
 62
1
 10
1269.312393
 20
579.831820
 11
1276.648364
 21
545.597286
  0
LINE
  8
0
  6
CONTINUOUS
 62
1
 10
1246.812960
 20
579.831820
 11
1259.045535
 21
522.746470
  0
LINE
  8
0
  6
CONTINUOUS
 62
1
 10
1450.312393
 20
579.831820
 11
1441.055063
 21
536.630950
  0
LINE
  8
0
  6
CONTINUOUS
 62
1
 10
1427.812960
 20
579.831820
 11
1422.838904
 21
556.619560
  0
ARC
  8
0
  6
CONTINUOUS
 62
1
 10
1175.645952
 20
2645.443632
 40
2108.149234
 50
272.942150
 51
276.568384
  0
ARC
  8
0
  6
CONTINUOUS
 62
1
 10
1265.890152
 20
524.213174
 40
7.000000
 50
192.094757
 51
272.436084
  0
ARC
  8
0
  6
CONTINUOUS
 62
1
 10
1434.210446
 20
538.097653
 40
7.000000
 50
276.995043
 51
347.905243
  0
ARC
  8
0
  6
CONTINUOUS
 62
1
 10
1283.492981
 20
547.063989
 40
7.000000
 50
192.094757
 51
272.942150
  0
ARC
  8
0
  6
CONTINUOUS
 62
1
 10
1415.994287
 20
558.086263
 40
7.000000
 50
276.568384
 51
347.905243
  0
LINE
  8
0
  6
CONTINUOUS
 62
1
 10
776.812933
 20
579.831820
 11
1676.812948
 21
579.831820
  0
LINE
  8
0
  6
CONTINUOUS
 62
1
 10
1656.812758
 20
1390.174833
 11
1626.812758
 21
1390.174833
  0
LINE
  8
0
  6
CONTINUOUS
 62
1
 10
1631.812758
 20
1390.174833
 11
1631.812758
 21
1408.174833
  0
LINE
  8
0
  6
CONTINUOUS
 62
1
 10
1651.812758
 20
1390.174833
 11
1651.812758
 21
1408.174833
  0
LINE
  8
0
  6
CONTINUOUS
 62
1
 10
1666.812758
 20
1408.174833
 11
1666.812758
 21
1427.174833
  0
LINE
  8
0
  6
CONTINUOUS
 62
1
 10
1666.812758
 20
1427.174833
 11
1616.812758
 21
1427.174833
  0
LINE
  8
0
  6
CONTINUOUS
 62
1
 10
1616.812758
 20
1427.174833
 11
1616.812758
 21
1408.174833
  0
LINE
  8
0
  6
CONTINUOUS
 62
1
 10
1616.812758
 20
1408.174833
 11
1666.812758
 21
1408.174833
  0
LINE
  8
0
  6
CONTINUOUS
 62
1
 10
1626.812758
 20
1390.174833
 11
1626.812758
 21
1371.074827
  0
LINE
  8
0
  6
CONTINUOUS
 62
1
 10
1656.812758
 20
1390.174833
 11
1656.812758
 21
1371.074827
  0
LINE
  8
0
  6
CONTINUOUS
 62
1
 10
1641.812758
 20
1501.074827
 11
1616.812758
 21
1501.074827
  0
LINE
  8
0
  6
CONTINUOUS
 62
1
 10
1616.812758
 20
1501.074827
 11
1616.812758
 21
1426.074827
  0
LINE
  8
0
  6
CONTINUOUS
 62
1
 10
1596.812758
 20
1451.074827
 11
1596.812758
 21
1476.074827
  0
LINE
  8
0
  6
CONTINUOUS
 62
1
 10
1616.812758
 20
1476.074827
 11
1596.812758
 21
1476.074827
  0
LINE
  8
0
  6
CONTINUOUS
 62
1
 10
1616.812758
 20
1451.074827
 11
1596.812758
 21
1451.074827
  0
ARC
  8
0
  6
CONTINUOUS
 62
1
 10
1641.812758
 20
1463.574827
 40
17.500000
 50
0.000000
 51
180.000000
  0
LINE
  8
0
  6
CONTINUOUS
 62
1
 10
1641.812758
 20
1501.074827
 11
1657.290340
 21
1471.741493
  0
LINE
  8
0
  6
CONTINUOUS
 62
1
 10
1676.812758
 20
1481.074827
 11
1652.365655
 21
1481.074827
  0
LINE
  8
0
  6
CONTINUOUS
 62
1
 10
1676.812758
 20
1446.074827
 11
1659.312758
 21
1446.074827
  0
LINE
  8
0
  6
CONTINUOUS
 62
1
 10
1676.812758
 20
1446.074827
 11
1676.812758
 21
1481.074827
  0
LINE
  8
0
  6
CONTINUOUS
 62
1
 10
1659.312758
 20
1463.574827
 11
1659.312758
 21
1427.174833
  0
LINE
  8
0
  6
CONTINUOUS
 62
1
 10
1624.312758
 20
1463.574827
 11
1624.312758
 21
1427.174833
  0
LINE
  8
0
  6
CENTER
 62
4
 10
1726.823303
 20
1463.574827
 11
1626.802212
 21
1463.574827
  0
LINE
  8
0
  6
CENTER
 62
4
 10
1641.812758
 20
1340.164288
 11
1641.812758
 21
1440.185378
  0
LINE
  8
0
  6
CENTER
 62
4
 10
1626.812758
 20
1440.185378
 11
1626.812758
 21
1340.164288
  0
ENDSEC
  0
EOF
