  0
SECTION
  2
HEADER
  9
$LIMMIN
 10
0.000000
 20
0.000000
  9
$LIMMAX
 10
920.010000
 20
1515.883000
  9
$EXTMIN
 10
0.000000
 20
0.000000
  9
$EXTMAX
 10
920.010000
 20
1515.883000
  9
$ANGBASE
 50
0.0
  9
$ANGDIR
 70
0
  9
$DIMRND
 40
0.100000
  9
$DIMSE1
 70
0
  9
$DIMSE2
 70
0
  9
$DIMTXT
 40
3.500000
  9
$LTSCALE
 40
1.000000
  9
$LUPREC
 70
5
  9
$AUPREC
 70
5
  9
$PDMODE
 70
2
  9
$PDSIZE
 40
7.579415
  0
ENDSEC
  0
SECTION
  2
TABLES
  0
TABLE
  2
VPORT
  70
1
  0
VPORT
  2
*ACTIVE
 70
0
  10
0.0
 20
0.0
 11
1.0
 21
1.0
 12
594.0
 22
420.0
 13
0.0
 23
0.0
 14
10.0
 24
10.0
 15
10.0
 25
10.0
 16
0.0
 26
0.0
 36
1.0
 17
594.0
 27
420.0
 37
100.0
 40
1000.0
 41
1.0
 42
50.0
 43
0.0
 44
0.0
 50
0.0
 51
0.0
 71
0
 72
2000
 73
1
 74
3
 75
0
 76
0
 77
0
 78
1
  0
ENDTAB
  0
TABLE
  2
LTYPE
 70
5
  0
LTYPE
  2
CONTINUOUS
 70
0
  3
Solid line
 72
65
 73
0
 40
0.0
  0
LTYPE
  2
DASHED
 70
0
  3
Dashed line
 72
65
 73
2
 40
6.000000
 49
3.000000
 49
-3.000000
  0
LTYPE
  2
CENTER
 70
0
  3
Chain line
 72
65
 73
4
 40
24.000000
 49
15.000000
 49
-3.000000
 49
3.000000
 49
-3.000000
  0
LTYPE
  2
RANDOM
 70
0
  3
Random line
 72
65
 73
4
 40
22.500000
 49
6.000000
 49
-3.000000
 49
4.500000
 49
-9.000000
  0
LTYPE
  2
CHAIN_2_168430214
  3
CHAIN_2_168430214
 70
0
 72
65
 73
4
 40
24.000000
 49
15.000000
 49
-3.000000
 49
3.000000
 49
-3.000000
  0
ENDTAB
  0
TABLE
  2
STYLE
 70
9
  0
STYLE
  2
STANDARD
 40
0
 41
1.0
 50
0.0
 71
0
 42
0
  3
simplex
  4

 70
0
  0
ENDTAB
  0
TABLE
  2
LAYER
 70
4
  0
LAYER
  2
0
 70
0
 62
7
  6
CONTINUOUS
  0
LAYER
  2
0
 62
1
  6
CONTINUOUS
 70
0
  0
LAYER
  2
MODEL
 62
1
  6
CONTINUOUS
 70
0
  0
LAYER
  2
MODEL-0
 62
1
  6
CONTINUOUS
 70
0
  0
ENDTAB
  0
ENDSEC
  0
SECTION
  2
BLOCKS
  0
ENDSEC
  0
SECTION
  2
ENTITIES
  0
LINE
  8
0
  6
CONTINUOUS
 62
1
 10
795.000000
 20
1383.981701
 11
795.000000
 21
884.882689
  0
LINE
  8
0
  6
CONTINUOUS
 62
1
 10
795.000000
 20
664.099012
 11
795.000000
 21
165.000000
  0
LINE
  8
MODEL-0
  6
CONTINUOUS
 62
1
 10
832.565969
 20
705.000000
 11
65.000000
 21
705.000000
  0
ARC
  8
MODEL-0
  6
CONTINUOUS
 62
1
 10
912.221756
 20
612.171067
 40
7.000000
 50
270.000000
 51
348.494427
  0
ARC
  8
MODEL-0
  6
CONTINUOUS
 62
1
 10
912.221756
 20
627.828932
 40
7.000000
 50
11.505573
 51
90.000000
  0
ARC
  8
MODEL-0
  6
CONTINUOUS
 62
1
 10
873.760473
 20
620.000000
 40
46.250000
 50
348.494427
 51
11.505573
  0
LINE
  8
MODEL-0
  6
CONTINUOUS
 62
1
 10
912.221756
 20
634.828932
 11
848.110473
 21
634.828932
  0
LINE
  8
MODEL-0
  6
CONTINUOUS
 62
1
 10
912.221756
 20
605.171067
 11
848.110473
 21
605.171067
  0
LINE
  8
MODEL-0
  6
CONTINUOUS
 62
1
 10
65.000000
 20
719.882689
 11
65.000000
 21
0.000000
  0
LINE
  8
MODEL-0
  6
CONTINUOUS
 62
1
 10
65.000000
 20
0.000000
 11
780.000000
 21
0.000000
  0
LINE
  8
MODEL-0
  6
CONTINUOUS
 62
1
 10
780.000000
 20
0.000000
 11
780.000000
 21
719.882689
  0
LINE
  8
MODEL-0
  6
CONTINUOUS
 62
1
 10
65.000000
 20
15.000000
 11
780.000000
 21
15.000000
  0
LINE
  8
MODEL-0
  6
CONTINUOUS
 62
1
 10
780.000000
 20
60.000000
 11
820.000000
 21
75.000000
  0
LINE
  8
MODEL-0
  6
CONTINUOUS
 62
1
 10
820.000000
 20
75.000000
 11
820.000000
 21
165.000000
  0
LINE
  8
MODEL-0
  6
CONTINUOUS
 62
1
 10
780.000000
 20
165.000000
 11
820.000000
 21
165.000000
  0
LINE
  8
MODEL-0
  6
CONTINUOUS
 62
1
 10
795.000000
 20
175.000000
 11
848.110473
 21
175.000000
  0
LINE
  8
MODEL-0
  6
CONTINUOUS
 62
1
 10
848.110473
 20
175.000000
 11
848.110473
 21
645.000000
  0
LINE
  8
MODEL-0
  6
CONTINUOUS
 62
1
 10
848.110473
 20
645.000000
 11
795.000000
 21
645.000000
  0
LINE
  8
MODEL-0
  6
CONTINUOUS
 62
1
 10
65.000000
 20
525.000000
 11
0.000000
 21
525.000000
  0
LINE
  8
MODEL-0
  6
CONTINUOUS
 62
1
 10
0.000000
 20
525.000000
 11
0.000000
 21
325.000000
  0
LINE
  8
MODEL-0
  6
CONTINUOUS
 62
1
 10
0.000000
 20
325.000000
 11
65.000000
 21
325.000000
  0
LINE
  8
MODEL-0
  6
CONTINUOUS
 62
1
 10
780.000000
 20
664.099012
 11
852.110473
 21
664.099012
  0
LINE
  8
MODEL-0
  6
CONTINUOUS
 62
1
 10
853.910473
 20
665.899012
 11
853.910473
 21
694.843941
  0
LINE
  8
MODEL-0
  6
CONTINUOUS
 62
1
 10
853.910473
 20
694.843941
 11
835.000529
 21
705.000000
  0
ARC
  8
MODEL-0
  6
CONTINUOUS
 62
1
 10
852.110473
 20
665.899012
 40
1.800000
 50
270.000000
 51
0.000000
  0
LINE
  8
MODEL-0
  6
CHAIN_2_168430214
 62
4
 10
112.402379
 20
385.000000
 11
12.381289
 21
385.000000
  0
LINE
  8
MODEL-0
  6
CHAIN_2_168430214
 62
4
 10
112.402379
 20
321.440000
 11
12.381289
 21
321.440000
  0
LINE
  8
MODEL-0
  6
CONTINUOUS
 62
1
 10
835.000529
 20
1424.882689
 11
120.000049
 21
1424.882689
  0
LINE
  8
MODEL-0
  6
CONTINUOUS
 62
1
 10
120.000049
 20
1462.882689
 11
815.823184
 21
1462.882689
  0
LINE
  8
MODEL-0
  6
CONTINUOUS
 62
1
 10
834.297585
 20
1435.902400
 11
817.520240
 21
1462.179745
  0
ARC
  8
MODEL-0
  6
CONTINUOUS
 62
1
 10
832.600529
 20
1434.205344
 40
2.400000
 50
0.000000
 51
45.000000
  0
ARC
  8
MODEL-0
  6
CONTINUOUS
 62
1
 10
815.823184
 20
1460.482689
 40
2.400000
 50
45.000000
 51
90.000000
  0
LINE
  8
MODEL-0
  6
CONTINUOUS
 62
1
 10
120.000049
 20
1500.846266
 11
120.000049
 21
1424.882689
  0
LINE
  8
MODEL-0
  6
CONTINUOUS
 62
1
 10
120.000049
 20
1500.846266
 11
65.000000
 21
1515.883485
  0
ARC
  8
MODEL-0
  6
CONTINUOUS
 62
1
 10
912.221756
 20
1332.053757
 40
7.000000
 50
270.000000
 51
348.494427
  0
ARC
  8
MODEL-0
  6
CONTINUOUS
 62
1
 10
912.221756
 20
1347.711621
 40
7.000000
 50
11.505573
 51
90.000000
  0
ARC
  8
MODEL-0
  6
CONTINUOUS
 62
1
 10
873.760473
 20
1339.882689
 40
46.250000
 50
348.494427
 51
11.505573
  0
LINE
  8
MODEL-0
  6
CONTINUOUS
 62
1
 10
912.221756
 20
1354.711621
 11
848.110473
 21
1354.711621
  0
LINE
  8
MODEL-0
  6
CONTINUOUS
 62
1
 10
912.221756
 20
1325.053757
 11
848.110473
 21
1325.053757
  0
LINE
  8
MODEL-0
  6
CONTINUOUS
 62
1
 10
65.000000
 20
1515.883485
 11
65.000000
 21
719.882689
  0
LINE
  8
MODEL-0
  6
CONTINUOUS
 62
1
 10
65.000000
 20
719.882689
 11
780.000000
 21
719.882689
  0
LINE
  8
MODEL-0
  6
CONTINUOUS
 62
1
 10
780.000000
 20
719.882689
 11
780.000000
 21
1424.883485
  0
LINE
  8
MODEL-0
  6
CONTINUOUS
 62
1
 10
65.000000
 20
734.882689
 11
780.000000
 21
734.882689
  0
LINE
  8
MODEL-0
  6
CONTINUOUS
 62
1
 10
780.000000
 20
779.882689
 11
820.000000
 21
794.882689
  0
LINE
  8
MODEL-0
  6
CONTINUOUS
 62
1
 10
820.000000
 20
794.882689
 11
820.000000
 21
884.882689
  0
LINE
  8
MODEL-0
  6
CONTINUOUS
 62
1
 10
780.000000
 20
884.882689
 11
820.000000
 21
884.882689
  0
LINE
  8
MODEL-0
  6
CONTINUOUS
 62
1
 10
795.000000
 20
894.882689
 11
848.110473
 21
894.882689
  0
LINE
  8
MODEL-0
  6
CONTINUOUS
 62
1
 10
848.110473
 20
894.882689
 11
848.110473
 21
1364.882689
  0
LINE
  8
MODEL-0
  6
CONTINUOUS
 62
1
 10
848.110473
 20
1364.882689
 11
795.000000
 21
1364.882689
  0
LINE
  8
MODEL-0
  6
CONTINUOUS
 62
1
 10
65.000000
 20
1244.882689
 11
0.000000
 21
1244.882689
  0
LINE
  8
MODEL-0
  6
CONTINUOUS
 62
1
 10
0.000000
 20
1244.882689
 11
0.000000
 21
1044.882689
  0
LINE
  8
MODEL-0
  6
CONTINUOUS
 62
1
 10
0.000000
 20
1044.882689
 11
65.000000
 21
1044.882689
  0
LINE
  8
MODEL-0
  6
CONTINUOUS
 62
1
 10
835.000529
 20
1424.882689
 11
65.000000
 21
1424.882689
  0
LINE
  8
MODEL-0
  6
CONTINUOUS
 62
1
 10
780.000000
 20
1383.981701
 11
852.110473
 21
1383.981701
  0
LINE
  8
MODEL-0
  6
CONTINUOUS
 62
1
 10
853.910473
 20
1385.781701
 11
853.910473
 21
1414.726630
  0
LINE
  8
MODEL-0
  6
CONTINUOUS
 62
1
 10
853.910473
 20
1414.726630
 11
835.000529
 21
1424.882689
  0
ARC
  8
MODEL-0
  6
CONTINUOUS
 62
1
 10
852.110473
 20
1385.781701
 40
1.800000
 50
270.000000
 51
0.000000
  0
LINE
  8
MODEL-0
  6
CHAIN_2_168430214
 62
4
 10
112.402379
 20
1104.882689
 11
12.381289
 21
1104.882689
  0
LINE
  8
MODEL-0
  6
CHAIN_2_168430214
 62
4
 10
112.402379
 20
1041.322689
 11
12.381289
 21
1041.322689
  0
LINE
  8
MODEL-0
  6
CONTINUOUS
 62
1
 10
835.000529
 20
1434.205344
 11
835.000529
 21
1424.882689
  0
LINE
  8
MODEL-0
  6
CONTINUOUS
 62
1
 10
17.000000
 20
1031.676379
 11
65.000000
 21
1031.676379
  0
LINE
  8
MODEL-0
  6
CONTINUOUS
 62
1
 10
17.000000
 20
311.793690
 11
65.000000
 21
311.793690
  0
LINE
  8
MODEL-0
  6
CONTINUOUS
 62
1
 10
17.000000
 20
311.793690
 11
17.000000
 21
325.000000
  0
ENDSEC
  0
EOF
