  0
SECTION
  2
HEADER
  9
$LIMMIN
 10
0.000000
 20
0.000000
  9
$LIMMAX
 10
3363.600000
 20
2378.400000
  9
$EXTMIN
 10
0.000000
 20
0.000000
  9
$EXTMAX
 10
3363.600000
 20
2378.400000
  9
$ANGBASE
 50
0.0
  9
$ANGDIR
 70
0
  9
$DIMRND
 40
0.100000
  9
$DIMSE1
 70
0
  9
$DIMSE2
 70
0
  9
$DIMTXT
 40
3.500000
  9
$LTSCALE
 40
1.000000
  9
$LUPREC
 70
5
  9
$AUPREC
 70
5
  9
$PDMODE
 70
2
  9
$PDSIZE
 40
16.818000
  0
ENDSEC
  0
SECTION
  2
TABLES
  0
TABLE
  2
VPORT
  70
1
  0
VPORT
  2
*ACTIVE
 70
0
  10
0.0
 20
0.0
 11
1.0
 21
1.0
 12
594.0
 22
420.0
 13
0.0
 23
0.0
 14
10.0
 24
10.0
 15
10.0
 25
10.0
 16
0.0
 26
0.0
 36
1.0
 17
594.0
 27
420.0
 37
100.0
 40
1000.0
 41
1.0
 42
50.0
 43
0.0
 44
0.0
 50
0.0
 51
0.0
 71
0
 72
2000
 73
1
 74
3
 75
0
 76
0
 77
0
 78
1
  0
ENDTAB
  0
TABLE
  2
LTYPE
 70
4
  0
LTYPE
  2
CONTINUOUS
 70
0
  3
Solid line
 72
65
 73
0
 40
0.0
  0
LTYPE
  2
DASHED
 70
0
  3
Dashed line
 72
65
 73
2
 40
6.000000
 49
3.000000
 49
-3.000000
  0
LTYPE
  2
CENTER
 70
0
  3
Chain line
 72
65
 73
4
 40
24.000000
 49
15.000000
 49
-3.000000
 49
3.000000
 49
-3.000000
  0
LTYPE
  2
RANDOM
 70
0
  3
Random line
 72
65
 73
4
 40
22.500000
 49
6.000000
 49
-3.000000
 49
4.500000
 49
-9.000000
  0
ENDTAB
  0
TABLE
  2
STYLE
 70
9
  0
STYLE
  2
STANDARD
 40
0
 41
1.0
 50
0.0
 71
0
 42
0
  3
simplex
  4

 70
0
  0
ENDTAB
  0
TABLE
  2
LAYER
 70
2
  0
LAYER
  2
0
 70
0
 62
7
  6
CONTINUOUS
  0
LAYER
  2
0
 62
1
  6
CONTINUOUS
 70
0
  0
ENDTAB
  0
ENDSEC
  0
SECTION
  2
BLOCKS
  0
ENDSEC
  0
SECTION
  2
ENTITIES
  0
LINE
  8
0
  6
CONTINUOUS
 62
1
 10
1378.378344
 20
1463.392385
 11
1378.378344
 21
1528.392385
  0
LINE
  8
0
  6
CONTINUOUS
 62
1
 10
1378.378344
 20
1528.392385
 11
1128.378344
 21
1528.392385
  0
LINE
  8
0
  6
CONTINUOUS
 62
1
 10
1128.378344
 20
1528.392385
 11
1128.378344
 21
1463.392385
  0
LINE
  8
0
  6
CONTINUOUS
 62
1
 10
1758.378535
 20
693.049372
 11
858.378520
 21
693.049372
  0
LINE
  8
0
  6
CONTINUOUS
 62
1
 10
858.378520
 20
840.292318
 11
858.378520
 21
673.049372
  0
LINE
  8
0
  6
CONTINUOUS
 62
1
 10
1758.378535
 20
673.049372
 11
1758.378535
 21
1464.292379
  0
LINE
  8
0
  6
CONTINUOUS
 62
1
 10
858.378291
 20
1464.292379
 11
1758.378535
 21
1464.292379
  0
LINE
  8
0
  6
CONTINUOUS
 62
1
 10
1757.478381
 20
1409.292379
 11
859.278338
 21
1409.292379
  0
LINE
  8
0
  6
CONTINUOUS
 62
1
 10
1679.878351
 20
1458.292379
 11
1679.878351
 21
1432.292381
  0
LINE
  8
0
  6
CONTINUOUS
 62
1
 10
1705.878351
 20
1458.292379
 11
1705.878351
 21
1432.792379
  0
LINE
  8
0
  6
CONTINUOUS
 62
1
 10
1705.878351
 20
1458.292379
 11
1679.878351
 21
1458.292379
  0
LINE
  8
0
  6
CONTINUOUS
 62
1
 10
1705.878351
 20
1432.292381
 11
1679.878351
 21
1432.292381
  0
LINE
  8
0
  6
CONTINUOUS
 62
1
 10
908.878351
 20
1458.292379
 11
934.878351
 21
1458.292379
  0
LINE
  8
0
  6
CONTINUOUS
 62
1
 10
908.878351
 20
1458.292379
 11
908.878351
 21
1432.292381
  0
LINE
  8
0
  6
CONTINUOUS
 62
1
 10
934.878351
 20
1432.292381
 11
934.878351
 21
1458.292379
  0
LINE
  8
0
  6
CONTINUOUS
 62
1
 10
934.878351
 20
1432.292381
 11
908.878351
 21
1432.292381
  0
LINE
  8
0
  6
CONTINUOUS
 62
1
 10
1679.878351
 20
1432.292381
 11
1679.878351
 21
1458.092379
  0
LINE
  8
0
  6
CONTINUOUS
 62
1
 10
960.177178
 20
1458.340388
 11
975.713051
 21
1458.340388
  0
LINE
  8
0
  6
CONTINUOUS
 62
1
 10
1237.853051
 20
1448.740388
 11
1223.637178
 21
1448.740388
  0
LINE
  8
0
  6
CONTINUOUS
 62
1
 10
958.849170
 20
1450.450455
 11
958.189170
 21
1456.210455
  0
LINE
  8
0
  6
CONTINUOUS
 62
1
 10
977.041060
 20
1450.450455
 11
977.701060
 21
1456.210455
  0
LINE
  8
0
  6
CONTINUOUS
 62
1
 10
1047.777178
 20
1458.340388
 11
1063.313051
 21
1458.340388
  0
LINE
  8
0
  6
CONTINUOUS
 62
1
 10
1070.337178
 20
1458.340388
 11
1084.553051
 21
1458.340388
  0
LINE
  8
0
  6
CONTINUOUS
 62
1
 10
1091.577178
 20
1458.340388
 11
1107.113051
 21
1458.340388
  0
LINE
  8
0
  6
CONTINUOUS
 62
1
 10
1114.137178
 20
1458.340388
 11
1128.353051
 21
1458.340388
  0
LINE
  8
0
  6
CONTINUOUS
 62
1
 10
1135.377178
 20
1458.340388
 11
1150.913051
 21
1458.340388
  0
LINE
  8
0
  6
CONTINUOUS
 62
1
 10
1157.937178
 20
1458.340388
 11
1172.153051
 21
1458.340388
  0
LINE
  8
0
  6
CONTINUOUS
 62
1
 10
1179.177178
 20
1458.340388
 11
1194.713051
 21
1458.340388
  0
LINE
  8
0
  6
CONTINUOUS
 62
1
 10
1201.737178
 20
1458.340388
 11
1215.953051
 21
1458.340388
  0
LINE
  8
0
  6
CONTINUOUS
 62
1
 10
1222.977178
 20
1458.340388
 11
1238.513051
 21
1458.340388
  0
LINE
  8
0
  6
CONTINUOUS
 62
1
 10
1046.449170
 20
1450.450455
 11
1045.789170
 21
1456.210455
  0
LINE
  8
0
  6
CONTINUOUS
 62
1
 10
1090.249170
 20
1450.450455
 11
1089.589170
 21
1456.210455
  0
LINE
  8
0
  6
CONTINUOUS
 62
1
 10
1134.049170
 20
1450.450455
 11
1133.389170
 21
1456.210455
  0
LINE
  8
0
  6
CONTINUOUS
 62
1
 10
1177.849170
 20
1450.450455
 11
1177.189170
 21
1456.210455
  0
LINE
  8
0
  6
CONTINUOUS
 62
1
 10
1221.649170
 20
1450.450455
 11
1220.989170
 21
1456.210455
  0
LINE
  8
0
  6
CONTINUOUS
 62
1
 10
1064.641060
 20
1450.450455
 11
1065.301060
 21
1456.210455
  0
LINE
  8
0
  6
CONTINUOUS
 62
1
 10
1108.441060
 20
1450.450455
 11
1109.101060
 21
1456.210455
  0
LINE
  8
0
  6
CONTINUOUS
 62
1
 10
1152.241060
 20
1450.450455
 11
1152.901060
 21
1456.210455
  0
LINE
  8
0
  6
CONTINUOUS
 62
1
 10
1196.041060
 20
1450.450455
 11
1196.701060
 21
1456.210455
  0
LINE
  8
0
  6
CONTINUOUS
 62
1
 10
1239.841060
 20
1450.450455
 11
1240.501060
 21
1456.210455
  0
LINE
  8
0
  6
CONTINUOUS
 62
1
 10
998.941060
 20
1456.630322
 11
999.601060
 21
1450.870322
  0
LINE
  8
0
  6
CONTINUOUS
 62
1
 10
1068.349170
 20
1456.630322
 11
1067.689170
 21
1450.870322
  0
LINE
  8
0
  6
CONTINUOUS
 62
1
 10
1086.541060
 20
1456.630322
 11
1087.201060
 21
1450.870322
  0
LINE
  8
0
  6
CONTINUOUS
 62
1
 10
1112.149170
 20
1456.630322
 11
1111.489170
 21
1450.870322
  0
LINE
  8
0
  6
CONTINUOUS
 62
1
 10
1130.341060
 20
1456.630322
 11
1131.001060
 21
1450.870322
  0
LINE
  8
0
  6
CONTINUOUS
 62
1
 10
1155.949170
 20
1456.630322
 11
1155.289170
 21
1450.870322
  0
LINE
  8
0
  6
CONTINUOUS
 62
1
 10
1174.141060
 20
1456.630322
 11
1174.801060
 21
1450.870322
  0
LINE
  8
0
  6
CONTINUOUS
 62
1
 10
1199.749170
 20
1456.630322
 11
1199.089170
 21
1450.870322
  0
LINE
  8
0
  6
CONTINUOUS
 62
1
 10
1217.941060
 20
1456.630322
 11
1218.601060
 21
1450.870322
  0
LINE
  8
0
  6
CONTINUOUS
 62
1
 10
975.053051
 20
1448.740388
 11
960.837178
 21
1448.740388
  0
LINE
  8
0
  6
CONTINUOUS
 62
1
 10
997.613051
 20
1448.740388
 11
982.077178
 21
1448.740388
  0
LINE
  8
0
  6
CONTINUOUS
 62
1
 10
1062.653051
 20
1448.740388
 11
1048.437178
 21
1448.740388
  0
LINE
  8
0
  6
CONTINUOUS
 62
1
 10
1085.213051
 20
1448.740388
 11
1069.677178
 21
1448.740388
  0
LINE
  8
0
  6
CONTINUOUS
 62
1
 10
1106.453051
 20
1448.740388
 11
1092.237178
 21
1448.740388
  0
LINE
  8
0
  6
CONTINUOUS
 62
1
 10
1129.013051
 20
1448.740388
 11
1113.477178
 21
1448.740388
  0
LINE
  8
0
  6
CONTINUOUS
 62
1
 10
1150.253051
 20
1448.740388
 11
1136.037178
 21
1448.740388
  0
LINE
  8
0
  6
CONTINUOUS
 62
1
 10
1172.813051
 20
1448.740388
 11
1157.277178
 21
1448.740388
  0
LINE
  8
0
  6
CONTINUOUS
 62
1
 10
1194.053051
 20
1448.740388
 11
1179.837178
 21
1448.740388
  0
LINE
  8
0
  6
CONTINUOUS
 62
1
 10
1216.613051
 20
1448.740388
 11
1201.077178
 21
1448.740388
  0
POLYLINE
  8
0
  6
CONTINUOUS
 62
1
 66
1
 70
2
  0
VERTEX
  8
0
 10
960.177178
 20
1458.340388
 70
0
 42
0.207373
  0
VERTEX
  8
0
 10
958.687655
 20
1457.701663
 70
0
 42
0.220328
  0
VERTEX
  8
0
 10
958.189170
 20
1456.210455
 70
0
  0
SEQEND
  0
POLYLINE
  8
0
  6
CONTINUOUS
 62
1
 66
1
 70
2
  0
VERTEX
  8
0
 10
958.849170
 20
1450.450455
 70
0
 42
0.189055
  0
VERTEX
  8
0
 10
959.502518
 20
1449.230446
 70
0
 42
0.179121
  0
VERTEX
  8
0
 10
960.837178
 20
1448.740388
 70
0
  0
SEQEND
  0
POLYLINE
  8
0
  6
CONTINUOUS
 62
1
 66
1
 70
2
  0
VERTEX
  8
0
 10
975.053051
 20
1448.740388
 70
0
 42
0.179121
  0
VERTEX
  8
0
 10
976.387712
 20
1449.230446
 70
0
 42
0.189055
  0
VERTEX
  8
0
 10
977.041060
 20
1450.450455
 70
0
  0
SEQEND
  0
POLYLINE
  8
0
  6
CONTINUOUS
 62
1
 66
1
 70
2
  0
VERTEX
  8
0
 10
977.701060
 20
1456.210455
 70
0
 42
0.220328
  0
VERTEX
  8
0
 10
977.202575
 20
1457.701663
 70
0
 42
0.207373
  0
VERTEX
  8
0
 10
975.713051
 20
1458.340388
 70
0
  0
SEQEND
  0
POLYLINE
  8
0
  6
CONTINUOUS
 62
1
 66
1
 70
2
  0
VERTEX
  8
0
 10
980.749170
 20
1456.630322
 70
0
 42
-0.189055
  0
VERTEX
  8
0
 10
981.402518
 20
1457.850331
 70
0
 42
-0.179121
  0
VERTEX
  8
0
 10
982.737178
 20
1458.340388
 70
0
  0
SEQEND
  0
POLYLINE
  8
0
  6
CONTINUOUS
 62
1
 66
1
 70
2
  0
VERTEX
  8
0
 10
996.953051
 20
1458.340388
 70
0
 42
-0.179121
  0
VERTEX
  8
0
 10
998.287712
 20
1457.850331
 70
0
 42
-0.189055
  0
VERTEX
  8
0
 10
998.941060
 20
1456.630322
 70
0
  0
SEQEND
  0
POLYLINE
  8
0
  6
CONTINUOUS
 62
1
 66
1
 70
2
  0
VERTEX
  8
0
 10
999.601060
 20
1450.870322
 70
0
 42
-0.220328
  0
VERTEX
  8
0
 10
999.102575
 20
1449.379114
 70
0
 42
-0.207373
  0
VERTEX
  8
0
 10
997.613051
 20
1448.740388
 70
0
  0
SEQEND
  0
POLYLINE
  8
0
  6
CONTINUOUS
 62
1
 66
1
 70
2
  0
VERTEX
  8
0
 10
982.077178
 20
1448.740388
 70
0
 42
-0.207373
  0
VERTEX
  8
0
 10
980.587655
 20
1449.379114
 70
0
 42
-0.220328
  0
VERTEX
  8
0
 10
980.089170
 20
1450.870322
 70
0
  0
SEQEND
  0
POLYLINE
  8
0
  6
CONTINUOUS
 62
1
 66
1
 70
2
  0
VERTEX
  8
0
 10
1047.777178
 20
1458.340388
 70
0
 42
0.207373
  0
VERTEX
  8
0
 10
1046.287655
 20
1457.701663
 70
0
 42
0.220328
  0
VERTEX
  8
0
 10
1045.789170
 20
1456.210455
 70
0
  0
SEQEND
  0
POLYLINE
  8
0
  6
CONTINUOUS
 62
1
 66
1
 70
2
  0
VERTEX
  8
0
 10
1046.449170
 20
1450.450455
 70
0
 42
0.189055
  0
VERTEX
  8
0
 10
1047.102518
 20
1449.230446
 70
0
 42
0.179121
  0
VERTEX
  8
0
 10
1048.437178
 20
1448.740388
 70
0
  0
SEQEND
  0
POLYLINE
  8
0
  6
CONTINUOUS
 62
1
 66
1
 70
2
  0
VERTEX
  8
0
 10
1062.653051
 20
1448.740388
 70
0
 42
0.179121
  0
VERTEX
  8
0
 10
1063.987712
 20
1449.230446
 70
0
 42
0.189055
  0
VERTEX
  8
0
 10
1064.641060
 20
1450.450455
 70
0
  0
SEQEND
  0
POLYLINE
  8
0
  6
CONTINUOUS
 62
1
 66
1
 70
2
  0
VERTEX
  8
0
 10
1065.301060
 20
1456.210455
 70
0
 42
0.220328
  0
VERTEX
  8
0
 10
1064.802575
 20
1457.701663
 70
0
 42
0.207373
  0
VERTEX
  8
0
 10
1063.313051
 20
1458.340388
 70
0
  0
SEQEND
  0
POLYLINE
  8
0
  6
CONTINUOUS
 62
1
 66
1
 70
2
  0
VERTEX
  8
0
 10
1068.349170
 20
1456.630322
 70
0
 42
-0.189055
  0
VERTEX
  8
0
 10
1069.002518
 20
1457.850331
 70
0
 42
-0.179121
  0
VERTEX
  8
0
 10
1070.337178
 20
1458.340388
 70
0
  0
SEQEND
  0
POLYLINE
  8
0
  6
CONTINUOUS
 62
1
 66
1
 70
2
  0
VERTEX
  8
0
 10
1084.553051
 20
1458.340388
 70
0
 42
-0.179121
  0
VERTEX
  8
0
 10
1085.887712
 20
1457.850331
 70
0
 42
-0.189055
  0
VERTEX
  8
0
 10
1086.541060
 20
1456.630322
 70
0
  0
SEQEND
  0
POLYLINE
  8
0
  6
CONTINUOUS
 62
1
 66
1
 70
2
  0
VERTEX
  8
0
 10
1087.201060
 20
1450.870322
 70
0
 42
-0.220328
  0
VERTEX
  8
0
 10
1086.702575
 20
1449.379114
 70
0
 42
-0.207373
  0
VERTEX
  8
0
 10
1085.213051
 20
1448.740388
 70
0
  0
SEQEND
  0
POLYLINE
  8
0
  6
CONTINUOUS
 62
1
 66
1
 70
2
  0
VERTEX
  8
0
 10
1069.677178
 20
1448.740388
 70
0
 42
-0.207373
  0
VERTEX
  8
0
 10
1068.187655
 20
1449.379114
 70
0
 42
-0.220328
  0
VERTEX
  8
0
 10
1067.689170
 20
1450.870322
 70
0
  0
SEQEND
  0
POLYLINE
  8
0
  6
CONTINUOUS
 62
1
 66
1
 70
2
  0
VERTEX
  8
0
 10
1090.249170
 20
1450.450455
 70
0
 42
0.189055
  0
VERTEX
  8
0
 10
1090.902518
 20
1449.230446
 70
0
 42
0.179121
  0
VERTEX
  8
0
 10
1092.237178
 20
1448.740388
 70
0
  0
SEQEND
  0
POLYLINE
  8
0
  6
CONTINUOUS
 62
1
 66
1
 70
2
  0
VERTEX
  8
0
 10
1106.453051
 20
1448.740388
 70
0
 42
0.179121
  0
VERTEX
  8
0
 10
1107.787712
 20
1449.230446
 70
0
 42
0.189055
  0
VERTEX
  8
0
 10
1108.441060
 20
1450.450455
 70
0
  0
SEQEND
  0
POLYLINE
  8
0
  6
CONTINUOUS
 62
1
 66
1
 70
2
  0
VERTEX
  8
0
 10
1109.101060
 20
1456.210455
 70
0
 42
0.220328
  0
VERTEX
  8
0
 10
1108.602575
 20
1457.701663
 70
0
 42
0.207373
  0
VERTEX
  8
0
 10
1107.113051
 20
1458.340388
 70
0
  0
SEQEND
  0
POLYLINE
  8
0
  6
CONTINUOUS
 62
1
 66
1
 70
2
  0
VERTEX
  8
0
 10
1091.577178
 20
1458.340388
 70
0
 42
0.207373
  0
VERTEX
  8
0
 10
1090.087655
 20
1457.701663
 70
0
 42
0.220328
  0
VERTEX
  8
0
 10
1089.589170
 20
1456.210455
 70
0
  0
SEQEND
  0
POLYLINE
  8
0
  6
CONTINUOUS
 62
1
 66
1
 70
2
  0
VERTEX
  8
0
 10
1114.137178
 20
1458.340388
 70
0
 42
0.179121
  0
VERTEX
  8
0
 10
1112.802518
 20
1457.850331
 70
0
 42
0.189055
  0
VERTEX
  8
0
 10
1112.149170
 20
1456.630322
 70
0
  0
SEQEND
  0
POLYLINE
  8
0
  6
CONTINUOUS
 62
1
 66
1
 70
2
  0
VERTEX
  8
0
 10
1111.489170
 20
1450.870322
 70
0
 42
0.220328
  0
VERTEX
  8
0
 10
1111.987655
 20
1449.379114
 70
0
 42
0.207373
  0
VERTEX
  8
0
 10
1113.477178
 20
1448.740388
 70
0
  0
SEQEND
  0
POLYLINE
  8
0
  6
CONTINUOUS
 62
1
 66
1
 70
2
  0
VERTEX
  8
0
 10
1129.013051
 20
1448.740388
 70
0
 42
0.207373
  0
VERTEX
  8
0
 10
1130.502575
 20
1449.379114
 70
0
 42
0.220328
  0
VERTEX
  8
0
 10
1131.001060
 20
1450.870322
 70
0
  0
SEQEND
  0
POLYLINE
  8
0
  6
CONTINUOUS
 62
1
 66
1
 70
2
  0
VERTEX
  8
0
 10
1130.341060
 20
1456.630322
 70
0
 42
0.189055
  0
VERTEX
  8
0
 10
1129.687712
 20
1457.850331
 70
0
 42
0.179121
  0
VERTEX
  8
0
 10
1128.353051
 20
1458.340388
 70
0
  0
SEQEND
  0
POLYLINE
  8
0
  6
CONTINUOUS
 62
1
 66
1
 70
2
  0
VERTEX
  8
0
 10
1133.389170
 20
1456.210455
 70
0
 42
-0.220328
  0
VERTEX
  8
0
 10
1133.887655
 20
1457.701663
 70
0
 42
-0.207373
  0
VERTEX
  8
0
 10
1135.377178
 20
1458.340388
 70
0
  0
SEQEND
  0
POLYLINE
  8
0
  6
CONTINUOUS
 62
1
 66
1
 70
2
  0
VERTEX
  8
0
 10
1150.913051
 20
1458.340388
 70
0
 42
-0.207373
  0
VERTEX
  8
0
 10
1152.402575
 20
1457.701663
 70
0
 42
-0.220328
  0
VERTEX
  8
0
 10
1152.901060
 20
1456.210455
 70
0
  0
SEQEND
  0
POLYLINE
  8
0
  6
CONTINUOUS
 62
1
 66
1
 70
2
  0
VERTEX
  8
0
 10
1152.241060
 20
1450.450455
 70
0
 42
-0.189055
  0
VERTEX
  8
0
 10
1151.587712
 20
1449.230446
 70
0
 42
-0.179121
  0
VERTEX
  8
0
 10
1150.253051
 20
1448.740388
 70
0
  0
SEQEND
  0
POLYLINE
  8
0
  6
CONTINUOUS
 62
1
 66
1
 70
2
  0
VERTEX
  8
0
 10
1136.037178
 20
1448.740388
 70
0
 42
-0.179121
  0
VERTEX
  8
0
 10
1134.702518
 20
1449.230446
 70
0
 42
-0.189055
  0
VERTEX
  8
0
 10
1134.049170
 20
1450.450455
 70
0
  0
SEQEND
  0
POLYLINE
  8
0
  6
CONTINUOUS
 62
1
 66
1
 70
2
  0
VERTEX
  8
0
 10
1155.289170
 20
1450.870322
 70
0
 42
0.220328
  0
VERTEX
  8
0
 10
1155.787655
 20
1449.379114
 70
0
 42
0.207373
  0
VERTEX
  8
0
 10
1157.277178
 20
1448.740388
 70
0
  0
SEQEND
  0
POLYLINE
  8
0
  6
CONTINUOUS
 62
1
 66
1
 70
2
  0
VERTEX
  8
0
 10
1172.813051
 20
1448.740388
 70
0
 42
0.207373
  0
VERTEX
  8
0
 10
1174.302575
 20
1449.379114
 70
0
 42
0.220328
  0
VERTEX
  8
0
 10
1174.801060
 20
1450.870322
 70
0
  0
SEQEND
  0
POLYLINE
  8
0
  6
CONTINUOUS
 62
1
 66
1
 70
2
  0
VERTEX
  8
0
 10
1174.141060
 20
1456.630322
 70
0
 42
0.189055
  0
VERTEX
  8
0
 10
1173.487712
 20
1457.850331
 70
0
 42
0.179121
  0
VERTEX
  8
0
 10
1172.153051
 20
1458.340388
 70
0
  0
SEQEND
  0
POLYLINE
  8
0
  6
CONTINUOUS
 62
1
 66
1
 70
2
  0
VERTEX
  8
0
 10
1157.937178
 20
1458.340388
 70
0
 42
0.179121
  0
VERTEX
  8
0
 10
1156.602518
 20
1457.850331
 70
0
 42
0.189055
  0
VERTEX
  8
0
 10
1155.949170
 20
1456.630322
 70
0
  0
SEQEND
  0
POLYLINE
  8
0
  6
CONTINUOUS
 62
1
 66
1
 70
2
  0
VERTEX
  8
0
 10
1179.177178
 20
1458.340388
 70
0
 42
0.207373
  0
VERTEX
  8
0
 10
1177.687655
 20
1457.701663
 70
0
 42
0.220328
  0
VERTEX
  8
0
 10
1177.189170
 20
1456.210455
 70
0
  0
SEQEND
  0
POLYLINE
  8
0
  6
CONTINUOUS
 62
1
 66
1
 70
2
  0
VERTEX
  8
0
 10
1177.849170
 20
1450.450455
 70
0
 42
0.189055
  0
VERTEX
  8
0
 10
1178.502518
 20
1449.230446
 70
0
 42
0.179121
  0
VERTEX
  8
0
 10
1179.837178
 20
1448.740388
 70
0
  0
SEQEND
  0
POLYLINE
  8
0
  6
CONTINUOUS
 62
1
 66
1
 70
2
  0
VERTEX
  8
0
 10
1194.053051
 20
1448.740388
 70
0
 42
0.179121
  0
VERTEX
  8
0
 10
1195.387712
 20
1449.230446
 70
0
 42
0.189055
  0
VERTEX
  8
0
 10
1196.041060
 20
1450.450455
 70
0
  0
SEQEND
  0
POLYLINE
  8
0
  6
CONTINUOUS
 62
1
 66
1
 70
2
  0
VERTEX
  8
0
 10
1196.701060
 20
1456.210455
 70
0
 42
0.220328
  0
VERTEX
  8
0
 10
1196.202575
 20
1457.701663
 70
0
 42
0.207373
  0
VERTEX
  8
0
 10
1194.713051
 20
1458.340388
 70
0
  0
SEQEND
  0
POLYLINE
  8
0
  6
CONTINUOUS
 62
1
 66
1
 70
2
  0
VERTEX
  8
0
 10
1201.737178
 20
1458.340388
 70
0
 42
0.179121
  0
VERTEX
  8
0
 10
1200.402518
 20
1457.850331
 70
0
 42
0.189055
  0
VERTEX
  8
0
 10
1199.749170
 20
1456.630322
 70
0
  0
SEQEND
  0
POLYLINE
  8
0
  6
CONTINUOUS
 62
1
 66
1
 70
2
  0
VERTEX
  8
0
 10
1199.089170
 20
1450.870322
 70
0
 42
0.220328
  0
VERTEX
  8
0
 10
1199.587655
 20
1449.379114
 70
0
 42
0.207373
  0
VERTEX
  8
0
 10
1201.077178
 20
1448.740388
 70
0
  0
SEQEND
  0
POLYLINE
  8
0
  6
CONTINUOUS
 62
1
 66
1
 70
2
  0
VERTEX
  8
0
 10
1216.613051
 20
1448.740388
 70
0
 42
0.207373
  0
VERTEX
  8
0
 10
1218.102575
 20
1449.379114
 70
0
 42
0.220328
  0
VERTEX
  8
0
 10
1218.601060
 20
1450.870322
 70
0
  0
SEQEND
  0
POLYLINE
  8
0
  6
CONTINUOUS
 62
1
 66
1
 70
2
  0
VERTEX
  8
0
 10
1215.953051
 20
1458.340388
 70
0
 42
-0.179121
  0
VERTEX
  8
0
 10
1217.287712
 20
1457.850331
 70
0
 42
-0.189055
  0
VERTEX
  8
0
 10
1217.941060
 20
1456.630322
 70
0
  0
SEQEND
  0
POLYLINE
  8
0
  6
CONTINUOUS
 62
1
 66
1
 70
2
  0
VERTEX
  8
0
 10
1222.977178
 20
1458.340388
 70
0
 42
0.207373
  0
VERTEX
  8
0
 10
1221.487655
 20
1457.701663
 70
0
 42
0.220328
  0
VERTEX
  8
0
 10
1220.989170
 20
1456.210455
 70
0
  0
SEQEND
  0
POLYLINE
  8
0
  6
CONTINUOUS
 62
1
 66
1
 70
2
  0
VERTEX
  8
0
 10
1221.649170
 20
1450.450455
 70
0
 42
0.189055
  0
VERTEX
  8
0
 10
1222.302518
 20
1449.230446
 70
0
 42
0.179121
  0
VERTEX
  8
0
 10
1223.637178
 20
1448.740388
 70
0
  0
SEQEND
  0
POLYLINE
  8
0
  6
CONTINUOUS
 62
1
 66
1
 70
2
  0
VERTEX
  8
0
 10
1237.853051
 20
1448.740388
 70
0
 42
0.179121
  0
VERTEX
  8
0
 10
1239.187712
 20
1449.230446
 70
0
 42
0.189055
  0
VERTEX
  8
0
 10
1239.841060
 20
1450.450455
 70
0
  0
SEQEND
  0
POLYLINE
  8
0
  6
CONTINUOUS
 62
1
 66
1
 70
2
  0
VERTEX
  8
0
 10
1240.501060
 20
1456.210455
 70
0
 42
0.220328
  0
VERTEX
  8
0
 10
1240.002575
 20
1457.701663
 70
0
 42
0.207373
  0
VERTEX
  8
0
 10
1238.513051
 20
1458.340388
 70
0
  0
SEQEND
  0
LINE
  8
0
  6
CONTINUOUS
 62
1
 10
1226.903051
 20
1445.860388
 11
1212.687178
 21
1445.860388
  0
LINE
  8
0
  6
CONTINUOUS
 62
1
 10
1015.587178
 20
1436.260388
 11
1029.803051
 21
1436.260388
  0
LINE
  8
0
  6
CONTINUOUS
 62
1
 10
1059.387178
 20
1436.260388
 11
1073.603051
 21
1436.260388
  0
LINE
  8
0
  6
CONTINUOUS
 62
1
 10
1080.627178
 20
1436.260388
 11
1096.163051
 21
1436.260388
  0
LINE
  8
0
  6
CONTINUOUS
 62
1
 10
1103.187178
 20
1436.260388
 11
1117.403051
 21
1436.260388
  0
LINE
  8
0
  6
CONTINUOUS
 62
1
 10
1124.427178
 20
1436.260388
 11
1139.963051
 21
1436.260388
  0
LINE
  8
0
  6
CONTINUOUS
 62
1
 10
1146.987178
 20
1436.260388
 11
1161.203051
 21
1436.260388
  0
LINE
  8
0
  6
CONTINUOUS
 62
1
 10
1168.227178
 20
1436.260388
 11
1183.763051
 21
1436.260388
  0
LINE
  8
0
  6
CONTINUOUS
 62
1
 10
1190.787178
 20
1436.260388
 11
1205.003051
 21
1436.260388
  0
LINE
  8
0
  6
CONTINUOUS
 62
1
 10
1212.027178
 20
1436.260388
 11
1227.563051
 21
1436.260388
  0
LINE
  8
0
  6
CONTINUOUS
 62
1
 10
1035.499170
 20
1444.150322
 11
1034.839170
 21
1438.390322
  0
LINE
  8
0
  6
CONTINUOUS
 62
1
 10
1079.299170
 20
1444.150322
 11
1078.639170
 21
1438.390322
  0
LINE
  8
0
  6
CONTINUOUS
 62
1
 10
1123.099170
 20
1444.150322
 11
1122.439170
 21
1438.390322
  0
LINE
  8
0
  6
CONTINUOUS
 62
1
 10
1166.899170
 20
1444.150322
 11
1166.239170
 21
1438.390322
  0
LINE
  8
0
  6
CONTINUOUS
 62
1
 10
1210.699170
 20
1444.150322
 11
1210.039170
 21
1438.390322
  0
LINE
  8
0
  6
CONTINUOUS
 62
1
 10
1053.691060
 20
1444.150322
 11
1054.351060
 21
1438.390322
  0
LINE
  8
0
  6
CONTINUOUS
 62
1
 10
1097.491060
 20
1444.150322
 11
1098.151060
 21
1438.390322
  0
LINE
  8
0
  6
CONTINUOUS
 62
1
 10
1141.291060
 20
1444.150322
 11
1141.951060
 21
1438.390322
  0
LINE
  8
0
  6
CONTINUOUS
 62
1
 10
1185.091060
 20
1444.150322
 11
1185.751060
 21
1438.390322
  0
LINE
  8
0
  6
CONTINUOUS
 62
1
 10
1228.891060
 20
1444.150322
 11
1229.551060
 21
1438.390322
  0
LINE
  8
0
  6
CONTINUOUS
 62
1
 10
1013.599170
 20
1437.970455
 11
1012.939170
 21
1443.730455
  0
LINE
  8
0
  6
CONTINUOUS
 62
1
 10
1057.399170
 20
1437.970455
 11
1056.739170
 21
1443.730455
  0
LINE
  8
0
  6
CONTINUOUS
 62
1
 10
1075.591060
 20
1437.970455
 11
1076.251060
 21
1443.730455
  0
LINE
  8
0
  6
CONTINUOUS
 62
1
 10
1101.199170
 20
1437.970455
 11
1100.539170
 21
1443.730455
  0
LINE
  8
0
  6
CONTINUOUS
 62
1
 10
1119.391060
 20
1437.970455
 11
1120.051060
 21
1443.730455
  0
LINE
  8
0
  6
CONTINUOUS
 62
1
 10
1144.999170
 20
1437.970455
 11
1144.339170
 21
1443.730455
  0
LINE
  8
0
  6
CONTINUOUS
 62
1
 10
1163.191060
 20
1437.970455
 11
1163.851060
 21
1443.730455
  0
LINE
  8
0
  6
CONTINUOUS
 62
1
 10
1188.799170
 20
1437.970455
 11
1188.139170
 21
1443.730455
  0
LINE
  8
0
  6
CONTINUOUS
 62
1
 10
1206.991060
 20
1437.970455
 11
1207.651060
 21
1443.730455
  0
LINE
  8
0
  6
CONTINUOUS
 62
1
 10
1030.463051
 20
1445.860388
 11
1014.927178
 21
1445.860388
  0
LINE
  8
0
  6
CONTINUOUS
 62
1
 10
1051.703051
 20
1445.860388
 11
1037.487178
 21
1445.860388
  0
LINE
  8
0
  6
CONTINUOUS
 62
1
 10
1074.263051
 20
1445.860388
 11
1058.727178
 21
1445.860388
  0
LINE
  8
0
  6
CONTINUOUS
 62
1
 10
1095.503051
 20
1445.860388
 11
1081.287178
 21
1445.860388
  0
LINE
  8
0
  6
CONTINUOUS
 62
1
 10
1118.063051
 20
1445.860388
 11
1102.527178
 21
1445.860388
  0
LINE
  8
0
  6
CONTINUOUS
 62
1
 10
1139.303051
 20
1445.860388
 11
1125.087178
 21
1445.860388
  0
LINE
  8
0
  6
CONTINUOUS
 62
1
 10
1161.863051
 20
1445.860388
 11
1146.327178
 21
1445.860388
  0
LINE
  8
0
  6
CONTINUOUS
 62
1
 10
1183.103051
 20
1445.860388
 11
1168.887178
 21
1445.860388
  0
LINE
  8
0
  6
CONTINUOUS
 62
1
 10
1205.663051
 20
1445.860388
 11
1190.127178
 21
1445.860388
  0
POLYLINE
  8
0
  6
CONTINUOUS
 62
1
 66
1
 70
2
  0
VERTEX
  8
0
 10
1013.599170
 20
1437.970455
 70
0
 42
0.189055
  0
VERTEX
  8
0
 10
1014.252518
 20
1436.750446
 70
0
 42
0.179121
  0
VERTEX
  8
0
 10
1015.587178
 20
1436.260388
 70
0
  0
SEQEND
  0
POLYLINE
  8
0
  6
CONTINUOUS
 62
1
 66
1
 70
2
  0
VERTEX
  8
0
 10
1029.803051
 20
1436.260388
 70
0
 42
0.179121
  0
VERTEX
  8
0
 10
1031.137712
 20
1436.750446
 70
0
 42
0.189055
  0
VERTEX
  8
0
 10
1031.791060
 20
1437.970455
 70
0
  0
SEQEND
  0
POLYLINE
  8
0
  6
CONTINUOUS
 62
1
 66
1
 70
2
  0
VERTEX
  8
0
 10
1032.451060
 20
1443.730455
 70
0
 42
0.220328
  0
VERTEX
  8
0
 10
1031.952575
 20
1445.221663
 70
0
 42
0.207373
  0
VERTEX
  8
0
 10
1030.463051
 20
1445.860388
 70
0
  0
SEQEND
  0
POLYLINE
  8
0
  6
CONTINUOUS
 62
1
 66
1
 70
2
  0
VERTEX
  8
0
 10
1014.927178
 20
1445.860388
 70
0
 42
0.207373
  0
VERTEX
  8
0
 10
1013.437655
 20
1445.221663
 70
0
 42
0.220328
  0
VERTEX
  8
0
 10
1012.939170
 20
1443.730455
 70
0
  0
SEQEND
  0
POLYLINE
  8
0
  6
CONTINUOUS
 62
1
 66
1
 70
2
  0
VERTEX
  8
0
 10
1036.827178
 20
1436.260388
 70
0
 42
-0.207373
  0
VERTEX
  8
0
 10
1035.337655
 20
1436.899114
 70
0
 42
-0.220328
  0
VERTEX
  8
0
 10
1034.839170
 20
1438.390322
 70
0
  0
SEQEND
  0
POLYLINE
  8
0
  6
CONTINUOUS
 62
1
 66
1
 70
2
  0
VERTEX
  8
0
 10
1035.499170
 20
1444.150322
 70
0
 42
-0.189055
  0
VERTEX
  8
0
 10
1036.152518
 20
1445.370331
 70
0
 42
-0.179121
  0
VERTEX
  8
0
 10
1037.487178
 20
1445.860388
 70
0
  0
SEQEND
  0
POLYLINE
  8
0
  6
CONTINUOUS
 62
1
 66
1
 70
2
  0
VERTEX
  8
0
 10
1051.703051
 20
1445.860388
 70
0
 42
-0.179121
  0
VERTEX
  8
0
 10
1053.037712
 20
1445.370331
 70
0
 42
-0.189055
  0
VERTEX
  8
0
 10
1053.691060
 20
1444.150322
 70
0
  0
SEQEND
  0
POLYLINE
  8
0
  6
CONTINUOUS
 62
1
 66
1
 70
2
  0
VERTEX
  8
0
 10
1054.351060
 20
1438.390322
 70
0
 42
-0.220328
  0
VERTEX
  8
0
 10
1053.852575
 20
1436.899114
 70
0
 42
-0.207373
  0
VERTEX
  8
0
 10
1052.363051
 20
1436.260388
 70
0
  0
SEQEND
  0
POLYLINE
  8
0
  6
CONTINUOUS
 62
1
 66
1
 70
2
  0
VERTEX
  8
0
 10
1057.399170
 20
1437.970455
 70
0
 42
0.189055
  0
VERTEX
  8
0
 10
1058.052518
 20
1436.750446
 70
0
 42
0.179121
  0
VERTEX
  8
0
 10
1059.387178
 20
1436.260388
 70
0
  0
SEQEND
  0
POLYLINE
  8
0
  6
CONTINUOUS
 62
1
 66
1
 70
2
  0
VERTEX
  8
0
 10
1073.603051
 20
1436.260388
 70
0
 42
0.179121
  0
VERTEX
  8
0
 10
1074.937712
 20
1436.750446
 70
0
 42
0.189055
  0
VERTEX
  8
0
 10
1075.591060
 20
1437.970455
 70
0
  0
SEQEND
  0
POLYLINE
  8
0
  6
CONTINUOUS
 62
1
 66
1
 70
2
  0
VERTEX
  8
0
 10
1076.251060
 20
1443.730455
 70
0
 42
0.220328
  0
VERTEX
  8
0
 10
1075.752575
 20
1445.221663
 70
0
 42
0.207373
  0
VERTEX
  8
0
 10
1074.263051
 20
1445.860388
 70
0
  0
SEQEND
  0
POLYLINE
  8
0
  6
CONTINUOUS
 62
1
 66
1
 70
2
  0
VERTEX
  8
0
 10
1058.727178
 20
1445.860388
 70
0
 42
0.207373
  0
VERTEX
  8
0
 10
1057.237655
 20
1445.221663
 70
0
 42
0.220328
  0
VERTEX
  8
0
 10
1056.739170
 20
1443.730455
 70
0
  0
SEQEND
  0
POLYLINE
  8
0
  6
CONTINUOUS
 62
1
 66
1
 70
2
  0
VERTEX
  8
0
 10
1079.299170
 20
1444.150322
 70
0
 42
-0.189055
  0
VERTEX
  8
0
 10
1079.952518
 20
1445.370331
 70
0
 42
-0.179121
  0
VERTEX
  8
0
 10
1081.287178
 20
1445.860388
 70
0
  0
SEQEND
  0
POLYLINE
  8
0
  6
CONTINUOUS
 62
1
 66
1
 70
2
  0
VERTEX
  8
0
 10
1095.503051
 20
1445.860388
 70
0
 42
-0.179121
  0
VERTEX
  8
0
 10
1096.837712
 20
1445.370331
 70
0
 42
-0.189055
  0
VERTEX
  8
0
 10
1097.491060
 20
1444.150322
 70
0
  0
SEQEND
  0
POLYLINE
  8
0
  6
CONTINUOUS
 62
1
 66
1
 70
2
  0
VERTEX
  8
0
 10
1098.151060
 20
1438.390322
 70
0
 42
-0.220328
  0
VERTEX
  8
0
 10
1097.652575
 20
1436.899114
 70
0
 42
-0.207373
  0
VERTEX
  8
0
 10
1096.163051
 20
1436.260388
 70
0
  0
SEQEND
  0
POLYLINE
  8
0
  6
CONTINUOUS
 62
1
 66
1
 70
2
  0
VERTEX
  8
0
 10
1080.627178
 20
1436.260388
 70
0
 42
-0.207373
  0
VERTEX
  8
0
 10
1079.137655
 20
1436.899114
 70
0
 42
-0.220328
  0
VERTEX
  8
0
 10
1078.639170
 20
1438.390322
 70
0
  0
SEQEND
  0
POLYLINE
  8
0
  6
CONTINUOUS
 62
1
 66
1
 70
2
  0
VERTEX
  8
0
 10
1103.187178
 20
1436.260388
 70
0
 42
-0.179121
  0
VERTEX
  8
0
 10
1101.852518
 20
1436.750446
 70
0
 42
-0.189055
  0
VERTEX
  8
0
 10
1101.199170
 20
1437.970455
 70
0
  0
SEQEND
  0
POLYLINE
  8
0
  6
CONTINUOUS
 62
1
 66
1
 70
2
  0
VERTEX
  8
0
 10
1100.539170
 20
1443.730455
 70
0
 42
-0.220328
  0
VERTEX
  8
0
 10
1101.037655
 20
1445.221663
 70
0
 42
-0.207373
  0
VERTEX
  8
0
 10
1102.527178
 20
1445.860388
 70
0
  0
SEQEND
  0
POLYLINE
  8
0
  6
CONTINUOUS
 62
1
 66
1
 70
2
  0
VERTEX
  8
0
 10
1118.063051
 20
1445.860388
 70
0
 42
-0.207373
  0
VERTEX
  8
0
 10
1119.552575
 20
1445.221663
 70
0
 42
-0.220328
  0
VERTEX
  8
0
 10
1120.051060
 20
1443.730455
 70
0
  0
SEQEND
  0
POLYLINE
  8
0
  6
CONTINUOUS
 62
1
 66
1
 70
2
  0
VERTEX
  8
0
 10
1119.391060
 20
1437.970455
 70
0
 42
-0.189055
  0
VERTEX
  8
0
 10
1118.737712
 20
1436.750446
 70
0
 42
-0.179121
  0
VERTEX
  8
0
 10
1117.403051
 20
1436.260388
 70
0
  0
SEQEND
  0
POLYLINE
  8
0
  6
CONTINUOUS
 62
1
 66
1
 70
2
  0
VERTEX
  8
0
 10
1122.439170
 20
1438.390322
 70
0
 42
0.220328
  0
VERTEX
  8
0
 10
1122.937655
 20
1436.899114
 70
0
 42
0.207373
  0
VERTEX
  8
0
 10
1124.427178
 20
1436.260388
 70
0
  0
SEQEND
  0
POLYLINE
  8
0
  6
CONTINUOUS
 62
1
 66
1
 70
2
  0
VERTEX
  8
0
 10
1139.963051
 20
1436.260388
 70
0
 42
0.207373
  0
VERTEX
  8
0
 10
1141.452575
 20
1436.899114
 70
0
 42
0.220328
  0
VERTEX
  8
0
 10
1141.951060
 20
1438.390322
 70
0
  0
SEQEND
  0
POLYLINE
  8
0
  6
CONTINUOUS
 62
1
 66
1
 70
2
  0
VERTEX
  8
0
 10
1141.291060
 20
1444.150322
 70
0
 42
0.189055
  0
VERTEX
  8
0
 10
1140.637712
 20
1445.370331
 70
0
 42
0.179121
  0
VERTEX
  8
0
 10
1139.303051
 20
1445.860388
 70
0
  0
SEQEND
  0
POLYLINE
  8
0
  6
CONTINUOUS
 62
1
 66
1
 70
2
  0
VERTEX
  8
0
 10
1125.087178
 20
1445.860388
 70
0
 42
0.179121
  0
VERTEX
  8
0
 10
1123.752518
 20
1445.370331
 70
0
 42
0.189055
  0
VERTEX
  8
0
 10
1123.099170
 20
1444.150322
 70
0
  0
SEQEND
  0
POLYLINE
  8
0
  6
CONTINUOUS
 62
1
 66
1
 70
2
  0
VERTEX
  8
0
 10
1144.339170
 20
1443.730455
 70
0
 42
-0.220328
  0
VERTEX
  8
0
 10
1144.837655
 20
1445.221663
 70
0
 42
-0.207373
  0
VERTEX
  8
0
 10
1146.327178
 20
1445.860388
 70
0
  0
SEQEND
  0
POLYLINE
  8
0
  6
CONTINUOUS
 62
1
 66
1
 70
2
  0
VERTEX
  8
0
 10
1161.863051
 20
1445.860388
 70
0
 42
-0.207373
  0
VERTEX
  8
0
 10
1163.352575
 20
1445.221663
 70
0
 42
-0.220328
  0
VERTEX
  8
0
 10
1163.851060
 20
1443.730455
 70
0
  0
SEQEND
  0
POLYLINE
  8
0
  6
CONTINUOUS
 62
1
 66
1
 70
2
  0
VERTEX
  8
0
 10
1163.191060
 20
1437.970455
 70
0
 42
-0.189055
  0
VERTEX
  8
0
 10
1162.537712
 20
1436.750446
 70
0
 42
-0.179121
  0
VERTEX
  8
0
 10
1161.203051
 20
1436.260388
 70
0
  0
SEQEND
  0
POLYLINE
  8
0
  6
CONTINUOUS
 62
1
 66
1
 70
2
  0
VERTEX
  8
0
 10
1146.987178
 20
1436.260388
 70
0
 42
-0.179121
  0
VERTEX
  8
0
 10
1145.652518
 20
1436.750446
 70
0
 42
-0.189055
  0
VERTEX
  8
0
 10
1144.999170
 20
1437.970455
 70
0
  0
SEQEND
  0
POLYLINE
  8
0
  6
CONTINUOUS
 62
1
 66
1
 70
2
  0
VERTEX
  8
0
 10
1168.227178
 20
1436.260388
 70
0
 42
-0.207373
  0
VERTEX
  8
0
 10
1166.737655
 20
1436.899114
 70
0
 42
-0.220328
  0
VERTEX
  8
0
 10
1166.239170
 20
1438.390322
 70
0
  0
SEQEND
  0
POLYLINE
  8
0
  6
CONTINUOUS
 62
1
 66
1
 70
2
  0
VERTEX
  8
0
 10
1166.899170
 20
1444.150322
 70
0
 42
-0.189055
  0
VERTEX
  8
0
 10
1167.552518
 20
1445.370331
 70
0
 42
-0.179121
  0
VERTEX
  8
0
 10
1168.887178
 20
1445.860388
 70
0
  0
SEQEND
  0
POLYLINE
  8
0
  6
CONTINUOUS
 62
1
 66
1
 70
2
  0
VERTEX
  8
0
 10
1183.103051
 20
1445.860388
 70
0
 42
-0.179121
  0
VERTEX
  8
0
 10
1184.437712
 20
1445.370331
 70
0
 42
-0.189055
  0
VERTEX
  8
0
 10
1185.091060
 20
1444.150322
 70
0
  0
SEQEND
  0
POLYLINE
  8
0
  6
CONTINUOUS
 62
1
 66
1
 70
2
  0
VERTEX
  8
0
 10
1185.751060
 20
1438.390322
 70
0
 42
-0.220328
  0
VERTEX
  8
0
 10
1185.252575
 20
1436.899114
 70
0
 42
-0.207373
  0
VERTEX
  8
0
 10
1183.763051
 20
1436.260388
 70
0
  0
SEQEND
  0
POLYLINE
  8
0
  6
CONTINUOUS
 62
1
 66
1
 70
2
  0
VERTEX
  8
0
 10
1190.787178
 20
1436.260388
 70
0
 42
-0.179121
  0
VERTEX
  8
0
 10
1189.452518
 20
1436.750446
 70
0
 42
-0.189055
  0
VERTEX
  8
0
 10
1188.799170
 20
1437.970455
 70
0
  0
SEQEND
  0
POLYLINE
  8
0
  6
CONTINUOUS
 62
1
 66
1
 70
2
  0
VERTEX
  8
0
 10
1188.139170
 20
1443.730455
 70
0
 42
-0.220328
  0
VERTEX
  8
0
 10
1188.637655
 20
1445.221663
 70
0
 42
-0.207373
  0
VERTEX
  8
0
 10
1190.127178
 20
1445.860388
 70
0
  0
SEQEND
  0
POLYLINE
  8
0
  6
CONTINUOUS
 62
1
 66
1
 70
2
  0
VERTEX
  8
0
 10
1205.663051
 20
1445.860388
 70
0
 42
-0.207373
  0
VERTEX
  8
0
 10
1207.152575
 20
1445.221663
 70
0
 42
-0.220328
  0
VERTEX
  8
0
 10
1207.651060
 20
1443.730455
 70
0
  0
SEQEND
  0
POLYLINE
  8
0
  6
CONTINUOUS
 62
1
 66
1
 70
2
  0
VERTEX
  8
0
 10
1205.003051
 20
1436.260388
 70
0
 42
0.179121
  0
VERTEX
  8
0
 10
1206.337712
 20
1436.750446
 70
0
 42
0.189055
  0
VERTEX
  8
0
 10
1206.991060
 20
1437.970455
 70
0
  0
SEQEND
  0
POLYLINE
  8
0
  6
CONTINUOUS
 62
1
 66
1
 70
2
  0
VERTEX
  8
0
 10
1212.027178
 20
1436.260388
 70
0
 42
-0.207373
  0
VERTEX
  8
0
 10
1210.537655
 20
1436.899114
 70
0
 42
-0.220328
  0
VERTEX
  8
0
 10
1210.039170
 20
1438.390322
 70
0
  0
SEQEND
  0
POLYLINE
  8
0
  6
CONTINUOUS
 62
1
 66
1
 70
2
  0
VERTEX
  8
0
 10
1210.699170
 20
1444.150322
 70
0
 42
-0.189055
  0
VERTEX
  8
0
 10
1211.352518
 20
1445.370331
 70
0
 42
-0.179121
  0
VERTEX
  8
0
 10
1212.687178
 20
1445.860388
 70
0
  0
SEQEND
  0
POLYLINE
  8
0
  6
CONTINUOUS
 62
1
 66
1
 70
2
  0
VERTEX
  8
0
 10
1226.903051
 20
1445.860388
 70
0
 42
-0.179121
  0
VERTEX
  8
0
 10
1228.237712
 20
1445.370331
 70
0
 42
-0.189055
  0
VERTEX
  8
0
 10
1228.891060
 20
1444.150322
 70
0
  0
SEQEND
  0
POLYLINE
  8
0
  6
CONTINUOUS
 62
1
 66
1
 70
2
  0
VERTEX
  8
0
 10
1229.551060
 20
1438.390322
 70
0
 42
-0.220328
  0
VERTEX
  8
0
 10
1229.052575
 20
1436.899114
 70
0
 42
-0.207373
  0
VERTEX
  8
0
 10
1227.563051
 20
1436.260388
 70
0
  0
SEQEND
  0
LINE
  8
0
  6
CONTINUOUS
 62
1
 10
980.749170
 20
1456.630322
 11
980.089170
 21
1450.870322
  0
LINE
  8
0
  6
CONTINUOUS
 62
1
 10
982.737178
 20
1458.340388
 11
996.953051
 21
1458.340388
  0
LINE
  8
0
  6
CONTINUOUS
 62
1
 10
1031.791060
 20
1437.970455
 11
1032.451060
 21
1443.730455
  0
LINE
  8
0
  6
CONTINUOUS
 62
1
 10
1036.827178
 20
1436.260388
 11
1052.363051
 21
1436.260388
  0
LINE
  8
0
  6
CONTINUOUS
 62
1
 10
1344.053650
 20
1445.860388
 11
1358.269523
 21
1445.860388
  0
LINE
  8
0
  6
CONTINUOUS
 62
1
 10
1380.169523
 20
1436.260388
 11
1365.953650
 21
1436.260388
  0
LINE
  8
0
  6
CONTINUOUS
 62
1
 10
1358.929523
 20
1436.260388
 11
1343.393650
 21
1436.260388
  0
LINE
  8
0
  6
CONTINUOUS
 62
1
 10
1360.257531
 20
1444.150322
 11
1360.917531
 21
1438.390322
  0
LINE
  8
0
  6
CONTINUOUS
 62
1
 10
1342.065641
 20
1444.150322
 11
1341.405641
 21
1438.390322
  0
LINE
  8
0
  6
CONTINUOUS
 62
1
 10
1382.157531
 20
1437.970455
 11
1382.817531
 21
1443.730455
  0
LINE
  8
0
  6
CONTINUOUS
 62
1
 10
1363.965641
 20
1437.970455
 11
1363.305641
 21
1443.730455
  0
LINE
  8
0
  6
CONTINUOUS
 62
1
 10
1365.293650
 20
1445.860388
 11
1380.829523
 21
1445.860388
  0
POLYLINE
  8
0
  6
CONTINUOUS
 62
1
 66
1
 70
2
  0
VERTEX
  8
0
 10
1380.169523
 20
1436.260388
 70
0
 42
0.179121
  0
VERTEX
  8
0
 10
1381.504183
 20
1436.750446
 70
0
 42
0.189055
  0
VERTEX
  8
0
 10
1382.157531
 20
1437.970455
 70
0
  0
SEQEND
  0
POLYLINE
  8
0
  6
CONTINUOUS
 62
1
 66
1
 70
2
  0
VERTEX
  8
0
 10
1382.817531
 20
1443.730455
 70
0
 42
0.220328
  0
VERTEX
  8
0
 10
1382.319046
 20
1445.221663
 70
0
 42
0.207373
  0
VERTEX
  8
0
 10
1380.829523
 20
1445.860388
 70
0
  0
SEQEND
  0
POLYLINE
  8
0
  6
CONTINUOUS
 62
1
 66
1
 70
2
  0
VERTEX
  8
0
 10
1365.293650
 20
1445.860388
 70
0
 42
0.207373
  0
VERTEX
  8
0
 10
1363.804126
 20
1445.221663
 70
0
 42
0.220328
  0
VERTEX
  8
0
 10
1363.305641
 20
1443.730455
 70
0
  0
SEQEND
  0
POLYLINE
  8
0
  6
CONTINUOUS
 62
1
 66
1
 70
2
  0
VERTEX
  8
0
 10
1365.953650
 20
1436.260388
 70
0
 42
-0.179121
  0
VERTEX
  8
0
 10
1364.618989
 20
1436.750446
 70
0
 42
-0.189055
  0
VERTEX
  8
0
 10
1363.965641
 20
1437.970455
 70
0
  0
SEQEND
  0
POLYLINE
  8
0
  6
CONTINUOUS
 62
1
 66
1
 70
2
  0
VERTEX
  8
0
 10
1358.929523
 20
1436.260388
 70
0
 42
0.207373
  0
VERTEX
  8
0
 10
1360.419046
 20
1436.899114
 70
0
 42
0.220328
  0
VERTEX
  8
0
 10
1360.917531
 20
1438.390322
 70
0
  0
SEQEND
  0
POLYLINE
  8
0
  6
CONTINUOUS
 62
1
 66
1
 70
2
  0
VERTEX
  8
0
 10
1360.257531
 20
1444.150322
 70
0
 42
0.189055
  0
VERTEX
  8
0
 10
1359.604183
 20
1445.370331
 70
0
 42
0.179121
  0
VERTEX
  8
0
 10
1358.269523
 20
1445.860388
 70
0
  0
SEQEND
  0
POLYLINE
  8
0
  6
CONTINUOUS
 62
1
 66
1
 70
2
  0
VERTEX
  8
0
 10
1344.053650
 20
1445.860388
 70
0
 42
0.179121
  0
VERTEX
  8
0
 10
1342.718989
 20
1445.370331
 70
0
 42
0.189055
  0
VERTEX
  8
0
 10
1342.065641
 20
1444.150322
 70
0
  0
SEQEND
  0
POLYLINE
  8
0
  6
CONTINUOUS
 62
1
 66
1
 70
2
  0
VERTEX
  8
0
 10
1341.405641
 20
1438.390322
 70
0
 42
0.220328
  0
VERTEX
  8
0
 10
1341.904126
 20
1436.899114
 70
0
 42
0.207373
  0
VERTEX
  8
0
 10
1343.393650
 20
1436.260388
 70
0
  0
SEQEND
  0
LINE
  8
0
  6
CONTINUOUS
 62
1
 10
1336.369523
 20
1436.260388
 11
1322.153650
 21
1436.260388
  0
LINE
  8
0
  6
CONTINUOUS
 62
1
 10
1338.357531
 20
1437.970455
 11
1339.017531
 21
1443.730455
  0
LINE
  8
0
  6
CONTINUOUS
 62
1
 10
1320.165641
 20
1437.970455
 11
1319.505641
 21
1443.730455
  0
LINE
  8
0
  6
CONTINUOUS
 62
1
 10
1321.493650
 20
1445.860388
 11
1337.029523
 21
1445.860388
  0
POLYLINE
  8
0
  6
CONTINUOUS
 62
1
 66
1
 70
2
  0
VERTEX
  8
0
 10
1336.369523
 20
1436.260388
 70
0
 42
0.179121
  0
VERTEX
  8
0
 10
1337.704183
 20
1436.750446
 70
0
 42
0.189055
  0
VERTEX
  8
0
 10
1338.357531
 20
1437.970455
 70
0
  0
SEQEND
  0
POLYLINE
  8
0
  6
CONTINUOUS
 62
1
 66
1
 70
2
  0
VERTEX
  8
0
 10
1339.017531
 20
1443.730455
 70
0
 42
0.220328
  0
VERTEX
  8
0
 10
1338.519046
 20
1445.221663
 70
0
 42
0.207373
  0
VERTEX
  8
0
 10
1337.029523
 20
1445.860388
 70
0
  0
SEQEND
  0
POLYLINE
  8
0
  6
CONTINUOUS
 62
1
 66
1
 70
2
  0
VERTEX
  8
0
 10
1321.493650
 20
1445.860388
 70
0
 42
0.207373
  0
VERTEX
  8
0
 10
1320.004126
 20
1445.221663
 70
0
 42
0.220328
  0
VERTEX
  8
0
 10
1319.505641
 20
1443.730455
 70
0
  0
SEQEND
  0
POLYLINE
  8
0
  6
CONTINUOUS
 62
1
 66
1
 70
2
  0
VERTEX
  8
0
 10
1322.153650
 20
1436.260388
 70
0
 42
-0.179121
  0
VERTEX
  8
0
 10
1320.818989
 20
1436.750446
 70
0
 42
-0.189055
  0
VERTEX
  8
0
 10
1320.165641
 20
1437.970455
 70
0
  0
SEQEND
  0
LINE
  8
0
  6
CONTINUOUS
 62
1
 10
1387.853650
 20
1445.860388
 11
1402.069523
 21
1445.860388
  0
LINE
  8
0
  6
CONTINUOUS
 62
1
 10
1599.169523
 20
1436.260388
 11
1584.953650
 21
1436.260388
  0
LINE
  8
0
  6
CONTINUOUS
 62
1
 10
1555.369523
 20
1436.260388
 11
1541.153650
 21
1436.260388
  0
LINE
  8
0
  6
CONTINUOUS
 62
1
 10
1534.129523
 20
1436.260388
 11
1518.593650
 21
1436.260388
  0
LINE
  8
0
  6
CONTINUOUS
 62
1
 10
1511.569523
 20
1436.260388
 11
1497.353650
 21
1436.260388
  0
LINE
  8
0
  6
CONTINUOUS
 62
1
 10
1490.329523
 20
1436.260388
 11
1474.793650
 21
1436.260388
  0
LINE
  8
0
  6
CONTINUOUS
 62
1
 10
1467.769523
 20
1436.260388
 11
1453.553650
 21
1436.260388
  0
LINE
  8
0
  6
CONTINUOUS
 62
1
 10
1446.529523
 20
1436.260388
 11
1430.993650
 21
1436.260388
  0
LINE
  8
0
  6
CONTINUOUS
 62
1
 10
1423.969523
 20
1436.260388
 11
1409.753650
 21
1436.260388
  0
LINE
  8
0
  6
CONTINUOUS
 62
1
 10
1402.729523
 20
1436.260388
 11
1387.193650
 21
1436.260388
  0
LINE
  8
0
  6
CONTINUOUS
 62
1
 10
1579.257531
 20
1444.150322
 11
1579.917531
 21
1438.390322
  0
LINE
  8
0
  6
CONTINUOUS
 62
1
 10
1535.457531
 20
1444.150322
 11
1536.117531
 21
1438.390322
  0
LINE
  8
0
  6
CONTINUOUS
 62
1
 10
1491.657531
 20
1444.150322
 11
1492.317531
 21
1438.390322
  0
LINE
  8
0
  6
CONTINUOUS
 62
1
 10
1447.857531
 20
1444.150322
 11
1448.517531
 21
1438.390322
  0
LINE
  8
0
  6
CONTINUOUS
 62
1
 10
1404.057531
 20
1444.150322
 11
1404.717531
 21
1438.390322
  0
LINE
  8
0
  6
CONTINUOUS
 62
1
 10
1561.065641
 20
1444.150322
 11
1560.405641
 21
1438.390322
  0
LINE
  8
0
  6
CONTINUOUS
 62
1
 10
1517.265641
 20
1444.150322
 11
1516.605641
 21
1438.390322
  0
LINE
  8
0
  6
CONTINUOUS
 62
1
 10
1473.465641
 20
1444.150322
 11
1472.805641
 21
1438.390322
  0
LINE
  8
0
  6
CONTINUOUS
 62
1
 10
1429.665641
 20
1444.150322
 11
1429.005641
 21
1438.390322
  0
LINE
  8
0
  6
CONTINUOUS
 62
1
 10
1385.865641
 20
1444.150322
 11
1385.205641
 21
1438.390322
  0
LINE
  8
0
  6
CONTINUOUS
 62
1
 10
1601.157531
 20
1437.970455
 11
1601.817531
 21
1443.730455
  0
LINE
  8
0
  6
CONTINUOUS
 62
1
 10
1557.357531
 20
1437.970455
 11
1558.017531
 21
1443.730455
  0
LINE
  8
0
  6
CONTINUOUS
 62
1
 10
1539.165641
 20
1437.970455
 11
1538.505641
 21
1443.730455
  0
LINE
  8
0
  6
CONTINUOUS
 62
1
 10
1513.557531
 20
1437.970455
 11
1514.217531
 21
1443.730455
  0
LINE
  8
0
  6
CONTINUOUS
 62
1
 10
1495.365641
 20
1437.970455
 11
1494.705641
 21
1443.730455
  0
LINE
  8
0
  6
CONTINUOUS
 62
1
 10
1469.757531
 20
1437.970455
 11
1470.417531
 21
1443.730455
  0
LINE
  8
0
  6
CONTINUOUS
 62
1
 10
1451.565641
 20
1437.970455
 11
1450.905641
 21
1443.730455
  0
LINE
  8
0
  6
CONTINUOUS
 62
1
 10
1425.957531
 20
1437.970455
 11
1426.617531
 21
1443.730455
  0
LINE
  8
0
  6
CONTINUOUS
 62
1
 10
1407.765641
 20
1437.970455
 11
1407.105641
 21
1443.730455
  0
LINE
  8
0
  6
CONTINUOUS
 62
1
 10
1584.293650
 20
1445.860388
 11
1599.829523
 21
1445.860388
  0
LINE
  8
0
  6
CONTINUOUS
 62
1
 10
1563.053650
 20
1445.860388
 11
1577.269523
 21
1445.860388
  0
LINE
  8
0
  6
CONTINUOUS
 62
1
 10
1540.493650
 20
1445.860388
 11
1556.029523
 21
1445.860388
  0
LINE
  8
0
  6
CONTINUOUS
 62
1
 10
1519.253650
 20
1445.860388
 11
1533.469523
 21
1445.860388
  0
LINE
  8
0
  6
CONTINUOUS
 62
1
 10
1496.693650
 20
1445.860388
 11
1512.229523
 21
1445.860388
  0
LINE
  8
0
  6
CONTINUOUS
 62
1
 10
1475.453650
 20
1445.860388
 11
1489.669523
 21
1445.860388
  0
LINE
  8
0
  6
CONTINUOUS
 62
1
 10
1452.893650
 20
1445.860388
 11
1468.429523
 21
1445.860388
  0
LINE
  8
0
  6
CONTINUOUS
 62
1
 10
1431.653650
 20
1445.860388
 11
1445.869523
 21
1445.860388
  0
LINE
  8
0
  6
CONTINUOUS
 62
1
 10
1409.093650
 20
1445.860388
 11
1424.629523
 21
1445.860388
  0
POLYLINE
  8
0
  6
CONTINUOUS
 62
1
 66
1
 70
2
  0
VERTEX
  8
0
 10
1601.157531
 20
1437.970455
 70
0
 42
-0.189055
  0
VERTEX
  8
0
 10
1600.504183
 20
1436.750446
 70
0
 42
-0.179121
  0
VERTEX
  8
0
 10
1599.169523
 20
1436.260388
 70
0
  0
SEQEND
  0
POLYLINE
  8
0
  6
CONTINUOUS
 62
1
 66
1
 70
2
  0
VERTEX
  8
0
 10
1584.953650
 20
1436.260388
 70
0
 42
-0.179121
  0
VERTEX
  8
0
 10
1583.618989
 20
1436.750446
 70
0
 42
-0.189055
  0
VERTEX
  8
0
 10
1582.965641
 20
1437.970455
 70
0
  0
SEQEND
  0
POLYLINE
  8
0
  6
CONTINUOUS
 62
1
 66
1
 70
2
  0
VERTEX
  8
0
 10
1582.305641
 20
1443.730455
 70
0
 42
-0.220328
  0
VERTEX
  8
0
 10
1582.804126
 20
1445.221663
 70
0
 42
-0.207373
  0
VERTEX
  8
0
 10
1584.293650
 20
1445.860388
 70
0
  0
SEQEND
  0
POLYLINE
  8
0
  6
CONTINUOUS
 62
1
 66
1
 70
2
  0
VERTEX
  8
0
 10
1599.829523
 20
1445.860388
 70
0
 42
-0.207373
  0
VERTEX
  8
0
 10
1601.319046
 20
1445.221663
 70
0
 42
-0.220328
  0
VERTEX
  8
0
 10
1601.817531
 20
1443.730455
 70
0
  0
SEQEND
  0
POLYLINE
  8
0
  6
CONTINUOUS
 62
1
 66
1
 70
2
  0
VERTEX
  8
0
 10
1577.929523
 20
1436.260388
 70
0
 42
0.207373
  0
VERTEX
  8
0
 10
1579.419046
 20
1436.899114
 70
0
 42
0.220328
  0
VERTEX
  8
0
 10
1579.917531
 20
1438.390322
 70
0
  0
SEQEND
  0
POLYLINE
  8
0
  6
CONTINUOUS
 62
1
 66
1
 70
2
  0
VERTEX
  8
0
 10
1579.257531
 20
1444.150322
 70
0
 42
0.189055
  0
VERTEX
  8
0
 10
1578.604183
 20
1445.370331
 70
0
 42
0.179121
  0
VERTEX
  8
0
 10
1577.269523
 20
1445.860388
 70
0
  0
SEQEND
  0
POLYLINE
  8
0
  6
CONTINUOUS
 62
1
 66
1
 70
2
  0
VERTEX
  8
0
 10
1563.053650
 20
1445.860388
 70
0
 42
0.179121
  0
VERTEX
  8
0
 10
1561.718989
 20
1445.370331
 70
0
 42
0.189055
  0
VERTEX
  8
0
 10
1561.065641
 20
1444.150322
 70
0
  0
SEQEND
  0
POLYLINE
  8
0
  6
CONTINUOUS
 62
1
 66
1
 70
2
  0
VERTEX
  8
0
 10
1560.405641
 20
1438.390322
 70
0
 42
0.220328
  0
VERTEX
  8
0
 10
1560.904126
 20
1436.899114
 70
0
 42
0.207373
  0
VERTEX
  8
0
 10
1562.393650
 20
1436.260388
 70
0
  0
SEQEND
  0
POLYLINE
  8
0
  6
CONTINUOUS
 62
1
 66
1
 70
2
  0
VERTEX
  8
0
 10
1557.357531
 20
1437.970455
 70
0
 42
-0.189055
  0
VERTEX
  8
0
 10
1556.704183
 20
1436.750446
 70
0
 42
-0.179121
  0
VERTEX
  8
0
 10
1555.369523
 20
1436.260388
 70
0
  0
SEQEND
  0
POLYLINE
  8
0
  6
CONTINUOUS
 62
1
 66
1
 70
2
  0
VERTEX
  8
0
 10
1541.153650
 20
1436.260388
 70
0
 42
-0.179121
  0
VERTEX
  8
0
 10
1539.818989
 20
1436.750446
 70
0
 42
-0.189055
  0
VERTEX
  8
0
 10
1539.165641
 20
1437.970455
 70
0
  0
SEQEND
  0
POLYLINE
  8
0
  6
CONTINUOUS
 62
1
 66
1
 70
2
  0
VERTEX
  8
0
 10
1538.505641
 20
1443.730455
 70
0
 42
-0.220328
  0
VERTEX
  8
0
 10
1539.004126
 20
1445.221663
 70
0
 42
-0.207373
  0
VERTEX
  8
0
 10
1540.493650
 20
1445.860388
 70
0
  0
SEQEND
  0
POLYLINE
  8
0
  6
CONTINUOUS
 62
1
 66
1
 70
2
  0
VERTEX
  8
0
 10
1556.029523
 20
1445.860388
 70
0
 42
-0.207373
  0
VERTEX
  8
0
 10
1557.519046
 20
1445.221663
 70
0
 42
-0.220328
  0
VERTEX
  8
0
 10
1558.017531
 20
1443.730455
 70
0
  0
SEQEND
  0
POLYLINE
  8
0
  6
CONTINUOUS
 62
1
 66
1
 70
2
  0
VERTEX
  8
0
 10
1535.457531
 20
1444.150322
 70
0
 42
0.189055
  0
VERTEX
  8
0
 10
1534.804183
 20
1445.370331
 70
0
 42
0.179121
  0
VERTEX
  8
0
 10
1533.469523
 20
1445.860388
 70
0
  0
SEQEND
  0
POLYLINE
  8
0
  6
CONTINUOUS
 62
1
 66
1
 70
2
  0
VERTEX
  8
0
 10
1519.253650
 20
1445.860388
 70
0
 42
0.179121
  0
VERTEX
  8
0
 10
1517.918989
 20
1445.370331
 70
0
 42
0.189055
  0
VERTEX
  8
0
 10
1517.265641
 20
1444.150322
 70
0
  0
SEQEND
  0
POLYLINE
  8
0
  6
CONTINUOUS
 62
1
 66
1
 70
2
  0
VERTEX
  8
0
 10
1516.605641
 20
1438.390322
 70
0
 42
0.220328
  0
VERTEX
  8
0
 10
1517.104126
 20
1436.899114
 70
0
 42
0.207373
  0
VERTEX
  8
0
 10
1518.593650
 20
1436.260388
 70
0
  0
SEQEND
  0
POLYLINE
  8
0
  6
CONTINUOUS
 62
1
 66
1
 70
2
  0
VERTEX
  8
0
 10
1534.129523
 20
1436.260388
 70
0
 42
0.207373
  0
VERTEX
  8
0
 10
1535.619046
 20
1436.899114
 70
0
 42
0.220328
  0
VERTEX
  8
0
 10
1536.117531
 20
1438.390322
 70
0
  0
SEQEND
  0
POLYLINE
  8
0
  6
CONTINUOUS
 62
1
 66
1
 70
2
  0
VERTEX
  8
0
 10
1511.569523
 20
1436.260388
 70
0
 42
0.179121
  0
VERTEX
  8
0
 10
1512.904183
 20
1436.750446
 70
0
 42
0.189055
  0
VERTEX
  8
0
 10
1513.557531
 20
1437.970455
 70
0
  0
SEQEND
  0
POLYLINE
  8
0
  6
CONTINUOUS
 62
1
 66
1
 70
2
  0
VERTEX
  8
0
 10
1514.217531
 20
1443.730455
 70
0
 42
0.220328
  0
VERTEX
  8
0
 10
1513.719046
 20
1445.221663
 70
0
 42
0.207373
  0
VERTEX
  8
0
 10
1512.229523
 20
1445.860388
 70
0
  0
SEQEND
  0
POLYLINE
  8
0
  6
CONTINUOUS
 62
1
 66
1
 70
2
  0
VERTEX
  8
0
 10
1496.693650
 20
1445.860388
 70
0
 42
0.207373
  0
VERTEX
  8
0
 10
1495.204126
 20
1445.221663
 70
0
 42
0.220328
  0
VERTEX
  8
0
 10
1494.705641
 20
1443.730455
 70
0
  0
SEQEND
  0
POLYLINE
  8
0
  6
CONTINUOUS
 62
1
 66
1
 70
2
  0
VERTEX
  8
0
 10
1495.365641
 20
1437.970455
 70
0
 42
0.189055
  0
VERTEX
  8
0
 10
1496.018989
 20
1436.750446
 70
0
 42
0.179121
  0
VERTEX
  8
0
 10
1497.353650
 20
1436.260388
 70
0
  0
SEQEND
  0
POLYLINE
  8
0
  6
CONTINUOUS
 62
1
 66
1
 70
2
  0
VERTEX
  8
0
 10
1492.317531
 20
1438.390322
 70
0
 42
-0.220328
  0
VERTEX
  8
0
 10
1491.819046
 20
1436.899114
 70
0
 42
-0.207373
  0
VERTEX
  8
0
 10
1490.329523
 20
1436.260388
 70
0
  0
SEQEND
  0
POLYLINE
  8
0
  6
CONTINUOUS
 62
1
 66
1
 70
2
  0
VERTEX
  8
0
 10
1474.793650
 20
1436.260388
 70
0
 42
-0.207373
  0
VERTEX
  8
0
 10
1473.304126
 20
1436.899114
 70
0
 42
-0.220328
  0
VERTEX
  8
0
 10
1472.805641
 20
1438.390322
 70
0
  0
SEQEND
  0
POLYLINE
  8
0
  6
CONTINUOUS
 62
1
 66
1
 70
2
  0
VERTEX
  8
0
 10
1473.465641
 20
1444.150322
 70
0
 42
-0.189055
  0
VERTEX
  8
0
 10
1474.118989
 20
1445.370331
 70
0
 42
-0.179121
  0
VERTEX
  8
0
 10
1475.453650
 20
1445.860388
 70
0
  0
SEQEND
  0
POLYLINE
  8
0
  6
CONTINUOUS
 62
1
 66
1
 70
2
  0
VERTEX
  8
0
 10
1489.669523
 20
1445.860388
 70
0
 42
-0.179121
  0
VERTEX
  8
0
 10
1491.004183
 20
1445.370331
 70
0
 42
-0.189055
  0
VERTEX
  8
0
 10
1491.657531
 20
1444.150322
 70
0
  0
SEQEND
  0
POLYLINE
  8
0
  6
CONTINUOUS
 62
1
 66
1
 70
2
  0
VERTEX
  8
0
 10
1470.417531
 20
1443.730455
 70
0
 42
0.220328
  0
VERTEX
  8
0
 10
1469.919046
 20
1445.221663
 70
0
 42
0.207373
  0
VERTEX
  8
0
 10
1468.429523
 20
1445.860388
 70
0
  0
SEQEND
  0
POLYLINE
  8
0
  6
CONTINUOUS
 62
1
 66
1
 70
2
  0
VERTEX
  8
0
 10
1452.893650
 20
1445.860388
 70
0
 42
0.207373
  0
VERTEX
  8
0
 10
1451.404126
 20
1445.221663
 70
0
 42
0.220328
  0
VERTEX
  8
0
 10
1450.905641
 20
1443.730455
 70
0
  0
SEQEND
  0
POLYLINE
  8
0
  6
CONTINUOUS
 62
1
 66
1
 70
2
  0
VERTEX
  8
0
 10
1451.565641
 20
1437.970455
 70
0
 42
0.189055
  0
VERTEX
  8
0
 10
1452.218989
 20
1436.750446
 70
0
 42
0.179121
  0
VERTEX
  8
0
 10
1453.553650
 20
1436.260388
 70
0
  0
SEQEND
  0
POLYLINE
  8
0
  6
CONTINUOUS
 62
1
 66
1
 70
2
  0
VERTEX
  8
0
 10
1467.769523
 20
1436.260388
 70
0
 42
0.179121
  0
VERTEX
  8
0
 10
1469.104183
 20
1436.750446
 70
0
 42
0.189055
  0
VERTEX
  8
0
 10
1469.757531
 20
1437.970455
 70
0
  0
SEQEND
  0
POLYLINE
  8
0
  6
CONTINUOUS
 62
1
 66
1
 70
2
  0
VERTEX
  8
0
 10
1446.529523
 20
1436.260388
 70
0
 42
0.207373
  0
VERTEX
  8
0
 10
1448.019046
 20
1436.899114
 70
0
 42
0.220328
  0
VERTEX
  8
0
 10
1448.517531
 20
1438.390322
 70
0
  0
SEQEND
  0
POLYLINE
  8
0
  6
CONTINUOUS
 62
1
 66
1
 70
2
  0
VERTEX
  8
0
 10
1447.857531
 20
1444.150322
 70
0
 42
0.189055
  0
VERTEX
  8
0
 10
1447.204183
 20
1445.370331
 70
0
 42
0.179121
  0
VERTEX
  8
0
 10
1445.869523
 20
1445.860388
 70
0
  0
SEQEND
  0
POLYLINE
  8
0
  6
CONTINUOUS
 62
1
 66
1
 70
2
  0
VERTEX
  8
0
 10
1431.653650
 20
1445.860388
 70
0
 42
0.179121
  0
VERTEX
  8
0
 10
1430.318989
 20
1445.370331
 70
0
 42
0.189055
  0
VERTEX
  8
0
 10
1429.665641
 20
1444.150322
 70
0
  0
SEQEND
  0
POLYLINE
  8
0
  6
CONTINUOUS
 62
1
 66
1
 70
2
  0
VERTEX
  8
0
 10
1429.005641
 20
1438.390322
 70
0
 42
0.220328
  0
VERTEX
  8
0
 10
1429.504126
 20
1436.899114
 70
0
 42
0.207373
  0
VERTEX
  8
0
 10
1430.993650
 20
1436.260388
 70
0
  0
SEQEND
  0
POLYLINE
  8
0
  6
CONTINUOUS
 62
1
 66
1
 70
2
  0
VERTEX
  8
0
 10
1423.969523
 20
1436.260388
 70
0
 42
0.179121
  0
VERTEX
  8
0
 10
1425.304183
 20
1436.750446
 70
0
 42
0.189055
  0
VERTEX
  8
0
 10
1425.957531
 20
1437.970455
 70
0
  0
SEQEND
  0
POLYLINE
  8
0
  6
CONTINUOUS
 62
1
 66
1
 70
2
  0
VERTEX
  8
0
 10
1426.617531
 20
1443.730455
 70
0
 42
0.220328
  0
VERTEX
  8
0
 10
1426.119046
 20
1445.221663
 70
0
 42
0.207373
  0
VERTEX
  8
0
 10
1424.629523
 20
1445.860388
 70
0
  0
SEQEND
  0
POLYLINE
  8
0
  6
CONTINUOUS
 62
1
 66
1
 70
2
  0
VERTEX
  8
0
 10
1409.093650
 20
1445.860388
 70
0
 42
0.207373
  0
VERTEX
  8
0
 10
1407.604126
 20
1445.221663
 70
0
 42
0.220328
  0
VERTEX
  8
0
 10
1407.105641
 20
1443.730455
 70
0
  0
SEQEND
  0
POLYLINE
  8
0
  6
CONTINUOUS
 62
1
 66
1
 70
2
  0
VERTEX
  8
0
 10
1409.753650
 20
1436.260388
 70
0
 42
-0.179121
  0
VERTEX
  8
0
 10
1408.418989
 20
1436.750446
 70
0
 42
-0.189055
  0
VERTEX
  8
0
 10
1407.765641
 20
1437.970455
 70
0
  0
SEQEND
  0
POLYLINE
  8
0
  6
CONTINUOUS
 62
1
 66
1
 70
2
  0
VERTEX
  8
0
 10
1402.729523
 20
1436.260388
 70
0
 42
0.207373
  0
VERTEX
  8
0
 10
1404.219046
 20
1436.899114
 70
0
 42
0.220328
  0
VERTEX
  8
0
 10
1404.717531
 20
1438.390322
 70
0
  0
SEQEND
  0
POLYLINE
  8
0
  6
CONTINUOUS
 62
1
 66
1
 70
2
  0
VERTEX
  8
0
 10
1404.057531
 20
1444.150322
 70
0
 42
0.189055
  0
VERTEX
  8
0
 10
1403.404183
 20
1445.370331
 70
0
 42
0.179121
  0
VERTEX
  8
0
 10
1402.069523
 20
1445.860388
 70
0
  0
SEQEND
  0
POLYLINE
  8
0
  6
CONTINUOUS
 62
1
 66
1
 70
2
  0
VERTEX
  8
0
 10
1387.853650
 20
1445.860388
 70
0
 42
0.179121
  0
VERTEX
  8
0
 10
1386.518989
 20
1445.370331
 70
0
 42
0.189055
  0
VERTEX
  8
0
 10
1385.865641
 20
1444.150322
 70
0
  0
SEQEND
  0
POLYLINE
  8
0
  6
CONTINUOUS
 62
1
 66
1
 70
2
  0
VERTEX
  8
0
 10
1385.205641
 20
1438.390322
 70
0
 42
0.220328
  0
VERTEX
  8
0
 10
1385.704126
 20
1436.899114
 70
0
 42
0.207373
  0
VERTEX
  8
0
 10
1387.193650
 20
1436.260388
 70
0
  0
SEQEND
  0
LINE
  8
0
  6
CONTINUOUS
 62
1
 10
1582.965641
 20
1437.970455
 11
1582.305641
 21
1443.730455
  0
LINE
  8
0
  6
CONTINUOUS
 62
1
 10
1577.929523
 20
1436.260388
 11
1562.393650
 21
1436.260388
  0
LINE
  8
0
  6
CONTINUOUS
 62
1
 10
1369.253051
 20
1448.740388
 11
1355.037178
 21
1448.740388
  0
LINE
  8
0
  6
CONTINUOUS
 62
1
 10
1333.137178
 20
1458.340388
 11
1347.353051
 21
1458.340388
  0
LINE
  8
0
  6
CONTINUOUS
 62
1
 10
1354.377178
 20
1458.340388
 11
1369.913051
 21
1458.340388
  0
LINE
  8
0
  6
CONTINUOUS
 62
1
 10
1353.049170
 20
1450.450455
 11
1352.389170
 21
1456.210455
  0
LINE
  8
0
  6
CONTINUOUS
 62
1
 10
1371.241060
 20
1450.450455
 11
1371.901060
 21
1456.210455
  0
LINE
  8
0
  6
CONTINUOUS
 62
1
 10
1331.149170
 20
1456.630322
 11
1330.489170
 21
1450.870322
  0
LINE
  8
0
  6
CONTINUOUS
 62
1
 10
1349.341060
 20
1456.630322
 11
1350.001060
 21
1450.870322
  0
LINE
  8
0
  6
CONTINUOUS
 62
1
 10
1348.013051
 20
1448.740388
 11
1332.477178
 21
1448.740388
  0
POLYLINE
  8
0
  6
CONTINUOUS
 62
1
 66
1
 70
2
  0
VERTEX
  8
0
 10
1333.137178
 20
1458.340388
 70
0
 42
0.179121
  0
VERTEX
  8
0
 10
1331.802518
 20
1457.850331
 70
0
 42
0.189055
  0
VERTEX
  8
0
 10
1331.149170
 20
1456.630322
 70
0
  0
SEQEND
  0
POLYLINE
  8
0
  6
CONTINUOUS
 62
1
 66
1
 70
2
  0
VERTEX
  8
0
 10
1330.489170
 20
1450.870322
 70
0
 42
0.220328
  0
VERTEX
  8
0
 10
1330.987655
 20
1449.379114
 70
0
 42
0.207373
  0
VERTEX
  8
0
 10
1332.477178
 20
1448.740388
 70
0
  0
SEQEND
  0
POLYLINE
  8
0
  6
CONTINUOUS
 62
1
 66
1
 70
2
  0
VERTEX
  8
0
 10
1348.013051
 20
1448.740388
 70
0
 42
0.207373
  0
VERTEX
  8
0
 10
1349.502575
 20
1449.379114
 70
0
 42
0.220328
  0
VERTEX
  8
0
 10
1350.001060
 20
1450.870322
 70
0
  0
SEQEND
  0
POLYLINE
  8
0
  6
CONTINUOUS
 62
1
 66
1
 70
2
  0
VERTEX
  8
0
 10
1347.353051
 20
1458.340388
 70
0
 42
-0.179121
  0
VERTEX
  8
0
 10
1348.687712
 20
1457.850331
 70
0
 42
-0.189055
  0
VERTEX
  8
0
 10
1349.341060
 20
1456.630322
 70
0
  0
SEQEND
  0
POLYLINE
  8
0
  6
CONTINUOUS
 62
1
 66
1
 70
2
  0
VERTEX
  8
0
 10
1354.377178
 20
1458.340388
 70
0
 42
0.207373
  0
VERTEX
  8
0
 10
1352.887655
 20
1457.701663
 70
0
 42
0.220328
  0
VERTEX
  8
0
 10
1352.389170
 20
1456.210455
 70
0
  0
SEQEND
  0
POLYLINE
  8
0
  6
CONTINUOUS
 62
1
 66
1
 70
2
  0
VERTEX
  8
0
 10
1353.049170
 20
1450.450455
 70
0
 42
0.189055
  0
VERTEX
  8
0
 10
1353.702518
 20
1449.230446
 70
0
 42
0.179121
  0
VERTEX
  8
0
 10
1355.037178
 20
1448.740388
 70
0
  0
SEQEND
  0
POLYLINE
  8
0
  6
CONTINUOUS
 62
1
 66
1
 70
2
  0
VERTEX
  8
0
 10
1369.253051
 20
1448.740388
 70
0
 42
0.179121
  0
VERTEX
  8
0
 10
1370.587712
 20
1449.230446
 70
0
 42
0.189055
  0
VERTEX
  8
0
 10
1371.241060
 20
1450.450455
 70
0
  0
SEQEND
  0
POLYLINE
  8
0
  6
CONTINUOUS
 62
1
 66
1
 70
2
  0
VERTEX
  8
0
 10
1371.901060
 20
1456.210455
 70
0
 42
0.220328
  0
VERTEX
  8
0
 10
1371.402575
 20
1457.701663
 70
0
 42
0.207373
  0
VERTEX
  8
0
 10
1369.913051
 20
1458.340388
 70
0
  0
SEQEND
  0
LINE
  8
0
  6
CONTINUOUS
 62
1
 10
1413.053051
 20
1448.740388
 11
1398.837178
 21
1448.740388
  0
LINE
  8
0
  6
CONTINUOUS
 62
1
 10
1376.937178
 20
1458.340388
 11
1391.153051
 21
1458.340388
  0
LINE
  8
0
  6
CONTINUOUS
 62
1
 10
1398.177178
 20
1458.340388
 11
1413.713051
 21
1458.340388
  0
LINE
  8
0
  6
CONTINUOUS
 62
1
 10
1396.849170
 20
1450.450455
 11
1396.189170
 21
1456.210455
  0
LINE
  8
0
  6
CONTINUOUS
 62
1
 10
1415.041060
 20
1450.450455
 11
1415.701060
 21
1456.210455
  0
LINE
  8
0
  6
CONTINUOUS
 62
1
 10
1374.949170
 20
1456.630322
 11
1374.289170
 21
1450.870322
  0
LINE
  8
0
  6
CONTINUOUS
 62
1
 10
1393.141060
 20
1456.630322
 11
1393.801060
 21
1450.870322
  0
LINE
  8
0
  6
CONTINUOUS
 62
1
 10
1391.813051
 20
1448.740388
 11
1376.277178
 21
1448.740388
  0
POLYLINE
  8
0
  6
CONTINUOUS
 62
1
 66
1
 70
2
  0
VERTEX
  8
0
 10
1376.937178
 20
1458.340388
 70
0
 42
0.179121
  0
VERTEX
  8
0
 10
1375.602518
 20
1457.850331
 70
0
 42
0.189055
  0
VERTEX
  8
0
 10
1374.949170
 20
1456.630322
 70
0
  0
SEQEND
  0
POLYLINE
  8
0
  6
CONTINUOUS
 62
1
 66
1
 70
2
  0
VERTEX
  8
0
 10
1374.289170
 20
1450.870322
 70
0
 42
0.220328
  0
VERTEX
  8
0
 10
1374.787655
 20
1449.379114
 70
0
 42
0.207373
  0
VERTEX
  8
0
 10
1376.277178
 20
1448.740388
 70
0
  0
SEQEND
  0
POLYLINE
  8
0
  6
CONTINUOUS
 62
1
 66
1
 70
2
  0
VERTEX
  8
0
 10
1391.813051
 20
1448.740388
 70
0
 42
0.207373
  0
VERTEX
  8
0
 10
1393.302575
 20
1449.379114
 70
0
 42
0.220328
  0
VERTEX
  8
0
 10
1393.801060
 20
1450.870322
 70
0
  0
SEQEND
  0
POLYLINE
  8
0
  6
CONTINUOUS
 62
1
 66
1
 70
2
  0
VERTEX
  8
0
 10
1391.153051
 20
1458.340388
 70
0
 42
-0.179121
  0
VERTEX
  8
0
 10
1392.487712
 20
1457.850331
 70
0
 42
-0.189055
  0
VERTEX
  8
0
 10
1393.141060
 20
1456.630322
 70
0
  0
SEQEND
  0
POLYLINE
  8
0
  6
CONTINUOUS
 62
1
 66
1
 70
2
  0
VERTEX
  8
0
 10
1398.177178
 20
1458.340388
 70
0
 42
0.207373
  0
VERTEX
  8
0
 10
1396.687655
 20
1457.701663
 70
0
 42
0.220328
  0
VERTEX
  8
0
 10
1396.189170
 20
1456.210455
 70
0
  0
SEQEND
  0
POLYLINE
  8
0
  6
CONTINUOUS
 62
1
 66
1
 70
2
  0
VERTEX
  8
0
 10
1396.849170
 20
1450.450455
 70
0
 42
0.189055
  0
VERTEX
  8
0
 10
1397.502518
 20
1449.230446
 70
0
 42
0.179121
  0
VERTEX
  8
0
 10
1398.837178
 20
1448.740388
 70
0
  0
SEQEND
  0
POLYLINE
  8
0
  6
CONTINUOUS
 62
1
 66
1
 70
2
  0
VERTEX
  8
0
 10
1413.053051
 20
1448.740388
 70
0
 42
0.179121
  0
VERTEX
  8
0
 10
1414.387712
 20
1449.230446
 70
0
 42
0.189055
  0
VERTEX
  8
0
 10
1415.041060
 20
1450.450455
 70
0
  0
SEQEND
  0
POLYLINE
  8
0
  6
CONTINUOUS
 62
1
 66
1
 70
2
  0
VERTEX
  8
0
 10
1415.701060
 20
1456.210455
 70
0
 42
0.220328
  0
VERTEX
  8
0
 10
1415.202575
 20
1457.701663
 70
0
 42
0.207373
  0
VERTEX
  8
0
 10
1413.713051
 20
1458.340388
 70
0
  0
SEQEND
  0
LINE
  8
0
  6
CONTINUOUS
 62
1
 10
1456.853051
 20
1448.740388
 11
1442.637178
 21
1448.740388
  0
LINE
  8
0
  6
CONTINUOUS
 62
1
 10
1420.737178
 20
1458.340388
 11
1434.953051
 21
1458.340388
  0
LINE
  8
0
  6
CONTINUOUS
 62
1
 10
1441.977178
 20
1458.340388
 11
1457.513051
 21
1458.340388
  0
LINE
  8
0
  6
CONTINUOUS
 62
1
 10
1440.649170
 20
1450.450455
 11
1439.989170
 21
1456.210455
  0
LINE
  8
0
  6
CONTINUOUS
 62
1
 10
1458.841060
 20
1450.450455
 11
1459.501060
 21
1456.210455
  0
LINE
  8
0
  6
CONTINUOUS
 62
1
 10
1418.749170
 20
1456.630322
 11
1418.089170
 21
1450.870322
  0
LINE
  8
0
  6
CONTINUOUS
 62
1
 10
1436.941060
 20
1456.630322
 11
1437.601060
 21
1450.870322
  0
LINE
  8
0
  6
CONTINUOUS
 62
1
 10
1435.613051
 20
1448.740388
 11
1420.077178
 21
1448.740388
  0
POLYLINE
  8
0
  6
CONTINUOUS
 62
1
 66
1
 70
2
  0
VERTEX
  8
0
 10
1420.737178
 20
1458.340388
 70
0
 42
0.179121
  0
VERTEX
  8
0
 10
1419.402518
 20
1457.850331
 70
0
 42
0.189055
  0
VERTEX
  8
0
 10
1418.749170
 20
1456.630322
 70
0
  0
SEQEND
  0
POLYLINE
  8
0
  6
CONTINUOUS
 62
1
 66
1
 70
2
  0
VERTEX
  8
0
 10
1418.089170
 20
1450.870322
 70
0
 42
0.220328
  0
VERTEX
  8
0
 10
1418.587655
 20
1449.379114
 70
0
 42
0.207373
  0
VERTEX
  8
0
 10
1420.077178
 20
1448.740388
 70
0
  0
SEQEND
  0
POLYLINE
  8
0
  6
CONTINUOUS
 62
1
 66
1
 70
2
  0
VERTEX
  8
0
 10
1435.613051
 20
1448.740388
 70
0
 42
0.207373
  0
VERTEX
  8
0
 10
1437.102575
 20
1449.379114
 70
0
 42
0.220328
  0
VERTEX
  8
0
 10
1437.601060
 20
1450.870322
 70
0
  0
SEQEND
  0
POLYLINE
  8
0
  6
CONTINUOUS
 62
1
 66
1
 70
2
  0
VERTEX
  8
0
 10
1434.953051
 20
1458.340388
 70
0
 42
-0.179121
  0
VERTEX
  8
0
 10
1436.287712
 20
1457.850331
 70
0
 42
-0.189055
  0
VERTEX
  8
0
 10
1436.941060
 20
1456.630322
 70
0
  0
SEQEND
  0
POLYLINE
  8
0
  6
CONTINUOUS
 62
1
 66
1
 70
2
  0
VERTEX
  8
0
 10
1441.977178
 20
1458.340388
 70
0
 42
0.207373
  0
VERTEX
  8
0
 10
1440.487655
 20
1457.701663
 70
0
 42
0.220328
  0
VERTEX
  8
0
 10
1439.989170
 20
1456.210455
 70
0
  0
SEQEND
  0
POLYLINE
  8
0
  6
CONTINUOUS
 62
1
 66
1
 70
2
  0
VERTEX
  8
0
 10
1440.649170
 20
1450.450455
 70
0
 42
0.189055
  0
VERTEX
  8
0
 10
1441.302518
 20
1449.230446
 70
0
 42
0.179121
  0
VERTEX
  8
0
 10
1442.637178
 20
1448.740388
 70
0
  0
SEQEND
  0
POLYLINE
  8
0
  6
CONTINUOUS
 62
1
 66
1
 70
2
  0
VERTEX
  8
0
 10
1456.853051
 20
1448.740388
 70
0
 42
0.179121
  0
VERTEX
  8
0
 10
1458.187712
 20
1449.230446
 70
0
 42
0.189055
  0
VERTEX
  8
0
 10
1458.841060
 20
1450.450455
 70
0
  0
SEQEND
  0
POLYLINE
  8
0
  6
CONTINUOUS
 62
1
 66
1
 70
2
  0
VERTEX
  8
0
 10
1459.501060
 20
1456.210455
 70
0
 42
0.220328
  0
VERTEX
  8
0
 10
1459.002575
 20
1457.701663
 70
0
 42
0.207373
  0
VERTEX
  8
0
 10
1457.513051
 20
1458.340388
 70
0
  0
SEQEND
  0
LINE
  8
0
  6
CONTINUOUS
 62
1
 10
1500.653051
 20
1448.740388
 11
1486.437178
 21
1448.740388
  0
LINE
  8
0
  6
CONTINUOUS
 62
1
 10
1464.537178
 20
1458.340388
 11
1478.753051
 21
1458.340388
  0
LINE
  8
0
  6
CONTINUOUS
 62
1
 10
1485.777178
 20
1458.340388
 11
1501.313051
 21
1458.340388
  0
LINE
  8
0
  6
CONTINUOUS
 62
1
 10
1484.449170
 20
1450.450455
 11
1483.789170
 21
1456.210455
  0
LINE
  8
0
  6
CONTINUOUS
 62
1
 10
1502.641060
 20
1450.450455
 11
1503.301060
 21
1456.210455
  0
LINE
  8
0
  6
CONTINUOUS
 62
1
 10
1462.549170
 20
1456.630322
 11
1461.889170
 21
1450.870322
  0
LINE
  8
0
  6
CONTINUOUS
 62
1
 10
1480.741060
 20
1456.630322
 11
1481.401060
 21
1450.870322
  0
LINE
  8
0
  6
CONTINUOUS
 62
1
 10
1479.413051
 20
1448.740388
 11
1463.877178
 21
1448.740388
  0
POLYLINE
  8
0
  6
CONTINUOUS
 62
1
 66
1
 70
2
  0
VERTEX
  8
0
 10
1464.537178
 20
1458.340388
 70
0
 42
0.179121
  0
VERTEX
  8
0
 10
1463.202518
 20
1457.850331
 70
0
 42
0.189055
  0
VERTEX
  8
0
 10
1462.549170
 20
1456.630322
 70
0
  0
SEQEND
  0
POLYLINE
  8
0
  6
CONTINUOUS
 62
1
 66
1
 70
2
  0
VERTEX
  8
0
 10
1461.889170
 20
1450.870322
 70
0
 42
0.220328
  0
VERTEX
  8
0
 10
1462.387655
 20
1449.379114
 70
0
 42
0.207373
  0
VERTEX
  8
0
 10
1463.877178
 20
1448.740388
 70
0
  0
SEQEND
  0
POLYLINE
  8
0
  6
CONTINUOUS
 62
1
 66
1
 70
2
  0
VERTEX
  8
0
 10
1479.413051
 20
1448.740388
 70
0
 42
0.207373
  0
VERTEX
  8
0
 10
1480.902575
 20
1449.379114
 70
0
 42
0.220328
  0
VERTEX
  8
0
 10
1481.401060
 20
1450.870322
 70
0
  0
SEQEND
  0
POLYLINE
  8
0
  6
CONTINUOUS
 62
1
 66
1
 70
2
  0
VERTEX
  8
0
 10
1478.753051
 20
1458.340388
 70
0
 42
-0.179121
  0
VERTEX
  8
0
 10
1480.087712
 20
1457.850331
 70
0
 42
-0.189055
  0
VERTEX
  8
0
 10
1480.741060
 20
1456.630322
 70
0
  0
SEQEND
  0
POLYLINE
  8
0
  6
CONTINUOUS
 62
1
 66
1
 70
2
  0
VERTEX
  8
0
 10
1485.777178
 20
1458.340388
 70
0
 42
0.207373
  0
VERTEX
  8
0
 10
1484.287655
 20
1457.701663
 70
0
 42
0.220328
  0
VERTEX
  8
0
 10
1483.789170
 20
1456.210455
 70
0
  0
SEQEND
  0
POLYLINE
  8
0
  6
CONTINUOUS
 62
1
 66
1
 70
2
  0
VERTEX
  8
0
 10
1484.449170
 20
1450.450455
 70
0
 42
0.189055
  0
VERTEX
  8
0
 10
1485.102518
 20
1449.230446
 70
0
 42
0.179121
  0
VERTEX
  8
0
 10
1486.437178
 20
1448.740388
 70
0
  0
SEQEND
  0
POLYLINE
  8
0
  6
CONTINUOUS
 62
1
 66
1
 70
2
  0
VERTEX
  8
0
 10
1500.653051
 20
1448.740388
 70
0
 42
0.179121
  0
VERTEX
  8
0
 10
1501.987712
 20
1449.230446
 70
0
 42
0.189055
  0
VERTEX
  8
0
 10
1502.641060
 20
1450.450455
 70
0
  0
SEQEND
  0
POLYLINE
  8
0
  6
CONTINUOUS
 62
1
 66
1
 70
2
  0
VERTEX
  8
0
 10
1503.301060
 20
1456.210455
 70
0
 42
0.220328
  0
VERTEX
  8
0
 10
1502.802575
 20
1457.701663
 70
0
 42
0.207373
  0
VERTEX
  8
0
 10
1501.313051
 20
1458.340388
 70
0
  0
SEQEND
  0
LINE
  8
0
  6
CONTINUOUS
 62
1
 10
1544.453051
 20
1448.740388
 11
1530.237178
 21
1448.740388
  0
LINE
  8
0
  6
CONTINUOUS
 62
1
 10
1508.337178
 20
1458.340388
 11
1522.553051
 21
1458.340388
  0
LINE
  8
0
  6
CONTINUOUS
 62
1
 10
1529.577178
 20
1458.340388
 11
1545.113051
 21
1458.340388
  0
LINE
  8
0
  6
CONTINUOUS
 62
1
 10
1528.249170
 20
1450.450455
 11
1527.589170
 21
1456.210455
  0
LINE
  8
0
  6
CONTINUOUS
 62
1
 10
1546.441060
 20
1450.450455
 11
1547.101060
 21
1456.210455
  0
LINE
  8
0
  6
CONTINUOUS
 62
1
 10
1506.349170
 20
1456.630322
 11
1505.689170
 21
1450.870322
  0
LINE
  8
0
  6
CONTINUOUS
 62
1
 10
1524.541060
 20
1456.630322
 11
1525.201060
 21
1450.870322
  0
LINE
  8
0
  6
CONTINUOUS
 62
1
 10
1523.213051
 20
1448.740388
 11
1507.677178
 21
1448.740388
  0
POLYLINE
  8
0
  6
CONTINUOUS
 62
1
 66
1
 70
2
  0
VERTEX
  8
0
 10
1508.337178
 20
1458.340388
 70
0
 42
0.179121
  0
VERTEX
  8
0
 10
1507.002518
 20
1457.850331
 70
0
 42
0.189055
  0
VERTEX
  8
0
 10
1506.349170
 20
1456.630322
 70
0
  0
SEQEND
  0
POLYLINE
  8
0
  6
CONTINUOUS
 62
1
 66
1
 70
2
  0
VERTEX
  8
0
 10
1505.689170
 20
1450.870322
 70
0
 42
0.220328
  0
VERTEX
  8
0
 10
1506.187655
 20
1449.379114
 70
0
 42
0.207373
  0
VERTEX
  8
0
 10
1507.677178
 20
1448.740388
 70
0
  0
SEQEND
  0
POLYLINE
  8
0
  6
CONTINUOUS
 62
1
 66
1
 70
2
  0
VERTEX
  8
0
 10
1523.213051
 20
1448.740388
 70
0
 42
0.207373
  0
VERTEX
  8
0
 10
1524.702575
 20
1449.379114
 70
0
 42
0.220328
  0
VERTEX
  8
0
 10
1525.201060
 20
1450.870322
 70
0
  0
SEQEND
  0
POLYLINE
  8
0
  6
CONTINUOUS
 62
1
 66
1
 70
2
  0
VERTEX
  8
0
 10
1522.553051
 20
1458.340388
 70
0
 42
-0.179121
  0
VERTEX
  8
0
 10
1523.887712
 20
1457.850331
 70
0
 42
-0.189055
  0
VERTEX
  8
0
 10
1524.541060
 20
1456.630322
 70
0
  0
SEQEND
  0
POLYLINE
  8
0
  6
CONTINUOUS
 62
1
 66
1
 70
2
  0
VERTEX
  8
0
 10
1529.577178
 20
1458.340388
 70
0
 42
0.207373
  0
VERTEX
  8
0
 10
1528.087655
 20
1457.701663
 70
0
 42
0.220328
  0
VERTEX
  8
0
 10
1527.589170
 20
1456.210455
 70
0
  0
SEQEND
  0
POLYLINE
  8
0
  6
CONTINUOUS
 62
1
 66
1
 70
2
  0
VERTEX
  8
0
 10
1528.249170
 20
1450.450455
 70
0
 42
0.189055
  0
VERTEX
  8
0
 10
1528.902518
 20
1449.230446
 70
0
 42
0.179121
  0
VERTEX
  8
0
 10
1530.237178
 20
1448.740388
 70
0
  0
SEQEND
  0
POLYLINE
  8
0
  6
CONTINUOUS
 62
1
 66
1
 70
2
  0
VERTEX
  8
0
 10
1544.453051
 20
1448.740388
 70
0
 42
0.179121
  0
VERTEX
  8
0
 10
1545.787712
 20
1449.230446
 70
0
 42
0.189055
  0
VERTEX
  8
0
 10
1546.441060
 20
1450.450455
 70
0
  0
SEQEND
  0
POLYLINE
  8
0
  6
CONTINUOUS
 62
1
 66
1
 70
2
  0
VERTEX
  8
0
 10
1547.101060
 20
1456.210455
 70
0
 42
0.220328
  0
VERTEX
  8
0
 10
1546.602575
 20
1457.701663
 70
0
 42
0.207373
  0
VERTEX
  8
0
 10
1545.113051
 20
1458.340388
 70
0
  0
SEQEND
  0
LINE
  8
0
  6
CONTINUOUS
 62
1
 10
1588.253051
 20
1448.740388
 11
1574.037178
 21
1448.740388
  0
LINE
  8
0
  6
CONTINUOUS
 62
1
 10
1552.137178
 20
1458.340388
 11
1566.353051
 21
1458.340388
  0
LINE
  8
0
  6
CONTINUOUS
 62
1
 10
1573.377178
 20
1458.340388
 11
1588.913051
 21
1458.340388
  0
LINE
  8
0
  6
CONTINUOUS
 62
1
 10
1572.049170
 20
1450.450455
 11
1571.389170
 21
1456.210455
  0
LINE
  8
0
  6
CONTINUOUS
 62
1
 10
1590.241060
 20
1450.450455
 11
1590.901060
 21
1456.210455
  0
LINE
  8
0
  6
CONTINUOUS
 62
1
 10
1550.149170
 20
1456.630322
 11
1549.489170
 21
1450.870322
  0
LINE
  8
0
  6
CONTINUOUS
 62
1
 10
1568.341060
 20
1456.630322
 11
1569.001060
 21
1450.870322
  0
LINE
  8
0
  6
CONTINUOUS
 62
1
 10
1567.013051
 20
1448.740388
 11
1551.477178
 21
1448.740388
  0
POLYLINE
  8
0
  6
CONTINUOUS
 62
1
 66
1
 70
2
  0
VERTEX
  8
0
 10
1552.137178
 20
1458.340388
 70
0
 42
0.179121
  0
VERTEX
  8
0
 10
1550.802518
 20
1457.850331
 70
0
 42
0.189055
  0
VERTEX
  8
0
 10
1550.149170
 20
1456.630322
 70
0
  0
SEQEND
  0
POLYLINE
  8
0
  6
CONTINUOUS
 62
1
 66
1
 70
2
  0
VERTEX
  8
0
 10
1549.489170
 20
1450.870322
 70
0
 42
0.220328
  0
VERTEX
  8
0
 10
1549.987655
 20
1449.379114
 70
0
 42
0.207373
  0
VERTEX
  8
0
 10
1551.477178
 20
1448.740388
 70
0
  0
SEQEND
  0
POLYLINE
  8
0
  6
CONTINUOUS
 62
1
 66
1
 70
2
  0
VERTEX
  8
0
 10
1567.013051
 20
1448.740388
 70
0
 42
0.207373
  0
VERTEX
  8
0
 10
1568.502575
 20
1449.379114
 70
0
 42
0.220328
  0
VERTEX
  8
0
 10
1569.001060
 20
1450.870322
 70
0
  0
SEQEND
  0
POLYLINE
  8
0
  6
CONTINUOUS
 62
1
 66
1
 70
2
  0
VERTEX
  8
0
 10
1566.353051
 20
1458.340388
 70
0
 42
-0.179121
  0
VERTEX
  8
0
 10
1567.687712
 20
1457.850331
 70
0
 42
-0.189055
  0
VERTEX
  8
0
 10
1568.341060
 20
1456.630322
 70
0
  0
SEQEND
  0
POLYLINE
  8
0
  6
CONTINUOUS
 62
1
 66
1
 70
2
  0
VERTEX
  8
0
 10
1573.377178
 20
1458.340388
 70
0
 42
0.207373
  0
VERTEX
  8
0
 10
1571.887655
 20
1457.701663
 70
0
 42
0.220328
  0
VERTEX
  8
0
 10
1571.389170
 20
1456.210455
 70
0
  0
SEQEND
  0
POLYLINE
  8
0
  6
CONTINUOUS
 62
1
 66
1
 70
2
  0
VERTEX
  8
0
 10
1572.049170
 20
1450.450455
 70
0
 42
0.189055
  0
VERTEX
  8
0
 10
1572.702518
 20
1449.230446
 70
0
 42
0.179121
  0
VERTEX
  8
0
 10
1574.037178
 20
1448.740388
 70
0
  0
SEQEND
  0
POLYLINE
  8
0
  6
CONTINUOUS
 62
1
 66
1
 70
2
  0
VERTEX
  8
0
 10
1588.253051
 20
1448.740388
 70
0
 42
0.179121
  0
VERTEX
  8
0
 10
1589.587712
 20
1449.230446
 70
0
 42
0.189055
  0
VERTEX
  8
0
 10
1590.241060
 20
1450.450455
 70
0
  0
SEQEND
  0
POLYLINE
  8
0
  6
CONTINUOUS
 62
1
 66
1
 70
2
  0
VERTEX
  8
0
 10
1590.901060
 20
1456.210455
 70
0
 42
0.220328
  0
VERTEX
  8
0
 10
1590.402575
 20
1457.701663
 70
0
 42
0.207373
  0
VERTEX
  8
0
 10
1588.913051
 20
1458.340388
 70
0
  0
SEQEND
  0
LINE
  8
0
  6
CONTINUOUS
 62
1
 10
1595.937178
 20
1458.340388
 11
1610.153051
 21
1458.340388
  0
LINE
  8
0
  6
CONTINUOUS
 62
1
 10
1593.949170
 20
1456.630322
 11
1593.289170
 21
1450.870322
  0
LINE
  8
0
  6
CONTINUOUS
 62
1
 10
1612.141060
 20
1456.630322
 11
1612.801060
 21
1450.870322
  0
LINE
  8
0
  6
CONTINUOUS
 62
1
 10
1610.813051
 20
1448.740388
 11
1595.277178
 21
1448.740388
  0
POLYLINE
  8
0
  6
CONTINUOUS
 62
1
 66
1
 70
2
  0
VERTEX
  8
0
 10
1595.937178
 20
1458.340388
 70
0
 42
0.179121
  0
VERTEX
  8
0
 10
1594.602518
 20
1457.850331
 70
0
 42
0.189055
  0
VERTEX
  8
0
 10
1593.949170
 20
1456.630322
 70
0
  0
SEQEND
  0
POLYLINE
  8
0
  6
CONTINUOUS
 62
1
 66
1
 70
2
  0
VERTEX
  8
0
 10
1593.289170
 20
1450.870322
 70
0
 42
0.220328
  0
VERTEX
  8
0
 10
1593.787655
 20
1449.379114
 70
0
 42
0.207373
  0
VERTEX
  8
0
 10
1595.277178
 20
1448.740388
 70
0
  0
SEQEND
  0
POLYLINE
  8
0
  6
CONTINUOUS
 62
1
 66
1
 70
2
  0
VERTEX
  8
0
 10
1610.813051
 20
1448.740388
 70
0
 42
0.207373
  0
VERTEX
  8
0
 10
1612.302575
 20
1449.379114
 70
0
 42
0.220328
  0
VERTEX
  8
0
 10
1612.801060
 20
1450.870322
 70
0
  0
SEQEND
  0
POLYLINE
  8
0
  6
CONTINUOUS
 62
1
 66
1
 70
2
  0
VERTEX
  8
0
 10
1610.153051
 20
1458.340388
 70
0
 42
-0.179121
  0
VERTEX
  8
0
 10
1611.487712
 20
1457.850331
 70
0
 42
-0.189055
  0
VERTEX
  8
0
 10
1612.141060
 20
1456.630322
 70
0
  0
SEQEND
  0
LINE
  8
0
  6
CONTINUOUS
 62
1
 10
1642.969523
 20
1436.260388
 11
1628.753650
 21
1436.260388
  0
LINE
  8
0
  6
CONTINUOUS
 62
1
 10
1623.057531
 20
1444.150322
 11
1623.717531
 21
1438.390322
  0
LINE
  8
0
  6
CONTINUOUS
 62
1
 10
1604.865641
 20
1444.150322
 11
1604.205641
 21
1438.390322
  0
LINE
  8
0
  6
CONTINUOUS
 62
1
 10
1644.957531
 20
1437.970455
 11
1645.617531
 21
1443.730455
  0
LINE
  8
0
  6
CONTINUOUS
 62
1
 10
1628.093650
 20
1445.860388
 11
1643.629523
 21
1445.860388
  0
LINE
  8
0
  6
CONTINUOUS
 62
1
 10
1606.853650
 20
1445.860388
 11
1621.069523
 21
1445.860388
  0
POLYLINE
  8
0
  6
CONTINUOUS
 62
1
 66
1
 70
2
  0
VERTEX
  8
0
 10
1644.957531
 20
1437.970455
 70
0
 42
-0.189055
  0
VERTEX
  8
0
 10
1644.304183
 20
1436.750446
 70
0
 42
-0.179121
  0
VERTEX
  8
0
 10
1642.969523
 20
1436.260388
 70
0
  0
SEQEND
  0
POLYLINE
  8
0
  6
CONTINUOUS
 62
1
 66
1
 70
2
  0
VERTEX
  8
0
 10
1628.753650
 20
1436.260388
 70
0
 42
-0.179121
  0
VERTEX
  8
0
 10
1627.418989
 20
1436.750446
 70
0
 42
-0.189055
  0
VERTEX
  8
0
 10
1626.765641
 20
1437.970455
 70
0
  0
SEQEND
  0
POLYLINE
  8
0
  6
CONTINUOUS
 62
1
 66
1
 70
2
  0
VERTEX
  8
0
 10
1626.105641
 20
1443.730455
 70
0
 42
-0.220328
  0
VERTEX
  8
0
 10
1626.604126
 20
1445.221663
 70
0
 42
-0.207373
  0
VERTEX
  8
0
 10
1628.093650
 20
1445.860388
 70
0
  0
SEQEND
  0
POLYLINE
  8
0
  6
CONTINUOUS
 62
1
 66
1
 70
2
  0
VERTEX
  8
0
 10
1643.629523
 20
1445.860388
 70
0
 42
-0.207373
  0
VERTEX
  8
0
 10
1645.119046
 20
1445.221663
 70
0
 42
-0.220328
  0
VERTEX
  8
0
 10
1645.617531
 20
1443.730455
 70
0
  0
SEQEND
  0
POLYLINE
  8
0
  6
CONTINUOUS
 62
1
 66
1
 70
2
  0
VERTEX
  8
0
 10
1621.729523
 20
1436.260388
 70
0
 42
0.207373
  0
VERTEX
  8
0
 10
1623.219046
 20
1436.899114
 70
0
 42
0.220328
  0
VERTEX
  8
0
 10
1623.717531
 20
1438.390322
 70
0
  0
SEQEND
  0
POLYLINE
  8
0
  6
CONTINUOUS
 62
1
 66
1
 70
2
  0
VERTEX
  8
0
 10
1623.057531
 20
1444.150322
 70
0
 42
0.189055
  0
VERTEX
  8
0
 10
1622.404183
 20
1445.370331
 70
0
 42
0.179121
  0
VERTEX
  8
0
 10
1621.069523
 20
1445.860388
 70
0
  0
SEQEND
  0
POLYLINE
  8
0
  6
CONTINUOUS
 62
1
 66
1
 70
2
  0
VERTEX
  8
0
 10
1606.853650
 20
1445.860388
 70
0
 42
0.179121
  0
VERTEX
  8
0
 10
1605.518989
 20
1445.370331
 70
0
 42
0.189055
  0
VERTEX
  8
0
 10
1604.865641
 20
1444.150322
 70
0
  0
SEQEND
  0
POLYLINE
  8
0
  6
CONTINUOUS
 62
1
 66
1
 70
2
  0
VERTEX
  8
0
 10
1604.205641
 20
1438.390322
 70
0
 42
0.220328
  0
VERTEX
  8
0
 10
1604.704126
 20
1436.899114
 70
0
 42
0.207373
  0
VERTEX
  8
0
 10
1606.193650
 20
1436.260388
 70
0
  0
SEQEND
  0
LINE
  8
0
  6
CONTINUOUS
 62
1
 10
1626.765641
 20
1437.970455
 11
1626.105641
 21
1443.730455
  0
LINE
  8
0
  6
CONTINUOUS
 62
1
 10
1621.729523
 20
1436.260388
 11
1606.193650
 21
1436.260388
  0
LINE
  8
0
  6
CONTINUOUS
 62
1
 10
1632.053051
 20
1448.740388
 11
1617.837178
 21
1448.740388
  0
LINE
  8
0
  6
CONTINUOUS
 62
1
 10
1617.177178
 20
1458.340388
 11
1632.713051
 21
1458.340388
  0
LINE
  8
0
  6
CONTINUOUS
 62
1
 10
1615.849170
 20
1450.450455
 11
1615.189170
 21
1456.210455
  0
LINE
  8
0
  6
CONTINUOUS
 62
1
 10
1634.041060
 20
1450.450455
 11
1634.701060
 21
1456.210455
  0
POLYLINE
  8
0
  6
CONTINUOUS
 62
1
 66
1
 70
2
  0
VERTEX
  8
0
 10
1617.177178
 20
1458.340388
 70
0
 42
0.207373
  0
VERTEX
  8
0
 10
1615.687655
 20
1457.701663
 70
0
 42
0.220328
  0
VERTEX
  8
0
 10
1615.189170
 20
1456.210455
 70
0
  0
SEQEND
  0
POLYLINE
  8
0
  6
CONTINUOUS
 62
1
 66
1
 70
2
  0
VERTEX
  8
0
 10
1615.849170
 20
1450.450455
 70
0
 42
0.189055
  0
VERTEX
  8
0
 10
1616.502518
 20
1449.230446
 70
0
 42
0.179121
  0
VERTEX
  8
0
 10
1617.837178
 20
1448.740388
 70
0
  0
SEQEND
  0
POLYLINE
  8
0
  6
CONTINUOUS
 62
1
 66
1
 70
2
  0
VERTEX
  8
0
 10
1632.053051
 20
1448.740388
 70
0
 42
0.179121
  0
VERTEX
  8
0
 10
1633.387712
 20
1449.230446
 70
0
 42
0.189055
  0
VERTEX
  8
0
 10
1634.041060
 20
1450.450455
 70
0
  0
SEQEND
  0
POLYLINE
  8
0
  6
CONTINUOUS
 62
1
 66
1
 70
2
  0
VERTEX
  8
0
 10
1634.701060
 20
1456.210455
 70
0
 42
0.220328
  0
VERTEX
  8
0
 10
1634.202575
 20
1457.701663
 70
0
 42
0.207373
  0
VERTEX
  8
0
 10
1632.713051
 20
1458.340388
 70
0
  0
SEQEND
  0
LINE
  8
0
  6
CONTINUOUS
 62
1
 10
1639.737178
 20
1458.340388
 11
1653.953051
 21
1458.340388
  0
LINE
  8
0
  6
CONTINUOUS
 62
1
 10
1637.749170
 20
1456.630322
 11
1637.089170
 21
1450.870322
  0
LINE
  8
0
  6
CONTINUOUS
 62
1
 10
1655.941060
 20
1456.630322
 11
1656.601060
 21
1450.870322
  0
LINE
  8
0
  6
CONTINUOUS
 62
1
 10
1654.613051
 20
1448.740388
 11
1639.077178
 21
1448.740388
  0
POLYLINE
  8
0
  6
CONTINUOUS
 62
1
 66
1
 70
2
  0
VERTEX
  8
0
 10
1639.737178
 20
1458.340388
 70
0
 42
0.179121
  0
VERTEX
  8
0
 10
1638.402518
 20
1457.850331
 70
0
 42
0.189055
  0
VERTEX
  8
0
 10
1637.749170
 20
1456.630322
 70
0
  0
SEQEND
  0
POLYLINE
  8
0
  6
CONTINUOUS
 62
1
 66
1
 70
2
  0
VERTEX
  8
0
 10
1637.089170
 20
1450.870322
 70
0
 42
0.220328
  0
VERTEX
  8
0
 10
1637.587655
 20
1449.379114
 70
0
 42
0.207373
  0
VERTEX
  8
0
 10
1639.077178
 20
1448.740388
 70
0
  0
SEQEND
  0
POLYLINE
  8
0
  6
CONTINUOUS
 62
1
 66
1
 70
2
  0
VERTEX
  8
0
 10
1654.613051
 20
1448.740388
 70
0
 42
0.207373
  0
VERTEX
  8
0
 10
1656.102575
 20
1449.379114
 70
0
 42
0.220328
  0
VERTEX
  8
0
 10
1656.601060
 20
1450.870322
 70
0
  0
SEQEND
  0
POLYLINE
  8
0
  6
CONTINUOUS
 62
1
 66
1
 70
2
  0
VERTEX
  8
0
 10
1653.953051
 20
1458.340388
 70
0
 42
-0.179121
  0
VERTEX
  8
0
 10
1655.287712
 20
1457.850331
 70
0
 42
-0.189055
  0
VERTEX
  8
0
 10
1655.941060
 20
1456.630322
 70
0
  0
SEQEND
  0
LINE
  8
0
  6
CONTINUOUS
 62
1
 10
1666.857531
 20
1444.150322
 11
1667.517531
 21
1438.390322
  0
LINE
  8
0
  6
CONTINUOUS
 62
1
 10
1648.665641
 20
1444.150322
 11
1648.005641
 21
1438.390322
  0
LINE
  8
0
  6
CONTINUOUS
 62
1
 10
1650.653650
 20
1445.860388
 11
1664.869523
 21
1445.860388
  0
POLYLINE
  8
0
  6
CONTINUOUS
 62
1
 66
1
 70
2
  0
VERTEX
  8
0
 10
1665.529523
 20
1436.260388
 70
0
 42
0.207373
  0
VERTEX
  8
0
 10
1667.019046
 20
1436.899114
 70
0
 42
0.220328
  0
VERTEX
  8
0
 10
1667.517531
 20
1438.390322
 70
0
  0
SEQEND
  0
POLYLINE
  8
0
  6
CONTINUOUS
 62
1
 66
1
 70
2
  0
VERTEX
  8
0
 10
1666.857531
 20
1444.150322
 70
0
 42
0.189055
  0
VERTEX
  8
0
 10
1666.204183
 20
1445.370331
 70
0
 42
0.179121
  0
VERTEX
  8
0
 10
1664.869523
 20
1445.860388
 70
0
  0
SEQEND
  0
POLYLINE
  8
0
  6
CONTINUOUS
 62
1
 66
1
 70
2
  0
VERTEX
  8
0
 10
1650.653650
 20
1445.860388
 70
0
 42
0.179121
  0
VERTEX
  8
0
 10
1649.318989
 20
1445.370331
 70
0
 42
0.189055
  0
VERTEX
  8
0
 10
1648.665641
 20
1444.150322
 70
0
  0
SEQEND
  0
POLYLINE
  8
0
  6
CONTINUOUS
 62
1
 66
1
 70
2
  0
VERTEX
  8
0
 10
1648.005641
 20
1438.390322
 70
0
 42
0.220328
  0
VERTEX
  8
0
 10
1648.504126
 20
1436.899114
 70
0
 42
0.207373
  0
VERTEX
  8
0
 10
1649.993650
 20
1436.260388
 70
0
  0
SEQEND
  0
LINE
  8
0
  6
CONTINUOUS
 62
1
 10
1665.529523
 20
1436.260388
 11
1649.993650
 21
1436.260388
  0
LINE
  8
0
  6
CONTINUOUS
 62
1
 10
1003.977178
 20
1458.340388
 11
1019.513051
 21
1458.340388
  0
LINE
  8
0
  6
CONTINUOUS
 62
1
 10
1026.537178
 20
1458.340388
 11
1040.753051
 21
1458.340388
  0
LINE
  8
0
  6
CONTINUOUS
 62
1
 10
1002.649170
 20
1450.450455
 11
1001.989170
 21
1456.210455
  0
LINE
  8
0
  6
CONTINUOUS
 62
1
 10
1020.841060
 20
1450.450455
 11
1021.501060
 21
1456.210455
  0
LINE
  8
0
  6
CONTINUOUS
 62
1
 10
1024.549170
 20
1456.630322
 11
1023.889170
 21
1450.870322
  0
LINE
  8
0
  6
CONTINUOUS
 62
1
 10
1042.741060
 20
1456.630322
 11
1043.401060
 21
1450.870322
  0
LINE
  8
0
  6
CONTINUOUS
 62
1
 10
1018.853051
 20
1448.740388
 11
1004.637178
 21
1448.740388
  0
LINE
  8
0
  6
CONTINUOUS
 62
1
 10
1041.413051
 20
1448.740388
 11
1025.877178
 21
1448.740388
  0
POLYLINE
  8
0
  6
CONTINUOUS
 62
1
 66
1
 70
2
  0
VERTEX
  8
0
 10
1003.977178
 20
1458.340388
 70
0
 42
0.207373
  0
VERTEX
  8
0
 10
1002.487655
 20
1457.701663
 70
0
 42
0.220328
  0
VERTEX
  8
0
 10
1001.989170
 20
1456.210455
 70
0
  0
SEQEND
  0
POLYLINE
  8
0
  6
CONTINUOUS
 62
1
 66
1
 70
2
  0
VERTEX
  8
0
 10
1002.649170
 20
1450.450455
 70
0
 42
0.189055
  0
VERTEX
  8
0
 10
1003.302518
 20
1449.230446
 70
0
 42
0.179121
  0
VERTEX
  8
0
 10
1004.637178
 20
1448.740388
 70
0
  0
SEQEND
  0
POLYLINE
  8
0
  6
CONTINUOUS
 62
1
 66
1
 70
2
  0
VERTEX
  8
0
 10
1018.853051
 20
1448.740388
 70
0
 42
0.179121
  0
VERTEX
  8
0
 10
1020.187712
 20
1449.230446
 70
0
 42
0.189055
  0
VERTEX
  8
0
 10
1020.841060
 20
1450.450455
 70
0
  0
SEQEND
  0
POLYLINE
  8
0
  6
CONTINUOUS
 62
1
 66
1
 70
2
  0
VERTEX
  8
0
 10
1021.501060
 20
1456.210455
 70
0
 42
0.220328
  0
VERTEX
  8
0
 10
1021.002575
 20
1457.701663
 70
0
 42
0.207373
  0
VERTEX
  8
0
 10
1019.513051
 20
1458.340388
 70
0
  0
SEQEND
  0
POLYLINE
  8
0
  6
CONTINUOUS
 62
1
 66
1
 70
2
  0
VERTEX
  8
0
 10
1024.549170
 20
1456.630322
 70
0
 42
-0.189055
  0
VERTEX
  8
0
 10
1025.202518
 20
1457.850331
 70
0
 42
-0.179121
  0
VERTEX
  8
0
 10
1026.537178
 20
1458.340388
 70
0
  0
SEQEND
  0
POLYLINE
  8
0
  6
CONTINUOUS
 62
1
 66
1
 70
2
  0
VERTEX
  8
0
 10
1040.753051
 20
1458.340388
 70
0
 42
-0.179121
  0
VERTEX
  8
0
 10
1042.087712
 20
1457.850331
 70
0
 42
-0.189055
  0
VERTEX
  8
0
 10
1042.741060
 20
1456.630322
 70
0
  0
SEQEND
  0
POLYLINE
  8
0
  6
CONTINUOUS
 62
1
 66
1
 70
2
  0
VERTEX
  8
0
 10
1043.401060
 20
1450.870322
 70
0
 42
-0.220328
  0
VERTEX
  8
0
 10
1042.902575
 20
1449.379114
 70
0
 42
-0.207373
  0
VERTEX
  8
0
 10
1041.413051
 20
1448.740388
 70
0
  0
SEQEND
  0
POLYLINE
  8
0
  6
CONTINUOUS
 62
1
 66
1
 70
2
  0
VERTEX
  8
0
 10
1025.877178
 20
1448.740388
 70
0
 42
-0.207373
  0
VERTEX
  8
0
 10
1024.387655
 20
1449.379114
 70
0
 42
-0.220328
  0
VERTEX
  8
0
 10
1023.889170
 20
1450.870322
 70
0
  0
SEQEND
  0
LINE
  8
0
  6
CONTINUOUS
 62
1
 10
971.127178
 20
1445.860388
 11
986.663051
 21
1445.860388
  0
LINE
  8
0
  6
CONTINUOUS
 62
1
 10
993.687178
 20
1445.860388
 11
1007.903051
 21
1445.860388
  0
LINE
  8
0
  6
CONTINUOUS
 62
1
 10
969.799170
 20
1437.970455
 11
969.139170
 21
1443.730455
  0
LINE
  8
0
  6
CONTINUOUS
 62
1
 10
987.991060
 20
1437.970455
 11
988.651060
 21
1443.730455
  0
LINE
  8
0
  6
CONTINUOUS
 62
1
 10
991.699170
 20
1444.150322
 11
991.039170
 21
1438.390322
  0
LINE
  8
0
  6
CONTINUOUS
 62
1
 10
1009.891060
 20
1444.150322
 11
1010.551060
 21
1438.390322
  0
LINE
  8
0
  6
CONTINUOUS
 62
1
 10
986.003051
 20
1436.260388
 11
971.787178
 21
1436.260388
  0
LINE
  8
0
  6
CONTINUOUS
 62
1
 10
1008.563051
 20
1436.260388
 11
993.027178
 21
1436.260388
  0
POLYLINE
  8
0
  6
CONTINUOUS
 62
1
 66
1
 70
2
  0
VERTEX
  8
0
 10
971.127178
 20
1445.860388
 70
0
 42
0.207373
  0
VERTEX
  8
0
 10
969.637655
 20
1445.221663
 70
0
 42
0.220328
  0
VERTEX
  8
0
 10
969.139170
 20
1443.730455
 70
0
  0
SEQEND
  0
POLYLINE
  8
0
  6
CONTINUOUS
 62
1
 66
1
 70
2
  0
VERTEX
  8
0
 10
969.799170
 20
1437.970455
 70
0
 42
0.189055
  0
VERTEX
  8
0
 10
970.452518
 20
1436.750446
 70
0
 42
0.179121
  0
VERTEX
  8
0
 10
971.787178
 20
1436.260388
 70
0
  0
SEQEND
  0
POLYLINE
  8
0
  6
CONTINUOUS
 62
1
 66
1
 70
2
  0
VERTEX
  8
0
 10
986.003051
 20
1436.260388
 70
0
 42
0.179121
  0
VERTEX
  8
0
 10
987.337712
 20
1436.750446
 70
0
 42
0.189055
  0
VERTEX
  8
0
 10
987.991060
 20
1437.970455
 70
0
  0
SEQEND
  0
POLYLINE
  8
0
  6
CONTINUOUS
 62
1
 66
1
 70
2
  0
VERTEX
  8
0
 10
988.651060
 20
1443.730455
 70
0
 42
0.220328
  0
VERTEX
  8
0
 10
988.152575
 20
1445.221663
 70
0
 42
0.207373
  0
VERTEX
  8
0
 10
986.663051
 20
1445.860388
 70
0
  0
SEQEND
  0
POLYLINE
  8
0
  6
CONTINUOUS
 62
1
 66
1
 70
2
  0
VERTEX
  8
0
 10
991.699170
 20
1444.150322
 70
0
 42
-0.189055
  0
VERTEX
  8
0
 10
992.352518
 20
1445.370331
 70
0
 42
-0.179121
  0
VERTEX
  8
0
 10
993.687178
 20
1445.860388
 70
0
  0
SEQEND
  0
POLYLINE
  8
0
  6
CONTINUOUS
 62
1
 66
1
 70
2
  0
VERTEX
  8
0
 10
1007.903051
 20
1445.860388
 70
0
 42
-0.179121
  0
VERTEX
  8
0
 10
1009.237712
 20
1445.370331
 70
0
 42
-0.189055
  0
VERTEX
  8
0
 10
1009.891060
 20
1444.150322
 70
0
  0
SEQEND
  0
POLYLINE
  8
0
  6
CONTINUOUS
 62
1
 66
1
 70
2
  0
VERTEX
  8
0
 10
1010.551060
 20
1438.390322
 70
0
 42
-0.220328
  0
VERTEX
  8
0
 10
1010.052575
 20
1436.899114
 70
0
 42
-0.207373
  0
VERTEX
  8
0
 10
1008.563051
 20
1436.260388
 70
0
  0
SEQEND
  0
POLYLINE
  8
0
  6
CONTINUOUS
 62
1
 66
1
 70
2
  0
VERTEX
  8
0
 10
993.027178
 20
1436.260388
 70
0
 42
-0.207373
  0
VERTEX
  8
0
 10
991.537655
 20
1436.899114
 70
0
 42
-0.220328
  0
VERTEX
  8
0
 10
991.039170
 20
1438.390322
 70
0
  0
SEQEND
  0
LINE
  8
0
  6
CONTINUOUS
 62
1
 10
949.887178
 20
1445.860388
 11
964.103051
 21
1445.860388
  0
LINE
  8
0
  6
CONTINUOUS
 62
1
 10
947.899170
 20
1444.150322
 11
947.239170
 21
1438.390322
  0
LINE
  8
0
  6
CONTINUOUS
 62
1
 10
966.091060
 20
1444.150322
 11
966.751060
 21
1438.390322
  0
LINE
  8
0
  6
CONTINUOUS
 62
1
 10
964.763051
 20
1436.260388
 11
949.227178
 21
1436.260388
  0
POLYLINE
  8
0
  6
CONTINUOUS
 62
1
 66
1
 70
2
  0
VERTEX
  8
0
 10
947.899170
 20
1444.150322
 70
0
 42
-0.189055
  0
VERTEX
  8
0
 10
948.552518
 20
1445.370331
 70
0
 42
-0.179121
  0
VERTEX
  8
0
 10
949.887178
 20
1445.860388
 70
0
  0
SEQEND
  0
POLYLINE
  8
0
  6
CONTINUOUS
 62
1
 66
1
 70
2
  0
VERTEX
  8
0
 10
964.103051
 20
1445.860388
 70
0
 42
-0.179121
  0
VERTEX
  8
0
 10
965.437712
 20
1445.370331
 70
0
 42
-0.189055
  0
VERTEX
  8
0
 10
966.091060
 20
1444.150322
 70
0
  0
SEQEND
  0
POLYLINE
  8
0
  6
CONTINUOUS
 62
1
 66
1
 70
2
  0
VERTEX
  8
0
 10
966.751060
 20
1438.390322
 70
0
 42
-0.220328
  0
VERTEX
  8
0
 10
966.252575
 20
1436.899114
 70
0
 42
-0.207373
  0
VERTEX
  8
0
 10
964.763051
 20
1436.260388
 70
0
  0
SEQEND
  0
POLYLINE
  8
0
  6
CONTINUOUS
 62
1
 66
1
 70
2
  0
VERTEX
  8
0
 10
949.227178
 20
1436.260388
 70
0
 42
-0.207373
  0
VERTEX
  8
0
 10
947.737655
 20
1436.899114
 70
0
 42
-0.220328
  0
VERTEX
  8
0
 10
947.239170
 20
1438.390322
 70
0
  0
SEQEND
  0
LINE
  8
0
  6
CONTINUOUS
 62
1
 10
1281.653051
 20
1423.780388
 11
1267.437178
 21
1423.780388
  0
LINE
  8
0
  6
CONTINUOUS
 62
1
 10
1245.537178
 20
1433.380388
 11
1259.753051
 21
1433.380388
  0
LINE
  8
0
  6
CONTINUOUS
 62
1
 10
1266.777178
 20
1433.380388
 11
1282.313051
 21
1433.380388
  0
LINE
  8
0
  6
CONTINUOUS
 62
1
 10
1265.449170
 20
1425.490455
 11
1264.789170
 21
1431.250455
  0
LINE
  8
0
  6
CONTINUOUS
 62
1
 10
1283.641060
 20
1425.490455
 11
1284.301060
 21
1431.250455
  0
LINE
  8
0
  6
CONTINUOUS
 62
1
 10
1243.549170
 20
1431.670322
 11
1242.889170
 21
1425.910322
  0
LINE
  8
0
  6
CONTINUOUS
 62
1
 10
1261.741060
 20
1431.670322
 11
1262.401060
 21
1425.910322
  0
LINE
  8
0
  6
CONTINUOUS
 62
1
 10
1260.413051
 20
1423.780388
 11
1244.877178
 21
1423.780388
  0
POLYLINE
  8
0
  6
CONTINUOUS
 62
1
 66
1
 70
2
  0
VERTEX
  8
0
 10
1245.537178
 20
1433.380388
 70
0
 42
0.179121
  0
VERTEX
  8
0
 10
1244.202518
 20
1432.890331
 70
0
 42
0.189055
  0
VERTEX
  8
0
 10
1243.549170
 20
1431.670322
 70
0
  0
SEQEND
  0
POLYLINE
  8
0
  6
CONTINUOUS
 62
1
 66
1
 70
2
  0
VERTEX
  8
0
 10
1242.889170
 20
1425.910322
 70
0
 42
0.220328
  0
VERTEX
  8
0
 10
1243.387655
 20
1424.419114
 70
0
 42
0.207373
  0
VERTEX
  8
0
 10
1244.877178
 20
1423.780388
 70
0
  0
SEQEND
  0
POLYLINE
  8
0
  6
CONTINUOUS
 62
1
 66
1
 70
2
  0
VERTEX
  8
0
 10
1260.413051
 20
1423.780388
 70
0
 42
0.207373
  0
VERTEX
  8
0
 10
1261.902575
 20
1424.419114
 70
0
 42
0.220328
  0
VERTEX
  8
0
 10
1262.401060
 20
1425.910322
 70
0
  0
SEQEND
  0
POLYLINE
  8
0
  6
CONTINUOUS
 62
1
 66
1
 70
2
  0
VERTEX
  8
0
 10
1259.753051
 20
1433.380388
 70
0
 42
-0.179121
  0
VERTEX
  8
0
 10
1261.087712
 20
1432.890331
 70
0
 42
-0.189055
  0
VERTEX
  8
0
 10
1261.741060
 20
1431.670322
 70
0
  0
SEQEND
  0
POLYLINE
  8
0
  6
CONTINUOUS
 62
1
 66
1
 70
2
  0
VERTEX
  8
0
 10
1266.777178
 20
1433.380388
 70
0
 42
0.207373
  0
VERTEX
  8
0
 10
1265.287655
 20
1432.741663
 70
0
 42
0.220328
  0
VERTEX
  8
0
 10
1264.789170
 20
1431.250455
 70
0
  0
SEQEND
  0
POLYLINE
  8
0
  6
CONTINUOUS
 62
1
 66
1
 70
2
  0
VERTEX
  8
0
 10
1265.449170
 20
1425.490455
 70
0
 42
0.189055
  0
VERTEX
  8
0
 10
1266.102518
 20
1424.270446
 70
0
 42
0.179121
  0
VERTEX
  8
0
 10
1267.437178
 20
1423.780388
 70
0
  0
SEQEND
  0
POLYLINE
  8
0
  6
CONTINUOUS
 62
1
 66
1
 70
2
  0
VERTEX
  8
0
 10
1281.653051
 20
1423.780388
 70
0
 42
0.179121
  0
VERTEX
  8
0
 10
1282.987712
 20
1424.270446
 70
0
 42
0.189055
  0
VERTEX
  8
0
 10
1283.641060
 20
1425.490455
 70
0
  0
SEQEND
  0
POLYLINE
  8
0
  6
CONTINUOUS
 62
1
 66
1
 70
2
  0
VERTEX
  8
0
 10
1284.301060
 20
1431.250455
 70
0
 42
0.220328
  0
VERTEX
  8
0
 10
1283.802575
 20
1432.741663
 70
0
 42
0.207373
  0
VERTEX
  8
0
 10
1282.313051
 20
1433.380388
 70
0
  0
SEQEND
  0
LINE
  8
0
  6
CONTINUOUS
 62
1
 10
1325.453051
 20
1423.780388
 11
1311.237178
 21
1423.780388
  0
LINE
  8
0
  6
CONTINUOUS
 62
1
 10
1289.337178
 20
1433.380388
 11
1303.553051
 21
1433.380388
  0
LINE
  8
0
  6
CONTINUOUS
 62
1
 10
1310.577178
 20
1433.380388
 11
1326.113051
 21
1433.380388
  0
LINE
  8
0
  6
CONTINUOUS
 62
1
 10
1309.249170
 20
1425.490455
 11
1308.589170
 21
1431.250455
  0
LINE
  8
0
  6
CONTINUOUS
 62
1
 10
1327.441060
 20
1425.490455
 11
1328.101060
 21
1431.250455
  0
LINE
  8
0
  6
CONTINUOUS
 62
1
 10
1287.349170
 20
1431.670322
 11
1286.689170
 21
1425.910322
  0
LINE
  8
0
  6
CONTINUOUS
 62
1
 10
1305.541060
 20
1431.670322
 11
1306.201060
 21
1425.910322
  0
LINE
  8
0
  6
CONTINUOUS
 62
1
 10
1304.213051
 20
1423.780388
 11
1288.677178
 21
1423.780388
  0
POLYLINE
  8
0
  6
CONTINUOUS
 62
1
 66
1
 70
2
  0
VERTEX
  8
0
 10
1289.337178
 20
1433.380388
 70
0
 42
0.179121
  0
VERTEX
  8
0
 10
1288.002518
 20
1432.890331
 70
0
 42
0.189055
  0
VERTEX
  8
0
 10
1287.349170
 20
1431.670322
 70
0
  0
SEQEND
  0
POLYLINE
  8
0
  6
CONTINUOUS
 62
1
 66
1
 70
2
  0
VERTEX
  8
0
 10
1286.689170
 20
1425.910322
 70
0
 42
0.220328
  0
VERTEX
  8
0
 10
1287.187655
 20
1424.419114
 70
0
 42
0.207373
  0
VERTEX
  8
0
 10
1288.677178
 20
1423.780388
 70
0
  0
SEQEND
  0
POLYLINE
  8
0
  6
CONTINUOUS
 62
1
 66
1
 70
2
  0
VERTEX
  8
0
 10
1304.213051
 20
1423.780388
 70
0
 42
0.207373
  0
VERTEX
  8
0
 10
1305.702575
 20
1424.419114
 70
0
 42
0.220328
  0
VERTEX
  8
0
 10
1306.201060
 20
1425.910322
 70
0
  0
SEQEND
  0
POLYLINE
  8
0
  6
CONTINUOUS
 62
1
 66
1
 70
2
  0
VERTEX
  8
0
 10
1303.553051
 20
1433.380388
 70
0
 42
-0.179121
  0
VERTEX
  8
0
 10
1304.887712
 20
1432.890331
 70
0
 42
-0.189055
  0
VERTEX
  8
0
 10
1305.541060
 20
1431.670322
 70
0
  0
SEQEND
  0
POLYLINE
  8
0
  6
CONTINUOUS
 62
1
 66
1
 70
2
  0
VERTEX
  8
0
 10
1310.577178
 20
1433.380388
 70
0
 42
0.207373
  0
VERTEX
  8
0
 10
1309.087655
 20
1432.741663
 70
0
 42
0.220328
  0
VERTEX
  8
0
 10
1308.589170
 20
1431.250455
 70
0
  0
SEQEND
  0
POLYLINE
  8
0
  6
CONTINUOUS
 62
1
 66
1
 70
2
  0
VERTEX
  8
0
 10
1309.249170
 20
1425.490455
 70
0
 42
0.189055
  0
VERTEX
  8
0
 10
1309.902518
 20
1424.270446
 70
0
 42
0.179121
  0
VERTEX
  8
0
 10
1311.237178
 20
1423.780388
 70
0
  0
SEQEND
  0
POLYLINE
  8
0
  6
CONTINUOUS
 62
1
 66
1
 70
2
  0
VERTEX
  8
0
 10
1325.453051
 20
1423.780388
 70
0
 42
0.179121
  0
VERTEX
  8
0
 10
1326.787712
 20
1424.270446
 70
0
 42
0.189055
  0
VERTEX
  8
0
 10
1327.441060
 20
1425.490455
 70
0
  0
SEQEND
  0
POLYLINE
  8
0
  6
CONTINUOUS
 62
1
 66
1
 70
2
  0
VERTEX
  8
0
 10
1328.101060
 20
1431.250455
 70
0
 42
0.220328
  0
VERTEX
  8
0
 10
1327.602575
 20
1432.741663
 70
0
 42
0.207373
  0
VERTEX
  8
0
 10
1326.113051
 20
1433.380388
 70
0
  0
SEQEND
  0
LINE
  8
0
  6
CONTINUOUS
 62
1
 10
960.177178
 20
1433.380388
 11
975.713051
 21
1433.380388
  0
LINE
  8
0
  6
CONTINUOUS
 62
1
 10
1237.853051
 20
1423.780388
 11
1223.637178
 21
1423.780388
  0
LINE
  8
0
  6
CONTINUOUS
 62
1
 10
958.849170
 20
1425.490455
 11
958.189170
 21
1431.250455
  0
LINE
  8
0
  6
CONTINUOUS
 62
1
 10
977.041060
 20
1425.490455
 11
977.701060
 21
1431.250455
  0
LINE
  8
0
  6
CONTINUOUS
 62
1
 10
1047.777178
 20
1433.380388
 11
1063.313051
 21
1433.380388
  0
LINE
  8
0
  6
CONTINUOUS
 62
1
 10
1070.337178
 20
1433.380388
 11
1084.553051
 21
1433.380388
  0
LINE
  8
0
  6
CONTINUOUS
 62
1
 10
1091.577178
 20
1433.380388
 11
1107.113051
 21
1433.380388
  0
LINE
  8
0
  6
CONTINUOUS
 62
1
 10
1114.137178
 20
1433.380388
 11
1128.353051
 21
1433.380388
  0
LINE
  8
0
  6
CONTINUOUS
 62
1
 10
1135.377178
 20
1433.380388
 11
1150.913051
 21
1433.380388
  0
LINE
  8
0
  6
CONTINUOUS
 62
1
 10
1157.937178
 20
1433.380388
 11
1172.153051
 21
1433.380388
  0
LINE
  8
0
  6
CONTINUOUS
 62
1
 10
1179.177178
 20
1433.380388
 11
1194.713051
 21
1433.380388
  0
LINE
  8
0
  6
CONTINUOUS
 62
1
 10
1201.737178
 20
1433.380388
 11
1215.953051
 21
1433.380388
  0
LINE
  8
0
  6
CONTINUOUS
 62
1
 10
1222.977178
 20
1433.380388
 11
1238.513051
 21
1433.380388
  0
LINE
  8
0
  6
CONTINUOUS
 62
1
 10
1046.449170
 20
1425.490455
 11
1045.789170
 21
1431.250455
  0
LINE
  8
0
  6
CONTINUOUS
 62
1
 10
1090.249170
 20
1425.490455
 11
1089.589170
 21
1431.250455
  0
LINE
  8
0
  6
CONTINUOUS
 62
1
 10
1134.049170
 20
1425.490455
 11
1133.389170
 21
1431.250455
  0
LINE
  8
0
  6
CONTINUOUS
 62
1
 10
1177.849170
 20
1425.490455
 11
1177.189170
 21
1431.250455
  0
LINE
  8
0
  6
CONTINUOUS
 62
1
 10
1221.649170
 20
1425.490455
 11
1220.989170
 21
1431.250455
  0
LINE
  8
0
  6
CONTINUOUS
 62
1
 10
1064.641060
 20
1425.490455
 11
1065.301060
 21
1431.250455
  0
LINE
  8
0
  6
CONTINUOUS
 62
1
 10
1108.441060
 20
1425.490455
 11
1109.101060
 21
1431.250455
  0
LINE
  8
0
  6
CONTINUOUS
 62
1
 10
1152.241060
 20
1425.490455
 11
1152.901060
 21
1431.250455
  0
LINE
  8
0
  6
CONTINUOUS
 62
1
 10
1196.041060
 20
1425.490455
 11
1196.701060
 21
1431.250455
  0
LINE
  8
0
  6
CONTINUOUS
 62
1
 10
1239.841060
 20
1425.490455
 11
1240.501060
 21
1431.250455
  0
LINE
  8
0
  6
CONTINUOUS
 62
1
 10
998.941060
 20
1431.670322
 11
999.601060
 21
1425.910322
  0
LINE
  8
0
  6
CONTINUOUS
 62
1
 10
1068.349170
 20
1431.670322
 11
1067.689170
 21
1425.910322
  0
LINE
  8
0
  6
CONTINUOUS
 62
1
 10
1086.541060
 20
1431.670322
 11
1087.201060
 21
1425.910322
  0
LINE
  8
0
  6
CONTINUOUS
 62
1
 10
1112.149170
 20
1431.670322
 11
1111.489170
 21
1425.910322
  0
LINE
  8
0
  6
CONTINUOUS
 62
1
 10
1130.341060
 20
1431.670322
 11
1131.001060
 21
1425.910322
  0
LINE
  8
0
  6
CONTINUOUS
 62
1
 10
1155.949170
 20
1431.670322
 11
1155.289170
 21
1425.910322
  0
LINE
  8
0
  6
CONTINUOUS
 62
1
 10
1174.141060
 20
1431.670322
 11
1174.801060
 21
1425.910322
  0
LINE
  8
0
  6
CONTINUOUS
 62
1
 10
1199.749170
 20
1431.670322
 11
1199.089170
 21
1425.910322
  0
LINE
  8
0
  6
CONTINUOUS
 62
1
 10
1217.941060
 20
1431.670322
 11
1218.601060
 21
1425.910322
  0
LINE
  8
0
  6
CONTINUOUS
 62
1
 10
975.053051
 20
1423.780388
 11
960.837178
 21
1423.780388
  0
LINE
  8
0
  6
CONTINUOUS
 62
1
 10
997.613051
 20
1423.780388
 11
982.077178
 21
1423.780388
  0
LINE
  8
0
  6
CONTINUOUS
 62
1
 10
1062.653051
 20
1423.780388
 11
1048.437178
 21
1423.780388
  0
LINE
  8
0
  6
CONTINUOUS
 62
1
 10
1085.213051
 20
1423.780388
 11
1069.677178
 21
1423.780388
  0
LINE
  8
0
  6
CONTINUOUS
 62
1
 10
1106.453051
 20
1423.780388
 11
1092.237178
 21
1423.780388
  0
LINE
  8
0
  6
CONTINUOUS
 62
1
 10
1129.013051
 20
1423.780388
 11
1113.477178
 21
1423.780388
  0
LINE
  8
0
  6
CONTINUOUS
 62
1
 10
1150.253051
 20
1423.780388
 11
1136.037178
 21
1423.780388
  0
LINE
  8
0
  6
CONTINUOUS
 62
1
 10
1172.813051
 20
1423.780388
 11
1157.277178
 21
1423.780388
  0
LINE
  8
0
  6
CONTINUOUS
 62
1
 10
1194.053051
 20
1423.780388
 11
1179.837178
 21
1423.780388
  0
LINE
  8
0
  6
CONTINUOUS
 62
1
 10
1216.613051
 20
1423.780388
 11
1201.077178
 21
1423.780388
  0
POLYLINE
  8
0
  6
CONTINUOUS
 62
1
 66
1
 70
2
  0
VERTEX
  8
0
 10
960.177178
 20
1433.380388
 70
0
 42
0.207373
  0
VERTEX
  8
0
 10
958.687655
 20
1432.741663
 70
0
 42
0.220328
  0
VERTEX
  8
0
 10
958.189170
 20
1431.250455
 70
0
  0
SEQEND
  0
POLYLINE
  8
0
  6
CONTINUOUS
 62
1
 66
1
 70
2
  0
VERTEX
  8
0
 10
958.849170
 20
1425.490455
 70
0
 42
0.189055
  0
VERTEX
  8
0
 10
959.502518
 20
1424.270446
 70
0
 42
0.179121
  0
VERTEX
  8
0
 10
960.837178
 20
1423.780388
 70
0
  0
SEQEND
  0
POLYLINE
  8
0
  6
CONTINUOUS
 62
1
 66
1
 70
2
  0
VERTEX
  8
0
 10
975.053051
 20
1423.780388
 70
0
 42
0.179121
  0
VERTEX
  8
0
 10
976.387712
 20
1424.270446
 70
0
 42
0.189055
  0
VERTEX
  8
0
 10
977.041060
 20
1425.490455
 70
0
  0
SEQEND
  0
POLYLINE
  8
0
  6
CONTINUOUS
 62
1
 66
1
 70
2
  0
VERTEX
  8
0
 10
977.701060
 20
1431.250455
 70
0
 42
0.220328
  0
VERTEX
  8
0
 10
977.202575
 20
1432.741663
 70
0
 42
0.207373
  0
VERTEX
  8
0
 10
975.713051
 20
1433.380388
 70
0
  0
SEQEND
  0
POLYLINE
  8
0
  6
CONTINUOUS
 62
1
 66
1
 70
2
  0
VERTEX
  8
0
 10
980.749170
 20
1431.670322
 70
0
 42
-0.189055
  0
VERTEX
  8
0
 10
981.402518
 20
1432.890331
 70
0
 42
-0.179121
  0
VERTEX
  8
0
 10
982.737178
 20
1433.380388
 70
0
  0
SEQEND
  0
POLYLINE
  8
0
  6
CONTINUOUS
 62
1
 66
1
 70
2
  0
VERTEX
  8
0
 10
996.953051
 20
1433.380388
 70
0
 42
-0.179121
  0
VERTEX
  8
0
 10
998.287712
 20
1432.890331
 70
0
 42
-0.189055
  0
VERTEX
  8
0
 10
998.941060
 20
1431.670322
 70
0
  0
SEQEND
  0
POLYLINE
  8
0
  6
CONTINUOUS
 62
1
 66
1
 70
2
  0
VERTEX
  8
0
 10
999.601060
 20
1425.910322
 70
0
 42
-0.220328
  0
VERTEX
  8
0
 10
999.102575
 20
1424.419114
 70
0
 42
-0.207373
  0
VERTEX
  8
0
 10
997.613051
 20
1423.780388
 70
0
  0
SEQEND
  0
POLYLINE
  8
0
  6
CONTINUOUS
 62
1
 66
1
 70
2
  0
VERTEX
  8
0
 10
982.077178
 20
1423.780388
 70
0
 42
-0.207373
  0
VERTEX
  8
0
 10
980.587655
 20
1424.419114
 70
0
 42
-0.220328
  0
VERTEX
  8
0
 10
980.089170
 20
1425.910322
 70
0
  0
SEQEND
  0
POLYLINE
  8
0
  6
CONTINUOUS
 62
1
 66
1
 70
2
  0
VERTEX
  8
0
 10
1047.777178
 20
1433.380388
 70
0
 42
0.207373
  0
VERTEX
  8
0
 10
1046.287655
 20
1432.741663
 70
0
 42
0.220328
  0
VERTEX
  8
0
 10
1045.789170
 20
1431.250455
 70
0
  0
SEQEND
  0
POLYLINE
  8
0
  6
CONTINUOUS
 62
1
 66
1
 70
2
  0
VERTEX
  8
0
 10
1046.449170
 20
1425.490455
 70
0
 42
0.189055
  0
VERTEX
  8
0
 10
1047.102518
 20
1424.270446
 70
0
 42
0.179121
  0
VERTEX
  8
0
 10
1048.437178
 20
1423.780388
 70
0
  0
SEQEND
  0
POLYLINE
  8
0
  6
CONTINUOUS
 62
1
 66
1
 70
2
  0
VERTEX
  8
0
 10
1062.653051
 20
1423.780388
 70
0
 42
0.179121
  0
VERTEX
  8
0
 10
1063.987712
 20
1424.270446
 70
0
 42
0.189055
  0
VERTEX
  8
0
 10
1064.641060
 20
1425.490455
 70
0
  0
SEQEND
  0
POLYLINE
  8
0
  6
CONTINUOUS
 62
1
 66
1
 70
2
  0
VERTEX
  8
0
 10
1065.301060
 20
1431.250455
 70
0
 42
0.220328
  0
VERTEX
  8
0
 10
1064.802575
 20
1432.741663
 70
0
 42
0.207373
  0
VERTEX
  8
0
 10
1063.313051
 20
1433.380388
 70
0
  0
SEQEND
  0
POLYLINE
  8
0
  6
CONTINUOUS
 62
1
 66
1
 70
2
  0
VERTEX
  8
0
 10
1068.349170
 20
1431.670322
 70
0
 42
-0.189055
  0
VERTEX
  8
0
 10
1069.002518
 20
1432.890331
 70
0
 42
-0.179121
  0
VERTEX
  8
0
 10
1070.337178
 20
1433.380388
 70
0
  0
SEQEND
  0
POLYLINE
  8
0
  6
CONTINUOUS
 62
1
 66
1
 70
2
  0
VERTEX
  8
0
 10
1084.553051
 20
1433.380388
 70
0
 42
-0.179121
  0
VERTEX
  8
0
 10
1085.887712
 20
1432.890331
 70
0
 42
-0.189055
  0
VERTEX
  8
0
 10
1086.541060
 20
1431.670322
 70
0
  0
SEQEND
  0
POLYLINE
  8
0
  6
CONTINUOUS
 62
1
 66
1
 70
2
  0
VERTEX
  8
0
 10
1087.201060
 20
1425.910322
 70
0
 42
-0.220328
  0
VERTEX
  8
0
 10
1086.702575
 20
1424.419114
 70
0
 42
-0.207373
  0
VERTEX
  8
0
 10
1085.213051
 20
1423.780388
 70
0
  0
SEQEND
  0
POLYLINE
  8
0
  6
CONTINUOUS
 62
1
 66
1
 70
2
  0
VERTEX
  8
0
 10
1069.677178
 20
1423.780388
 70
0
 42
-0.207373
  0
VERTEX
  8
0
 10
1068.187655
 20
1424.419114
 70
0
 42
-0.220328
  0
VERTEX
  8
0
 10
1067.689170
 20
1425.910322
 70
0
  0
SEQEND
  0
POLYLINE
  8
0
  6
CONTINUOUS
 62
1
 66
1
 70
2
  0
VERTEX
  8
0
 10
1090.249170
 20
1425.490455
 70
0
 42
0.189055
  0
VERTEX
  8
0
 10
1090.902518
 20
1424.270446
 70
0
 42
0.179121
  0
VERTEX
  8
0
 10
1092.237178
 20
1423.780388
 70
0
  0
SEQEND
  0
POLYLINE
  8
0
  6
CONTINUOUS
 62
1
 66
1
 70
2
  0
VERTEX
  8
0
 10
1106.453051
 20
1423.780388
 70
0
 42
0.179121
  0
VERTEX
  8
0
 10
1107.787712
 20
1424.270446
 70
0
 42
0.189055
  0
VERTEX
  8
0
 10
1108.441060
 20
1425.490455
 70
0
  0
SEQEND
  0
POLYLINE
  8
0
  6
CONTINUOUS
 62
1
 66
1
 70
2
  0
VERTEX
  8
0
 10
1109.101060
 20
1431.250455
 70
0
 42
0.220328
  0
VERTEX
  8
0
 10
1108.602575
 20
1432.741663
 70
0
 42
0.207373
  0
VERTEX
  8
0
 10
1107.113051
 20
1433.380388
 70
0
  0
SEQEND
  0
POLYLINE
  8
0
  6
CONTINUOUS
 62
1
 66
1
 70
2
  0
VERTEX
  8
0
 10
1091.577178
 20
1433.380388
 70
0
 42
0.207373
  0
VERTEX
  8
0
 10
1090.087655
 20
1432.741663
 70
0
 42
0.220328
  0
VERTEX
  8
0
 10
1089.589170
 20
1431.250455
 70
0
  0
SEQEND
  0
POLYLINE
  8
0
  6
CONTINUOUS
 62
1
 66
1
 70
2
  0
VERTEX
  8
0
 10
1114.137178
 20
1433.380388
 70
0
 42
0.179121
  0
VERTEX
  8
0
 10
1112.802518
 20
1432.890331
 70
0
 42
0.189055
  0
VERTEX
  8
0
 10
1112.149170
 20
1431.670322
 70
0
  0
SEQEND
  0
POLYLINE
  8
0
  6
CONTINUOUS
 62
1
 66
1
 70
2
  0
VERTEX
  8
0
 10
1111.489170
 20
1425.910322
 70
0
 42
0.220328
  0
VERTEX
  8
0
 10
1111.987655
 20
1424.419114
 70
0
 42
0.207373
  0
VERTEX
  8
0
 10
1113.477178
 20
1423.780388
 70
0
  0
SEQEND
  0
POLYLINE
  8
0
  6
CONTINUOUS
 62
1
 66
1
 70
2
  0
VERTEX
  8
0
 10
1129.013051
 20
1423.780388
 70
0
 42
0.207373
  0
VERTEX
  8
0
 10
1130.502575
 20
1424.419114
 70
0
 42
0.220328
  0
VERTEX
  8
0
 10
1131.001060
 20
1425.910322
 70
0
  0
SEQEND
  0
POLYLINE
  8
0
  6
CONTINUOUS
 62
1
 66
1
 70
2
  0
VERTEX
  8
0
 10
1130.341060
 20
1431.670322
 70
0
 42
0.189055
  0
VERTEX
  8
0
 10
1129.687712
 20
1432.890331
 70
0
 42
0.179121
  0
VERTEX
  8
0
 10
1128.353051
 20
1433.380388
 70
0
  0
SEQEND
  0
POLYLINE
  8
0
  6
CONTINUOUS
 62
1
 66
1
 70
2
  0
VERTEX
  8
0
 10
1133.389170
 20
1431.250455
 70
0
 42
-0.220328
  0
VERTEX
  8
0
 10
1133.887655
 20
1432.741663
 70
0
 42
-0.207373
  0
VERTEX
  8
0
 10
1135.377178
 20
1433.380388
 70
0
  0
SEQEND
  0
POLYLINE
  8
0
  6
CONTINUOUS
 62
1
 66
1
 70
2
  0
VERTEX
  8
0
 10
1150.913051
 20
1433.380388
 70
0
 42
-0.207373
  0
VERTEX
  8
0
 10
1152.402575
 20
1432.741663
 70
0
 42
-0.220328
  0
VERTEX
  8
0
 10
1152.901060
 20
1431.250455
 70
0
  0
SEQEND
  0
POLYLINE
  8
0
  6
CONTINUOUS
 62
1
 66
1
 70
2
  0
VERTEX
  8
0
 10
1152.241060
 20
1425.490455
 70
0
 42
-0.189055
  0
VERTEX
  8
0
 10
1151.587712
 20
1424.270446
 70
0
 42
-0.179121
  0
VERTEX
  8
0
 10
1150.253051
 20
1423.780388
 70
0
  0
SEQEND
  0
POLYLINE
  8
0
  6
CONTINUOUS
 62
1
 66
1
 70
2
  0
VERTEX
  8
0
 10
1136.037178
 20
1423.780388
 70
0
 42
-0.179121
  0
VERTEX
  8
0
 10
1134.702518
 20
1424.270446
 70
0
 42
-0.189055
  0
VERTEX
  8
0
 10
1134.049170
 20
1425.490455
 70
0
  0
SEQEND
  0
POLYLINE
  8
0
  6
CONTINUOUS
 62
1
 66
1
 70
2
  0
VERTEX
  8
0
 10
1155.289170
 20
1425.910322
 70
0
 42
0.220328
  0
VERTEX
  8
0
 10
1155.787655
 20
1424.419114
 70
0
 42
0.207373
  0
VERTEX
  8
0
 10
1157.277178
 20
1423.780388
 70
0
  0
SEQEND
  0
POLYLINE
  8
0
  6
CONTINUOUS
 62
1
 66
1
 70
2
  0
VERTEX
  8
0
 10
1172.813051
 20
1423.780388
 70
0
 42
0.207373
  0
VERTEX
  8
0
 10
1174.302575
 20
1424.419114
 70
0
 42
0.220328
  0
VERTEX
  8
0
 10
1174.801060
 20
1425.910322
 70
0
  0
SEQEND
  0
POLYLINE
  8
0
  6
CONTINUOUS
 62
1
 66
1
 70
2
  0
VERTEX
  8
0
 10
1174.141060
 20
1431.670322
 70
0
 42
0.189055
  0
VERTEX
  8
0
 10
1173.487712
 20
1432.890331
 70
0
 42
0.179121
  0
VERTEX
  8
0
 10
1172.153051
 20
1433.380388
 70
0
  0
SEQEND
  0
POLYLINE
  8
0
  6
CONTINUOUS
 62
1
 66
1
 70
2
  0
VERTEX
  8
0
 10
1157.937178
 20
1433.380388
 70
0
 42
0.179121
  0
VERTEX
  8
0
 10
1156.602518
 20
1432.890331
 70
0
 42
0.189055
  0
VERTEX
  8
0
 10
1155.949170
 20
1431.670322
 70
0
  0
SEQEND
  0
POLYLINE
  8
0
  6
CONTINUOUS
 62
1
 66
1
 70
2
  0
VERTEX
  8
0
 10
1179.177178
 20
1433.380388
 70
0
 42
0.207373
  0
VERTEX
  8
0
 10
1177.687655
 20
1432.741663
 70
0
 42
0.220328
  0
VERTEX
  8
0
 10
1177.189170
 20
1431.250455
 70
0
  0
SEQEND
  0
POLYLINE
  8
0
  6
CONTINUOUS
 62
1
 66
1
 70
2
  0
VERTEX
  8
0
 10
1177.849170
 20
1425.490455
 70
0
 42
0.189055
  0
VERTEX
  8
0
 10
1178.502518
 20
1424.270446
 70
0
 42
0.179121
  0
VERTEX
  8
0
 10
1179.837178
 20
1423.780388
 70
0
  0
SEQEND
  0
POLYLINE
  8
0
  6
CONTINUOUS
 62
1
 66
1
 70
2
  0
VERTEX
  8
0
 10
1194.053051
 20
1423.780388
 70
0
 42
0.179121
  0
VERTEX
  8
0
 10
1195.387712
 20
1424.270446
 70
0
 42
0.189055
  0
VERTEX
  8
0
 10
1196.041060
 20
1425.490455
 70
0
  0
SEQEND
  0
POLYLINE
  8
0
  6
CONTINUOUS
 62
1
 66
1
 70
2
  0
VERTEX
  8
0
 10
1196.701060
 20
1431.250455
 70
0
 42
0.220328
  0
VERTEX
  8
0
 10
1196.202575
 20
1432.741663
 70
0
 42
0.207373
  0
VERTEX
  8
0
 10
1194.713051
 20
1433.380388
 70
0
  0
SEQEND
  0
POLYLINE
  8
0
  6
CONTINUOUS
 62
1
 66
1
 70
2
  0
VERTEX
  8
0
 10
1201.737178
 20
1433.380388
 70
0
 42
0.179121
  0
VERTEX
  8
0
 10
1200.402518
 20
1432.890331
 70
0
 42
0.189055
  0
VERTEX
  8
0
 10
1199.749170
 20
1431.670322
 70
0
  0
SEQEND
  0
POLYLINE
  8
0
  6
CONTINUOUS
 62
1
 66
1
 70
2
  0
VERTEX
  8
0
 10
1199.089170
 20
1425.910322
 70
0
 42
0.220328
  0
VERTEX
  8
0
 10
1199.587655
 20
1424.419114
 70
0
 42
0.207373
  0
VERTEX
  8
0
 10
1201.077178
 20
1423.780388
 70
0
  0
SEQEND
  0
POLYLINE
  8
0
  6
CONTINUOUS
 62
1
 66
1
 70
2
  0
VERTEX
  8
0
 10
1216.613051
 20
1423.780388
 70
0
 42
0.207373
  0
VERTEX
  8
0
 10
1218.102575
 20
1424.419114
 70
0
 42
0.220328
  0
VERTEX
  8
0
 10
1218.601060
 20
1425.910322
 70
0
  0
SEQEND
  0
POLYLINE
  8
0
  6
CONTINUOUS
 62
1
 66
1
 70
2
  0
VERTEX
  8
0
 10
1215.953051
 20
1433.380388
 70
0
 42
-0.179121
  0
VERTEX
  8
0
 10
1217.287712
 20
1432.890331
 70
0
 42
-0.189055
  0
VERTEX
  8
0
 10
1217.941060
 20
1431.670322
 70
0
  0
SEQEND
  0
POLYLINE
  8
0
  6
CONTINUOUS
 62
1
 66
1
 70
2
  0
VERTEX
  8
0
 10
1222.977178
 20
1433.380388
 70
0
 42
0.207373
  0
VERTEX
  8
0
 10
1221.487655
 20
1432.741663
 70
0
 42
0.220328
  0
VERTEX
  8
0
 10
1220.989170
 20
1431.250455
 70
0
  0
SEQEND
  0
POLYLINE
  8
0
  6
CONTINUOUS
 62
1
 66
1
 70
2
  0
VERTEX
  8
0
 10
1221.649170
 20
1425.490455
 70
0
 42
0.189055
  0
VERTEX
  8
0
 10
1222.302518
 20
1424.270446
 70
0
 42
0.179121
  0
VERTEX
  8
0
 10
1223.637178
 20
1423.780388
 70
0
  0
SEQEND
  0
POLYLINE
  8
0
  6
CONTINUOUS
 62
1
 66
1
 70
2
  0
VERTEX
  8
0
 10
1237.853051
 20
1423.780388
 70
0
 42
0.179121
  0
VERTEX
  8
0
 10
1239.187712
 20
1424.270446
 70
0
 42
0.189055
  0
VERTEX
  8
0
 10
1239.841060
 20
1425.490455
 70
0
  0
SEQEND
  0
POLYLINE
  8
0
  6
CONTINUOUS
 62
1
 66
1
 70
2
  0
VERTEX
  8
0
 10
1240.501060
 20
1431.250455
 70
0
 42
0.220328
  0
VERTEX
  8
0
 10
1240.002575
 20
1432.741663
 70
0
 42
0.207373
  0
VERTEX
  8
0
 10
1238.513051
 20
1433.380388
 70
0
  0
SEQEND
  0
LINE
  8
0
  6
CONTINUOUS
 62
1
 10
980.749170
 20
1431.670322
 11
980.089170
 21
1425.910322
  0
LINE
  8
0
  6
CONTINUOUS
 62
1
 10
982.737178
 20
1433.380388
 11
996.953051
 21
1433.380388
  0
LINE
  8
0
  6
CONTINUOUS
 62
1
 10
1369.253051
 20
1423.780388
 11
1355.037178
 21
1423.780388
  0
LINE
  8
0
  6
CONTINUOUS
 62
1
 10
1333.137178
 20
1433.380388
 11
1347.353051
 21
1433.380388
  0
LINE
  8
0
  6
CONTINUOUS
 62
1
 10
1354.377178
 20
1433.380388
 11
1369.913051
 21
1433.380388
  0
LINE
  8
0
  6
CONTINUOUS
 62
1
 10
1353.049170
 20
1425.490455
 11
1352.389170
 21
1431.250455
  0
LINE
  8
0
  6
CONTINUOUS
 62
1
 10
1371.241060
 20
1425.490455
 11
1371.901060
 21
1431.250455
  0
LINE
  8
0
  6
CONTINUOUS
 62
1
 10
1331.149170
 20
1431.670322
 11
1330.489170
 21
1425.910322
  0
LINE
  8
0
  6
CONTINUOUS
 62
1
 10
1349.341060
 20
1431.670322
 11
1350.001060
 21
1425.910322
  0
LINE
  8
0
  6
CONTINUOUS
 62
1
 10
1348.013051
 20
1423.780388
 11
1332.477178
 21
1423.780388
  0
POLYLINE
  8
0
  6
CONTINUOUS
 62
1
 66
1
 70
2
  0
VERTEX
  8
0
 10
1333.137178
 20
1433.380388
 70
0
 42
0.179121
  0
VERTEX
  8
0
 10
1331.802518
 20
1432.890331
 70
0
 42
0.189055
  0
VERTEX
  8
0
 10
1331.149170
 20
1431.670322
 70
0
  0
SEQEND
  0
POLYLINE
  8
0
  6
CONTINUOUS
 62
1
 66
1
 70
2
  0
VERTEX
  8
0
 10
1330.489170
 20
1425.910322
 70
0
 42
0.220328
  0
VERTEX
  8
0
 10
1330.987655
 20
1424.419114
 70
0
 42
0.207373
  0
VERTEX
  8
0
 10
1332.477178
 20
1423.780388
 70
0
  0
SEQEND
  0
POLYLINE
  8
0
  6
CONTINUOUS
 62
1
 66
1
 70
2
  0
VERTEX
  8
0
 10
1348.013051
 20
1423.780388
 70
0
 42
0.207373
  0
VERTEX
  8
0
 10
1349.502575
 20
1424.419114
 70
0
 42
0.220328
  0
VERTEX
  8
0
 10
1350.001060
 20
1425.910322
 70
0
  0
SEQEND
  0
POLYLINE
  8
0
  6
CONTINUOUS
 62
1
 66
1
 70
2
  0
VERTEX
  8
0
 10
1347.353051
 20
1433.380388
 70
0
 42
-0.179121
  0
VERTEX
  8
0
 10
1348.687712
 20
1432.890331
 70
0
 42
-0.189055
  0
VERTEX
  8
0
 10
1349.341060
 20
1431.670322
 70
0
  0
SEQEND
  0
POLYLINE
  8
0
  6
CONTINUOUS
 62
1
 66
1
 70
2
  0
VERTEX
  8
0
 10
1354.377178
 20
1433.380388
 70
0
 42
0.207373
  0
VERTEX
  8
0
 10
1352.887655
 20
1432.741663
 70
0
 42
0.220328
  0
VERTEX
  8
0
 10
1352.389170
 20
1431.250455
 70
0
  0
SEQEND
  0
POLYLINE
  8
0
  6
CONTINUOUS
 62
1
 66
1
 70
2
  0
VERTEX
  8
0
 10
1353.049170
 20
1425.490455
 70
0
 42
0.189055
  0
VERTEX
  8
0
 10
1353.702518
 20
1424.270446
 70
0
 42
0.179121
  0
VERTEX
  8
0
 10
1355.037178
 20
1423.780388
 70
0
  0
SEQEND
  0
POLYLINE
  8
0
  6
CONTINUOUS
 62
1
 66
1
 70
2
  0
VERTEX
  8
0
 10
1369.253051
 20
1423.780388
 70
0
 42
0.179121
  0
VERTEX
  8
0
 10
1370.587712
 20
1424.270446
 70
0
 42
0.189055
  0
VERTEX
  8
0
 10
1371.241060
 20
1425.490455
 70
0
  0
SEQEND
  0
POLYLINE
  8
0
  6
CONTINUOUS
 62
1
 66
1
 70
2
  0
VERTEX
  8
0
 10
1371.901060
 20
1431.250455
 70
0
 42
0.220328
  0
VERTEX
  8
0
 10
1371.402575
 20
1432.741663
 70
0
 42
0.207373
  0
VERTEX
  8
0
 10
1369.913051
 20
1433.380388
 70
0
  0
SEQEND
  0
LINE
  8
0
  6
CONTINUOUS
 62
1
 10
1413.053051
 20
1423.780388
 11
1398.837178
 21
1423.780388
  0
LINE
  8
0
  6
CONTINUOUS
 62
1
 10
1376.937178
 20
1433.380388
 11
1391.153051
 21
1433.380388
  0
LINE
  8
0
  6
CONTINUOUS
 62
1
 10
1398.177178
 20
1433.380388
 11
1413.713051
 21
1433.380388
  0
LINE
  8
0
  6
CONTINUOUS
 62
1
 10
1396.849170
 20
1425.490455
 11
1396.189170
 21
1431.250455
  0
LINE
  8
0
  6
CONTINUOUS
 62
1
 10
1415.041060
 20
1425.490455
 11
1415.701060
 21
1431.250455
  0
LINE
  8
0
  6
CONTINUOUS
 62
1
 10
1374.949170
 20
1431.670322
 11
1374.289170
 21
1425.910322
  0
LINE
  8
0
  6
CONTINUOUS
 62
1
 10
1393.141060
 20
1431.670322
 11
1393.801060
 21
1425.910322
  0
LINE
  8
0
  6
CONTINUOUS
 62
1
 10
1391.813051
 20
1423.780388
 11
1376.277178
 21
1423.780388
  0
POLYLINE
  8
0
  6
CONTINUOUS
 62
1
 66
1
 70
2
  0
VERTEX
  8
0
 10
1376.937178
 20
1433.380388
 70
0
 42
0.179121
  0
VERTEX
  8
0
 10
1375.602518
 20
1432.890331
 70
0
 42
0.189055
  0
VERTEX
  8
0
 10
1374.949170
 20
1431.670322
 70
0
  0
SEQEND
  0
POLYLINE
  8
0
  6
CONTINUOUS
 62
1
 66
1
 70
2
  0
VERTEX
  8
0
 10
1374.289170
 20
1425.910322
 70
0
 42
0.220328
  0
VERTEX
  8
0
 10
1374.787655
 20
1424.419114
 70
0
 42
0.207373
  0
VERTEX
  8
0
 10
1376.277178
 20
1423.780388
 70
0
  0
SEQEND
  0
POLYLINE
  8
0
  6
CONTINUOUS
 62
1
 66
1
 70
2
  0
VERTEX
  8
0
 10
1391.813051
 20
1423.780388
 70
0
 42
0.207373
  0
VERTEX
  8
0
 10
1393.302575
 20
1424.419114
 70
0
 42
0.220328
  0
VERTEX
  8
0
 10
1393.801060
 20
1425.910322
 70
0
  0
SEQEND
  0
POLYLINE
  8
0
  6
CONTINUOUS
 62
1
 66
1
 70
2
  0
VERTEX
  8
0
 10
1391.153051
 20
1433.380388
 70
0
 42
-0.179121
  0
VERTEX
  8
0
 10
1392.487712
 20
1432.890331
 70
0
 42
-0.189055
  0
VERTEX
  8
0
 10
1393.141060
 20
1431.670322
 70
0
  0
SEQEND
  0
POLYLINE
  8
0
  6
CONTINUOUS
 62
1
 66
1
 70
2
  0
VERTEX
  8
0
 10
1398.177178
 20
1433.380388
 70
0
 42
0.207373
  0
VERTEX
  8
0
 10
1396.687655
 20
1432.741663
 70
0
 42
0.220328
  0
VERTEX
  8
0
 10
1396.189170
 20
1431.250455
 70
0
  0
SEQEND
  0
POLYLINE
  8
0
  6
CONTINUOUS
 62
1
 66
1
 70
2
  0
VERTEX
  8
0
 10
1396.849170
 20
1425.490455
 70
0
 42
0.189055
  0
VERTEX
  8
0
 10
1397.502518
 20
1424.270446
 70
0
 42
0.179121
  0
VERTEX
  8
0
 10
1398.837178
 20
1423.780388
 70
0
  0
SEQEND
  0
POLYLINE
  8
0
  6
CONTINUOUS
 62
1
 66
1
 70
2
  0
VERTEX
  8
0
 10
1413.053051
 20
1423.780388
 70
0
 42
0.179121
  0
VERTEX
  8
0
 10
1414.387712
 20
1424.270446
 70
0
 42
0.189055
  0
VERTEX
  8
0
 10
1415.041060
 20
1425.490455
 70
0
  0
SEQEND
  0
POLYLINE
  8
0
  6
CONTINUOUS
 62
1
 66
1
 70
2
  0
VERTEX
  8
0
 10
1415.701060
 20
1431.250455
 70
0
 42
0.220328
  0
VERTEX
  8
0
 10
1415.202575
 20
1432.741663
 70
0
 42
0.207373
  0
VERTEX
  8
0
 10
1413.713051
 20
1433.380388
 70
0
  0
SEQEND
  0
LINE
  8
0
  6
CONTINUOUS
 62
1
 10
1456.853051
 20
1423.780388
 11
1442.637178
 21
1423.780388
  0
LINE
  8
0
  6
CONTINUOUS
 62
1
 10
1420.737178
 20
1433.380388
 11
1434.953051
 21
1433.380388
  0
LINE
  8
0
  6
CONTINUOUS
 62
1
 10
1441.977178
 20
1433.380388
 11
1457.513051
 21
1433.380388
  0
LINE
  8
0
  6
CONTINUOUS
 62
1
 10
1440.649170
 20
1425.490455
 11
1439.989170
 21
1431.250455
  0
LINE
  8
0
  6
CONTINUOUS
 62
1
 10
1458.841060
 20
1425.490455
 11
1459.501060
 21
1431.250455
  0
LINE
  8
0
  6
CONTINUOUS
 62
1
 10
1418.749170
 20
1431.670322
 11
1418.089170
 21
1425.910322
  0
LINE
  8
0
  6
CONTINUOUS
 62
1
 10
1436.941060
 20
1431.670322
 11
1437.601060
 21
1425.910322
  0
LINE
  8
0
  6
CONTINUOUS
 62
1
 10
1435.613051
 20
1423.780388
 11
1420.077178
 21
1423.780388
  0
POLYLINE
  8
0
  6
CONTINUOUS
 62
1
 66
1
 70
2
  0
VERTEX
  8
0
 10
1420.737178
 20
1433.380388
 70
0
 42
0.179121
  0
VERTEX
  8
0
 10
1419.402518
 20
1432.890331
 70
0
 42
0.189055
  0
VERTEX
  8
0
 10
1418.749170
 20
1431.670322
 70
0
  0
SEQEND
  0
POLYLINE
  8
0
  6
CONTINUOUS
 62
1
 66
1
 70
2
  0
VERTEX
  8
0
 10
1418.089170
 20
1425.910322
 70
0
 42
0.220328
  0
VERTEX
  8
0
 10
1418.587655
 20
1424.419114
 70
0
 42
0.207373
  0
VERTEX
  8
0
 10
1420.077178
 20
1423.780388
 70
0
  0
SEQEND
  0
POLYLINE
  8
0
  6
CONTINUOUS
 62
1
 66
1
 70
2
  0
VERTEX
  8
0
 10
1435.613051
 20
1423.780388
 70
0
 42
0.207373
  0
VERTEX
  8
0
 10
1437.102575
 20
1424.419114
 70
0
 42
0.220328
  0
VERTEX
  8
0
 10
1437.601060
 20
1425.910322
 70
0
  0
SEQEND
  0
POLYLINE
  8
0
  6
CONTINUOUS
 62
1
 66
1
 70
2
  0
VERTEX
  8
0
 10
1434.953051
 20
1433.380388
 70
0
 42
-0.179121
  0
VERTEX
  8
0
 10
1436.287712
 20
1432.890331
 70
0
 42
-0.189055
  0
VERTEX
  8
0
 10
1436.941060
 20
1431.670322
 70
0
  0
SEQEND
  0
POLYLINE
  8
0
  6
CONTINUOUS
 62
1
 66
1
 70
2
  0
VERTEX
  8
0
 10
1441.977178
 20
1433.380388
 70
0
 42
0.207373
  0
VERTEX
  8
0
 10
1440.487655
 20
1432.741663
 70
0
 42
0.220328
  0
VERTEX
  8
0
 10
1439.989170
 20
1431.250455
 70
0
  0
SEQEND
  0
POLYLINE
  8
0
  6
CONTINUOUS
 62
1
 66
1
 70
2
  0
VERTEX
  8
0
 10
1440.649170
 20
1425.490455
 70
0
 42
0.189055
  0
VERTEX
  8
0
 10
1441.302518
 20
1424.270446
 70
0
 42
0.179121
  0
VERTEX
  8
0
 10
1442.637178
 20
1423.780388
 70
0
  0
SEQEND
  0
POLYLINE
  8
0
  6
CONTINUOUS
 62
1
 66
1
 70
2
  0
VERTEX
  8
0
 10
1456.853051
 20
1423.780388
 70
0
 42
0.179121
  0
VERTEX
  8
0
 10
1458.187712
 20
1424.270446
 70
0
 42
0.189055
  0
VERTEX
  8
0
 10
1458.841060
 20
1425.490455
 70
0
  0
SEQEND
  0
POLYLINE
  8
0
  6
CONTINUOUS
 62
1
 66
1
 70
2
  0
VERTEX
  8
0
 10
1459.501060
 20
1431.250455
 70
0
 42
0.220328
  0
VERTEX
  8
0
 10
1459.002575
 20
1432.741663
 70
0
 42
0.207373
  0
VERTEX
  8
0
 10
1457.513051
 20
1433.380388
 70
0
  0
SEQEND
  0
LINE
  8
0
  6
CONTINUOUS
 62
1
 10
1500.653051
 20
1423.780388
 11
1486.437178
 21
1423.780388
  0
LINE
  8
0
  6
CONTINUOUS
 62
1
 10
1464.537178
 20
1433.380388
 11
1478.753051
 21
1433.380388
  0
LINE
  8
0
  6
CONTINUOUS
 62
1
 10
1485.777178
 20
1433.380388
 11
1501.313051
 21
1433.380388
  0
LINE
  8
0
  6
CONTINUOUS
 62
1
 10
1484.449170
 20
1425.490455
 11
1483.789170
 21
1431.250455
  0
LINE
  8
0
  6
CONTINUOUS
 62
1
 10
1502.641060
 20
1425.490455
 11
1503.301060
 21
1431.250455
  0
LINE
  8
0
  6
CONTINUOUS
 62
1
 10
1462.549170
 20
1431.670322
 11
1461.889170
 21
1425.910322
  0
LINE
  8
0
  6
CONTINUOUS
 62
1
 10
1480.741060
 20
1431.670322
 11
1481.401060
 21
1425.910322
  0
LINE
  8
0
  6
CONTINUOUS
 62
1
 10
1479.413051
 20
1423.780388
 11
1463.877178
 21
1423.780388
  0
POLYLINE
  8
0
  6
CONTINUOUS
 62
1
 66
1
 70
2
  0
VERTEX
  8
0
 10
1464.537178
 20
1433.380388
 70
0
 42
0.179121
  0
VERTEX
  8
0
 10
1463.202518
 20
1432.890331
 70
0
 42
0.189055
  0
VERTEX
  8
0
 10
1462.549170
 20
1431.670322
 70
0
  0
SEQEND
  0
POLYLINE
  8
0
  6
CONTINUOUS
 62
1
 66
1
 70
2
  0
VERTEX
  8
0
 10
1461.889170
 20
1425.910322
 70
0
 42
0.220328
  0
VERTEX
  8
0
 10
1462.387655
 20
1424.419114
 70
0
 42
0.207373
  0
VERTEX
  8
0
 10
1463.877178
 20
1423.780388
 70
0
  0
SEQEND
  0
POLYLINE
  8
0
  6
CONTINUOUS
 62
1
 66
1
 70
2
  0
VERTEX
  8
0
 10
1479.413051
 20
1423.780388
 70
0
 42
0.207373
  0
VERTEX
  8
0
 10
1480.902575
 20
1424.419114
 70
0
 42
0.220328
  0
VERTEX
  8
0
 10
1481.401060
 20
1425.910322
 70
0
  0
SEQEND
  0
POLYLINE
  8
0
  6
CONTINUOUS
 62
1
 66
1
 70
2
  0
VERTEX
  8
0
 10
1478.753051
 20
1433.380388
 70
0
 42
-0.179121
  0
VERTEX
  8
0
 10
1480.087712
 20
1432.890331
 70
0
 42
-0.189055
  0
VERTEX
  8
0
 10
1480.741060
 20
1431.670322
 70
0
  0
SEQEND
  0
POLYLINE
  8
0
  6
CONTINUOUS
 62
1
 66
1
 70
2
  0
VERTEX
  8
0
 10
1485.777178
 20
1433.380388
 70
0
 42
0.207373
  0
VERTEX
  8
0
 10
1484.287655
 20
1432.741663
 70
0
 42
0.220328
  0
VERTEX
  8
0
 10
1483.789170
 20
1431.250455
 70
0
  0
SEQEND
  0
POLYLINE
  8
0
  6
CONTINUOUS
 62
1
 66
1
 70
2
  0
VERTEX
  8
0
 10
1484.449170
 20
1425.490455
 70
0
 42
0.189055
  0
VERTEX
  8
0
 10
1485.102518
 20
1424.270446
 70
0
 42
0.179121
  0
VERTEX
  8
0
 10
1486.437178
 20
1423.780388
 70
0
  0
SEQEND
  0
POLYLINE
  8
0
  6
CONTINUOUS
 62
1
 66
1
 70
2
  0
VERTEX
  8
0
 10
1500.653051
 20
1423.780388
 70
0
 42
0.179121
  0
VERTEX
  8
0
 10
1501.987712
 20
1424.270446
 70
0
 42
0.189055
  0
VERTEX
  8
0
 10
1502.641060
 20
1425.490455
 70
0
  0
SEQEND
  0
POLYLINE
  8
0
  6
CONTINUOUS
 62
1
 66
1
 70
2
  0
VERTEX
  8
0
 10
1503.301060
 20
1431.250455
 70
0
 42
0.220328
  0
VERTEX
  8
0
 10
1502.802575
 20
1432.741663
 70
0
 42
0.207373
  0
VERTEX
  8
0
 10
1501.313051
 20
1433.380388
 70
0
  0
SEQEND
  0
LINE
  8
0
  6
CONTINUOUS
 62
1
 10
1544.453051
 20
1423.780388
 11
1530.237178
 21
1423.780388
  0
LINE
  8
0
  6
CONTINUOUS
 62
1
 10
1508.337178
 20
1433.380388
 11
1522.553051
 21
1433.380388
  0
LINE
  8
0
  6
CONTINUOUS
 62
1
 10
1529.577178
 20
1433.380388
 11
1545.113051
 21
1433.380388
  0
LINE
  8
0
  6
CONTINUOUS
 62
1
 10
1528.249170
 20
1425.490455
 11
1527.589170
 21
1431.250455
  0
LINE
  8
0
  6
CONTINUOUS
 62
1
 10
1546.441060
 20
1425.490455
 11
1547.101060
 21
1431.250455
  0
LINE
  8
0
  6
CONTINUOUS
 62
1
 10
1506.349170
 20
1431.670322
 11
1505.689170
 21
1425.910322
  0
LINE
  8
0
  6
CONTINUOUS
 62
1
 10
1524.541060
 20
1431.670322
 11
1525.201060
 21
1425.910322
  0
LINE
  8
0
  6
CONTINUOUS
 62
1
 10
1523.213051
 20
1423.780388
 11
1507.677178
 21
1423.780388
  0
POLYLINE
  8
0
  6
CONTINUOUS
 62
1
 66
1
 70
2
  0
VERTEX
  8
0
 10
1508.337178
 20
1433.380388
 70
0
 42
0.179121
  0
VERTEX
  8
0
 10
1507.002518
 20
1432.890331
 70
0
 42
0.189055
  0
VERTEX
  8
0
 10
1506.349170
 20
1431.670322
 70
0
  0
SEQEND
  0
POLYLINE
  8
0
  6
CONTINUOUS
 62
1
 66
1
 70
2
  0
VERTEX
  8
0
 10
1505.689170
 20
1425.910322
 70
0
 42
0.220328
  0
VERTEX
  8
0
 10
1506.187655
 20
1424.419114
 70
0
 42
0.207373
  0
VERTEX
  8
0
 10
1507.677178
 20
1423.780388
 70
0
  0
SEQEND
  0
POLYLINE
  8
0
  6
CONTINUOUS
 62
1
 66
1
 70
2
  0
VERTEX
  8
0
 10
1523.213051
 20
1423.780388
 70
0
 42
0.207373
  0
VERTEX
  8
0
 10
1524.702575
 20
1424.419114
 70
0
 42
0.220328
  0
VERTEX
  8
0
 10
1525.201060
 20
1425.910322
 70
0
  0
SEQEND
  0
POLYLINE
  8
0
  6
CONTINUOUS
 62
1
 66
1
 70
2
  0
VERTEX
  8
0
 10
1522.553051
 20
1433.380388
 70
0
 42
-0.179121
  0
VERTEX
  8
0
 10
1523.887712
 20
1432.890331
 70
0
 42
-0.189055
  0
VERTEX
  8
0
 10
1524.541060
 20
1431.670322
 70
0
  0
SEQEND
  0
POLYLINE
  8
0
  6
CONTINUOUS
 62
1
 66
1
 70
2
  0
VERTEX
  8
0
 10
1529.577178
 20
1433.380388
 70
0
 42
0.207373
  0
VERTEX
  8
0
 10
1528.087655
 20
1432.741663
 70
0
 42
0.220328
  0
VERTEX
  8
0
 10
1527.589170
 20
1431.250455
 70
0
  0
SEQEND
  0
POLYLINE
  8
0
  6
CONTINUOUS
 62
1
 66
1
 70
2
  0
VERTEX
  8
0
 10
1528.249170
 20
1425.490455
 70
0
 42
0.189055
  0
VERTEX
  8
0
 10
1528.902518
 20
1424.270446
 70
0
 42
0.179121
  0
VERTEX
  8
0
 10
1530.237178
 20
1423.780388
 70
0
  0
SEQEND
  0
POLYLINE
  8
0
  6
CONTINUOUS
 62
1
 66
1
 70
2
  0
VERTEX
  8
0
 10
1544.453051
 20
1423.780388
 70
0
 42
0.179121
  0
VERTEX
  8
0
 10
1545.787712
 20
1424.270446
 70
0
 42
0.189055
  0
VERTEX
  8
0
 10
1546.441060
 20
1425.490455
 70
0
  0
SEQEND
  0
POLYLINE
  8
0
  6
CONTINUOUS
 62
1
 66
1
 70
2
  0
VERTEX
  8
0
 10
1547.101060
 20
1431.250455
 70
0
 42
0.220328
  0
VERTEX
  8
0
 10
1546.602575
 20
1432.741663
 70
0
 42
0.207373
  0
VERTEX
  8
0
 10
1545.113051
 20
1433.380388
 70
0
  0
SEQEND
  0
LINE
  8
0
  6
CONTINUOUS
 62
1
 10
1588.253051
 20
1423.780388
 11
1574.037178
 21
1423.780388
  0
LINE
  8
0
  6
CONTINUOUS
 62
1
 10
1552.137178
 20
1433.380388
 11
1566.353051
 21
1433.380388
  0
LINE
  8
0
  6
CONTINUOUS
 62
1
 10
1573.377178
 20
1433.380388
 11
1588.913051
 21
1433.380388
  0
LINE
  8
0
  6
CONTINUOUS
 62
1
 10
1572.049170
 20
1425.490455
 11
1571.389170
 21
1431.250455
  0
LINE
  8
0
  6
CONTINUOUS
 62
1
 10
1590.241060
 20
1425.490455
 11
1590.901060
 21
1431.250455
  0
LINE
  8
0
  6
CONTINUOUS
 62
1
 10
1550.149170
 20
1431.670322
 11
1549.489170
 21
1425.910322
  0
LINE
  8
0
  6
CONTINUOUS
 62
1
 10
1568.341060
 20
1431.670322
 11
1569.001060
 21
1425.910322
  0
LINE
  8
0
  6
CONTINUOUS
 62
1
 10
1567.013051
 20
1423.780388
 11
1551.477178
 21
1423.780388
  0
POLYLINE
  8
0
  6
CONTINUOUS
 62
1
 66
1
 70
2
  0
VERTEX
  8
0
 10
1552.137178
 20
1433.380388
 70
0
 42
0.179121
  0
VERTEX
  8
0
 10
1550.802518
 20
1432.890331
 70
0
 42
0.189055
  0
VERTEX
  8
0
 10
1550.149170
 20
1431.670322
 70
0
  0
SEQEND
  0
POLYLINE
  8
0
  6
CONTINUOUS
 62
1
 66
1
 70
2
  0
VERTEX
  8
0
 10
1549.489170
 20
1425.910322
 70
0
 42
0.220328
  0
VERTEX
  8
0
 10
1549.987655
 20
1424.419114
 70
0
 42
0.207373
  0
VERTEX
  8
0
 10
1551.477178
 20
1423.780388
 70
0
  0
SEQEND
  0
POLYLINE
  8
0
  6
CONTINUOUS
 62
1
 66
1
 70
2
  0
VERTEX
  8
0
 10
1567.013051
 20
1423.780388
 70
0
 42
0.207373
  0
VERTEX
  8
0
 10
1568.502575
 20
1424.419114
 70
0
 42
0.220328
  0
VERTEX
  8
0
 10
1569.001060
 20
1425.910322
 70
0
  0
SEQEND
  0
POLYLINE
  8
0
  6
CONTINUOUS
 62
1
 66
1
 70
2
  0
VERTEX
  8
0
 10
1566.353051
 20
1433.380388
 70
0
 42
-0.179121
  0
VERTEX
  8
0
 10
1567.687712
 20
1432.890331
 70
0
 42
-0.189055
  0
VERTEX
  8
0
 10
1568.341060
 20
1431.670322
 70
0
  0
SEQEND
  0
POLYLINE
  8
0
  6
CONTINUOUS
 62
1
 66
1
 70
2
  0
VERTEX
  8
0
 10
1573.377178
 20
1433.380388
 70
0
 42
0.207373
  0
VERTEX
  8
0
 10
1571.887655
 20
1432.741663
 70
0
 42
0.220328
  0
VERTEX
  8
0
 10
1571.389170
 20
1431.250455
 70
0
  0
SEQEND
  0
POLYLINE
  8
0
  6
CONTINUOUS
 62
1
 66
1
 70
2
  0
VERTEX
  8
0
 10
1572.049170
 20
1425.490455
 70
0
 42
0.189055
  0
VERTEX
  8
0
 10
1572.702518
 20
1424.270446
 70
0
 42
0.179121
  0
VERTEX
  8
0
 10
1574.037178
 20
1423.780388
 70
0
  0
SEQEND
  0
POLYLINE
  8
0
  6
CONTINUOUS
 62
1
 66
1
 70
2
  0
VERTEX
  8
0
 10
1588.253051
 20
1423.780388
 70
0
 42
0.179121
  0
VERTEX
  8
0
 10
1589.587712
 20
1424.270446
 70
0
 42
0.189055
  0
VERTEX
  8
0
 10
1590.241060
 20
1425.490455
 70
0
  0
SEQEND
  0
POLYLINE
  8
0
  6
CONTINUOUS
 62
1
 66
1
 70
2
  0
VERTEX
  8
0
 10
1590.901060
 20
1431.250455
 70
0
 42
0.220328
  0
VERTEX
  8
0
 10
1590.402575
 20
1432.741663
 70
0
 42
0.207373
  0
VERTEX
  8
0
 10
1588.913051
 20
1433.380388
 70
0
  0
SEQEND
  0
LINE
  8
0
  6
CONTINUOUS
 62
1
 10
1595.937178
 20
1433.380388
 11
1610.153051
 21
1433.380388
  0
LINE
  8
0
  6
CONTINUOUS
 62
1
 10
1593.949170
 20
1431.670322
 11
1593.289170
 21
1425.910322
  0
LINE
  8
0
  6
CONTINUOUS
 62
1
 10
1612.141060
 20
1431.670322
 11
1612.801060
 21
1425.910322
  0
LINE
  8
0
  6
CONTINUOUS
 62
1
 10
1610.813051
 20
1423.780388
 11
1595.277178
 21
1423.780388
  0
POLYLINE
  8
0
  6
CONTINUOUS
 62
1
 66
1
 70
2
  0
VERTEX
  8
0
 10
1595.937178
 20
1433.380388
 70
0
 42
0.179121
  0
VERTEX
  8
0
 10
1594.602518
 20
1432.890331
 70
0
 42
0.189055
  0
VERTEX
  8
0
 10
1593.949170
 20
1431.670322
 70
0
  0
SEQEND
  0
POLYLINE
  8
0
  6
CONTINUOUS
 62
1
 66
1
 70
2
  0
VERTEX
  8
0
 10
1593.289170
 20
1425.910322
 70
0
 42
0.220328
  0
VERTEX
  8
0
 10
1593.787655
 20
1424.419114
 70
0
 42
0.207373
  0
VERTEX
  8
0
 10
1595.277178
 20
1423.780388
 70
0
  0
SEQEND
  0
POLYLINE
  8
0
  6
CONTINUOUS
 62
1
 66
1
 70
2
  0
VERTEX
  8
0
 10
1610.813051
 20
1423.780388
 70
0
 42
0.207373
  0
VERTEX
  8
0
 10
1612.302575
 20
1424.419114
 70
0
 42
0.220328
  0
VERTEX
  8
0
 10
1612.801060
 20
1425.910322
 70
0
  0
SEQEND
  0
POLYLINE
  8
0
  6
CONTINUOUS
 62
1
 66
1
 70
2
  0
VERTEX
  8
0
 10
1610.153051
 20
1433.380388
 70
0
 42
-0.179121
  0
VERTEX
  8
0
 10
1611.487712
 20
1432.890331
 70
0
 42
-0.189055
  0
VERTEX
  8
0
 10
1612.141060
 20
1431.670322
 70
0
  0
SEQEND
  0
LINE
  8
0
  6
CONTINUOUS
 62
1
 10
1632.053051
 20
1423.780388
 11
1617.837178
 21
1423.780388
  0
LINE
  8
0
  6
CONTINUOUS
 62
1
 10
1617.177178
 20
1433.380388
 11
1632.713051
 21
1433.380388
  0
LINE
  8
0
  6
CONTINUOUS
 62
1
 10
1615.849170
 20
1425.490455
 11
1615.189170
 21
1431.250455
  0
LINE
  8
0
  6
CONTINUOUS
 62
1
 10
1634.041060
 20
1425.490455
 11
1634.701060
 21
1431.250455
  0
POLYLINE
  8
0
  6
CONTINUOUS
 62
1
 66
1
 70
2
  0
VERTEX
  8
0
 10
1617.177178
 20
1433.380388
 70
0
 42
0.207373
  0
VERTEX
  8
0
 10
1615.687655
 20
1432.741663
 70
0
 42
0.220328
  0
VERTEX
  8
0
 10
1615.189170
 20
1431.250455
 70
0
  0
SEQEND
  0
POLYLINE
  8
0
  6
CONTINUOUS
 62
1
 66
1
 70
2
  0
VERTEX
  8
0
 10
1615.849170
 20
1425.490455
 70
0
 42
0.189055
  0
VERTEX
  8
0
 10
1616.502518
 20
1424.270446
 70
0
 42
0.179121
  0
VERTEX
  8
0
 10
1617.837178
 20
1423.780388
 70
0
  0
SEQEND
  0
POLYLINE
  8
0
  6
CONTINUOUS
 62
1
 66
1
 70
2
  0
VERTEX
  8
0
 10
1632.053051
 20
1423.780388
 70
0
 42
0.179121
  0
VERTEX
  8
0
 10
1633.387712
 20
1424.270446
 70
0
 42
0.189055
  0
VERTEX
  8
0
 10
1634.041060
 20
1425.490455
 70
0
  0
SEQEND
  0
POLYLINE
  8
0
  6
CONTINUOUS
 62
1
 66
1
 70
2
  0
VERTEX
  8
0
 10
1634.701060
 20
1431.250455
 70
0
 42
0.220328
  0
VERTEX
  8
0
 10
1634.202575
 20
1432.741663
 70
0
 42
0.207373
  0
VERTEX
  8
0
 10
1632.713051
 20
1433.380388
 70
0
  0
SEQEND
  0
LINE
  8
0
  6
CONTINUOUS
 62
1
 10
1639.737178
 20
1433.380388
 11
1653.953051
 21
1433.380388
  0
LINE
  8
0
  6
CONTINUOUS
 62
1
 10
1637.749170
 20
1431.670322
 11
1637.089170
 21
1425.910322
  0
LINE
  8
0
  6
CONTINUOUS
 62
1
 10
1655.941060
 20
1431.670322
 11
1656.601060
 21
1425.910322
  0
LINE
  8
0
  6
CONTINUOUS
 62
1
 10
1654.613051
 20
1423.780388
 11
1639.077178
 21
1423.780388
  0
POLYLINE
  8
0
  6
CONTINUOUS
 62
1
 66
1
 70
2
  0
VERTEX
  8
0
 10
1639.737178
 20
1433.380388
 70
0
 42
0.179121
  0
VERTEX
  8
0
 10
1638.402518
 20
1432.890331
 70
0
 42
0.189055
  0
VERTEX
  8
0
 10
1637.749170
 20
1431.670322
 70
0
  0
SEQEND
  0
POLYLINE
  8
0
  6
CONTINUOUS
 62
1
 66
1
 70
2
  0
VERTEX
  8
0
 10
1637.089170
 20
1425.910322
 70
0
 42
0.220328
  0
VERTEX
  8
0
 10
1637.587655
 20
1424.419114
 70
0
 42
0.207373
  0
VERTEX
  8
0
 10
1639.077178
 20
1423.780388
 70
0
  0
SEQEND
  0
POLYLINE
  8
0
  6
CONTINUOUS
 62
1
 66
1
 70
2
  0
VERTEX
  8
0
 10
1654.613051
 20
1423.780388
 70
0
 42
0.207373
  0
VERTEX
  8
0
 10
1656.102575
 20
1424.419114
 70
0
 42
0.220328
  0
VERTEX
  8
0
 10
1656.601060
 20
1425.910322
 70
0
  0
SEQEND
  0
POLYLINE
  8
0
  6
CONTINUOUS
 62
1
 66
1
 70
2
  0
VERTEX
  8
0
 10
1653.953051
 20
1433.380388
 70
0
 42
-0.179121
  0
VERTEX
  8
0
 10
1655.287712
 20
1432.890331
 70
0
 42
-0.189055
  0
VERTEX
  8
0
 10
1655.941060
 20
1431.670322
 70
0
  0
SEQEND
  0
LINE
  8
0
  6
CONTINUOUS
 62
1
 10
1003.977178
 20
1433.380388
 11
1019.513051
 21
1433.380388
  0
LINE
  8
0
  6
CONTINUOUS
 62
1
 10
1026.537178
 20
1433.380388
 11
1040.753051
 21
1433.380388
  0
LINE
  8
0
  6
CONTINUOUS
 62
1
 10
1002.649170
 20
1425.490455
 11
1001.989170
 21
1431.250455
  0
LINE
  8
0
  6
CONTINUOUS
 62
1
 10
1020.841060
 20
1425.490455
 11
1021.501060
 21
1431.250455
  0
LINE
  8
0
  6
CONTINUOUS
 62
1
 10
1024.549170
 20
1431.670322
 11
1023.889170
 21
1425.910322
  0
LINE
  8
0
  6
CONTINUOUS
 62
1
 10
1042.741060
 20
1431.670322
 11
1043.401060
 21
1425.910322
  0
LINE
  8
0
  6
CONTINUOUS
 62
1
 10
1018.853051
 20
1423.780388
 11
1004.637178
 21
1423.780388
  0
LINE
  8
0
  6
CONTINUOUS
 62
1
 10
1041.413051
 20
1423.780388
 11
1025.877178
 21
1423.780388
  0
POLYLINE
  8
0
  6
CONTINUOUS
 62
1
 66
1
 70
2
  0
VERTEX
  8
0
 10
1003.977178
 20
1433.380388
 70
0
 42
0.207373
  0
VERTEX
  8
0
 10
1002.487655
 20
1432.741663
 70
0
 42
0.220328
  0
VERTEX
  8
0
 10
1001.989170
 20
1431.250455
 70
0
  0
SEQEND
  0
POLYLINE
  8
0
  6
CONTINUOUS
 62
1
 66
1
 70
2
  0
VERTEX
  8
0
 10
1002.649170
 20
1425.490455
 70
0
 42
0.189055
  0
VERTEX
  8
0
 10
1003.302518
 20
1424.270446
 70
0
 42
0.179121
  0
VERTEX
  8
0
 10
1004.637178
 20
1423.780388
 70
0
  0
SEQEND
  0
POLYLINE
  8
0
  6
CONTINUOUS
 62
1
 66
1
 70
2
  0
VERTEX
  8
0
 10
1018.853051
 20
1423.780388
 70
0
 42
0.179121
  0
VERTEX
  8
0
 10
1020.187712
 20
1424.270446
 70
0
 42
0.189055
  0
VERTEX
  8
0
 10
1020.841060
 20
1425.490455
 70
0
  0
SEQEND
  0
POLYLINE
  8
0
  6
CONTINUOUS
 62
1
 66
1
 70
2
  0
VERTEX
  8
0
 10
1021.501060
 20
1431.250455
 70
0
 42
0.220328
  0
VERTEX
  8
0
 10
1021.002575
 20
1432.741663
 70
0
 42
0.207373
  0
VERTEX
  8
0
 10
1019.513051
 20
1433.380388
 70
0
  0
SEQEND
  0
POLYLINE
  8
0
  6
CONTINUOUS
 62
1
 66
1
 70
2
  0
VERTEX
  8
0
 10
1024.549170
 20
1431.670322
 70
0
 42
-0.189055
  0
VERTEX
  8
0
 10
1025.202518
 20
1432.890331
 70
0
 42
-0.179121
  0
VERTEX
  8
0
 10
1026.537178
 20
1433.380388
 70
0
  0
SEQEND
  0
POLYLINE
  8
0
  6
CONTINUOUS
 62
1
 66
1
 70
2
  0
VERTEX
  8
0
 10
1040.753051
 20
1433.380388
 70
0
 42
-0.179121
  0
VERTEX
  8
0
 10
1042.087712
 20
1432.890331
 70
0
 42
-0.189055
  0
VERTEX
  8
0
 10
1042.741060
 20
1431.670322
 70
0
  0
SEQEND
  0
POLYLINE
  8
0
  6
CONTINUOUS
 62
1
 66
1
 70
2
  0
VERTEX
  8
0
 10
1043.401060
 20
1425.910322
 70
0
 42
-0.220328
  0
VERTEX
  8
0
 10
1042.902575
 20
1424.419114
 70
0
 42
-0.207373
  0
VERTEX
  8
0
 10
1041.413051
 20
1423.780388
 70
0
  0
SEQEND
  0
POLYLINE
  8
0
  6
CONTINUOUS
 62
1
 66
1
 70
2
  0
VERTEX
  8
0
 10
1025.877178
 20
1423.780388
 70
0
 42
-0.207373
  0
VERTEX
  8
0
 10
1024.387655
 20
1424.419114
 70
0
 42
-0.220328
  0
VERTEX
  8
0
 10
1023.889170
 20
1425.910322
 70
0
  0
SEQEND
  0
LINE
  8
0
  6
CONTINUOUS
 62
1
 10
1281.653051
 20
1448.740388
 11
1267.437178
 21
1448.740388
  0
LINE
  8
0
  6
CONTINUOUS
 62
1
 10
1245.537178
 20
1458.340388
 11
1259.753051
 21
1458.340388
  0
LINE
  8
0
  6
CONTINUOUS
 62
1
 10
1266.777178
 20
1458.340388
 11
1282.313051
 21
1458.340388
  0
LINE
  8
0
  6
CONTINUOUS
 62
1
 10
1265.449170
 20
1450.450455
 11
1264.789170
 21
1456.210455
  0
LINE
  8
0
  6
CONTINUOUS
 62
1
 10
1283.641060
 20
1450.450455
 11
1284.301060
 21
1456.210455
  0
LINE
  8
0
  6
CONTINUOUS
 62
1
 10
1243.549170
 20
1456.630322
 11
1242.889170
 21
1450.870322
  0
LINE
  8
0
  6
CONTINUOUS
 62
1
 10
1261.741060
 20
1456.630322
 11
1262.401060
 21
1450.870322
  0
LINE
  8
0
  6
CONTINUOUS
 62
1
 10
1260.413051
 20
1448.740388
 11
1244.877178
 21
1448.740388
  0
POLYLINE
  8
0
  6
CONTINUOUS
 62
1
 66
1
 70
2
  0
VERTEX
  8
0
 10
1245.537178
 20
1458.340388
 70
0
 42
0.179121
  0
VERTEX
  8
0
 10
1244.202518
 20
1457.850331
 70
0
 42
0.189055
  0
VERTEX
  8
0
 10
1243.549170
 20
1456.630322
 70
0
  0
SEQEND
  0
POLYLINE
  8
0
  6
CONTINUOUS
 62
1
 66
1
 70
2
  0
VERTEX
  8
0
 10
1242.889170
 20
1450.870322
 70
0
 42
0.220328
  0
VERTEX
  8
0
 10
1243.387655
 20
1449.379114
 70
0
 42
0.207373
  0
VERTEX
  8
0
 10
1244.877178
 20
1448.740388
 70
0
  0
SEQEND
  0
POLYLINE
  8
0
  6
CONTINUOUS
 62
1
 66
1
 70
2
  0
VERTEX
  8
0
 10
1260.413051
 20
1448.740388
 70
0
 42
0.207373
  0
VERTEX
  8
0
 10
1261.902575
 20
1449.379114
 70
0
 42
0.220328
  0
VERTEX
  8
0
 10
1262.401060
 20
1450.870322
 70
0
  0
SEQEND
  0
POLYLINE
  8
0
  6
CONTINUOUS
 62
1
 66
1
 70
2
  0
VERTEX
  8
0
 10
1259.753051
 20
1458.340388
 70
0
 42
-0.179121
  0
VERTEX
  8
0
 10
1261.087712
 20
1457.850331
 70
0
 42
-0.189055
  0
VERTEX
  8
0
 10
1261.741060
 20
1456.630322
 70
0
  0
SEQEND
  0
POLYLINE
  8
0
  6
CONTINUOUS
 62
1
 66
1
 70
2
  0
VERTEX
  8
0
 10
1266.777178
 20
1458.340388
 70
0
 42
0.207373
  0
VERTEX
  8
0
 10
1265.287655
 20
1457.701663
 70
0
 42
0.220328
  0
VERTEX
  8
0
 10
1264.789170
 20
1456.210455
 70
0
  0
SEQEND
  0
POLYLINE
  8
0
  6
CONTINUOUS
 62
1
 66
1
 70
2
  0
VERTEX
  8
0
 10
1265.449170
 20
1450.450455
 70
0
 42
0.189055
  0
VERTEX
  8
0
 10
1266.102518
 20
1449.230446
 70
0
 42
0.179121
  0
VERTEX
  8
0
 10
1267.437178
 20
1448.740388
 70
0
  0
SEQEND
  0
POLYLINE
  8
0
  6
CONTINUOUS
 62
1
 66
1
 70
2
  0
VERTEX
  8
0
 10
1281.653051
 20
1448.740388
 70
0
 42
0.179121
  0
VERTEX
  8
0
 10
1282.987712
 20
1449.230446
 70
0
 42
0.189055
  0
VERTEX
  8
0
 10
1283.641060
 20
1450.450455
 70
0
  0
SEQEND
  0
POLYLINE
  8
0
  6
CONTINUOUS
 62
1
 66
1
 70
2
  0
VERTEX
  8
0
 10
1284.301060
 20
1456.210455
 70
0
 42
0.220328
  0
VERTEX
  8
0
 10
1283.802575
 20
1457.701663
 70
0
 42
0.207373
  0
VERTEX
  8
0
 10
1282.313051
 20
1458.340388
 70
0
  0
SEQEND
  0
LINE
  8
0
  6
CONTINUOUS
 62
1
 10
1270.703051
 20
1445.860388
 11
1256.487178
 21
1445.860388
  0
LINE
  8
0
  6
CONTINUOUS
 62
1
 10
1234.587178
 20
1436.260388
 11
1248.803051
 21
1436.260388
  0
LINE
  8
0
  6
CONTINUOUS
 62
1
 10
1255.827178
 20
1436.260388
 11
1271.363051
 21
1436.260388
  0
LINE
  8
0
  6
CONTINUOUS
 62
1
 10
1254.499170
 20
1444.150322
 11
1253.839170
 21
1438.390322
  0
LINE
  8
0
  6
CONTINUOUS
 62
1
 10
1272.691060
 20
1444.150322
 11
1273.351060
 21
1438.390322
  0
LINE
  8
0
  6
CONTINUOUS
 62
1
 10
1232.599170
 20
1437.970455
 11
1231.939170
 21
1443.730455
  0
LINE
  8
0
  6
CONTINUOUS
 62
1
 10
1250.791060
 20
1437.970455
 11
1251.451060
 21
1443.730455
  0
LINE
  8
0
  6
CONTINUOUS
 62
1
 10
1249.463051
 20
1445.860388
 11
1233.927178
 21
1445.860388
  0
POLYLINE
  8
0
  6
CONTINUOUS
 62
1
 66
1
 70
2
  0
VERTEX
  8
0
 10
1234.587178
 20
1436.260388
 70
0
 42
-0.179121
  0
VERTEX
  8
0
 10
1233.252518
 20
1436.750446
 70
0
 42
-0.189055
  0
VERTEX
  8
0
 10
1232.599170
 20
1437.970455
 70
0
  0
SEQEND
  0
POLYLINE
  8
0
  6
CONTINUOUS
 62
1
 66
1
 70
2
  0
VERTEX
  8
0
 10
1231.939170
 20
1443.730455
 70
0
 42
-0.220328
  0
VERTEX
  8
0
 10
1232.437655
 20
1445.221663
 70
0
 42
-0.207373
  0
VERTEX
  8
0
 10
1233.927178
 20
1445.860388
 70
0
  0
SEQEND
  0
POLYLINE
  8
0
  6
CONTINUOUS
 62
1
 66
1
 70
2
  0
VERTEX
  8
0
 10
1249.463051
 20
1445.860388
 70
0
 42
-0.207373
  0
VERTEX
  8
0
 10
1250.952575
 20
1445.221663
 70
0
 42
-0.220328
  0
VERTEX
  8
0
 10
1251.451060
 20
1443.730455
 70
0
  0
SEQEND
  0
POLYLINE
  8
0
  6
CONTINUOUS
 62
1
 66
1
 70
2
  0
VERTEX
  8
0
 10
1248.803051
 20
1436.260388
 70
0
 42
0.179121
  0
VERTEX
  8
0
 10
1250.137712
 20
1436.750446
 70
0
 42
0.189055
  0
VERTEX
  8
0
 10
1250.791060
 20
1437.970455
 70
0
  0
SEQEND
  0
POLYLINE
  8
0
  6
CONTINUOUS
 62
1
 66
1
 70
2
  0
VERTEX
  8
0
 10
1255.827178
 20
1436.260388
 70
0
 42
-0.207373
  0
VERTEX
  8
0
 10
1254.337655
 20
1436.899114
 70
0
 42
-0.220328
  0
VERTEX
  8
0
 10
1253.839170
 20
1438.390322
 70
0
  0
SEQEND
  0
POLYLINE
  8
0
  6
CONTINUOUS
 62
1
 66
1
 70
2
  0
VERTEX
  8
0
 10
1254.499170
 20
1444.150322
 70
0
 42
-0.189055
  0
VERTEX
  8
0
 10
1255.152518
 20
1445.370331
 70
0
 42
-0.179121
  0
VERTEX
  8
0
 10
1256.487178
 20
1445.860388
 70
0
  0
SEQEND
  0
POLYLINE
  8
0
  6
CONTINUOUS
 62
1
 66
1
 70
2
  0
VERTEX
  8
0
 10
1270.703051
 20
1445.860388
 70
0
 42
-0.179121
  0
VERTEX
  8
0
 10
1272.037712
 20
1445.370331
 70
0
 42
-0.189055
  0
VERTEX
  8
0
 10
1272.691060
 20
1444.150322
 70
0
  0
SEQEND
  0
POLYLINE
  8
0
  6
CONTINUOUS
 62
1
 66
1
 70
2
  0
VERTEX
  8
0
 10
1273.351060
 20
1438.390322
 70
0
 42
-0.220328
  0
VERTEX
  8
0
 10
1272.852575
 20
1436.899114
 70
0
 42
-0.207373
  0
VERTEX
  8
0
 10
1271.363051
 20
1436.260388
 70
0
  0
SEQEND
  0
LINE
  8
0
  6
CONTINUOUS
 62
1
 10
1325.453051
 20
1448.740388
 11
1311.237178
 21
1448.740388
  0
LINE
  8
0
  6
CONTINUOUS
 62
1
 10
1289.337178
 20
1458.340388
 11
1303.553051
 21
1458.340388
  0
LINE
  8
0
  6
CONTINUOUS
 62
1
 10
1310.577178
 20
1458.340388
 11
1326.113051
 21
1458.340388
  0
LINE
  8
0
  6
CONTINUOUS
 62
1
 10
1309.249170
 20
1450.450455
 11
1308.589170
 21
1456.210455
  0
LINE
  8
0
  6
CONTINUOUS
 62
1
 10
1327.441060
 20
1450.450455
 11
1328.101060
 21
1456.210455
  0
LINE
  8
0
  6
CONTINUOUS
 62
1
 10
1287.349170
 20
1456.630322
 11
1286.689170
 21
1450.870322
  0
LINE
  8
0
  6
CONTINUOUS
 62
1
 10
1305.541060
 20
1456.630322
 11
1306.201060
 21
1450.870322
  0
LINE
  8
0
  6
CONTINUOUS
 62
1
 10
1304.213051
 20
1448.740388
 11
1288.677178
 21
1448.740388
  0
POLYLINE
  8
0
  6
CONTINUOUS
 62
1
 66
1
 70
2
  0
VERTEX
  8
0
 10
1289.337178
 20
1458.340388
 70
0
 42
0.179121
  0
VERTEX
  8
0
 10
1288.002518
 20
1457.850331
 70
0
 42
0.189055
  0
VERTEX
  8
0
 10
1287.349170
 20
1456.630322
 70
0
  0
SEQEND
  0
POLYLINE
  8
0
  6
CONTINUOUS
 62
1
 66
1
 70
2
  0
VERTEX
  8
0
 10
1286.689170
 20
1450.870322
 70
0
 42
0.220328
  0
VERTEX
  8
0
 10
1287.187655
 20
1449.379114
 70
0
 42
0.207373
  0
VERTEX
  8
0
 10
1288.677178
 20
1448.740388
 70
0
  0
SEQEND
  0
POLYLINE
  8
0
  6
CONTINUOUS
 62
1
 66
1
 70
2
  0
VERTEX
  8
0
 10
1304.213051
 20
1448.740388
 70
0
 42
0.207373
  0
VERTEX
  8
0
 10
1305.702575
 20
1449.379114
 70
0
 42
0.220328
  0
VERTEX
  8
0
 10
1306.201060
 20
1450.870322
 70
0
  0
SEQEND
  0
POLYLINE
  8
0
  6
CONTINUOUS
 62
1
 66
1
 70
2
  0
VERTEX
  8
0
 10
1303.553051
 20
1458.340388
 70
0
 42
-0.179121
  0
VERTEX
  8
0
 10
1304.887712
 20
1457.850331
 70
0
 42
-0.189055
  0
VERTEX
  8
0
 10
1305.541060
 20
1456.630322
 70
0
  0
SEQEND
  0
POLYLINE
  8
0
  6
CONTINUOUS
 62
1
 66
1
 70
2
  0
VERTEX
  8
0
 10
1310.577178
 20
1458.340388
 70
0
 42
0.207373
  0
VERTEX
  8
0
 10
1309.087655
 20
1457.701663
 70
0
 42
0.220328
  0
VERTEX
  8
0
 10
1308.589170
 20
1456.210455
 70
0
  0
SEQEND
  0
POLYLINE
  8
0
  6
CONTINUOUS
 62
1
 66
1
 70
2
  0
VERTEX
  8
0
 10
1309.249170
 20
1450.450455
 70
0
 42
0.189055
  0
VERTEX
  8
0
 10
1309.902518
 20
1449.230446
 70
0
 42
0.179121
  0
VERTEX
  8
0
 10
1311.237178
 20
1448.740388
 70
0
  0
SEQEND
  0
POLYLINE
  8
0
  6
CONTINUOUS
 62
1
 66
1
 70
2
  0
VERTEX
  8
0
 10
1325.453051
 20
1448.740388
 70
0
 42
0.179121
  0
VERTEX
  8
0
 10
1326.787712
 20
1449.230446
 70
0
 42
0.189055
  0
VERTEX
  8
0
 10
1327.441060
 20
1450.450455
 70
0
  0
SEQEND
  0
POLYLINE
  8
0
  6
CONTINUOUS
 62
1
 66
1
 70
2
  0
VERTEX
  8
0
 10
1328.101060
 20
1456.210455
 70
0
 42
0.220328
  0
VERTEX
  8
0
 10
1327.602575
 20
1457.701663
 70
0
 42
0.207373
  0
VERTEX
  8
0
 10
1326.113051
 20
1458.340388
 70
0
  0
SEQEND
  0
LINE
  8
0
  6
CONTINUOUS
 62
1
 10
1314.503051
 20
1445.860388
 11
1300.287178
 21
1445.860388
  0
LINE
  8
0
  6
CONTINUOUS
 62
1
 10
1278.387178
 20
1436.260388
 11
1292.603051
 21
1436.260388
  0
LINE
  8
0
  6
CONTINUOUS
 62
1
 10
1299.627178
 20
1436.260388
 11
1315.163051
 21
1436.260388
  0
LINE
  8
0
  6
CONTINUOUS
 62
1
 10
1298.299170
 20
1444.150322
 11
1297.639170
 21
1438.390322
  0
LINE
  8
0
  6
CONTINUOUS
 62
1
 10
1316.491060
 20
1444.150322
 11
1317.151060
 21
1438.390322
  0
LINE
  8
0
  6
CONTINUOUS
 62
1
 10
1276.399170
 20
1437.970455
 11
1275.739170
 21
1443.730455
  0
LINE
  8
0
  6
CONTINUOUS
 62
1
 10
1294.591060
 20
1437.970455
 11
1295.251060
 21
1443.730455
  0
LINE
  8
0
  6
CONTINUOUS
 62
1
 10
1293.263051
 20
1445.860388
 11
1277.727178
 21
1445.860388
  0
POLYLINE
  8
0
  6
CONTINUOUS
 62
1
 66
1
 70
2
  0
VERTEX
  8
0
 10
1278.387178
 20
1436.260388
 70
0
 42
-0.179121
  0
VERTEX
  8
0
 10
1277.052518
 20
1436.750446
 70
0
 42
-0.189055
  0
VERTEX
  8
0
 10
1276.399170
 20
1437.970455
 70
0
  0
SEQEND
  0
POLYLINE
  8
0
  6
CONTINUOUS
 62
1
 66
1
 70
2
  0
VERTEX
  8
0
 10
1275.739170
 20
1443.730455
 70
0
 42
-0.220328
  0
VERTEX
  8
0
 10
1276.237655
 20
1445.221663
 70
0
 42
-0.207373
  0
VERTEX
  8
0
 10
1277.727178
 20
1445.860388
 70
0
  0
SEQEND
  0
POLYLINE
  8
0
  6
CONTINUOUS
 62
1
 66
1
 70
2
  0
VERTEX
  8
0
 10
1293.263051
 20
1445.860388
 70
0
 42
-0.207373
  0
VERTEX
  8
0
 10
1294.752575
 20
1445.221663
 70
0
 42
-0.220328
  0
VERTEX
  8
0
 10
1295.251060
 20
1443.730455
 70
0
  0
SEQEND
  0
POLYLINE
  8
0
  6
CONTINUOUS
 62
1
 66
1
 70
2
  0
VERTEX
  8
0
 10
1292.603051
 20
1436.260388
 70
0
 42
0.179121
  0
VERTEX
  8
0
 10
1293.937712
 20
1436.750446
 70
0
 42
0.189055
  0
VERTEX
  8
0
 10
1294.591060
 20
1437.970455
 70
0
  0
SEQEND
  0
POLYLINE
  8
0
  6
CONTINUOUS
 62
1
 66
1
 70
2
  0
VERTEX
  8
0
 10
1299.627178
 20
1436.260388
 70
0
 42
-0.207373
  0
VERTEX
  8
0
 10
1298.137655
 20
1436.899114
 70
0
 42
-0.220328
  0
VERTEX
  8
0
 10
1297.639170
 20
1438.390322
 70
0
  0
SEQEND
  0
POLYLINE
  8
0
  6
CONTINUOUS
 62
1
 66
1
 70
2
  0
VERTEX
  8
0
 10
1298.299170
 20
1444.150322
 70
0
 42
-0.189055
  0
VERTEX
  8
0
 10
1298.952518
 20
1445.370331
 70
0
 42
-0.179121
  0
VERTEX
  8
0
 10
1300.287178
 20
1445.860388
 70
0
  0
SEQEND
  0
POLYLINE
  8
0
  6
CONTINUOUS
 62
1
 66
1
 70
2
  0
VERTEX
  8
0
 10
1314.503051
 20
1445.860388
 70
0
 42
-0.179121
  0
VERTEX
  8
0
 10
1315.837712
 20
1445.370331
 70
0
 42
-0.189055
  0
VERTEX
  8
0
 10
1316.491060
 20
1444.150322
 70
0
  0
SEQEND
  0
POLYLINE
  8
0
  6
CONTINUOUS
 62
1
 66
1
 70
2
  0
VERTEX
  8
0
 10
1317.151060
 20
1438.390322
 70
0
 42
-0.220328
  0
VERTEX
  8
0
 10
1316.652575
 20
1436.899114
 70
0
 42
-0.207373
  0
VERTEX
  8
0
 10
1315.163051
 20
1436.260388
 70
0
  0
SEQEND
  0
LINE
  8
0
  6
CONTINUOUS
 62
1
 10
858.378291
 20
1464.292379
 11
858.378291
 21
843.792287
  0
ARC
  8
0
  6
CONTINUOUS
 62
1
 10
1259.545352
 20
2738.661184
 40
2130.149234
 50
263.004957
 51
267.563916
  0
LINE
  8
0
  6
CONTINUOUS
 62
1
 10
1165.878911
 20
673.049372
 11
1158.542940
 21
638.814838
  0
LINE
  8
0
  6
CONTINUOUS
 62
1
 10
1188.378344
 20
673.049372
 11
1176.145769
 21
615.964022
  0
LINE
  8
0
  6
CONTINUOUS
 62
1
 10
984.878911
 20
673.049372
 11
994.136241
 21
629.848501
  0
LINE
  8
0
  6
CONTINUOUS
 62
1
 10
1007.378344
 20
673.049372
 11
1012.352400
 21
649.837112
  0
ARC
  8
0
  6
CONTINUOUS
 62
1
 10
1259.545352
 20
2738.661184
 40
2108.149234
 50
263.431616
 51
267.057850
  0
ARC
  8
0
  6
CONTINUOUS
 62
1
 10
1169.301152
 20
617.430726
 40
7.000000
 50
267.563916
 51
347.905243
  0
ARC
  8
0
  6
CONTINUOUS
 62
1
 10
1000.980858
 20
631.315205
 40
7.000000
 50
192.094757
 51
263.004957
  0
ARC
  8
0
  6
CONTINUOUS
 62
1
 10
1151.698323
 20
640.281541
 40
7.000000
 50
267.057850
 51
347.905243
  0
ARC
  8
0
  6
CONTINUOUS
 62
1
 10
1019.197017
 20
651.303815
 40
7.000000
 50
192.094757
 51
263.431616
  0
ARC
  8
0
  6
CONTINUOUS
 62
1
 10
1257.211539
 20
2738.661184
 40
2130.149234
 50
272.436084
 51
276.995043
  0
LINE
  8
0
  6
CONTINUOUS
 62
1
 10
1350.877980
 20
673.049372
 11
1358.213951
 21
638.814838
  0
LINE
  8
0
  6
CONTINUOUS
 62
1
 10
1328.378547
 20
673.049372
 11
1340.611122
 21
615.964022
  0
LINE
  8
0
  6
CONTINUOUS
 62
1
 10
1531.877980
 20
673.049372
 11
1522.620650
 21
629.848501
  0
LINE
  8
0
  6
CONTINUOUS
 62
1
 10
1509.378547
 20
673.049372
 11
1504.404491
 21
649.837112
  0
ARC
  8
0
  6
CONTINUOUS
 62
1
 10
1257.211539
 20
2738.661184
 40
2108.149234
 50
272.942150
 51
276.568384
  0
ARC
  8
0
  6
CONTINUOUS
 62
1
 10
1347.455738
 20
617.430726
 40
7.000000
 50
192.094757
 51
272.436084
  0
ARC
  8
0
  6
CONTINUOUS
 62
1
 10
1515.776033
 20
631.315205
 40
7.000000
 50
276.995043
 51
347.905243
  0
ARC
  8
0
  6
CONTINUOUS
 62
1
 10
1365.058568
 20
640.281541
 40
7.000000
 50
192.094757
 51
272.942150
  0
ARC
  8
0
  6
CONTINUOUS
 62
1
 10
1497.559874
 20
651.303815
 40
7.000000
 50
276.568384
 51
347.905243
  0
LINE
  8
0
  6
CONTINUOUS
 62
1
 10
858.378520
 20
673.049372
 11
1758.378535
 21
673.049372
  0
LINE
  8
0
  6
CONTINUOUS
 62
1
 10
1713.378344
 20
1464.292379
 11
1713.378344
 21
1512.292379
  0
LINE
  8
0
  6
CONTINUOUS
 62
1
 10
1733.378344
 20
1464.292379
 11
1733.378344
 21
1512.292379
  0
LINE
  8
0
  6
CONTINUOUS
 62
1
 10
1733.378344
 20
1512.292379
 11
1713.378344
 21
1512.292379
  0
LINE
  8
0
  6
CENTER
 62
4
 10
1723.378344
 20
1462.281833
 11
1723.378344
 21
1562.302924
  0
LINE
  8
0
  6
CENTER
 62
4
 10
1708.378344
 20
1562.302924
 11
1708.378344
 21
1462.281833
  0
ENDSEC
  0
EOF
