  0
SECTION
  2
HEADER
  9
$LIMMIN
 10
0.000000
 20
0.000000
  9
$LIMMAX
 10
920.010000
 20
923.301000
  9
$EXTMIN
 10
0.000000
 20
0.000000
  9
$EXTMAX
 10
920.010000
 20
923.301000
  9
$ANGBASE
 50
0.0
  9
$ANGDIR
 70
0
  9
$DIMRND
 40
0.100000
  9
$DIMSE1
 70
0
  9
$DIMSE2
 70
0
  9
$DIMTXT
 40
3.500000
  9
$LTSCALE
 40
1.000000
  9
$LUPREC
 70
5
  9
$AUPREC
 70
5
  9
$PDMODE
 70
2
  9
$PDSIZE
 40
4.616505
  0
ENDSEC
  0
SECTION
  2
TABLES
  0
TABLE
  2
VPORT
  70
1
  0
VPORT
  2
*ACTIVE
 70
0
  10
0.0
 20
0.0
 11
1.0
 21
1.0
 12
594.0
 22
420.0
 13
0.0
 23
0.0
 14
10.0
 24
10.0
 15
10.0
 25
10.0
 16
0.0
 26
0.0
 36
1.0
 17
594.0
 27
420.0
 37
100.0
 40
1000.0
 41
1.0
 42
50.0
 43
0.0
 44
0.0
 50
0.0
 51
0.0
 71
0
 72
2000
 73
1
 74
3
 75
0
 76
0
 77
0
 78
1
  0
ENDTAB
  0
TABLE
  2
LTYPE
 70
5
  0
LTYPE
  2
CONTINUOUS
 70
0
  3
Solid line
 72
65
 73
0
 40
0.0
  0
LTYPE
  2
DASHED
 70
0
  3
Dashed line
 72
65
 73
2
 40
6.000000
 49
3.000000
 49
-3.000000
  0
LTYPE
  2
CENTER
 70
0
  3
Chain line
 72
65
 73
4
 40
24.000000
 49
15.000000
 49
-3.000000
 49
3.000000
 49
-3.000000
  0
LTYPE
  2
RANDOM
 70
0
  3
Random line
 72
65
 73
4
 40
22.500000
 49
6.000000
 49
-3.000000
 49
4.500000
 49
-9.000000
  0
LTYPE
  2
CHAIN_2_168430214
  3
CHAIN_2_168430214
 70
0
 72
65
 73
4
 40
24.000000
 49
15.000000
 49
-3.000000
 49
3.000000
 49
-3.000000
  0
ENDTAB
  0
TABLE
  2
STYLE
 70
9
  0
STYLE
  2
STANDARD
 40
0
 41
1.0
 50
0.0
 71
0
 42
0
  3
simplex
  4

 70
0
  0
ENDTAB
  0
TABLE
  2
LAYER
 70
4
  0
LAYER
  2
0
 70
0
 62
7
  6
CONTINUOUS
  0
LAYER
  2
0
 62
1
  6
CONTINUOUS
 70
0
  0
LAYER
  2
MODEL
 62
1
  6
CONTINUOUS
 70
0
  0
LAYER
  2
MODEL-0
 62
1
  6
CONTINUOUS
 70
0
  0
ENDTAB
  0
ENDSEC
  0
SECTION
  2
BLOCKS
  0
ENDSEC
  0
SECTION
  2
ENTITIES
  0
LINE
  8
0
  6
CONTINUOUS
 62
1
 10
795.000000
 20
781.399012
 11
795.000000
 21
282.300000
  0
LINE
  8
MODEL-0
  6
CONTINUOUS
 62
1
 10
835.000529
 20
832.300000
 11
120.000049
 21
832.300000
  0
LINE
  8
MODEL-0
  6
CONTINUOUS
 62
1
 10
120.000049
 20
870.300000
 11
815.823184
 21
870.300000
  0
LINE
  8
MODEL-0
  6
CONTINUOUS
 62
1
 10
834.297586
 20
843.319711
 11
817.520240
 21
869.597057
  0
ARC
  8
MODEL-0
  6
CONTINUOUS
 62
1
 10
832.600529
 20
841.622655
 40
2.400000
 50
0.000000
 51
45.000000
  0
ARC
  8
MODEL-0
  6
CONTINUOUS
 62
1
 10
815.823184
 20
867.900000
 40
2.400000
 50
45.000000
 51
90.000000
  0
LINE
  8
MODEL-0
  6
CONTINUOUS
 62
1
 10
120.000049
 20
908.263578
 11
120.000049
 21
822.300000
  0
LINE
  8
MODEL-0
  6
CONTINUOUS
 62
1
 10
120.000049
 20
908.263578
 11
65.000000
 21
923.300796
  0
ARC
  8
MODEL-0
  6
CONTINUOUS
 62
1
 10
912.221757
 20
729.471068
 40
7.000000
 50
270.000000
 51
348.494427
  0
ARC
  8
MODEL-0
  6
CONTINUOUS
 62
1
 10
912.221757
 20
745.128933
 40
7.000000
 50
11.505573
 51
90.000000
  0
ARC
  8
MODEL-0
  6
CONTINUOUS
 62
1
 10
873.760473
 20
737.300000
 40
46.250000
 50
348.494427
 51
11.505573
  0
LINE
  8
MODEL-0
  6
CONTINUOUS
 62
1
 10
912.221757
 20
752.128933
 11
848.110473
 21
752.128933
  0
LINE
  8
MODEL-0
  6
CONTINUOUS
 62
1
 10
912.221757
 20
722.471068
 11
848.110473
 21
722.471068
  0
LINE
  8
MODEL-0
  6
CONTINUOUS
 62
1
 10
65.000000
 20
923.300796
 11
65.000000
 21
117.300000
  0
LINE
  8
MODEL-0
  6
CONTINUOUS
 62
1
 10
65.000000
 20
117.300000
 11
780.000000
 21
117.300000
  0
LINE
  8
MODEL-0
  6
CONTINUOUS
 62
1
 10
780.000000
 20
117.300000
 11
780.000000
 21
832.300796
  0
LINE
  8
MODEL-0
  6
CONTINUOUS
 62
1
 10
65.000000
 20
132.300000
 11
780.000000
 21
132.300000
  0
LINE
  8
MODEL-0
  6
CONTINUOUS
 62
1
 10
780.000000
 20
177.300000
 11
820.000000
 21
192.300000
  0
LINE
  8
MODEL-0
  6
CONTINUOUS
 62
1
 10
820.000000
 20
192.300000
 11
820.000000
 21
282.300000
  0
LINE
  8
MODEL-0
  6
CONTINUOUS
 62
1
 10
780.000000
 20
282.300000
 11
820.000000
 21
282.300000
  0
LINE
  8
MODEL-0
  6
CONTINUOUS
 62
1
 10
795.000000
 20
292.300000
 11
848.110473
 21
292.300000
  0
LINE
  8
MODEL-0
  6
CONTINUOUS
 62
1
 10
848.110473
 20
292.300000
 11
848.110473
 21
762.300000
  0
LINE
  8
MODEL-0
  6
CONTINUOUS
 62
1
 10
848.110473
 20
762.300000
 11
795.000000
 21
762.300000
  0
LINE
  8
MODEL-0
  6
CONTINUOUS
 62
1
 10
65.000000
 20
642.300000
 11
0.000000
 21
642.300000
  0
LINE
  8
MODEL-0
  6
CONTINUOUS
 62
1
 10
0.000000
 20
642.300000
 11
0.000000
 21
442.300000
  0
LINE
  8
MODEL-0
  6
CONTINUOUS
 62
1
 10
0.000000
 20
442.300000
 11
65.000000
 21
442.300000
  0
LINE
  8
MODEL-0
  6
CONTINUOUS
 62
1
 10
837.435089
 20
822.300000
 11
65.000000
 21
822.300000
  0
LINE
  8
MODEL-0
  6
CONTINUOUS
 62
1
 10
780.000000
 20
781.399012
 11
852.110473
 21
781.399012
  0
LINE
  8
MODEL-0
  6
CONTINUOUS
 62
1
 10
853.910473
 20
783.199012
 11
853.910473
 21
812.143941
  0
LINE
  8
MODEL-0
  6
CONTINUOUS
 62
1
 10
853.910473
 20
812.143941
 11
837.435089
 21
822.300000
  0
ARC
  8
MODEL-0
  6
CONTINUOUS
 62
1
 10
852.110473
 20
783.199012
 40
1.800000
 50
270.000000
 51
0.000000
  0
LINE
  8
MODEL-0
  6
CHAIN_2_168430214
 62
4
 10
112.402380
 20
502.300000
 11
12.381289
 21
502.300000
  0
LINE
  8
MODEL-0
  6
CHAIN_2_168430214
 62
4
 10
112.402380
 20
438.740000
 11
12.381289
 21
438.740000
  0
LINE
  8
MODEL-0
  6
CONTINUOUS
 62
1
 10
835.000529
 20
841.622655
 11
835.000529
 21
832.300000
  0
LINE
  8
MODEL-0
  6
CONTINUOUS
 62
1
 10
715.041677
 20
117.300000
 11
715.831907
 21
41.438146
  0
LINE
  8
MODEL-0
  6
CONTINUOUS
 62
1
 10
720.800000
 20
1.000000
 11
721.300000
 21
1.000000
  0
LINE
  8
MODEL-0
  6
CONTINUOUS
 62
1
 10
721.300000
 20
1.000000
 11
720.800000
 21
1.000000
  0
LINE
  8
MODEL-0
  6
CONTINUOUS
 62
1
 10
763.300000
 20
1.000000
 11
752.300000
 21
4.999985
  0
LINE
  8
MODEL-0
  6
CONTINUOUS
 62
1
 10
711.300000
 20
1.000000
 11
722.300000
 21
4.999985
  0
ARC
  8
MODEL-0
  6
CONTINUOUS
 62
1
 10
752.768430
 20
41.500646
 40
5.999996
 50
269.999969
 51
359.403160
  0
ARC
  8
MODEL-0
  6
CONTINUOUS
 62
1
 10
721.831586
 20
41.500646
 40
6.000000
 50
180.596802
 51
270.000000
  0
LINE
  8
MODEL-0
  6
CONTINUOUS
 62
1
 10
758.800000
 20
44.500646
 11
715.800000
 21
44.500646
  0
LINE
  8
MODEL-0
  6
CONTINUOUS
 62
1
 10
759.558333
 20
117.300000
 11
758.768110
 21
41.438146
  0
LINE
  8
MODEL-0
  6
CONTINUOUS
 62
1
 10
722.300000
 20
35.500646
 11
722.300000
 21
4.999985
  0
LINE
  8
MODEL-0
  6
CONTINUOUS
 62
1
 10
752.300000
 20
35.500646
 11
752.300000
 21
4.999985
  0
LINE
  8
MODEL-0
  6
CONTINUOUS
 62
1
 10
763.300000
 20
1.000000
 11
753.300000
 21
1.000000
  0
LINE
  8
MODEL-0
  6
CONTINUOUS
 62
1
 10
711.300000
 20
1.000000
 11
711.300000
 21
0.000000
  0
LINE
  8
MODEL-0
  6
CONTINUOUS
 62
1
 10
753.800000
 20
1.000000
 11
711.300000
 21
1.000000
  0
LINE
  8
MODEL-0
  6
CONTINUOUS
 62
1
 10
752.300000
 20
4.999985
 11
722.330945
 21
4.999985
  0
LINE
  8
MODEL-0
  6
CONTINUOUS
 62
1
 10
752.768430
 20
35.500646
 11
721.831586
 21
35.500646
  0
LINE
  8
MODEL-0
  6
CONTINUOUS
 62
1
 10
763.300000
 20
1.000000
 11
763.300000
 21
0.000000
  0
LINE
  8
MODEL-0
  6
CONTINUOUS
 62
1
 10
711.300000
 20
0.000000
 11
763.300000
 21
0.000000
  0
LINE
  8
MODEL-0
  6
CONTINUOUS
 62
1
 10
99.441677
 20
117.300000
 11
100.231907
 21
41.438146
  0
LINE
  8
MODEL-0
  6
CONTINUOUS
 62
1
 10
105.200000
 20
1.000000
 11
105.700000
 21
1.000000
  0
LINE
  8
MODEL-0
  6
CONTINUOUS
 62
1
 10
105.700000
 20
1.000000
 11
105.200000
 21
1.000000
  0
LINE
  8
MODEL-0
  6
CONTINUOUS
 62
1
 10
147.700000
 20
1.000000
 11
136.700000
 21
4.999985
  0
LINE
  8
MODEL-0
  6
CONTINUOUS
 62
1
 10
95.700000
 20
1.000000
 11
106.700000
 21
4.999985
  0
ARC
  8
MODEL-0
  6
CONTINUOUS
 62
1
 10
137.168430
 20
41.500646
 40
5.999996
 50
269.999969
 51
359.403160
  0
ARC
  8
MODEL-0
  6
CONTINUOUS
 62
1
 10
106.231586
 20
41.500646
 40
6.000000
 50
180.596802
 51
270.000000
  0
LINE
  8
MODEL-0
  6
CONTINUOUS
 62
1
 10
143.200000
 20
44.500646
 11
100.200000
 21
44.500646
  0
LINE
  8
MODEL-0
  6
CONTINUOUS
 62
1
 10
143.958333
 20
117.300000
 11
143.168110
 21
41.438146
  0
LINE
  8
MODEL-0
  6
CONTINUOUS
 62
1
 10
106.700000
 20
35.500646
 11
106.700000
 21
4.999985
  0
LINE
  8
MODEL-0
  6
CONTINUOUS
 62
1
 10
136.700000
 20
35.500646
 11
136.700000
 21
4.999985
  0
LINE
  8
MODEL-0
  6
CONTINUOUS
 62
1
 10
147.700000
 20
1.000000
 11
137.700000
 21
1.000000
  0
LINE
  8
MODEL-0
  6
CONTINUOUS
 62
1
 10
95.700000
 20
1.000000
 11
95.700000
 21
0.000000
  0
LINE
  8
MODEL-0
  6
CONTINUOUS
 62
1
 10
138.200000
 20
1.000000
 11
95.700000
 21
1.000000
  0
LINE
  8
MODEL-0
  6
CONTINUOUS
 62
1
 10
136.700000
 20
4.999985
 11
106.730945
 21
4.999985
  0
LINE
  8
MODEL-0
  6
CONTINUOUS
 62
1
 10
137.168430
 20
35.500646
 11
106.231586
 21
35.500646
  0
LINE
  8
MODEL-0
  6
CONTINUOUS
 62
1
 10
147.700000
 20
1.000000
 11
147.700000
 21
0.000000
  0
LINE
  8
MODEL-0
  6
CONTINUOUS
 62
1
 10
95.700000
 20
0.000000
 11
147.700000
 21
0.000000
  0
LINE
  8
MODEL-0
  6
CONTINUOUS
 62
1
 10
17.000000
 20
429.093691
 11
65.000000
 21
429.093691
  0
LINE
  8
MODEL-0
  6
CONTINUOUS
 62
1
 10
17.000000
 20
429.093691
 11
17.000000
 21
442.300000
  0
ENDSEC
  0
EOF
