  0
SECTION
  2
HEADER
  9
$LIMMIN
 10
0.000000
 20
0.000000
  9
$LIMMAX
 10
840.896415
 20
594.603557
  9
$EXTMIN
 10
0.000000
 20
0.000000
  9
$EXTMAX
 10
3363.600000
 20
2378.420000
  9
$ANGBASE
 50
0.0
  9
$ANGDIR
 70
0
  9
$DIMRND
 40
0.100000
  9
$DIMSE1
 70
0
  9
$DIMSE2
 70
0
  9
$DIMTXT
 40
3.500000
  9
$LTSCALE
 40
1.000000
  9
$LUPREC
 70
5
  9
$AUPREC
 70
5
  9
$PDMODE
 70
2
  9
$PDSIZE
 40
16.818000
  0
ENDSEC
  0
SECTION
  2
TABLES
  0
TABLE
  2
VPORT
  70
1
  0
VPORT
  2
*ACTIVE
 70
0
  10
0.0
 20
0.0
 11
1.0
 21
1.0
 12
594.0
 22
420.0
 13
0.0
 23
0.0
 14
10.0
 24
10.0
 15
10.0
 25
10.0
 16
0.0
 26
0.0
 36
1.0
 17
594.0
 27
420.0
 37
100.0
 40
1000.0
 41
1.0
 42
50.0
 43
0.0
 44
0.0
 50
0.0
 51
0.0
 71
0
 72
2000
 73
1
 74
3
 75
0
 76
0
 77
0
 78
1
  0
ENDTAB
  0
TABLE
  2
LTYPE
 70
4
  0
LTYPE
  2
CONTINUOUS
 70
0
  3
Solid line
 72
65
 73
0
 40
0.0
  0
LTYPE
  2
DASHED
 70
0
  3
Dashed line
 72
65
 73
2
 40
6.000000
 49
3.000000
 49
-3.000000
  0
LTYPE
  2
CENTER
 70
0
  3
Chain line
 72
65
 73
4
 40
24.000000
 49
15.000000
 49
-3.000000
 49
3.000000
 49
-3.000000
  0
LTYPE
  2
RANDOM
 70
0
  3
Random line
 72
65
 73
4
 40
22.500000
 49
6.000000
 49
-3.000000
 49
4.500000
 49
-9.000000
  0
ENDTAB
  0
TABLE
  2
STYLE
 70
9
  0
STYLE
  2
STANDARD
 40
0
 41
1.0
 50
0.0
 71
0
 42
0
  3
simplex
  4

 70
0
  0
ENDTAB
  0
TABLE
  2
LAYER
 70
2
  0
LAYER
  2
0
 70
0
 62
7
  6
CONTINUOUS
  0
LAYER
  2
0
 62
1
  6
CONTINUOUS
 70
0
  0
ENDTAB
  0
ENDSEC
  0
SECTION
  2
BLOCKS
  0
ENDSEC
  0
SECTION
  2
ENTITIES
  0
LINE
  8
0
  6
CONTINUOUS
 62
1
 10
965.444111
 20
790.814319
 11
1137.144111
 21
790.814319
  0
ARC
  8
0
  6
CONTINUOUS
 62
1
 10
1137.144111
 20
770.814319
 40
20.000000
 50
26.257000
 51
89.999000
  0
LINE
  8
0
  6
CONTINUOUS
 62
1
 10
1155.084111
 20
779.664319
 11
1162.904111
 21
763.824319
  0
ARC
  8
0
  6
CONTINUOUS
 62
1
 10
1207.944111
 20
786.044319
 40
50.230000
 50
206.257000
 51
270.000000
  0
ARC
  8
0
  6
CONTINUOUS
 62
1
 10
1207.944111
 20
786.044319
 40
50.230000
 50
270.000000
 51
333.744000
  0
LINE
  8
0
  6
CONTINUOUS
 62
1
 10
1252.984111
 20
763.824319
 11
1260.804111
 21
779.664319
  0
ARC
  8
0
  6
CONTINUOUS
 62
1
 10
1278.744111
 20
770.814319
 40
20.000000
 50
90.001000
 51
153.743000
  0
LINE
  8
0
  6
CONTINUOUS
 62
1
 10
1278.734111
 20
790.814319
 11
1450.444111
 21
790.814319
  0
LINE
  8
0
  6
CONTINUOUS
 62
1
 10
950.444111
 20
825.814319
 11
950.444111
 21
745.814319
  0
ARC
  8
0
  6
CONTINUOUS
 62
1
 10
1002.944111
 20
745.814319
 40
52.500000
 50
180.000000
 51
270.000000
  0
LINE
  8
0
  6
CONTINUOUS
 62
1
 10
1002.944111
 20
693.314319
 11
1412.944111
 21
693.314319
  0
ARC
  8
0
  6
CONTINUOUS
 62
1
 10
1412.944111
 20
745.814319
 40
52.500000
 50
270.000000
 51
0.000000
  0
LINE
  8
0
  6
CONTINUOUS
 62
1
 10
1465.444111
 20
745.814319
 11
1465.444111
 21
825.814319
  0
LINE
  8
0
  6
CONTINUOUS
 62
1
 10
965.444111
 20
825.814319
 11
965.444111
 21
745.814319
  0
ARC
  8
0
  6
CONTINUOUS
 62
1
 10
1002.944111
 20
745.814319
 40
37.500000
 50
180.000000
 51
270.000000
  0
LINE
  8
0
  6
CONTINUOUS
 62
1
 10
1002.944111
 20
708.314319
 11
1412.944111
 21
708.314319
  0
ARC
  8
0
  6
CONTINUOUS
 62
1
 10
1412.944111
 20
745.814319
 40
37.500000
 50
270.000000
 51
0.000000
  0
LINE
  8
0
  6
CONTINUOUS
 62
1
 10
1450.444111
 20
745.814319
 11
1450.444111
 21
825.814319
  0
LINE
  8
0
  6
CONTINUOUS
 62
1
 10
1465.444111
 20
790.814319
 11
1507.944111
 21
790.814319
  0
LINE
  8
0
  6
CONTINUOUS
 62
1
 10
1507.944111
 20
790.814319
 11
1507.944111
 21
1560.814319
  0
LINE
  8
0
  6
CONTINUOUS
 62
1
 10
1507.944111
 20
1560.814319
 11
907.944111
 21
1560.814319
  0
LINE
  8
0
  6
CONTINUOUS
 62
1
 10
907.944111
 20
1560.814319
 11
907.944111
 21
790.814319
  0
LINE
  8
0
  6
CONTINUOUS
 62
1
 10
907.944111
 20
790.814319
 11
950.444111
 21
790.814319
  0
LINE
  8
0
  6
CONTINUOUS
 62
1
 10
932.944111
 20
1410.814319
 11
932.944111
 21
825.814319
  0
LINE
  8
0
  6
CONTINUOUS
 62
1
 10
932.944111
 20
825.814319
 11
1482.944111
 21
825.814319
  0
LINE
  8
0
  6
CONTINUOUS
 62
1
 10
1482.944111
 20
825.814319
 11
1482.944111
 21
1410.814319
  0
LINE
  8
0
  6
CONTINUOUS
 62
1
 10
907.944111
 20
1410.814319
 11
1507.944111
 21
1410.814319
  0
LINE
  8
0
  6
CONTINUOUS
 62
1
 10
1507.944111
 20
1470.814319
 11
907.944111
 21
1470.814319
  0
LINE
  8
0
  6
CONTINUOUS
 62
1
 10
947.944111
 20
1470.814319
 11
947.944111
 21
1410.814319
  0
LINE
  8
0
  6
CONTINUOUS
 62
1
 10
947.944111
 20
1457.744319
 11
1042.944111
 21
1457.744319
  0
LINE
  8
0
  6
CONTINUOUS
 62
1
 10
1042.944111
 20
1457.744319
 11
1042.944111
 21
1423.404319
  0
LINE
  8
0
  6
CONTINUOUS
 62
1
 10
1042.944111
 20
1423.404319
 11
966.064111
 21
1423.404319
  0
LINE
  8
0
  6
CONTINUOUS
 62
1
 10
966.064111
 20
1439.434319
 11
966.064111
 21
1410.814319
  0
LINE
  8
0
  6
CONTINUOUS
 62
1
 10
1467.944111
 20
1470.814319
 11
1467.944111
 21
1410.814319
  0
LINE
  8
0
  6
CONTINUOUS
 62
1
 10
1467.944111
 20
1457.744319
 11
1372.944111
 21
1457.744319
  0
LINE
  8
0
  6
CONTINUOUS
 62
1
 10
1372.944111
 20
1457.744319
 11
1372.944111
 21
1423.404319
  0
LINE
  8
0
  6
CONTINUOUS
 62
1
 10
1372.944111
 20
1423.404319
 11
1449.824111
 21
1423.404319
  0
LINE
  8
0
  6
CONTINUOUS
 62
1
 10
1449.824111
 20
1439.434319
 11
1449.824111
 21
1410.814319
  0
ARC
  8
0
  6
CONTINUOUS
 62
1
 10
1279.284111
 20
805.814319
 40
20.000000
 50
90.003000
 51
153.742000
  0
LINE
  8
0
  6
CONTINUOUS
 62
1
 10
1261.344111
 20
814.664319
 11
1239.534111
 21
770.454319
  0
ARC
  8
0
  6
CONTINUOUS
 62
1
 10
1207.944111
 20
786.044319
 40
35.230000
 50
269.999000
 51
333.742000
  0
ARC
  8
0
  6
CONTINUOUS
 62
1
 10
1207.944111
 20
786.044319
 40
35.230000
 50
206.257000
 51
270.001000
  0
LINE
  8
0
  6
CONTINUOUS
 62
1
 10
1176.354111
 20
770.454319
 11
1154.544111
 21
814.664319
  0
ARC
  8
0
  6
CONTINUOUS
 62
1
 10
1136.604111
 20
805.814319
 40
20.000000
 50
26.259000
 51
89.998000
  0
LINE
  8
0
  6
CONTINUOUS
 62
1
 10
1166.814111
 20
825.814319
 11
1178.854111
 21
796.734319
  0
LINE
  8
0
  6
CONTINUOUS
 62
1
 10
1178.854111
 20
796.734319
 11
1207.944111
 21
784.684319
  0
LINE
  8
0
  6
CONTINUOUS
 62
1
 10
1207.944111
 20
784.684319
 11
1237.024111
 21
796.734319
  0
LINE
  8
0
  6
CONTINUOUS
 62
1
 10
1237.024111
 20
796.734319
 11
1249.074111
 21
825.814319
  0
LINE
  8
0
  6
CONTINUOUS
 62
1
 10
1450.444111
 20
783.814319
 11
1355.444111
 21
783.814319
  0
LINE
  8
0
  6
CONTINUOUS
 62
1
 10
1355.444111
 20
783.814319
 11
1355.444111
 21
750.814319
  0
LINE
  8
0
  6
CONTINUOUS
 62
1
 10
1355.444111
 20
750.814319
 11
1450.444111
 21
750.814319
  0
LINE
  8
0
  6
CONTINUOUS
 62
1
 10
1465.444111
 20
750.814319
 11
1500.444111
 21
750.814319
  0
LINE
  8
0
  6
CONTINUOUS
 62
1
 10
1500.444111
 20
750.814319
 11
1500.444111
 21
783.814319
  0
LINE
  8
0
  6
CONTINUOUS
 62
1
 10
1500.444111
 20
783.814319
 11
1465.444111
 21
783.814319
  0
LINE
  8
0
  6
CONTINUOUS
 62
1
 10
1407.944111
 20
790.814319
 11
1407.944111
 21
783.814319
  0
LINE
  8
0
  6
CONTINUOUS
 62
1
 10
1447.944111
 20
783.814319
 11
1447.944111
 21
790.814319
  0
LINE
  8
0
  6
CENTER
 62
4
 10
1207.944111
 20
1580.814319
 11
1207.944111
 21
1491.314319
  0
LINE
  8
0
  6
CONTINUOUS
 62
1
 10
1160.252017
 20
1545.262328
 11
1146.036144
 21
1545.262328
  0
LINE
  8
0
  6
CONTINUOUS
 62
1
 10
970.176144
 20
1554.862328
 11
985.712017
 21
1554.862328
  0
LINE
  8
0
  6
CONTINUOUS
 62
1
 10
992.736144
 20
1554.862328
 11
1006.952017
 21
1554.862328
  0
LINE
  8
0
  6
CONTINUOUS
 62
1
 10
1013.976144
 20
1554.862328
 11
1029.512017
 21
1554.862328
  0
LINE
  8
0
  6
CONTINUOUS
 62
1
 10
1036.536144
 20
1554.862328
 11
1050.752017
 21
1554.862328
  0
LINE
  8
0
  6
CONTINUOUS
 62
1
 10
1057.776144
 20
1554.862328
 11
1073.312017
 21
1554.862328
  0
LINE
  8
0
  6
CONTINUOUS
 62
1
 10
1080.336144
 20
1554.862328
 11
1094.552017
 21
1554.862328
  0
LINE
  8
0
  6
CONTINUOUS
 62
1
 10
1101.576144
 20
1554.862328
 11
1117.112017
 21
1554.862328
  0
LINE
  8
0
  6
CONTINUOUS
 62
1
 10
1124.136144
 20
1554.862328
 11
1138.352017
 21
1554.862328
  0
LINE
  8
0
  6
CONTINUOUS
 62
1
 10
1145.376144
 20
1554.862328
 11
1160.912017
 21
1554.862328
  0
LINE
  8
0
  6
CONTINUOUS
 62
1
 10
968.848135
 20
1546.972395
 11
968.188135
 21
1552.732395
  0
LINE
  8
0
  6
CONTINUOUS
 62
1
 10
1012.648135
 20
1546.972395
 11
1011.988135
 21
1552.732395
  0
LINE
  8
0
  6
CONTINUOUS
 62
1
 10
1056.448135
 20
1546.972395
 11
1055.788135
 21
1552.732395
  0
LINE
  8
0
  6
CONTINUOUS
 62
1
 10
1100.248135
 20
1546.972395
 11
1099.588135
 21
1552.732395
  0
LINE
  8
0
  6
CONTINUOUS
 62
1
 10
1144.048135
 20
1546.972395
 11
1143.388135
 21
1552.732395
  0
LINE
  8
0
  6
CONTINUOUS
 62
1
 10
987.040025
 20
1546.972395
 11
987.700025
 21
1552.732395
  0
LINE
  8
0
  6
CONTINUOUS
 62
1
 10
1030.840025
 20
1546.972395
 11
1031.500025
 21
1552.732395
  0
LINE
  8
0
  6
CONTINUOUS
 62
1
 10
1074.640025
 20
1546.972395
 11
1075.300025
 21
1552.732395
  0
LINE
  8
0
  6
CONTINUOUS
 62
1
 10
1118.440025
 20
1546.972395
 11
1119.100025
 21
1552.732395
  0
LINE
  8
0
  6
CONTINUOUS
 62
1
 10
1162.240025
 20
1546.972395
 11
1162.900025
 21
1552.732395
  0
LINE
  8
0
  6
CONTINUOUS
 62
1
 10
990.748135
 20
1553.152262
 11
990.088135
 21
1547.392262
  0
LINE
  8
0
  6
CONTINUOUS
 62
1
 10
1008.940025
 20
1553.152262
 11
1009.600025
 21
1547.392262
  0
LINE
  8
0
  6
CONTINUOUS
 62
1
 10
1034.548135
 20
1553.152262
 11
1033.888135
 21
1547.392262
  0
LINE
  8
0
  6
CONTINUOUS
 62
1
 10
1052.740025
 20
1553.152262
 11
1053.400025
 21
1547.392262
  0
LINE
  8
0
  6
CONTINUOUS
 62
1
 10
1078.348135
 20
1553.152262
 11
1077.688135
 21
1547.392262
  0
LINE
  8
0
  6
CONTINUOUS
 62
1
 10
1096.540025
 20
1553.152262
 11
1097.200025
 21
1547.392262
  0
LINE
  8
0
  6
CONTINUOUS
 62
1
 10
1122.148135
 20
1553.152262
 11
1121.488135
 21
1547.392262
  0
LINE
  8
0
  6
CONTINUOUS
 62
1
 10
1140.340025
 20
1553.152262
 11
1141.000025
 21
1547.392262
  0
LINE
  8
0
  6
CONTINUOUS
 62
1
 10
985.052017
 20
1545.262328
 11
970.836144
 21
1545.262328
  0
LINE
  8
0
  6
CONTINUOUS
 62
1
 10
1007.612017
 20
1545.262328
 11
992.076144
 21
1545.262328
  0
LINE
  8
0
  6
CONTINUOUS
 62
1
 10
1028.852017
 20
1545.262328
 11
1014.636144
 21
1545.262328
  0
LINE
  8
0
  6
CONTINUOUS
 62
1
 10
1051.412017
 20
1545.262328
 11
1035.876144
 21
1545.262328
  0
LINE
  8
0
  6
CONTINUOUS
 62
1
 10
1072.652017
 20
1545.262328
 11
1058.436144
 21
1545.262328
  0
LINE
  8
0
  6
CONTINUOUS
 62
1
 10
1095.212017
 20
1545.262328
 11
1079.676144
 21
1545.262328
  0
LINE
  8
0
  6
CONTINUOUS
 62
1
 10
1116.452017
 20
1545.262328
 11
1102.236144
 21
1545.262328
  0
LINE
  8
0
  6
CONTINUOUS
 62
1
 10
1139.012017
 20
1545.262328
 11
1123.476144
 21
1545.262328
  0
POLYLINE
  8
0
  6
CONTINUOUS
 62
1
 66
1
 70
2
  0
VERTEX
  8
0
 10
970.176144
 20
1554.862328
 70
0
 42
0.207373
  0
VERTEX
  8
0
 10
968.686620
 20
1554.223603
 70
0
 42
0.220328
  0
VERTEX
  8
0
 10
968.188135
 20
1552.732395
 70
0
  0
SEQEND
  0
POLYLINE
  8
0
  6
CONTINUOUS
 62
1
 66
1
 70
2
  0
VERTEX
  8
0
 10
968.848135
 20
1546.972395
 70
0
 42
0.189055
  0
VERTEX
  8
0
 10
969.501483
 20
1545.752386
 70
0
 42
0.179121
  0
VERTEX
  8
0
 10
970.836144
 20
1545.262328
 70
0
  0
SEQEND
  0
POLYLINE
  8
0
  6
CONTINUOUS
 62
1
 66
1
 70
2
  0
VERTEX
  8
0
 10
985.052017
 20
1545.262328
 70
0
 42
0.179121
  0
VERTEX
  8
0
 10
986.386677
 20
1545.752386
 70
0
 42
0.189055
  0
VERTEX
  8
0
 10
987.040025
 20
1546.972395
 70
0
  0
SEQEND
  0
POLYLINE
  8
0
  6
CONTINUOUS
 62
1
 66
1
 70
2
  0
VERTEX
  8
0
 10
987.700025
 20
1552.732395
 70
0
 42
0.220328
  0
VERTEX
  8
0
 10
987.201540
 20
1554.223603
 70
0
 42
0.207373
  0
VERTEX
  8
0
 10
985.712017
 20
1554.862328
 70
0
  0
SEQEND
  0
POLYLINE
  8
0
  6
CONTINUOUS
 62
1
 66
1
 70
2
  0
VERTEX
  8
0
 10
990.748135
 20
1553.152262
 70
0
 42
-0.189055
  0
VERTEX
  8
0
 10
991.401483
 20
1554.372271
 70
0
 42
-0.179121
  0
VERTEX
  8
0
 10
992.736144
 20
1554.862328
 70
0
  0
SEQEND
  0
POLYLINE
  8
0
  6
CONTINUOUS
 62
1
 66
1
 70
2
  0
VERTEX
  8
0
 10
1006.952017
 20
1554.862328
 70
0
 42
-0.179121
  0
VERTEX
  8
0
 10
1008.286677
 20
1554.372271
 70
0
 42
-0.189055
  0
VERTEX
  8
0
 10
1008.940025
 20
1553.152262
 70
0
  0
SEQEND
  0
POLYLINE
  8
0
  6
CONTINUOUS
 62
1
 66
1
 70
2
  0
VERTEX
  8
0
 10
1009.600025
 20
1547.392262
 70
0
 42
-0.220328
  0
VERTEX
  8
0
 10
1009.101540
 20
1545.901054
 70
0
 42
-0.207373
  0
VERTEX
  8
0
 10
1007.612017
 20
1545.262328
 70
0
  0
SEQEND
  0
POLYLINE
  8
0
  6
CONTINUOUS
 62
1
 66
1
 70
2
  0
VERTEX
  8
0
 10
992.076144
 20
1545.262328
 70
0
 42
-0.207373
  0
VERTEX
  8
0
 10
990.586620
 20
1545.901054
 70
0
 42
-0.220328
  0
VERTEX
  8
0
 10
990.088135
 20
1547.392262
 70
0
  0
SEQEND
  0
POLYLINE
  8
0
  6
CONTINUOUS
 62
1
 66
1
 70
2
  0
VERTEX
  8
0
 10
1012.648135
 20
1546.972395
 70
0
 42
0.189055
  0
VERTEX
  8
0
 10
1013.301483
 20
1545.752386
 70
0
 42
0.179121
  0
VERTEX
  8
0
 10
1014.636144
 20
1545.262328
 70
0
  0
SEQEND
  0
POLYLINE
  8
0
  6
CONTINUOUS
 62
1
 66
1
 70
2
  0
VERTEX
  8
0
 10
1028.852017
 20
1545.262328
 70
0
 42
0.179121
  0
VERTEX
  8
0
 10
1030.186677
 20
1545.752386
 70
0
 42
0.189055
  0
VERTEX
  8
0
 10
1030.840025
 20
1546.972395
 70
0
  0
SEQEND
  0
POLYLINE
  8
0
  6
CONTINUOUS
 62
1
 66
1
 70
2
  0
VERTEX
  8
0
 10
1031.500025
 20
1552.732395
 70
0
 42
0.220328
  0
VERTEX
  8
0
 10
1031.001540
 20
1554.223603
 70
0
 42
0.207373
  0
VERTEX
  8
0
 10
1029.512017
 20
1554.862328
 70
0
  0
SEQEND
  0
POLYLINE
  8
0
  6
CONTINUOUS
 62
1
 66
1
 70
2
  0
VERTEX
  8
0
 10
1013.976144
 20
1554.862328
 70
0
 42
0.207373
  0
VERTEX
  8
0
 10
1012.486620
 20
1554.223603
 70
0
 42
0.220328
  0
VERTEX
  8
0
 10
1011.988135
 20
1552.732395
 70
0
  0
SEQEND
  0
POLYLINE
  8
0
  6
CONTINUOUS
 62
1
 66
1
 70
2
  0
VERTEX
  8
0
 10
1036.536144
 20
1554.862328
 70
0
 42
0.179121
  0
VERTEX
  8
0
 10
1035.201483
 20
1554.372271
 70
0
 42
0.189055
  0
VERTEX
  8
0
 10
1034.548135
 20
1553.152262
 70
0
  0
SEQEND
  0
POLYLINE
  8
0
  6
CONTINUOUS
 62
1
 66
1
 70
2
  0
VERTEX
  8
0
 10
1033.888135
 20
1547.392262
 70
0
 42
0.220328
  0
VERTEX
  8
0
 10
1034.386620
 20
1545.901054
 70
0
 42
0.207373
  0
VERTEX
  8
0
 10
1035.876144
 20
1545.262328
 70
0
  0
SEQEND
  0
POLYLINE
  8
0
  6
CONTINUOUS
 62
1
 66
1
 70
2
  0
VERTEX
  8
0
 10
1051.412017
 20
1545.262328
 70
0
 42
0.207373
  0
VERTEX
  8
0
 10
1052.901540
 20
1545.901054
 70
0
 42
0.220328
  0
VERTEX
  8
0
 10
1053.400025
 20
1547.392262
 70
0
  0
SEQEND
  0
POLYLINE
  8
0
  6
CONTINUOUS
 62
1
 66
1
 70
2
  0
VERTEX
  8
0
 10
1052.740025
 20
1553.152262
 70
0
 42
0.189055
  0
VERTEX
  8
0
 10
1052.086677
 20
1554.372271
 70
0
 42
0.179121
  0
VERTEX
  8
0
 10
1050.752017
 20
1554.862328
 70
0
  0
SEQEND
  0
POLYLINE
  8
0
  6
CONTINUOUS
 62
1
 66
1
 70
2
  0
VERTEX
  8
0
 10
1055.788135
 20
1552.732395
 70
0
 42
-0.220328
  0
VERTEX
  8
0
 10
1056.286620
 20
1554.223603
 70
0
 42
-0.207373
  0
VERTEX
  8
0
 10
1057.776144
 20
1554.862328
 70
0
  0
SEQEND
  0
POLYLINE
  8
0
  6
CONTINUOUS
 62
1
 66
1
 70
2
  0
VERTEX
  8
0
 10
1073.312017
 20
1554.862328
 70
0
 42
-0.207373
  0
VERTEX
  8
0
 10
1074.801540
 20
1554.223603
 70
0
 42
-0.220328
  0
VERTEX
  8
0
 10
1075.300025
 20
1552.732395
 70
0
  0
SEQEND
  0
POLYLINE
  8
0
  6
CONTINUOUS
 62
1
 66
1
 70
2
  0
VERTEX
  8
0
 10
1074.640025
 20
1546.972395
 70
0
 42
-0.189055
  0
VERTEX
  8
0
 10
1073.986677
 20
1545.752386
 70
0
 42
-0.179121
  0
VERTEX
  8
0
 10
1072.652017
 20
1545.262328
 70
0
  0
SEQEND
  0
POLYLINE
  8
0
  6
CONTINUOUS
 62
1
 66
1
 70
2
  0
VERTEX
  8
0
 10
1058.436144
 20
1545.262328
 70
0
 42
-0.179121
  0
VERTEX
  8
0
 10
1057.101483
 20
1545.752386
 70
0
 42
-0.189055
  0
VERTEX
  8
0
 10
1056.448135
 20
1546.972395
 70
0
  0
SEQEND
  0
POLYLINE
  8
0
  6
CONTINUOUS
 62
1
 66
1
 70
2
  0
VERTEX
  8
0
 10
1077.688135
 20
1547.392262
 70
0
 42
0.220328
  0
VERTEX
  8
0
 10
1078.186620
 20
1545.901054
 70
0
 42
0.207373
  0
VERTEX
  8
0
 10
1079.676144
 20
1545.262328
 70
0
  0
SEQEND
  0
POLYLINE
  8
0
  6
CONTINUOUS
 62
1
 66
1
 70
2
  0
VERTEX
  8
0
 10
1095.212017
 20
1545.262328
 70
0
 42
0.207373
  0
VERTEX
  8
0
 10
1096.701540
 20
1545.901054
 70
0
 42
0.220328
  0
VERTEX
  8
0
 10
1097.200025
 20
1547.392262
 70
0
  0
SEQEND
  0
POLYLINE
  8
0
  6
CONTINUOUS
 62
1
 66
1
 70
2
  0
VERTEX
  8
0
 10
1096.540025
 20
1553.152262
 70
0
 42
0.189055
  0
VERTEX
  8
0
 10
1095.886677
 20
1554.372271
 70
0
 42
0.179121
  0
VERTEX
  8
0
 10
1094.552017
 20
1554.862328
 70
0
  0
SEQEND
  0
POLYLINE
  8
0
  6
CONTINUOUS
 62
1
 66
1
 70
2
  0
VERTEX
  8
0
 10
1080.336144
 20
1554.862328
 70
0
 42
0.179121
  0
VERTEX
  8
0
 10
1079.001483
 20
1554.372271
 70
0
 42
0.189055
  0
VERTEX
  8
0
 10
1078.348135
 20
1553.152262
 70
0
  0
SEQEND
  0
POLYLINE
  8
0
  6
CONTINUOUS
 62
1
 66
1
 70
2
  0
VERTEX
  8
0
 10
1101.576144
 20
1554.862328
 70
0
 42
0.207373
  0
VERTEX
  8
0
 10
1100.086620
 20
1554.223603
 70
0
 42
0.220328
  0
VERTEX
  8
0
 10
1099.588135
 20
1552.732395
 70
0
  0
SEQEND
  0
POLYLINE
  8
0
  6
CONTINUOUS
 62
1
 66
1
 70
2
  0
VERTEX
  8
0
 10
1100.248135
 20
1546.972395
 70
0
 42
0.189055
  0
VERTEX
  8
0
 10
1100.901483
 20
1545.752386
 70
0
 42
0.179121
  0
VERTEX
  8
0
 10
1102.236144
 20
1545.262328
 70
0
  0
SEQEND
  0
POLYLINE
  8
0
  6
CONTINUOUS
 62
1
 66
1
 70
2
  0
VERTEX
  8
0
 10
1116.452017
 20
1545.262328
 70
0
 42
0.179121
  0
VERTEX
  8
0
 10
1117.786677
 20
1545.752386
 70
0
 42
0.189055
  0
VERTEX
  8
0
 10
1118.440025
 20
1546.972395
 70
0
  0
SEQEND
  0
POLYLINE
  8
0
  6
CONTINUOUS
 62
1
 66
1
 70
2
  0
VERTEX
  8
0
 10
1119.100025
 20
1552.732395
 70
0
 42
0.220328
  0
VERTEX
  8
0
 10
1118.601540
 20
1554.223603
 70
0
 42
0.207373
  0
VERTEX
  8
0
 10
1117.112017
 20
1554.862328
 70
0
  0
SEQEND
  0
POLYLINE
  8
0
  6
CONTINUOUS
 62
1
 66
1
 70
2
  0
VERTEX
  8
0
 10
1124.136144
 20
1554.862328
 70
0
 42
0.179121
  0
VERTEX
  8
0
 10
1122.801483
 20
1554.372271
 70
0
 42
0.189055
  0
VERTEX
  8
0
 10
1122.148135
 20
1553.152262
 70
0
  0
SEQEND
  0
POLYLINE
  8
0
  6
CONTINUOUS
 62
1
 66
1
 70
2
  0
VERTEX
  8
0
 10
1121.488135
 20
1547.392262
 70
0
 42
0.220328
  0
VERTEX
  8
0
 10
1121.986620
 20
1545.901054
 70
0
 42
0.207373
  0
VERTEX
  8
0
 10
1123.476144
 20
1545.262328
 70
0
  0
SEQEND
  0
POLYLINE
  8
0
  6
CONTINUOUS
 62
1
 66
1
 70
2
  0
VERTEX
  8
0
 10
1139.012017
 20
1545.262328
 70
0
 42
0.207373
  0
VERTEX
  8
0
 10
1140.501540
 20
1545.901054
 70
0
 42
0.220328
  0
VERTEX
  8
0
 10
1141.000025
 20
1547.392262
 70
0
  0
SEQEND
  0
POLYLINE
  8
0
  6
CONTINUOUS
 62
1
 66
1
 70
2
  0
VERTEX
  8
0
 10
1138.352017
 20
1554.862328
 70
0
 42
-0.179121
  0
VERTEX
  8
0
 10
1139.686677
 20
1554.372271
 70
0
 42
-0.189055
  0
VERTEX
  8
0
 10
1140.340025
 20
1553.152262
 70
0
  0
SEQEND
  0
POLYLINE
  8
0
  6
CONTINUOUS
 62
1
 66
1
 70
2
  0
VERTEX
  8
0
 10
1145.376144
 20
1554.862328
 70
0
 42
0.207373
  0
VERTEX
  8
0
 10
1143.886620
 20
1554.223603
 70
0
 42
0.220328
  0
VERTEX
  8
0
 10
1143.388135
 20
1552.732395
 70
0
  0
SEQEND
  0
POLYLINE
  8
0
  6
CONTINUOUS
 62
1
 66
1
 70
2
  0
VERTEX
  8
0
 10
1144.048135
 20
1546.972395
 70
0
 42
0.189055
  0
VERTEX
  8
0
 10
1144.701483
 20
1545.752386
 70
0
 42
0.179121
  0
VERTEX
  8
0
 10
1146.036144
 20
1545.262328
 70
0
  0
SEQEND
  0
POLYLINE
  8
0
  6
CONTINUOUS
 62
1
 66
1
 70
2
  0
VERTEX
  8
0
 10
1160.252017
 20
1545.262328
 70
0
 42
0.179121
  0
VERTEX
  8
0
 10
1161.586677
 20
1545.752386
 70
0
 42
0.189055
  0
VERTEX
  8
0
 10
1162.240025
 20
1546.972395
 70
0
  0
SEQEND
  0
POLYLINE
  8
0
  6
CONTINUOUS
 62
1
 66
1
 70
2
  0
VERTEX
  8
0
 10
1162.900025
 20
1552.732395
 70
0
 42
0.220328
  0
VERTEX
  8
0
 10
1162.401540
 20
1554.223603
 70
0
 42
0.207373
  0
VERTEX
  8
0
 10
1160.912017
 20
1554.862328
 70
0
  0
SEQEND
  0
LINE
  8
0
  6
CONTINUOUS
 62
1
 10
1149.302017
 20
1542.382328
 11
1135.086144
 21
1542.382328
  0
LINE
  8
0
  6
CONTINUOUS
 62
1
 10
981.786144
 20
1532.782328
 11
996.002017
 21
1532.782328
  0
LINE
  8
0
  6
CONTINUOUS
 62
1
 10
1003.026144
 20
1532.782328
 11
1018.562017
 21
1532.782328
  0
LINE
  8
0
  6
CONTINUOUS
 62
1
 10
1025.586144
 20
1532.782328
 11
1039.802017
 21
1532.782328
  0
LINE
  8
0
  6
CONTINUOUS
 62
1
 10
1046.826144
 20
1532.782328
 11
1062.362017
 21
1532.782328
  0
LINE
  8
0
  6
CONTINUOUS
 62
1
 10
1069.386144
 20
1532.782328
 11
1083.602017
 21
1532.782328
  0
LINE
  8
0
  6
CONTINUOUS
 62
1
 10
1090.626144
 20
1532.782328
 11
1106.162017
 21
1532.782328
  0
LINE
  8
0
  6
CONTINUOUS
 62
1
 10
1113.186144
 20
1532.782328
 11
1127.402017
 21
1532.782328
  0
LINE
  8
0
  6
CONTINUOUS
 62
1
 10
1134.426144
 20
1532.782328
 11
1149.962017
 21
1532.782328
  0
LINE
  8
0
  6
CONTINUOUS
 62
1
 10
1001.698135
 20
1540.672262
 11
1001.038135
 21
1534.912262
  0
LINE
  8
0
  6
CONTINUOUS
 62
1
 10
1045.498135
 20
1540.672262
 11
1044.838135
 21
1534.912262
  0
LINE
  8
0
  6
CONTINUOUS
 62
1
 10
1089.298135
 20
1540.672262
 11
1088.638135
 21
1534.912262
  0
LINE
  8
0
  6
CONTINUOUS
 62
1
 10
1133.098135
 20
1540.672262
 11
1132.438135
 21
1534.912262
  0
LINE
  8
0
  6
CONTINUOUS
 62
1
 10
1019.890025
 20
1540.672262
 11
1020.550025
 21
1534.912262
  0
LINE
  8
0
  6
CONTINUOUS
 62
1
 10
1063.690025
 20
1540.672262
 11
1064.350025
 21
1534.912262
  0
LINE
  8
0
  6
CONTINUOUS
 62
1
 10
1107.490025
 20
1540.672262
 11
1108.150025
 21
1534.912262
  0
LINE
  8
0
  6
CONTINUOUS
 62
1
 10
1151.290025
 20
1540.672262
 11
1151.950025
 21
1534.912262
  0
LINE
  8
0
  6
CONTINUOUS
 62
1
 10
979.798135
 20
1534.492395
 11
979.138135
 21
1540.252395
  0
LINE
  8
0
  6
CONTINUOUS
 62
1
 10
997.990025
 20
1534.492395
 11
998.650025
 21
1540.252395
  0
LINE
  8
0
  6
CONTINUOUS
 62
1
 10
1023.598135
 20
1534.492395
 11
1022.938135
 21
1540.252395
  0
LINE
  8
0
  6
CONTINUOUS
 62
1
 10
1041.790025
 20
1534.492395
 11
1042.450025
 21
1540.252395
  0
LINE
  8
0
  6
CONTINUOUS
 62
1
 10
1067.398135
 20
1534.492395
 11
1066.738135
 21
1540.252395
  0
LINE
  8
0
  6
CONTINUOUS
 62
1
 10
1085.590025
 20
1534.492395
 11
1086.250025
 21
1540.252395
  0
LINE
  8
0
  6
CONTINUOUS
 62
1
 10
1111.198135
 20
1534.492395
 11
1110.538135
 21
1540.252395
  0
LINE
  8
0
  6
CONTINUOUS
 62
1
 10
1129.390025
 20
1534.492395
 11
1130.050025
 21
1540.252395
  0
LINE
  8
0
  6
CONTINUOUS
 62
1
 10
996.662017
 20
1542.382328
 11
981.126144
 21
1542.382328
  0
LINE
  8
0
  6
CONTINUOUS
 62
1
 10
1017.902017
 20
1542.382328
 11
1003.686144
 21
1542.382328
  0
LINE
  8
0
  6
CONTINUOUS
 62
1
 10
1040.462017
 20
1542.382328
 11
1024.926144
 21
1542.382328
  0
LINE
  8
0
  6
CONTINUOUS
 62
1
 10
1061.702017
 20
1542.382328
 11
1047.486144
 21
1542.382328
  0
LINE
  8
0
  6
CONTINUOUS
 62
1
 10
1084.262017
 20
1542.382328
 11
1068.726144
 21
1542.382328
  0
LINE
  8
0
  6
CONTINUOUS
 62
1
 10
1105.502017
 20
1542.382328
 11
1091.286144
 21
1542.382328
  0
LINE
  8
0
  6
CONTINUOUS
 62
1
 10
1128.062017
 20
1542.382328
 11
1112.526144
 21
1542.382328
  0
POLYLINE
  8
0
  6
CONTINUOUS
 62
1
 66
1
 70
2
  0
VERTEX
  8
0
 10
979.798135
 20
1534.492395
 70
0
 42
0.189055
  0
VERTEX
  8
0
 10
980.451483
 20
1533.272386
 70
0
 42
0.179121
  0
VERTEX
  8
0
 10
981.786144
 20
1532.782328
 70
0
  0
SEQEND
  0
POLYLINE
  8
0
  6
CONTINUOUS
 62
1
 66
1
 70
2
  0
VERTEX
  8
0
 10
996.002017
 20
1532.782328
 70
0
 42
0.179121
  0
VERTEX
  8
0
 10
997.336677
 20
1533.272386
 70
0
 42
0.189055
  0
VERTEX
  8
0
 10
997.990025
 20
1534.492395
 70
0
  0
SEQEND
  0
POLYLINE
  8
0
  6
CONTINUOUS
 62
1
 66
1
 70
2
  0
VERTEX
  8
0
 10
998.650025
 20
1540.252395
 70
0
 42
0.220328
  0
VERTEX
  8
0
 10
998.151540
 20
1541.743603
 70
0
 42
0.207373
  0
VERTEX
  8
0
 10
996.662017
 20
1542.382328
 70
0
  0
SEQEND
  0
POLYLINE
  8
0
  6
CONTINUOUS
 62
1
 66
1
 70
2
  0
VERTEX
  8
0
 10
981.126144
 20
1542.382328
 70
0
 42
0.207373
  0
VERTEX
  8
0
 10
979.636620
 20
1541.743603
 70
0
 42
0.220328
  0
VERTEX
  8
0
 10
979.138135
 20
1540.252395
 70
0
  0
SEQEND
  0
POLYLINE
  8
0
  6
CONTINUOUS
 62
1
 66
1
 70
2
  0
VERTEX
  8
0
 10
1001.698135
 20
1540.672262
 70
0
 42
-0.189055
  0
VERTEX
  8
0
 10
1002.351483
 20
1541.892271
 70
0
 42
-0.179121
  0
VERTEX
  8
0
 10
1003.686144
 20
1542.382328
 70
0
  0
SEQEND
  0
POLYLINE
  8
0
  6
CONTINUOUS
 62
1
 66
1
 70
2
  0
VERTEX
  8
0
 10
1017.902017
 20
1542.382328
 70
0
 42
-0.179121
  0
VERTEX
  8
0
 10
1019.236677
 20
1541.892271
 70
0
 42
-0.189055
  0
VERTEX
  8
0
 10
1019.890025
 20
1540.672262
 70
0
  0
SEQEND
  0
POLYLINE
  8
0
  6
CONTINUOUS
 62
1
 66
1
 70
2
  0
VERTEX
  8
0
 10
1020.550025
 20
1534.912262
 70
0
 42
-0.220328
  0
VERTEX
  8
0
 10
1020.051540
 20
1533.421054
 70
0
 42
-0.207373
  0
VERTEX
  8
0
 10
1018.562017
 20
1532.782328
 70
0
  0
SEQEND
  0
POLYLINE
  8
0
  6
CONTINUOUS
 62
1
 66
1
 70
2
  0
VERTEX
  8
0
 10
1003.026144
 20
1532.782328
 70
0
 42
-0.207373
  0
VERTEX
  8
0
 10
1001.536620
 20
1533.421054
 70
0
 42
-0.220328
  0
VERTEX
  8
0
 10
1001.038135
 20
1534.912262
 70
0
  0
SEQEND
  0
POLYLINE
  8
0
  6
CONTINUOUS
 62
1
 66
1
 70
2
  0
VERTEX
  8
0
 10
1025.586144
 20
1532.782328
 70
0
 42
-0.179121
  0
VERTEX
  8
0
 10
1024.251483
 20
1533.272386
 70
0
 42
-0.189055
  0
VERTEX
  8
0
 10
1023.598135
 20
1534.492395
 70
0
  0
SEQEND
  0
POLYLINE
  8
0
  6
CONTINUOUS
 62
1
 66
1
 70
2
  0
VERTEX
  8
0
 10
1022.938135
 20
1540.252395
 70
0
 42
-0.220328
  0
VERTEX
  8
0
 10
1023.436620
 20
1541.743603
 70
0
 42
-0.207373
  0
VERTEX
  8
0
 10
1024.926144
 20
1542.382328
 70
0
  0
SEQEND
  0
POLYLINE
  8
0
  6
CONTINUOUS
 62
1
 66
1
 70
2
  0
VERTEX
  8
0
 10
1040.462017
 20
1542.382328
 70
0
 42
-0.207373
  0
VERTEX
  8
0
 10
1041.951540
 20
1541.743603
 70
0
 42
-0.220328
  0
VERTEX
  8
0
 10
1042.450025
 20
1540.252395
 70
0
  0
SEQEND
  0
POLYLINE
  8
0
  6
CONTINUOUS
 62
1
 66
1
 70
2
  0
VERTEX
  8
0
 10
1041.790025
 20
1534.492395
 70
0
 42
-0.189055
  0
VERTEX
  8
0
 10
1041.136677
 20
1533.272386
 70
0
 42
-0.179121
  0
VERTEX
  8
0
 10
1039.802017
 20
1532.782328
 70
0
  0
SEQEND
  0
POLYLINE
  8
0
  6
CONTINUOUS
 62
1
 66
1
 70
2
  0
VERTEX
  8
0
 10
1044.838135
 20
1534.912262
 70
0
 42
0.220328
  0
VERTEX
  8
0
 10
1045.336620
 20
1533.421054
 70
0
 42
0.207373
  0
VERTEX
  8
0
 10
1046.826144
 20
1532.782328
 70
0
  0
SEQEND
  0
POLYLINE
  8
0
  6
CONTINUOUS
 62
1
 66
1
 70
2
  0
VERTEX
  8
0
 10
1062.362017
 20
1532.782328
 70
0
 42
0.207373
  0
VERTEX
  8
0
 10
1063.851540
 20
1533.421054
 70
0
 42
0.220328
  0
VERTEX
  8
0
 10
1064.350025
 20
1534.912262
 70
0
  0
SEQEND
  0
POLYLINE
  8
0
  6
CONTINUOUS
 62
1
 66
1
 70
2
  0
VERTEX
  8
0
 10
1063.690025
 20
1540.672262
 70
0
 42
0.189055
  0
VERTEX
  8
0
 10
1063.036677
 20
1541.892271
 70
0
 42
0.179121
  0
VERTEX
  8
0
 10
1061.702017
 20
1542.382328
 70
0
  0
SEQEND
  0
POLYLINE
  8
0
  6
CONTINUOUS
 62
1
 66
1
 70
2
  0
VERTEX
  8
0
 10
1047.486144
 20
1542.382328
 70
0
 42
0.179121
  0
VERTEX
  8
0
 10
1046.151483
 20
1541.892271
 70
0
 42
0.189055
  0
VERTEX
  8
0
 10
1045.498135
 20
1540.672262
 70
0
  0
SEQEND
  0
POLYLINE
  8
0
  6
CONTINUOUS
 62
1
 66
1
 70
2
  0
VERTEX
  8
0
 10
1066.738135
 20
1540.252395
 70
0
 42
-0.220328
  0
VERTEX
  8
0
 10
1067.236620
 20
1541.743603
 70
0
 42
-0.207373
  0
VERTEX
  8
0
 10
1068.726144
 20
1542.382328
 70
0
  0
SEQEND
  0
POLYLINE
  8
0
  6
CONTINUOUS
 62
1
 66
1
 70
2
  0
VERTEX
  8
0
 10
1084.262017
 20
1542.382328
 70
0
 42
-0.207373
  0
VERTEX
  8
0
 10
1085.751540
 20
1541.743603
 70
0
 42
-0.220328
  0
VERTEX
  8
0
 10
1086.250025
 20
1540.252395
 70
0
  0
SEQEND
  0
POLYLINE
  8
0
  6
CONTINUOUS
 62
1
 66
1
 70
2
  0
VERTEX
  8
0
 10
1085.590025
 20
1534.492395
 70
0
 42
-0.189055
  0
VERTEX
  8
0
 10
1084.936677
 20
1533.272386
 70
0
 42
-0.179121
  0
VERTEX
  8
0
 10
1083.602017
 20
1532.782328
 70
0
  0
SEQEND
  0
POLYLINE
  8
0
  6
CONTINUOUS
 62
1
 66
1
 70
2
  0
VERTEX
  8
0
 10
1069.386144
 20
1532.782328
 70
0
 42
-0.179121
  0
VERTEX
  8
0
 10
1068.051483
 20
1533.272386
 70
0
 42
-0.189055
  0
VERTEX
  8
0
 10
1067.398135
 20
1534.492395
 70
0
  0
SEQEND
  0
POLYLINE
  8
0
  6
CONTINUOUS
 62
1
 66
1
 70
2
  0
VERTEX
  8
0
 10
1090.626144
 20
1532.782328
 70
0
 42
-0.207373
  0
VERTEX
  8
0
 10
1089.136620
 20
1533.421054
 70
0
 42
-0.220328
  0
VERTEX
  8
0
 10
1088.638135
 20
1534.912262
 70
0
  0
SEQEND
  0
POLYLINE
  8
0
  6
CONTINUOUS
 62
1
 66
1
 70
2
  0
VERTEX
  8
0
 10
1089.298135
 20
1540.672262
 70
0
 42
-0.189055
  0
VERTEX
  8
0
 10
1089.951483
 20
1541.892271
 70
0
 42
-0.179121
  0
VERTEX
  8
0
 10
1091.286144
 20
1542.382328
 70
0
  0
SEQEND
  0
POLYLINE
  8
0
  6
CONTINUOUS
 62
1
 66
1
 70
2
  0
VERTEX
  8
0
 10
1105.502017
 20
1542.382328
 70
0
 42
-0.179121
  0
VERTEX
  8
0
 10
1106.836677
 20
1541.892271
 70
0
 42
-0.189055
  0
VERTEX
  8
0
 10
1107.490025
 20
1540.672262
 70
0
  0
SEQEND
  0
POLYLINE
  8
0
  6
CONTINUOUS
 62
1
 66
1
 70
2
  0
VERTEX
  8
0
 10
1108.150025
 20
1534.912262
 70
0
 42
-0.220328
  0
VERTEX
  8
0
 10
1107.651540
 20
1533.421054
 70
0
 42
-0.207373
  0
VERTEX
  8
0
 10
1106.162017
 20
1532.782328
 70
0
  0
SEQEND
  0
POLYLINE
  8
0
  6
CONTINUOUS
 62
1
 66
1
 70
2
  0
VERTEX
  8
0
 10
1113.186144
 20
1532.782328
 70
0
 42
-0.179121
  0
VERTEX
  8
0
 10
1111.851483
 20
1533.272386
 70
0
 42
-0.189055
  0
VERTEX
  8
0
 10
1111.198135
 20
1534.492395
 70
0
  0
SEQEND
  0
POLYLINE
  8
0
  6
CONTINUOUS
 62
1
 66
1
 70
2
  0
VERTEX
  8
0
 10
1110.538135
 20
1540.252395
 70
0
 42
-0.220328
  0
VERTEX
  8
0
 10
1111.036620
 20
1541.743603
 70
0
 42
-0.207373
  0
VERTEX
  8
0
 10
1112.526144
 20
1542.382328
 70
0
  0
SEQEND
  0
POLYLINE
  8
0
  6
CONTINUOUS
 62
1
 66
1
 70
2
  0
VERTEX
  8
0
 10
1128.062017
 20
1542.382328
 70
0
 42
-0.207373
  0
VERTEX
  8
0
 10
1129.551540
 20
1541.743603
 70
0
 42
-0.220328
  0
VERTEX
  8
0
 10
1130.050025
 20
1540.252395
 70
0
  0
SEQEND
  0
POLYLINE
  8
0
  6
CONTINUOUS
 62
1
 66
1
 70
2
  0
VERTEX
  8
0
 10
1127.402017
 20
1532.782328
 70
0
 42
0.179121
  0
VERTEX
  8
0
 10
1128.736677
 20
1533.272386
 70
0
 42
0.189055
  0
VERTEX
  8
0
 10
1129.390025
 20
1534.492395
 70
0
  0
SEQEND
  0
POLYLINE
  8
0
  6
CONTINUOUS
 62
1
 66
1
 70
2
  0
VERTEX
  8
0
 10
1134.426144
 20
1532.782328
 70
0
 42
-0.207373
  0
VERTEX
  8
0
 10
1132.936620
 20
1533.421054
 70
0
 42
-0.220328
  0
VERTEX
  8
0
 10
1132.438135
 20
1534.912262
 70
0
  0
SEQEND
  0
POLYLINE
  8
0
  6
CONTINUOUS
 62
1
 66
1
 70
2
  0
VERTEX
  8
0
 10
1133.098135
 20
1540.672262
 70
0
 42
-0.189055
  0
VERTEX
  8
0
 10
1133.751483
 20
1541.892271
 70
0
 42
-0.179121
  0
VERTEX
  8
0
 10
1135.086144
 20
1542.382328
 70
0
  0
SEQEND
  0
POLYLINE
  8
0
  6
CONTINUOUS
 62
1
 66
1
 70
2
  0
VERTEX
  8
0
 10
1149.302017
 20
1542.382328
 70
0
 42
-0.179121
  0
VERTEX
  8
0
 10
1150.636677
 20
1541.892271
 70
0
 42
-0.189055
  0
VERTEX
  8
0
 10
1151.290025
 20
1540.672262
 70
0
  0
SEQEND
  0
POLYLINE
  8
0
  6
CONTINUOUS
 62
1
 66
1
 70
2
  0
VERTEX
  8
0
 10
1151.950025
 20
1534.912262
 70
0
 42
-0.220328
  0
VERTEX
  8
0
 10
1151.451540
 20
1533.421054
 70
0
 42
-0.207373
  0
VERTEX
  8
0
 10
1149.962017
 20
1532.782328
 70
0
  0
SEQEND
  0
LINE
  8
0
  6
CONTINUOUS
 62
1
 10
1266.452615
 20
1542.382328
 11
1280.668488
 21
1542.382328
  0
LINE
  8
0
  6
CONTINUOUS
 62
1
 10
1302.568488
 20
1532.782328
 11
1288.352615
 21
1532.782328
  0
LINE
  8
0
  6
CONTINUOUS
 62
1
 10
1281.328488
 20
1532.782328
 11
1265.792615
 21
1532.782328
  0
LINE
  8
0
  6
CONTINUOUS
 62
1
 10
1282.656497
 20
1540.672262
 11
1283.316497
 21
1534.912262
  0
LINE
  8
0
  6
CONTINUOUS
 62
1
 10
1264.464607
 20
1540.672262
 11
1263.804607
 21
1534.912262
  0
LINE
  8
0
  6
CONTINUOUS
 62
1
 10
1304.556497
 20
1534.492395
 11
1305.216497
 21
1540.252395
  0
LINE
  8
0
  6
CONTINUOUS
 62
1
 10
1286.364607
 20
1534.492395
 11
1285.704607
 21
1540.252395
  0
LINE
  8
0
  6
CONTINUOUS
 62
1
 10
1287.692615
 20
1542.382328
 11
1303.228488
 21
1542.382328
  0
POLYLINE
  8
0
  6
CONTINUOUS
 62
1
 66
1
 70
2
  0
VERTEX
  8
0
 10
1302.568488
 20
1532.782328
 70
0
 42
0.179121
  0
VERTEX
  8
0
 10
1303.903149
 20
1533.272386
 70
0
 42
0.189055
  0
VERTEX
  8
0
 10
1304.556497
 20
1534.492395
 70
0
  0
SEQEND
  0
POLYLINE
  8
0
  6
CONTINUOUS
 62
1
 66
1
 70
2
  0
VERTEX
  8
0
 10
1305.216497
 20
1540.252395
 70
0
 42
0.220328
  0
VERTEX
  8
0
 10
1304.718012
 20
1541.743603
 70
0
 42
0.207373
  0
VERTEX
  8
0
 10
1303.228488
 20
1542.382328
 70
0
  0
SEQEND
  0
POLYLINE
  8
0
  6
CONTINUOUS
 62
1
 66
1
 70
2
  0
VERTEX
  8
0
 10
1287.692615
 20
1542.382328
 70
0
 42
0.207373
  0
VERTEX
  8
0
 10
1286.203092
 20
1541.743603
 70
0
 42
0.220328
  0
VERTEX
  8
0
 10
1285.704607
 20
1540.252395
 70
0
  0
SEQEND
  0
POLYLINE
  8
0
  6
CONTINUOUS
 62
1
 66
1
 70
2
  0
VERTEX
  8
0
 10
1288.352615
 20
1532.782328
 70
0
 42
-0.179121
  0
VERTEX
  8
0
 10
1287.017955
 20
1533.272386
 70
0
 42
-0.189055
  0
VERTEX
  8
0
 10
1286.364607
 20
1534.492395
 70
0
  0
SEQEND
  0
POLYLINE
  8
0
  6
CONTINUOUS
 62
1
 66
1
 70
2
  0
VERTEX
  8
0
 10
1281.328488
 20
1532.782328
 70
0
 42
0.207373
  0
VERTEX
  8
0
 10
1282.818012
 20
1533.421054
 70
0
 42
0.220328
  0
VERTEX
  8
0
 10
1283.316497
 20
1534.912262
 70
0
  0
SEQEND
  0
POLYLINE
  8
0
  6
CONTINUOUS
 62
1
 66
1
 70
2
  0
VERTEX
  8
0
 10
1282.656497
 20
1540.672262
 70
0
 42
0.189055
  0
VERTEX
  8
0
 10
1282.003149
 20
1541.892271
 70
0
 42
0.179121
  0
VERTEX
  8
0
 10
1280.668488
 20
1542.382328
 70
0
  0
SEQEND
  0
POLYLINE
  8
0
  6
CONTINUOUS
 62
1
 66
1
 70
2
  0
VERTEX
  8
0
 10
1266.452615
 20
1542.382328
 70
0
 42
0.179121
  0
VERTEX
  8
0
 10
1265.117955
 20
1541.892271
 70
0
 42
0.189055
  0
VERTEX
  8
0
 10
1264.464607
 20
1540.672262
 70
0
  0
SEQEND
  0
POLYLINE
  8
0
  6
CONTINUOUS
 62
1
 66
1
 70
2
  0
VERTEX
  8
0
 10
1263.804607
 20
1534.912262
 70
0
 42
0.220328
  0
VERTEX
  8
0
 10
1264.303092
 20
1533.421054
 70
0
 42
0.207373
  0
VERTEX
  8
0
 10
1265.792615
 20
1532.782328
 70
0
  0
SEQEND
  0
LINE
  8
0
  6
CONTINUOUS
 62
1
 10
1258.768488
 20
1532.782328
 11
1244.552615
 21
1532.782328
  0
LINE
  8
0
  6
CONTINUOUS
 62
1
 10
1260.756497
 20
1534.492395
 11
1261.416497
 21
1540.252395
  0
LINE
  8
0
  6
CONTINUOUS
 62
1
 10
1242.564607
 20
1534.492395
 11
1241.904607
 21
1540.252395
  0
LINE
  8
0
  6
CONTINUOUS
 62
1
 10
1243.892615
 20
1542.382328
 11
1259.428488
 21
1542.382328
  0
POLYLINE
  8
0
  6
CONTINUOUS
 62
1
 66
1
 70
2
  0
VERTEX
  8
0
 10
1258.768488
 20
1532.782328
 70
0
 42
0.179121
  0
VERTEX
  8
0
 10
1260.103149
 20
1533.272386
 70
0
 42
0.189055
  0
VERTEX
  8
0
 10
1260.756497
 20
1534.492395
 70
0
  0
SEQEND
  0
POLYLINE
  8
0
  6
CONTINUOUS
 62
1
 66
1
 70
2
  0
VERTEX
  8
0
 10
1261.416497
 20
1540.252395
 70
0
 42
0.220328
  0
VERTEX
  8
0
 10
1260.918012
 20
1541.743603
 70
0
 42
0.207373
  0
VERTEX
  8
0
 10
1259.428488
 20
1542.382328
 70
0
  0
SEQEND
  0
POLYLINE
  8
0
  6
CONTINUOUS
 62
1
 66
1
 70
2
  0
VERTEX
  8
0
 10
1243.892615
 20
1542.382328
 70
0
 42
0.207373
  0
VERTEX
  8
0
 10
1242.403092
 20
1541.743603
 70
0
 42
0.220328
  0
VERTEX
  8
0
 10
1241.904607
 20
1540.252395
 70
0
  0
SEQEND
  0
POLYLINE
  8
0
  6
CONTINUOUS
 62
1
 66
1
 70
2
  0
VERTEX
  8
0
 10
1244.552615
 20
1532.782328
 70
0
 42
-0.179121
  0
VERTEX
  8
0
 10
1243.217955
 20
1533.272386
 70
0
 42
-0.189055
  0
VERTEX
  8
0
 10
1242.564607
 20
1534.492395
 70
0
  0
SEQEND
  0
LINE
  8
0
  6
CONTINUOUS
 62
1
 10
1310.252615
 20
1542.382328
 11
1324.468488
 21
1542.382328
  0
LINE
  8
0
  6
CONTINUOUS
 62
1
 10
1433.968488
 20
1532.782328
 11
1419.752615
 21
1532.782328
  0
LINE
  8
0
  6
CONTINUOUS
 62
1
 10
1412.728488
 20
1532.782328
 11
1397.192615
 21
1532.782328
  0
LINE
  8
0
  6
CONTINUOUS
 62
1
 10
1390.168488
 20
1532.782328
 11
1375.952615
 21
1532.782328
  0
LINE
  8
0
  6
CONTINUOUS
 62
1
 10
1368.928488
 20
1532.782328
 11
1353.392615
 21
1532.782328
  0
LINE
  8
0
  6
CONTINUOUS
 62
1
 10
1346.368488
 20
1532.782328
 11
1332.152615
 21
1532.782328
  0
LINE
  8
0
  6
CONTINUOUS
 62
1
 10
1325.128488
 20
1532.782328
 11
1309.592615
 21
1532.782328
  0
LINE
  8
0
  6
CONTINUOUS
 62
1
 10
1414.056497
 20
1540.672262
 11
1414.716497
 21
1534.912262
  0
LINE
  8
0
  6
CONTINUOUS
 62
1
 10
1370.256497
 20
1540.672262
 11
1370.916497
 21
1534.912262
  0
LINE
  8
0
  6
CONTINUOUS
 62
1
 10
1326.456497
 20
1540.672262
 11
1327.116497
 21
1534.912262
  0
LINE
  8
0
  6
CONTINUOUS
 62
1
 10
1395.864607
 20
1540.672262
 11
1395.204607
 21
1534.912262
  0
LINE
  8
0
  6
CONTINUOUS
 62
1
 10
1352.064607
 20
1540.672262
 11
1351.404607
 21
1534.912262
  0
LINE
  8
0
  6
CONTINUOUS
 62
1
 10
1308.264607
 20
1540.672262
 11
1307.604607
 21
1534.912262
  0
LINE
  8
0
  6
CONTINUOUS
 62
1
 10
1435.956497
 20
1534.492395
 11
1436.616497
 21
1540.252395
  0
LINE
  8
0
  6
CONTINUOUS
 62
1
 10
1417.764607
 20
1534.492395
 11
1417.104607
 21
1540.252395
  0
LINE
  8
0
  6
CONTINUOUS
 62
1
 10
1392.156497
 20
1534.492395
 11
1392.816497
 21
1540.252395
  0
LINE
  8
0
  6
CONTINUOUS
 62
1
 10
1373.964607
 20
1534.492395
 11
1373.304607
 21
1540.252395
  0
LINE
  8
0
  6
CONTINUOUS
 62
1
 10
1348.356497
 20
1534.492395
 11
1349.016497
 21
1540.252395
  0
LINE
  8
0
  6
CONTINUOUS
 62
1
 10
1330.164607
 20
1534.492395
 11
1329.504607
 21
1540.252395
  0
LINE
  8
0
  6
CONTINUOUS
 62
1
 10
1419.092615
 20
1542.382328
 11
1434.628488
 21
1542.382328
  0
LINE
  8
0
  6
CONTINUOUS
 62
1
 10
1397.852615
 20
1542.382328
 11
1412.068488
 21
1542.382328
  0
LINE
  8
0
  6
CONTINUOUS
 62
1
 10
1375.292615
 20
1542.382328
 11
1390.828488
 21
1542.382328
  0
LINE
  8
0
  6
CONTINUOUS
 62
1
 10
1354.052615
 20
1542.382328
 11
1368.268488
 21
1542.382328
  0
LINE
  8
0
  6
CONTINUOUS
 62
1
 10
1331.492615
 20
1542.382328
 11
1347.028488
 21
1542.382328
  0
POLYLINE
  8
0
  6
CONTINUOUS
 62
1
 66
1
 70
2
  0
VERTEX
  8
0
 10
1433.968488
 20
1532.782328
 70
0
 42
0.179121
  0
VERTEX
  8
0
 10
1435.303149
 20
1533.272386
 70
0
 42
0.189055
  0
VERTEX
  8
0
 10
1435.956497
 20
1534.492395
 70
0
  0
SEQEND
  0
POLYLINE
  8
0
  6
CONTINUOUS
 62
1
 66
1
 70
2
  0
VERTEX
  8
0
 10
1436.616497
 20
1540.252395
 70
0
 42
0.220328
  0
VERTEX
  8
0
 10
1436.118012
 20
1541.743603
 70
0
 42
0.207373
  0
VERTEX
  8
0
 10
1434.628488
 20
1542.382328
 70
0
  0
SEQEND
  0
POLYLINE
  8
0
  6
CONTINUOUS
 62
1
 66
1
 70
2
  0
VERTEX
  8
0
 10
1419.092615
 20
1542.382328
 70
0
 42
0.207373
  0
VERTEX
  8
0
 10
1417.603092
 20
1541.743603
 70
0
 42
0.220328
  0
VERTEX
  8
0
 10
1417.104607
 20
1540.252395
 70
0
  0
SEQEND
  0
POLYLINE
  8
0
  6
CONTINUOUS
 62
1
 66
1
 70
2
  0
VERTEX
  8
0
 10
1417.764607
 20
1534.492395
 70
0
 42
0.189055
  0
VERTEX
  8
0
 10
1418.417955
 20
1533.272386
 70
0
 42
0.179121
  0
VERTEX
  8
0
 10
1419.752615
 20
1532.782328
 70
0
  0
SEQEND
  0
POLYLINE
  8
0
  6
CONTINUOUS
 62
1
 66
1
 70
2
  0
VERTEX
  8
0
 10
1414.716497
 20
1534.912262
 70
0
 42
-0.220328
  0
VERTEX
  8
0
 10
1414.218012
 20
1533.421054
 70
0
 42
-0.207373
  0
VERTEX
  8
0
 10
1412.728488
 20
1532.782328
 70
0
  0
SEQEND
  0
POLYLINE
  8
0
  6
CONTINUOUS
 62
1
 66
1
 70
2
  0
VERTEX
  8
0
 10
1397.192615
 20
1532.782328
 70
0
 42
-0.207373
  0
VERTEX
  8
0
 10
1395.703092
 20
1533.421054
 70
0
 42
-0.220328
  0
VERTEX
  8
0
 10
1395.204607
 20
1534.912262
 70
0
  0
SEQEND
  0
POLYLINE
  8
0
  6
CONTINUOUS
 62
1
 66
1
 70
2
  0
VERTEX
  8
0
 10
1395.864607
 20
1540.672262
 70
0
 42
-0.189055
  0
VERTEX
  8
0
 10
1396.517955
 20
1541.892271
 70
0
 42
-0.179121
  0
VERTEX
  8
0
 10
1397.852615
 20
1542.382328
 70
0
  0
SEQEND
  0
POLYLINE
  8
0
  6
CONTINUOUS
 62
1
 66
1
 70
2
  0
VERTEX
  8
0
 10
1412.068488
 20
1542.382328
 70
0
 42
-0.179121
  0
VERTEX
  8
0
 10
1413.403149
 20
1541.892271
 70
0
 42
-0.189055
  0
VERTEX
  8
0
 10
1414.056497
 20
1540.672262
 70
0
  0
SEQEND
  0
POLYLINE
  8
0
  6
CONTINUOUS
 62
1
 66
1
 70
2
  0
VERTEX
  8
0
 10
1392.816497
 20
1540.252395
 70
0
 42
0.220328
  0
VERTEX
  8
0
 10
1392.318012
 20
1541.743603
 70
0
 42
0.207373
  0
VERTEX
  8
0
 10
1390.828488
 20
1542.382328
 70
0
  0
SEQEND
  0
POLYLINE
  8
0
  6
CONTINUOUS
 62
1
 66
1
 70
2
  0
VERTEX
  8
0
 10
1375.292615
 20
1542.382328
 70
0
 42
0.207373
  0
VERTEX
  8
0
 10
1373.803092
 20
1541.743603
 70
0
 42
0.220328
  0
VERTEX
  8
0
 10
1373.304607
 20
1540.252395
 70
0
  0
SEQEND
  0
POLYLINE
  8
0
  6
CONTINUOUS
 62
1
 66
1
 70
2
  0
VERTEX
  8
0
 10
1373.964607
 20
1534.492395
 70
0
 42
0.189055
  0
VERTEX
  8
0
 10
1374.617955
 20
1533.272386
 70
0
 42
0.179121
  0
VERTEX
  8
0
 10
1375.952615
 20
1532.782328
 70
0
  0
SEQEND
  0
POLYLINE
  8
0
  6
CONTINUOUS
 62
1
 66
1
 70
2
  0
VERTEX
  8
0
 10
1390.168488
 20
1532.782328
 70
0
 42
0.179121
  0
VERTEX
  8
0
 10
1391.503149
 20
1533.272386
 70
0
 42
0.189055
  0
VERTEX
  8
0
 10
1392.156497
 20
1534.492395
 70
0
  0
SEQEND
  0
POLYLINE
  8
0
  6
CONTINUOUS
 62
1
 66
1
 70
2
  0
VERTEX
  8
0
 10
1368.928488
 20
1532.782328
 70
0
 42
0.207373
  0
VERTEX
  8
0
 10
1370.418012
 20
1533.421054
 70
0
 42
0.220328
  0
VERTEX
  8
0
 10
1370.916497
 20
1534.912262
 70
0
  0
SEQEND
  0
POLYLINE
  8
0
  6
CONTINUOUS
 62
1
 66
1
 70
2
  0
VERTEX
  8
0
 10
1370.256497
 20
1540.672262
 70
0
 42
0.189055
  0
VERTEX
  8
0
 10
1369.603149
 20
1541.892271
 70
0
 42
0.179121
  0
VERTEX
  8
0
 10
1368.268488
 20
1542.382328
 70
0
  0
SEQEND
  0
POLYLINE
  8
0
  6
CONTINUOUS
 62
1
 66
1
 70
2
  0
VERTEX
  8
0
 10
1354.052615
 20
1542.382328
 70
0
 42
0.179121
  0
VERTEX
  8
0
 10
1352.717955
 20
1541.892271
 70
0
 42
0.189055
  0
VERTEX
  8
0
 10
1352.064607
 20
1540.672262
 70
0
  0
SEQEND
  0
POLYLINE
  8
0
  6
CONTINUOUS
 62
1
 66
1
 70
2
  0
VERTEX
  8
0
 10
1351.404607
 20
1534.912262
 70
0
 42
0.220328
  0
VERTEX
  8
0
 10
1351.903092
 20
1533.421054
 70
0
 42
0.207373
  0
VERTEX
  8
0
 10
1353.392615
 20
1532.782328
 70
0
  0
SEQEND
  0
POLYLINE
  8
0
  6
CONTINUOUS
 62
1
 66
1
 70
2
  0
VERTEX
  8
0
 10
1346.368488
 20
1532.782328
 70
0
 42
0.179121
  0
VERTEX
  8
0
 10
1347.703149
 20
1533.272386
 70
0
 42
0.189055
  0
VERTEX
  8
0
 10
1348.356497
 20
1534.492395
 70
0
  0
SEQEND
  0
POLYLINE
  8
0
  6
CONTINUOUS
 62
1
 66
1
 70
2
  0
VERTEX
  8
0
 10
1349.016497
 20
1540.252395
 70
0
 42
0.220328
  0
VERTEX
  8
0
 10
1348.518012
 20
1541.743603
 70
0
 42
0.207373
  0
VERTEX
  8
0
 10
1347.028488
 20
1542.382328
 70
0
  0
SEQEND
  0
POLYLINE
  8
0
  6
CONTINUOUS
 62
1
 66
1
 70
2
  0
VERTEX
  8
0
 10
1331.492615
 20
1542.382328
 70
0
 42
0.207373
  0
VERTEX
  8
0
 10
1330.003092
 20
1541.743603
 70
0
 42
0.220328
  0
VERTEX
  8
0
 10
1329.504607
 20
1540.252395
 70
0
  0
SEQEND
  0
POLYLINE
  8
0
  6
CONTINUOUS
 62
1
 66
1
 70
2
  0
VERTEX
  8
0
 10
1332.152615
 20
1532.782328
 70
0
 42
-0.179121
  0
VERTEX
  8
0
 10
1330.817955
 20
1533.272386
 70
0
 42
-0.189055
  0
VERTEX
  8
0
 10
1330.164607
 20
1534.492395
 70
0
  0
SEQEND
  0
POLYLINE
  8
0
  6
CONTINUOUS
 62
1
 66
1
 70
2
  0
VERTEX
  8
0
 10
1325.128488
 20
1532.782328
 70
0
 42
0.207373
  0
VERTEX
  8
0
 10
1326.618012
 20
1533.421054
 70
0
 42
0.220328
  0
VERTEX
  8
0
 10
1327.116497
 20
1534.912262
 70
0
  0
SEQEND
  0
POLYLINE
  8
0
  6
CONTINUOUS
 62
1
 66
1
 70
2
  0
VERTEX
  8
0
 10
1326.456497
 20
1540.672262
 70
0
 42
0.189055
  0
VERTEX
  8
0
 10
1325.803149
 20
1541.892271
 70
0
 42
0.179121
  0
VERTEX
  8
0
 10
1324.468488
 20
1542.382328
 70
0
  0
SEQEND
  0
POLYLINE
  8
0
  6
CONTINUOUS
 62
1
 66
1
 70
2
  0
VERTEX
  8
0
 10
1310.252615
 20
1542.382328
 70
0
 42
0.179121
  0
VERTEX
  8
0
 10
1308.917955
 20
1541.892271
 70
0
 42
0.189055
  0
VERTEX
  8
0
 10
1308.264607
 20
1540.672262
 70
0
  0
SEQEND
  0
POLYLINE
  8
0
  6
CONTINUOUS
 62
1
 66
1
 70
2
  0
VERTEX
  8
0
 10
1307.604607
 20
1534.912262
 70
0
 42
0.220328
  0
VERTEX
  8
0
 10
1308.103092
 20
1533.421054
 70
0
 42
0.207373
  0
VERTEX
  8
0
 10
1309.592615
 20
1532.782328
 70
0
  0
SEQEND
  0
LINE
  8
0
  6
CONTINUOUS
 62
1
 10
1291.652017
 20
1545.262328
 11
1277.436144
 21
1545.262328
  0
LINE
  8
0
  6
CONTINUOUS
 62
1
 10
1255.536144
 20
1554.862328
 11
1269.752017
 21
1554.862328
  0
LINE
  8
0
  6
CONTINUOUS
 62
1
 10
1276.776144
 20
1554.862328
 11
1292.312017
 21
1554.862328
  0
LINE
  8
0
  6
CONTINUOUS
 62
1
 10
1275.448135
 20
1546.972395
 11
1274.788135
 21
1552.732395
  0
LINE
  8
0
  6
CONTINUOUS
 62
1
 10
1293.640025
 20
1546.972395
 11
1294.300025
 21
1552.732395
  0
LINE
  8
0
  6
CONTINUOUS
 62
1
 10
1253.548135
 20
1553.152262
 11
1252.888135
 21
1547.392262
  0
LINE
  8
0
  6
CONTINUOUS
 62
1
 10
1271.740025
 20
1553.152262
 11
1272.400025
 21
1547.392262
  0
LINE
  8
0
  6
CONTINUOUS
 62
1
 10
1270.412017
 20
1545.262328
 11
1254.876144
 21
1545.262328
  0
POLYLINE
  8
0
  6
CONTINUOUS
 62
1
 66
1
 70
2
  0
VERTEX
  8
0
 10
1255.536144
 20
1554.862328
 70
0
 42
0.179121
  0
VERTEX
  8
0
 10
1254.201483
 20
1554.372271
 70
0
 42
0.189055
  0
VERTEX
  8
0
 10
1253.548135
 20
1553.152262
 70
0
  0
SEQEND
  0
POLYLINE
  8
0
  6
CONTINUOUS
 62
1
 66
1
 70
2
  0
VERTEX
  8
0
 10
1252.888135
 20
1547.392262
 70
0
 42
0.220328
  0
VERTEX
  8
0
 10
1253.386620
 20
1545.901054
 70
0
 42
0.207373
  0
VERTEX
  8
0
 10
1254.876144
 20
1545.262328
 70
0
  0
SEQEND
  0
POLYLINE
  8
0
  6
CONTINUOUS
 62
1
 66
1
 70
2
  0
VERTEX
  8
0
 10
1270.412017
 20
1545.262328
 70
0
 42
0.207373
  0
VERTEX
  8
0
 10
1271.901540
 20
1545.901054
 70
0
 42
0.220328
  0
VERTEX
  8
0
 10
1272.400025
 20
1547.392262
 70
0
  0
SEQEND
  0
POLYLINE
  8
0
  6
CONTINUOUS
 62
1
 66
1
 70
2
  0
VERTEX
  8
0
 10
1269.752017
 20
1554.862328
 70
0
 42
-0.179121
  0
VERTEX
  8
0
 10
1271.086677
 20
1554.372271
 70
0
 42
-0.189055
  0
VERTEX
  8
0
 10
1271.740025
 20
1553.152262
 70
0
  0
SEQEND
  0
POLYLINE
  8
0
  6
CONTINUOUS
 62
1
 66
1
 70
2
  0
VERTEX
  8
0
 10
1276.776144
 20
1554.862328
 70
0
 42
0.207373
  0
VERTEX
  8
0
 10
1275.286620
 20
1554.223603
 70
0
 42
0.220328
  0
VERTEX
  8
0
 10
1274.788135
 20
1552.732395
 70
0
  0
SEQEND
  0
POLYLINE
  8
0
  6
CONTINUOUS
 62
1
 66
1
 70
2
  0
VERTEX
  8
0
 10
1275.448135
 20
1546.972395
 70
0
 42
0.189055
  0
VERTEX
  8
0
 10
1276.101483
 20
1545.752386
 70
0
 42
0.179121
  0
VERTEX
  8
0
 10
1277.436144
 20
1545.262328
 70
0
  0
SEQEND
  0
POLYLINE
  8
0
  6
CONTINUOUS
 62
1
 66
1
 70
2
  0
VERTEX
  8
0
 10
1291.652017
 20
1545.262328
 70
0
 42
0.179121
  0
VERTEX
  8
0
 10
1292.986677
 20
1545.752386
 70
0
 42
0.189055
  0
VERTEX
  8
0
 10
1293.640025
 20
1546.972395
 70
0
  0
SEQEND
  0
POLYLINE
  8
0
  6
CONTINUOUS
 62
1
 66
1
 70
2
  0
VERTEX
  8
0
 10
1294.300025
 20
1552.732395
 70
0
 42
0.220328
  0
VERTEX
  8
0
 10
1293.801540
 20
1554.223603
 70
0
 42
0.207373
  0
VERTEX
  8
0
 10
1292.312017
 20
1554.862328
 70
0
  0
SEQEND
  0
LINE
  8
0
  6
CONTINUOUS
 62
1
 10
1335.452017
 20
1545.262328
 11
1321.236144
 21
1545.262328
  0
LINE
  8
0
  6
CONTINUOUS
 62
1
 10
1299.336144
 20
1554.862328
 11
1313.552017
 21
1554.862328
  0
LINE
  8
0
  6
CONTINUOUS
 62
1
 10
1320.576144
 20
1554.862328
 11
1336.112017
 21
1554.862328
  0
LINE
  8
0
  6
CONTINUOUS
 62
1
 10
1319.248135
 20
1546.972395
 11
1318.588135
 21
1552.732395
  0
LINE
  8
0
  6
CONTINUOUS
 62
1
 10
1337.440025
 20
1546.972395
 11
1338.100025
 21
1552.732395
  0
LINE
  8
0
  6
CONTINUOUS
 62
1
 10
1297.348135
 20
1553.152262
 11
1296.688135
 21
1547.392262
  0
LINE
  8
0
  6
CONTINUOUS
 62
1
 10
1315.540025
 20
1553.152262
 11
1316.200025
 21
1547.392262
  0
LINE
  8
0
  6
CONTINUOUS
 62
1
 10
1314.212017
 20
1545.262328
 11
1298.676144
 21
1545.262328
  0
POLYLINE
  8
0
  6
CONTINUOUS
 62
1
 66
1
 70
2
  0
VERTEX
  8
0
 10
1299.336144
 20
1554.862328
 70
0
 42
0.179121
  0
VERTEX
  8
0
 10
1298.001483
 20
1554.372271
 70
0
 42
0.189055
  0
VERTEX
  8
0
 10
1297.348135
 20
1553.152262
 70
0
  0
SEQEND
  0
POLYLINE
  8
0
  6
CONTINUOUS
 62
1
 66
1
 70
2
  0
VERTEX
  8
0
 10
1296.688135
 20
1547.392262
 70
0
 42
0.220328
  0
VERTEX
  8
0
 10
1297.186620
 20
1545.901054
 70
0
 42
0.207373
  0
VERTEX
  8
0
 10
1298.676144
 20
1545.262328
 70
0
  0
SEQEND
  0
POLYLINE
  8
0
  6
CONTINUOUS
 62
1
 66
1
 70
2
  0
VERTEX
  8
0
 10
1314.212017
 20
1545.262328
 70
0
 42
0.207373
  0
VERTEX
  8
0
 10
1315.701540
 20
1545.901054
 70
0
 42
0.220328
  0
VERTEX
  8
0
 10
1316.200025
 20
1547.392262
 70
0
  0
SEQEND
  0
POLYLINE
  8
0
  6
CONTINUOUS
 62
1
 66
1
 70
2
  0
VERTEX
  8
0
 10
1313.552017
 20
1554.862328
 70
0
 42
-0.179121
  0
VERTEX
  8
0
 10
1314.886677
 20
1554.372271
 70
0
 42
-0.189055
  0
VERTEX
  8
0
 10
1315.540025
 20
1553.152262
 70
0
  0
SEQEND
  0
POLYLINE
  8
0
  6
CONTINUOUS
 62
1
 66
1
 70
2
  0
VERTEX
  8
0
 10
1320.576144
 20
1554.862328
 70
0
 42
0.207373
  0
VERTEX
  8
0
 10
1319.086620
 20
1554.223603
 70
0
 42
0.220328
  0
VERTEX
  8
0
 10
1318.588135
 20
1552.732395
 70
0
  0
SEQEND
  0
POLYLINE
  8
0
  6
CONTINUOUS
 62
1
 66
1
 70
2
  0
VERTEX
  8
0
 10
1319.248135
 20
1546.972395
 70
0
 42
0.189055
  0
VERTEX
  8
0
 10
1319.901483
 20
1545.752386
 70
0
 42
0.179121
  0
VERTEX
  8
0
 10
1321.236144
 20
1545.262328
 70
0
  0
SEQEND
  0
POLYLINE
  8
0
  6
CONTINUOUS
 62
1
 66
1
 70
2
  0
VERTEX
  8
0
 10
1335.452017
 20
1545.262328
 70
0
 42
0.179121
  0
VERTEX
  8
0
 10
1336.786677
 20
1545.752386
 70
0
 42
0.189055
  0
VERTEX
  8
0
 10
1337.440025
 20
1546.972395
 70
0
  0
SEQEND
  0
POLYLINE
  8
0
  6
CONTINUOUS
 62
1
 66
1
 70
2
  0
VERTEX
  8
0
 10
1338.100025
 20
1552.732395
 70
0
 42
0.220328
  0
VERTEX
  8
0
 10
1337.601540
 20
1554.223603
 70
0
 42
0.207373
  0
VERTEX
  8
0
 10
1336.112017
 20
1554.862328
 70
0
  0
SEQEND
  0
LINE
  8
0
  6
CONTINUOUS
 62
1
 10
1379.252017
 20
1545.262328
 11
1365.036144
 21
1545.262328
  0
LINE
  8
0
  6
CONTINUOUS
 62
1
 10
1343.136144
 20
1554.862328
 11
1357.352017
 21
1554.862328
  0
LINE
  8
0
  6
CONTINUOUS
 62
1
 10
1364.376144
 20
1554.862328
 11
1379.912017
 21
1554.862328
  0
LINE
  8
0
  6
CONTINUOUS
 62
1
 10
1363.048135
 20
1546.972395
 11
1362.388135
 21
1552.732395
  0
LINE
  8
0
  6
CONTINUOUS
 62
1
 10
1381.240025
 20
1546.972395
 11
1381.900025
 21
1552.732395
  0
LINE
  8
0
  6
CONTINUOUS
 62
1
 10
1341.148135
 20
1553.152262
 11
1340.488135
 21
1547.392262
  0
LINE
  8
0
  6
CONTINUOUS
 62
1
 10
1359.340025
 20
1553.152262
 11
1360.000025
 21
1547.392262
  0
LINE
  8
0
  6
CONTINUOUS
 62
1
 10
1358.012017
 20
1545.262328
 11
1342.476144
 21
1545.262328
  0
POLYLINE
  8
0
  6
CONTINUOUS
 62
1
 66
1
 70
2
  0
VERTEX
  8
0
 10
1343.136144
 20
1554.862328
 70
0
 42
0.179121
  0
VERTEX
  8
0
 10
1341.801483
 20
1554.372271
 70
0
 42
0.189055
  0
VERTEX
  8
0
 10
1341.148135
 20
1553.152262
 70
0
  0
SEQEND
  0
POLYLINE
  8
0
  6
CONTINUOUS
 62
1
 66
1
 70
2
  0
VERTEX
  8
0
 10
1340.488135
 20
1547.392262
 70
0
 42
0.220328
  0
VERTEX
  8
0
 10
1340.986620
 20
1545.901054
 70
0
 42
0.207373
  0
VERTEX
  8
0
 10
1342.476144
 20
1545.262328
 70
0
  0
SEQEND
  0
POLYLINE
  8
0
  6
CONTINUOUS
 62
1
 66
1
 70
2
  0
VERTEX
  8
0
 10
1358.012017
 20
1545.262328
 70
0
 42
0.207373
  0
VERTEX
  8
0
 10
1359.501540
 20
1545.901054
 70
0
 42
0.220328
  0
VERTEX
  8
0
 10
1360.000025
 20
1547.392262
 70
0
  0
SEQEND
  0
POLYLINE
  8
0
  6
CONTINUOUS
 62
1
 66
1
 70
2
  0
VERTEX
  8
0
 10
1357.352017
 20
1554.862328
 70
0
 42
-0.179121
  0
VERTEX
  8
0
 10
1358.686677
 20
1554.372271
 70
0
 42
-0.189055
  0
VERTEX
  8
0
 10
1359.340025
 20
1553.152262
 70
0
  0
SEQEND
  0
POLYLINE
  8
0
  6
CONTINUOUS
 62
1
 66
1
 70
2
  0
VERTEX
  8
0
 10
1364.376144
 20
1554.862328
 70
0
 42
0.207373
  0
VERTEX
  8
0
 10
1362.886620
 20
1554.223603
 70
0
 42
0.220328
  0
VERTEX
  8
0
 10
1362.388135
 20
1552.732395
 70
0
  0
SEQEND
  0
POLYLINE
  8
0
  6
CONTINUOUS
 62
1
 66
1
 70
2
  0
VERTEX
  8
0
 10
1363.048135
 20
1546.972395
 70
0
 42
0.189055
  0
VERTEX
  8
0
 10
1363.701483
 20
1545.752386
 70
0
 42
0.179121
  0
VERTEX
  8
0
 10
1365.036144
 20
1545.262328
 70
0
  0
SEQEND
  0
POLYLINE
  8
0
  6
CONTINUOUS
 62
1
 66
1
 70
2
  0
VERTEX
  8
0
 10
1379.252017
 20
1545.262328
 70
0
 42
0.179121
  0
VERTEX
  8
0
 10
1380.586677
 20
1545.752386
 70
0
 42
0.189055
  0
VERTEX
  8
0
 10
1381.240025
 20
1546.972395
 70
0
  0
SEQEND
  0
POLYLINE
  8
0
  6
CONTINUOUS
 62
1
 66
1
 70
2
  0
VERTEX
  8
0
 10
1381.900025
 20
1552.732395
 70
0
 42
0.220328
  0
VERTEX
  8
0
 10
1381.401540
 20
1554.223603
 70
0
 42
0.207373
  0
VERTEX
  8
0
 10
1379.912017
 20
1554.862328
 70
0
  0
SEQEND
  0
LINE
  8
0
  6
CONTINUOUS
 62
1
 10
1423.052017
 20
1545.262328
 11
1408.836144
 21
1545.262328
  0
LINE
  8
0
  6
CONTINUOUS
 62
1
 10
1386.936144
 20
1554.862328
 11
1401.152017
 21
1554.862328
  0
LINE
  8
0
  6
CONTINUOUS
 62
1
 10
1408.176144
 20
1554.862328
 11
1423.712017
 21
1554.862328
  0
LINE
  8
0
  6
CONTINUOUS
 62
1
 10
1406.848135
 20
1546.972395
 11
1406.188135
 21
1552.732395
  0
LINE
  8
0
  6
CONTINUOUS
 62
1
 10
1425.040025
 20
1546.972395
 11
1425.700025
 21
1552.732395
  0
LINE
  8
0
  6
CONTINUOUS
 62
1
 10
1384.948135
 20
1553.152262
 11
1384.288135
 21
1547.392262
  0
LINE
  8
0
  6
CONTINUOUS
 62
1
 10
1403.140025
 20
1553.152262
 11
1403.800025
 21
1547.392262
  0
LINE
  8
0
  6
CONTINUOUS
 62
1
 10
1401.812017
 20
1545.262328
 11
1386.276144
 21
1545.262328
  0
POLYLINE
  8
0
  6
CONTINUOUS
 62
1
 66
1
 70
2
  0
VERTEX
  8
0
 10
1386.936144
 20
1554.862328
 70
0
 42
0.179121
  0
VERTEX
  8
0
 10
1385.601483
 20
1554.372271
 70
0
 42
0.189055
  0
VERTEX
  8
0
 10
1384.948135
 20
1553.152262
 70
0
  0
SEQEND
  0
POLYLINE
  8
0
  6
CONTINUOUS
 62
1
 66
1
 70
2
  0
VERTEX
  8
0
 10
1384.288135
 20
1547.392262
 70
0
 42
0.220328
  0
VERTEX
  8
0
 10
1384.786620
 20
1545.901054
 70
0
 42
0.207373
  0
VERTEX
  8
0
 10
1386.276144
 20
1545.262328
 70
0
  0
SEQEND
  0
POLYLINE
  8
0
  6
CONTINUOUS
 62
1
 66
1
 70
2
  0
VERTEX
  8
0
 10
1401.812017
 20
1545.262328
 70
0
 42
0.207373
  0
VERTEX
  8
0
 10
1403.301540
 20
1545.901054
 70
0
 42
0.220328
  0
VERTEX
  8
0
 10
1403.800025
 20
1547.392262
 70
0
  0
SEQEND
  0
POLYLINE
  8
0
  6
CONTINUOUS
 62
1
 66
1
 70
2
  0
VERTEX
  8
0
 10
1401.152017
 20
1554.862328
 70
0
 42
-0.179121
  0
VERTEX
  8
0
 10
1402.486677
 20
1554.372271
 70
0
 42
-0.189055
  0
VERTEX
  8
0
 10
1403.140025
 20
1553.152262
 70
0
  0
SEQEND
  0
POLYLINE
  8
0
  6
CONTINUOUS
 62
1
 66
1
 70
2
  0
VERTEX
  8
0
 10
1408.176144
 20
1554.862328
 70
0
 42
0.207373
  0
VERTEX
  8
0
 10
1406.686620
 20
1554.223603
 70
0
 42
0.220328
  0
VERTEX
  8
0
 10
1406.188135
 20
1552.732395
 70
0
  0
SEQEND
  0
POLYLINE
  8
0
  6
CONTINUOUS
 62
1
 66
1
 70
2
  0
VERTEX
  8
0
 10
1406.848135
 20
1546.972395
 70
0
 42
0.189055
  0
VERTEX
  8
0
 10
1407.501483
 20
1545.752386
 70
0
 42
0.179121
  0
VERTEX
  8
0
 10
1408.836144
 20
1545.262328
 70
0
  0
SEQEND
  0
POLYLINE
  8
0
  6
CONTINUOUS
 62
1
 66
1
 70
2
  0
VERTEX
  8
0
 10
1423.052017
 20
1545.262328
 70
0
 42
0.179121
  0
VERTEX
  8
0
 10
1424.386677
 20
1545.752386
 70
0
 42
0.189055
  0
VERTEX
  8
0
 10
1425.040025
 20
1546.972395
 70
0
  0
SEQEND
  0
POLYLINE
  8
0
  6
CONTINUOUS
 62
1
 66
1
 70
2
  0
VERTEX
  8
0
 10
1425.700025
 20
1552.732395
 70
0
 42
0.220328
  0
VERTEX
  8
0
 10
1425.201540
 20
1554.223603
 70
0
 42
0.207373
  0
VERTEX
  8
0
 10
1423.712017
 20
1554.862328
 70
0
  0
SEQEND
  0
LINE
  8
0
  6
CONTINUOUS
 62
1
 10
1430.736144
 20
1554.862328
 11
1444.952017
 21
1554.862328
  0
LINE
  8
0
  6
CONTINUOUS
 62
1
 10
1428.748135
 20
1553.152262
 11
1428.088135
 21
1547.392262
  0
LINE
  8
0
  6
CONTINUOUS
 62
1
 10
1446.940025
 20
1553.152262
 11
1447.600025
 21
1547.392262
  0
LINE
  8
0
  6
CONTINUOUS
 62
1
 10
1445.612017
 20
1545.262328
 11
1430.076144
 21
1545.262328
  0
POLYLINE
  8
0
  6
CONTINUOUS
 62
1
 66
1
 70
2
  0
VERTEX
  8
0
 10
1430.736144
 20
1554.862328
 70
0
 42
0.179121
  0
VERTEX
  8
0
 10
1429.401483
 20
1554.372271
 70
0
 42
0.189055
  0
VERTEX
  8
0
 10
1428.748135
 20
1553.152262
 70
0
  0
SEQEND
  0
POLYLINE
  8
0
  6
CONTINUOUS
 62
1
 66
1
 70
2
  0
VERTEX
  8
0
 10
1428.088135
 20
1547.392262
 70
0
 42
0.220328
  0
VERTEX
  8
0
 10
1428.586620
 20
1545.901054
 70
0
 42
0.207373
  0
VERTEX
  8
0
 10
1430.076144
 20
1545.262328
 70
0
  0
SEQEND
  0
POLYLINE
  8
0
  6
CONTINUOUS
 62
1
 66
1
 70
2
  0
VERTEX
  8
0
 10
1445.612017
 20
1545.262328
 70
0
 42
0.207373
  0
VERTEX
  8
0
 10
1447.101540
 20
1545.901054
 70
0
 42
0.220328
  0
VERTEX
  8
0
 10
1447.600025
 20
1547.392262
 70
0
  0
SEQEND
  0
POLYLINE
  8
0
  6
CONTINUOUS
 62
1
 66
1
 70
2
  0
VERTEX
  8
0
 10
1444.952017
 20
1554.862328
 70
0
 42
-0.179121
  0
VERTEX
  8
0
 10
1446.286677
 20
1554.372271
 70
0
 42
-0.189055
  0
VERTEX
  8
0
 10
1446.940025
 20
1553.152262
 70
0
  0
SEQEND
  0
LINE
  8
0
  6
CONTINUOUS
 62
1
 10
1204.052017
 20
1520.302328
 11
1189.836144
 21
1520.302328
  0
LINE
  8
0
  6
CONTINUOUS
 62
1
 10
1167.936144
 20
1529.902328
 11
1182.152017
 21
1529.902328
  0
LINE
  8
0
  6
CONTINUOUS
 62
1
 10
1189.176144
 20
1529.902328
 11
1204.712017
 21
1529.902328
  0
LINE
  8
0
  6
CONTINUOUS
 62
1
 10
1187.848135
 20
1522.012395
 11
1187.188135
 21
1527.772395
  0
LINE
  8
0
  6
CONTINUOUS
 62
1
 10
1206.040025
 20
1522.012395
 11
1206.700025
 21
1527.772395
  0
LINE
  8
0
  6
CONTINUOUS
 62
1
 10
1165.948135
 20
1528.192262
 11
1165.288135
 21
1522.432262
  0
LINE
  8
0
  6
CONTINUOUS
 62
1
 10
1184.140025
 20
1528.192262
 11
1184.800025
 21
1522.432262
  0
LINE
  8
0
  6
CONTINUOUS
 62
1
 10
1182.812017
 20
1520.302328
 11
1167.276144
 21
1520.302328
  0
POLYLINE
  8
0
  6
CONTINUOUS
 62
1
 66
1
 70
2
  0
VERTEX
  8
0
 10
1167.936144
 20
1529.902328
 70
0
 42
0.179121
  0
VERTEX
  8
0
 10
1166.601483
 20
1529.412271
 70
0
 42
0.189055
  0
VERTEX
  8
0
 10
1165.948135
 20
1528.192262
 70
0
  0
SEQEND
  0
POLYLINE
  8
0
  6
CONTINUOUS
 62
1
 66
1
 70
2
  0
VERTEX
  8
0
 10
1165.288135
 20
1522.432262
 70
0
 42
0.220328
  0
VERTEX
  8
0
 10
1165.786620
 20
1520.941054
 70
0
 42
0.207373
  0
VERTEX
  8
0
 10
1167.276144
 20
1520.302328
 70
0
  0
SEQEND
  0
POLYLINE
  8
0
  6
CONTINUOUS
 62
1
 66
1
 70
2
  0
VERTEX
  8
0
 10
1182.812017
 20
1520.302328
 70
0
 42
0.207373
  0
VERTEX
  8
0
 10
1184.301540
 20
1520.941054
 70
0
 42
0.220328
  0
VERTEX
  8
0
 10
1184.800025
 20
1522.432262
 70
0
  0
SEQEND
  0
POLYLINE
  8
0
  6
CONTINUOUS
 62
1
 66
1
 70
2
  0
VERTEX
  8
0
 10
1182.152017
 20
1529.902328
 70
0
 42
-0.179121
  0
VERTEX
  8
0
 10
1183.486677
 20
1529.412271
 70
0
 42
-0.189055
  0
VERTEX
  8
0
 10
1184.140025
 20
1528.192262
 70
0
  0
SEQEND
  0
POLYLINE
  8
0
  6
CONTINUOUS
 62
1
 66
1
 70
2
  0
VERTEX
  8
0
 10
1189.176144
 20
1529.902328
 70
0
 42
0.207373
  0
VERTEX
  8
0
 10
1187.686620
 20
1529.263603
 70
0
 42
0.220328
  0
VERTEX
  8
0
 10
1187.188135
 20
1527.772395
 70
0
  0
SEQEND
  0
POLYLINE
  8
0
  6
CONTINUOUS
 62
1
 66
1
 70
2
  0
VERTEX
  8
0
 10
1187.848135
 20
1522.012395
 70
0
 42
0.189055
  0
VERTEX
  8
0
 10
1188.501483
 20
1520.792386
 70
0
 42
0.179121
  0
VERTEX
  8
0
 10
1189.836144
 20
1520.302328
 70
0
  0
SEQEND
  0
POLYLINE
  8
0
  6
CONTINUOUS
 62
1
 66
1
 70
2
  0
VERTEX
  8
0
 10
1204.052017
 20
1520.302328
 70
0
 42
0.179121
  0
VERTEX
  8
0
 10
1205.386677
 20
1520.792386
 70
0
 42
0.189055
  0
VERTEX
  8
0
 10
1206.040025
 20
1522.012395
 70
0
  0
SEQEND
  0
POLYLINE
  8
0
  6
CONTINUOUS
 62
1
 66
1
 70
2
  0
VERTEX
  8
0
 10
1206.700025
 20
1527.772395
 70
0
 42
0.220328
  0
VERTEX
  8
0
 10
1206.201540
 20
1529.263603
 70
0
 42
0.207373
  0
VERTEX
  8
0
 10
1204.712017
 20
1529.902328
 70
0
  0
SEQEND
  0
LINE
  8
0
  6
CONTINUOUS
 62
1
 10
1247.852017
 20
1520.302328
 11
1233.636144
 21
1520.302328
  0
LINE
  8
0
  6
CONTINUOUS
 62
1
 10
1211.736144
 20
1529.902328
 11
1225.952017
 21
1529.902328
  0
LINE
  8
0
  6
CONTINUOUS
 62
1
 10
1232.976144
 20
1529.902328
 11
1248.512017
 21
1529.902328
  0
LINE
  8
0
  6
CONTINUOUS
 62
1
 10
1231.648135
 20
1522.012395
 11
1230.988135
 21
1527.772395
  0
LINE
  8
0
  6
CONTINUOUS
 62
1
 10
1249.840025
 20
1522.012395
 11
1250.500025
 21
1527.772395
  0
LINE
  8
0
  6
CONTINUOUS
 62
1
 10
1209.748135
 20
1528.192262
 11
1209.088135
 21
1522.432262
  0
LINE
  8
0
  6
CONTINUOUS
 62
1
 10
1227.940025
 20
1528.192262
 11
1228.600025
 21
1522.432262
  0
LINE
  8
0
  6
CONTINUOUS
 62
1
 10
1226.612017
 20
1520.302328
 11
1211.076144
 21
1520.302328
  0
POLYLINE
  8
0
  6
CONTINUOUS
 62
1
 66
1
 70
2
  0
VERTEX
  8
0
 10
1211.736144
 20
1529.902328
 70
0
 42
0.179121
  0
VERTEX
  8
0
 10
1210.401483
 20
1529.412271
 70
0
 42
0.189055
  0
VERTEX
  8
0
 10
1209.748135
 20
1528.192262
 70
0
  0
SEQEND
  0
POLYLINE
  8
0
  6
CONTINUOUS
 62
1
 66
1
 70
2
  0
VERTEX
  8
0
 10
1209.088135
 20
1522.432262
 70
0
 42
0.220328
  0
VERTEX
  8
0
 10
1209.586620
 20
1520.941054
 70
0
 42
0.207373
  0
VERTEX
  8
0
 10
1211.076144
 20
1520.302328
 70
0
  0
SEQEND
  0
POLYLINE
  8
0
  6
CONTINUOUS
 62
1
 66
1
 70
2
  0
VERTEX
  8
0
 10
1226.612017
 20
1520.302328
 70
0
 42
0.207373
  0
VERTEX
  8
0
 10
1228.101540
 20
1520.941054
 70
0
 42
0.220328
  0
VERTEX
  8
0
 10
1228.600025
 20
1522.432262
 70
0
  0
SEQEND
  0
POLYLINE
  8
0
  6
CONTINUOUS
 62
1
 66
1
 70
2
  0
VERTEX
  8
0
 10
1225.952017
 20
1529.902328
 70
0
 42
-0.179121
  0
VERTEX
  8
0
 10
1227.286677
 20
1529.412271
 70
0
 42
-0.189055
  0
VERTEX
  8
0
 10
1227.940025
 20
1528.192262
 70
0
  0
SEQEND
  0
POLYLINE
  8
0
  6
CONTINUOUS
 62
1
 66
1
 70
2
  0
VERTEX
  8
0
 10
1232.976144
 20
1529.902328
 70
0
 42
0.207373
  0
VERTEX
  8
0
 10
1231.486620
 20
1529.263603
 70
0
 42
0.220328
  0
VERTEX
  8
0
 10
1230.988135
 20
1527.772395
 70
0
  0
SEQEND
  0
POLYLINE
  8
0
  6
CONTINUOUS
 62
1
 66
1
 70
2
  0
VERTEX
  8
0
 10
1231.648135
 20
1522.012395
 70
0
 42
0.189055
  0
VERTEX
  8
0
 10
1232.301483
 20
1520.792386
 70
0
 42
0.179121
  0
VERTEX
  8
0
 10
1233.636144
 20
1520.302328
 70
0
  0
SEQEND
  0
POLYLINE
  8
0
  6
CONTINUOUS
 62
1
 66
1
 70
2
  0
VERTEX
  8
0
 10
1247.852017
 20
1520.302328
 70
0
 42
0.179121
  0
VERTEX
  8
0
 10
1249.186677
 20
1520.792386
 70
0
 42
0.189055
  0
VERTEX
  8
0
 10
1249.840025
 20
1522.012395
 70
0
  0
SEQEND
  0
POLYLINE
  8
0
  6
CONTINUOUS
 62
1
 66
1
 70
2
  0
VERTEX
  8
0
 10
1250.500025
 20
1527.772395
 70
0
 42
0.220328
  0
VERTEX
  8
0
 10
1250.001540
 20
1529.263603
 70
0
 42
0.207373
  0
VERTEX
  8
0
 10
1248.512017
 20
1529.902328
 70
0
  0
SEQEND
  0
LINE
  8
0
  6
CONTINUOUS
 62
1
 10
1160.252017
 20
1520.302328
 11
1146.036144
 21
1520.302328
  0
LINE
  8
0
  6
CONTINUOUS
 62
1
 10
970.176144
 20
1529.902328
 11
985.712017
 21
1529.902328
  0
LINE
  8
0
  6
CONTINUOUS
 62
1
 10
992.736144
 20
1529.902328
 11
1006.952017
 21
1529.902328
  0
LINE
  8
0
  6
CONTINUOUS
 62
1
 10
1013.976144
 20
1529.902328
 11
1029.512017
 21
1529.902328
  0
LINE
  8
0
  6
CONTINUOUS
 62
1
 10
1036.536144
 20
1529.902328
 11
1050.752017
 21
1529.902328
  0
LINE
  8
0
  6
CONTINUOUS
 62
1
 10
1057.776144
 20
1529.902328
 11
1073.312017
 21
1529.902328
  0
LINE
  8
0
  6
CONTINUOUS
 62
1
 10
1080.336144
 20
1529.902328
 11
1094.552017
 21
1529.902328
  0
LINE
  8
0
  6
CONTINUOUS
 62
1
 10
1101.576144
 20
1529.902328
 11
1117.112017
 21
1529.902328
  0
LINE
  8
0
  6
CONTINUOUS
 62
1
 10
1124.136144
 20
1529.902328
 11
1138.352017
 21
1529.902328
  0
LINE
  8
0
  6
CONTINUOUS
 62
1
 10
1145.376144
 20
1529.902328
 11
1160.912017
 21
1529.902328
  0
LINE
  8
0
  6
CONTINUOUS
 62
1
 10
968.848135
 20
1522.012395
 11
968.188135
 21
1527.772395
  0
LINE
  8
0
  6
CONTINUOUS
 62
1
 10
1012.648135
 20
1522.012395
 11
1011.988135
 21
1527.772395
  0
LINE
  8
0
  6
CONTINUOUS
 62
1
 10
1056.448135
 20
1522.012395
 11
1055.788135
 21
1527.772395
  0
LINE
  8
0
  6
CONTINUOUS
 62
1
 10
1100.248135
 20
1522.012395
 11
1099.588135
 21
1527.772395
  0
LINE
  8
0
  6
CONTINUOUS
 62
1
 10
1144.048135
 20
1522.012395
 11
1143.388135
 21
1527.772395
  0
LINE
  8
0
  6
CONTINUOUS
 62
1
 10
987.040025
 20
1522.012395
 11
987.700025
 21
1527.772395
  0
LINE
  8
0
  6
CONTINUOUS
 62
1
 10
1030.840025
 20
1522.012395
 11
1031.500025
 21
1527.772395
  0
LINE
  8
0
  6
CONTINUOUS
 62
1
 10
1074.640025
 20
1522.012395
 11
1075.300025
 21
1527.772395
  0
LINE
  8
0
  6
CONTINUOUS
 62
1
 10
1118.440025
 20
1522.012395
 11
1119.100025
 21
1527.772395
  0
LINE
  8
0
  6
CONTINUOUS
 62
1
 10
1162.240025
 20
1522.012395
 11
1162.900025
 21
1527.772395
  0
LINE
  8
0
  6
CONTINUOUS
 62
1
 10
990.748135
 20
1528.192262
 11
990.088135
 21
1522.432262
  0
LINE
  8
0
  6
CONTINUOUS
 62
1
 10
1008.940025
 20
1528.192262
 11
1009.600025
 21
1522.432262
  0
LINE
  8
0
  6
CONTINUOUS
 62
1
 10
1034.548135
 20
1528.192262
 11
1033.888135
 21
1522.432262
  0
LINE
  8
0
  6
CONTINUOUS
 62
1
 10
1052.740025
 20
1528.192262
 11
1053.400025
 21
1522.432262
  0
LINE
  8
0
  6
CONTINUOUS
 62
1
 10
1078.348135
 20
1528.192262
 11
1077.688135
 21
1522.432262
  0
LINE
  8
0
  6
CONTINUOUS
 62
1
 10
1096.540025
 20
1528.192262
 11
1097.200025
 21
1522.432262
  0
LINE
  8
0
  6
CONTINUOUS
 62
1
 10
1122.148135
 20
1528.192262
 11
1121.488135
 21
1522.432262
  0
LINE
  8
0
  6
CONTINUOUS
 62
1
 10
1140.340025
 20
1528.192262
 11
1141.000025
 21
1522.432262
  0
LINE
  8
0
  6
CONTINUOUS
 62
1
 10
985.052017
 20
1520.302328
 11
970.836144
 21
1520.302328
  0
LINE
  8
0
  6
CONTINUOUS
 62
1
 10
1007.612017
 20
1520.302328
 11
992.076144
 21
1520.302328
  0
LINE
  8
0
  6
CONTINUOUS
 62
1
 10
1028.852017
 20
1520.302328
 11
1014.636144
 21
1520.302328
  0
LINE
  8
0
  6
CONTINUOUS
 62
1
 10
1051.412017
 20
1520.302328
 11
1035.876144
 21
1520.302328
  0
LINE
  8
0
  6
CONTINUOUS
 62
1
 10
1072.652017
 20
1520.302328
 11
1058.436144
 21
1520.302328
  0
LINE
  8
0
  6
CONTINUOUS
 62
1
 10
1095.212017
 20
1520.302328
 11
1079.676144
 21
1520.302328
  0
LINE
  8
0
  6
CONTINUOUS
 62
1
 10
1116.452017
 20
1520.302328
 11
1102.236144
 21
1520.302328
  0
LINE
  8
0
  6
CONTINUOUS
 62
1
 10
1139.012017
 20
1520.302328
 11
1123.476144
 21
1520.302328
  0
POLYLINE
  8
0
  6
CONTINUOUS
 62
1
 66
1
 70
2
  0
VERTEX
  8
0
 10
970.176144
 20
1529.902328
 70
0
 42
0.207373
  0
VERTEX
  8
0
 10
968.686620
 20
1529.263603
 70
0
 42
0.220328
  0
VERTEX
  8
0
 10
968.188135
 20
1527.772395
 70
0
  0
SEQEND
  0
POLYLINE
  8
0
  6
CONTINUOUS
 62
1
 66
1
 70
2
  0
VERTEX
  8
0
 10
968.848135
 20
1522.012395
 70
0
 42
0.189055
  0
VERTEX
  8
0
 10
969.501483
 20
1520.792386
 70
0
 42
0.179121
  0
VERTEX
  8
0
 10
970.836144
 20
1520.302328
 70
0
  0
SEQEND
  0
POLYLINE
  8
0
  6
CONTINUOUS
 62
1
 66
1
 70
2
  0
VERTEX
  8
0
 10
985.052017
 20
1520.302328
 70
0
 42
0.179121
  0
VERTEX
  8
0
 10
986.386677
 20
1520.792386
 70
0
 42
0.189055
  0
VERTEX
  8
0
 10
987.040025
 20
1522.012395
 70
0
  0
SEQEND
  0
POLYLINE
  8
0
  6
CONTINUOUS
 62
1
 66
1
 70
2
  0
VERTEX
  8
0
 10
987.700025
 20
1527.772395
 70
0
 42
0.220328
  0
VERTEX
  8
0
 10
987.201540
 20
1529.263603
 70
0
 42
0.207373
  0
VERTEX
  8
0
 10
985.712017
 20
1529.902328
 70
0
  0
SEQEND
  0
POLYLINE
  8
0
  6
CONTINUOUS
 62
1
 66
1
 70
2
  0
VERTEX
  8
0
 10
990.748135
 20
1528.192262
 70
0
 42
-0.189055
  0
VERTEX
  8
0
 10
991.401483
 20
1529.412271
 70
0
 42
-0.179121
  0
VERTEX
  8
0
 10
992.736144
 20
1529.902328
 70
0
  0
SEQEND
  0
POLYLINE
  8
0
  6
CONTINUOUS
 62
1
 66
1
 70
2
  0
VERTEX
  8
0
 10
1006.952017
 20
1529.902328
 70
0
 42
-0.179121
  0
VERTEX
  8
0
 10
1008.286677
 20
1529.412271
 70
0
 42
-0.189055
  0
VERTEX
  8
0
 10
1008.940025
 20
1528.192262
 70
0
  0
SEQEND
  0
POLYLINE
  8
0
  6
CONTINUOUS
 62
1
 66
1
 70
2
  0
VERTEX
  8
0
 10
1009.600025
 20
1522.432262
 70
0
 42
-0.220328
  0
VERTEX
  8
0
 10
1009.101540
 20
1520.941054
 70
0
 42
-0.207373
  0
VERTEX
  8
0
 10
1007.612017
 20
1520.302328
 70
0
  0
SEQEND
  0
POLYLINE
  8
0
  6
CONTINUOUS
 62
1
 66
1
 70
2
  0
VERTEX
  8
0
 10
992.076144
 20
1520.302328
 70
0
 42
-0.207373
  0
VERTEX
  8
0
 10
990.586620
 20
1520.941054
 70
0
 42
-0.220328
  0
VERTEX
  8
0
 10
990.088135
 20
1522.432262
 70
0
  0
SEQEND
  0
POLYLINE
  8
0
  6
CONTINUOUS
 62
1
 66
1
 70
2
  0
VERTEX
  8
0
 10
1012.648135
 20
1522.012395
 70
0
 42
0.189055
  0
VERTEX
  8
0
 10
1013.301483
 20
1520.792386
 70
0
 42
0.179121
  0
VERTEX
  8
0
 10
1014.636144
 20
1520.302328
 70
0
  0
SEQEND
  0
POLYLINE
  8
0
  6
CONTINUOUS
 62
1
 66
1
 70
2
  0
VERTEX
  8
0
 10
1028.852017
 20
1520.302328
 70
0
 42
0.179121
  0
VERTEX
  8
0
 10
1030.186677
 20
1520.792386
 70
0
 42
0.189055
  0
VERTEX
  8
0
 10
1030.840025
 20
1522.012395
 70
0
  0
SEQEND
  0
POLYLINE
  8
0
  6
CONTINUOUS
 62
1
 66
1
 70
2
  0
VERTEX
  8
0
 10
1031.500025
 20
1527.772395
 70
0
 42
0.220328
  0
VERTEX
  8
0
 10
1031.001540
 20
1529.263603
 70
0
 42
0.207373
  0
VERTEX
  8
0
 10
1029.512017
 20
1529.902328
 70
0
  0
SEQEND
  0
POLYLINE
  8
0
  6
CONTINUOUS
 62
1
 66
1
 70
2
  0
VERTEX
  8
0
 10
1013.976144
 20
1529.902328
 70
0
 42
0.207373
  0
VERTEX
  8
0
 10
1012.486620
 20
1529.263603
 70
0
 42
0.220328
  0
VERTEX
  8
0
 10
1011.988135
 20
1527.772395
 70
0
  0
SEQEND
  0
POLYLINE
  8
0
  6
CONTINUOUS
 62
1
 66
1
 70
2
  0
VERTEX
  8
0
 10
1036.536144
 20
1529.902328
 70
0
 42
0.179121
  0
VERTEX
  8
0
 10
1035.201483
 20
1529.412271
 70
0
 42
0.189055
  0
VERTEX
  8
0
 10
1034.548135
 20
1528.192262
 70
0
  0
SEQEND
  0
POLYLINE
  8
0
  6
CONTINUOUS
 62
1
 66
1
 70
2
  0
VERTEX
  8
0
 10
1033.888135
 20
1522.432262
 70
0
 42
0.220328
  0
VERTEX
  8
0
 10
1034.386620
 20
1520.941054
 70
0
 42
0.207373
  0
VERTEX
  8
0
 10
1035.876144
 20
1520.302328
 70
0
  0
SEQEND
  0
POLYLINE
  8
0
  6
CONTINUOUS
 62
1
 66
1
 70
2
  0
VERTEX
  8
0
 10
1051.412017
 20
1520.302328
 70
0
 42
0.207373
  0
VERTEX
  8
0
 10
1052.901540
 20
1520.941054
 70
0
 42
0.220328
  0
VERTEX
  8
0
 10
1053.400025
 20
1522.432262
 70
0
  0
SEQEND
  0
POLYLINE
  8
0
  6
CONTINUOUS
 62
1
 66
1
 70
2
  0
VERTEX
  8
0
 10
1052.740025
 20
1528.192262
 70
0
 42
0.189055
  0
VERTEX
  8
0
 10
1052.086677
 20
1529.412271
 70
0
 42
0.179121
  0
VERTEX
  8
0
 10
1050.752017
 20
1529.902328
 70
0
  0
SEQEND
  0
POLYLINE
  8
0
  6
CONTINUOUS
 62
1
 66
1
 70
2
  0
VERTEX
  8
0
 10
1055.788135
 20
1527.772395
 70
0
 42
-0.220328
  0
VERTEX
  8
0
 10
1056.286620
 20
1529.263603
 70
0
 42
-0.207373
  0
VERTEX
  8
0
 10
1057.776144
 20
1529.902328
 70
0
  0
SEQEND
  0
POLYLINE
  8
0
  6
CONTINUOUS
 62
1
 66
1
 70
2
  0
VERTEX
  8
0
 10
1073.312017
 20
1529.902328
 70
0
 42
-0.207373
  0
VERTEX
  8
0
 10
1074.801540
 20
1529.263603
 70
0
 42
-0.220328
  0
VERTEX
  8
0
 10
1075.300025
 20
1527.772395
 70
0
  0
SEQEND
  0
POLYLINE
  8
0
  6
CONTINUOUS
 62
1
 66
1
 70
2
  0
VERTEX
  8
0
 10
1074.640025
 20
1522.012395
 70
0
 42
-0.189055
  0
VERTEX
  8
0
 10
1073.986677
 20
1520.792386
 70
0
 42
-0.179121
  0
VERTEX
  8
0
 10
1072.652017
 20
1520.302328
 70
0
  0
SEQEND
  0
POLYLINE
  8
0
  6
CONTINUOUS
 62
1
 66
1
 70
2
  0
VERTEX
  8
0
 10
1058.436144
 20
1520.302328
 70
0
 42
-0.179121
  0
VERTEX
  8
0
 10
1057.101483
 20
1520.792386
 70
0
 42
-0.189055
  0
VERTEX
  8
0
 10
1056.448135
 20
1522.012395
 70
0
  0
SEQEND
  0
POLYLINE
  8
0
  6
CONTINUOUS
 62
1
 66
1
 70
2
  0
VERTEX
  8
0
 10
1077.688135
 20
1522.432262
 70
0
 42
0.220328
  0
VERTEX
  8
0
 10
1078.186620
 20
1520.941054
 70
0
 42
0.207373
  0
VERTEX
  8
0
 10
1079.676144
 20
1520.302328
 70
0
  0
SEQEND
  0
POLYLINE
  8
0
  6
CONTINUOUS
 62
1
 66
1
 70
2
  0
VERTEX
  8
0
 10
1095.212017
 20
1520.302328
 70
0
 42
0.207373
  0
VERTEX
  8
0
 10
1096.701540
 20
1520.941054
 70
0
 42
0.220328
  0
VERTEX
  8
0
 10
1097.200025
 20
1522.432262
 70
0
  0
SEQEND
  0
POLYLINE
  8
0
  6
CONTINUOUS
 62
1
 66
1
 70
2
  0
VERTEX
  8
0
 10
1096.540025
 20
1528.192262
 70
0
 42
0.189055
  0
VERTEX
  8
0
 10
1095.886677
 20
1529.412271
 70
0
 42
0.179121
  0
VERTEX
  8
0
 10
1094.552017
 20
1529.902328
 70
0
  0
SEQEND
  0
POLYLINE
  8
0
  6
CONTINUOUS
 62
1
 66
1
 70
2
  0
VERTEX
  8
0
 10
1080.336144
 20
1529.902328
 70
0
 42
0.179121
  0
VERTEX
  8
0
 10
1079.001483
 20
1529.412271
 70
0
 42
0.189055
  0
VERTEX
  8
0
 10
1078.348135
 20
1528.192262
 70
0
  0
SEQEND
  0
POLYLINE
  8
0
  6
CONTINUOUS
 62
1
 66
1
 70
2
  0
VERTEX
  8
0
 10
1101.576144
 20
1529.902328
 70
0
 42
0.207373
  0
VERTEX
  8
0
 10
1100.086620
 20
1529.263603
 70
0
 42
0.220328
  0
VERTEX
  8
0
 10
1099.588135
 20
1527.772395
 70
0
  0
SEQEND
  0
POLYLINE
  8
0
  6
CONTINUOUS
 62
1
 66
1
 70
2
  0
VERTEX
  8
0
 10
1100.248135
 20
1522.012395
 70
0
 42
0.189055
  0
VERTEX
  8
0
 10
1100.901483
 20
1520.792386
 70
0
 42
0.179121
  0
VERTEX
  8
0
 10
1102.236144
 20
1520.302328
 70
0
  0
SEQEND
  0
POLYLINE
  8
0
  6
CONTINUOUS
 62
1
 66
1
 70
2
  0
VERTEX
  8
0
 10
1116.452017
 20
1520.302328
 70
0
 42
0.179121
  0
VERTEX
  8
0
 10
1117.786677
 20
1520.792386
 70
0
 42
0.189055
  0
VERTEX
  8
0
 10
1118.440025
 20
1522.012395
 70
0
  0
SEQEND
  0
POLYLINE
  8
0
  6
CONTINUOUS
 62
1
 66
1
 70
2
  0
VERTEX
  8
0
 10
1119.100025
 20
1527.772395
 70
0
 42
0.220328
  0
VERTEX
  8
0
 10
1118.601540
 20
1529.263603
 70
0
 42
0.207373
  0
VERTEX
  8
0
 10
1117.112017
 20
1529.902328
 70
0
  0
SEQEND
  0
POLYLINE
  8
0
  6
CONTINUOUS
 62
1
 66
1
 70
2
  0
VERTEX
  8
0
 10
1124.136144
 20
1529.902328
 70
0
 42
0.179121
  0
VERTEX
  8
0
 10
1122.801483
 20
1529.412271
 70
0
 42
0.189055
  0
VERTEX
  8
0
 10
1122.148135
 20
1528.192262
 70
0
  0
SEQEND
  0
POLYLINE
  8
0
  6
CONTINUOUS
 62
1
 66
1
 70
2
  0
VERTEX
  8
0
 10
1121.488135
 20
1522.432262
 70
0
 42
0.220328
  0
VERTEX
  8
0
 10
1121.986620
 20
1520.941054
 70
0
 42
0.207373
  0
VERTEX
  8
0
 10
1123.476144
 20
1520.302328
 70
0
  0
SEQEND
  0
POLYLINE
  8
0
  6
CONTINUOUS
 62
1
 66
1
 70
2
  0
VERTEX
  8
0
 10
1139.012017
 20
1520.302328
 70
0
 42
0.207373
  0
VERTEX
  8
0
 10
1140.501540
 20
1520.941054
 70
0
 42
0.220328
  0
VERTEX
  8
0
 10
1141.000025
 20
1522.432262
 70
0
  0
SEQEND
  0
POLYLINE
  8
0
  6
CONTINUOUS
 62
1
 66
1
 70
2
  0
VERTEX
  8
0
 10
1138.352017
 20
1529.902328
 70
0
 42
-0.179121
  0
VERTEX
  8
0
 10
1139.686677
 20
1529.412271
 70
0
 42
-0.189055
  0
VERTEX
  8
0
 10
1140.340025
 20
1528.192262
 70
0
  0
SEQEND
  0
POLYLINE
  8
0
  6
CONTINUOUS
 62
1
 66
1
 70
2
  0
VERTEX
  8
0
 10
1145.376144
 20
1529.902328
 70
0
 42
0.207373
  0
VERTEX
  8
0
 10
1143.886620
 20
1529.263603
 70
0
 42
0.220328
  0
VERTEX
  8
0
 10
1143.388135
 20
1527.772395
 70
0
  0
SEQEND
  0
POLYLINE
  8
0
  6
CONTINUOUS
 62
1
 66
1
 70
2
  0
VERTEX
  8
0
 10
1144.048135
 20
1522.012395
 70
0
 42
0.189055
  0
VERTEX
  8
0
 10
1144.701483
 20
1520.792386
 70
0
 42
0.179121
  0
VERTEX
  8
0
 10
1146.036144
 20
1520.302328
 70
0
  0
SEQEND
  0
POLYLINE
  8
0
  6
CONTINUOUS
 62
1
 66
1
 70
2
  0
VERTEX
  8
0
 10
1160.252017
 20
1520.302328
 70
0
 42
0.179121
  0
VERTEX
  8
0
 10
1161.586677
 20
1520.792386
 70
0
 42
0.189055
  0
VERTEX
  8
0
 10
1162.240025
 20
1522.012395
 70
0
  0
SEQEND
  0
POLYLINE
  8
0
  6
CONTINUOUS
 62
1
 66
1
 70
2
  0
VERTEX
  8
0
 10
1162.900025
 20
1527.772395
 70
0
 42
0.220328
  0
VERTEX
  8
0
 10
1162.401540
 20
1529.263603
 70
0
 42
0.207373
  0
VERTEX
  8
0
 10
1160.912017
 20
1529.902328
 70
0
  0
SEQEND
  0
LINE
  8
0
  6
CONTINUOUS
 62
1
 10
1291.652017
 20
1520.302328
 11
1277.436144
 21
1520.302328
  0
LINE
  8
0
  6
CONTINUOUS
 62
1
 10
1255.536144
 20
1529.902328
 11
1269.752017
 21
1529.902328
  0
LINE
  8
0
  6
CONTINUOUS
 62
1
 10
1276.776144
 20
1529.902328
 11
1292.312017
 21
1529.902328
  0
LINE
  8
0
  6
CONTINUOUS
 62
1
 10
1275.448135
 20
1522.012395
 11
1274.788135
 21
1527.772395
  0
LINE
  8
0
  6
CONTINUOUS
 62
1
 10
1293.640025
 20
1522.012395
 11
1294.300025
 21
1527.772395
  0
LINE
  8
0
  6
CONTINUOUS
 62
1
 10
1253.548135
 20
1528.192262
 11
1252.888135
 21
1522.432262
  0
LINE
  8
0
  6
CONTINUOUS
 62
1
 10
1271.740025
 20
1528.192262
 11
1272.400025
 21
1522.432262
  0
LINE
  8
0
  6
CONTINUOUS
 62
1
 10
1270.412017
 20
1520.302328
 11
1254.876144
 21
1520.302328
  0
POLYLINE
  8
0
  6
CONTINUOUS
 62
1
 66
1
 70
2
  0
VERTEX
  8
0
 10
1255.536144
 20
1529.902328
 70
0
 42
0.179121
  0
VERTEX
  8
0
 10
1254.201483
 20
1529.412271
 70
0
 42
0.189055
  0
VERTEX
  8
0
 10
1253.548135
 20
1528.192262
 70
0
  0
SEQEND
  0
POLYLINE
  8
0
  6
CONTINUOUS
 62
1
 66
1
 70
2
  0
VERTEX
  8
0
 10
1252.888135
 20
1522.432262
 70
0
 42
0.220328
  0
VERTEX
  8
0
 10
1253.386620
 20
1520.941054
 70
0
 42
0.207373
  0
VERTEX
  8
0
 10
1254.876144
 20
1520.302328
 70
0
  0
SEQEND
  0
POLYLINE
  8
0
  6
CONTINUOUS
 62
1
 66
1
 70
2
  0
VERTEX
  8
0
 10
1270.412017
 20
1520.302328
 70
0
 42
0.207373
  0
VERTEX
  8
0
 10
1271.901540
 20
1520.941054
 70
0
 42
0.220328
  0
VERTEX
  8
0
 10
1272.400025
 20
1522.432262
 70
0
  0
SEQEND
  0
POLYLINE
  8
0
  6
CONTINUOUS
 62
1
 66
1
 70
2
  0
VERTEX
  8
0
 10
1269.752017
 20
1529.902328
 70
0
 42
-0.179121
  0
VERTEX
  8
0
 10
1271.086677
 20
1529.412271
 70
0
 42
-0.189055
  0
VERTEX
  8
0
 10
1271.740025
 20
1528.192262
 70
0
  0
SEQEND
  0
POLYLINE
  8
0
  6
CONTINUOUS
 62
1
 66
1
 70
2
  0
VERTEX
  8
0
 10
1276.776144
 20
1529.902328
 70
0
 42
0.207373
  0
VERTEX
  8
0
 10
1275.286620
 20
1529.263603
 70
0
 42
0.220328
  0
VERTEX
  8
0
 10
1274.788135
 20
1527.772395
 70
0
  0
SEQEND
  0
POLYLINE
  8
0
  6
CONTINUOUS
 62
1
 66
1
 70
2
  0
VERTEX
  8
0
 10
1275.448135
 20
1522.012395
 70
0
 42
0.189055
  0
VERTEX
  8
0
 10
1276.101483
 20
1520.792386
 70
0
 42
0.179121
  0
VERTEX
  8
0
 10
1277.436144
 20
1520.302328
 70
0
  0
SEQEND
  0
POLYLINE
  8
0
  6
CONTINUOUS
 62
1
 66
1
 70
2
  0
VERTEX
  8
0
 10
1291.652017
 20
1520.302328
 70
0
 42
0.179121
  0
VERTEX
  8
0
 10
1292.986677
 20
1520.792386
 70
0
 42
0.189055
  0
VERTEX
  8
0
 10
1293.640025
 20
1522.012395
 70
0
  0
SEQEND
  0
POLYLINE
  8
0
  6
CONTINUOUS
 62
1
 66
1
 70
2
  0
VERTEX
  8
0
 10
1294.300025
 20
1527.772395
 70
0
 42
0.220328
  0
VERTEX
  8
0
 10
1293.801540
 20
1529.263603
 70
0
 42
0.207373
  0
VERTEX
  8
0
 10
1292.312017
 20
1529.902328
 70
0
  0
SEQEND
  0
LINE
  8
0
  6
CONTINUOUS
 62
1
 10
1335.452017
 20
1520.302328
 11
1321.236144
 21
1520.302328
  0
LINE
  8
0
  6
CONTINUOUS
 62
1
 10
1299.336144
 20
1529.902328
 11
1313.552017
 21
1529.902328
  0
LINE
  8
0
  6
CONTINUOUS
 62
1
 10
1320.576144
 20
1529.902328
 11
1336.112017
 21
1529.902328
  0
LINE
  8
0
  6
CONTINUOUS
 62
1
 10
1319.248135
 20
1522.012395
 11
1318.588135
 21
1527.772395
  0
LINE
  8
0
  6
CONTINUOUS
 62
1
 10
1337.440025
 20
1522.012395
 11
1338.100025
 21
1527.772395
  0
LINE
  8
0
  6
CONTINUOUS
 62
1
 10
1297.348135
 20
1528.192262
 11
1296.688135
 21
1522.432262
  0
LINE
  8
0
  6
CONTINUOUS
 62
1
 10
1315.540025
 20
1528.192262
 11
1316.200025
 21
1522.432262
  0
LINE
  8
0
  6
CONTINUOUS
 62
1
 10
1314.212017
 20
1520.302328
 11
1298.676144
 21
1520.302328
  0
POLYLINE
  8
0
  6
CONTINUOUS
 62
1
 66
1
 70
2
  0
VERTEX
  8
0
 10
1299.336144
 20
1529.902328
 70
0
 42
0.179121
  0
VERTEX
  8
0
 10
1298.001483
 20
1529.412271
 70
0
 42
0.189055
  0
VERTEX
  8
0
 10
1297.348135
 20
1528.192262
 70
0
  0
SEQEND
  0
POLYLINE
  8
0
  6
CONTINUOUS
 62
1
 66
1
 70
2
  0
VERTEX
  8
0
 10
1296.688135
 20
1522.432262
 70
0
 42
0.220328
  0
VERTEX
  8
0
 10
1297.186620
 20
1520.941054
 70
0
 42
0.207373
  0
VERTEX
  8
0
 10
1298.676144
 20
1520.302328
 70
0
  0
SEQEND
  0
POLYLINE
  8
0
  6
CONTINUOUS
 62
1
 66
1
 70
2
  0
VERTEX
  8
0
 10
1314.212017
 20
1520.302328
 70
0
 42
0.207373
  0
VERTEX
  8
0
 10
1315.701540
 20
1520.941054
 70
0
 42
0.220328
  0
VERTEX
  8
0
 10
1316.200025
 20
1522.432262
 70
0
  0
SEQEND
  0
POLYLINE
  8
0
  6
CONTINUOUS
 62
1
 66
1
 70
2
  0
VERTEX
  8
0
 10
1313.552017
 20
1529.902328
 70
0
 42
-0.179121
  0
VERTEX
  8
0
 10
1314.886677
 20
1529.412271
 70
0
 42
-0.189055
  0
VERTEX
  8
0
 10
1315.540025
 20
1528.192262
 70
0
  0
SEQEND
  0
POLYLINE
  8
0
  6
CONTINUOUS
 62
1
 66
1
 70
2
  0
VERTEX
  8
0
 10
1320.576144
 20
1529.902328
 70
0
 42
0.207373
  0
VERTEX
  8
0
 10
1319.086620
 20
1529.263603
 70
0
 42
0.220328
  0
VERTEX
  8
0
 10
1318.588135
 20
1527.772395
 70
0
  0
SEQEND
  0
POLYLINE
  8
0
  6
CONTINUOUS
 62
1
 66
1
 70
2
  0
VERTEX
  8
0
 10
1319.248135
 20
1522.012395
 70
0
 42
0.189055
  0
VERTEX
  8
0
 10
1319.901483
 20
1520.792386
 70
0
 42
0.179121
  0
VERTEX
  8
0
 10
1321.236144
 20
1520.302328
 70
0
  0
SEQEND
  0
POLYLINE
  8
0
  6
CONTINUOUS
 62
1
 66
1
 70
2
  0
VERTEX
  8
0
 10
1335.452017
 20
1520.302328
 70
0
 42
0.179121
  0
VERTEX
  8
0
 10
1336.786677
 20
1520.792386
 70
0
 42
0.189055
  0
VERTEX
  8
0
 10
1337.440025
 20
1522.012395
 70
0
  0
SEQEND
  0
POLYLINE
  8
0
  6
CONTINUOUS
 62
1
 66
1
 70
2
  0
VERTEX
  8
0
 10
1338.100025
 20
1527.772395
 70
0
 42
0.220328
  0
VERTEX
  8
0
 10
1337.601540
 20
1529.263603
 70
0
 42
0.207373
  0
VERTEX
  8
0
 10
1336.112017
 20
1529.902328
 70
0
  0
SEQEND
  0
LINE
  8
0
  6
CONTINUOUS
 62
1
 10
1379.252017
 20
1520.302328
 11
1365.036144
 21
1520.302328
  0
LINE
  8
0
  6
CONTINUOUS
 62
1
 10
1343.136144
 20
1529.902328
 11
1357.352017
 21
1529.902328
  0
LINE
  8
0
  6
CONTINUOUS
 62
1
 10
1364.376144
 20
1529.902328
 11
1379.912017
 21
1529.902328
  0
LINE
  8
0
  6
CONTINUOUS
 62
1
 10
1363.048135
 20
1522.012395
 11
1362.388135
 21
1527.772395
  0
LINE
  8
0
  6
CONTINUOUS
 62
1
 10
1381.240025
 20
1522.012395
 11
1381.900025
 21
1527.772395
  0
LINE
  8
0
  6
CONTINUOUS
 62
1
 10
1341.148135
 20
1528.192262
 11
1340.488135
 21
1522.432262
  0
LINE
  8
0
  6
CONTINUOUS
 62
1
 10
1359.340025
 20
1528.192262
 11
1360.000025
 21
1522.432262
  0
LINE
  8
0
  6
CONTINUOUS
 62
1
 10
1358.012017
 20
1520.302328
 11
1342.476144
 21
1520.302328
  0
POLYLINE
  8
0
  6
CONTINUOUS
 62
1
 66
1
 70
2
  0
VERTEX
  8
0
 10
1343.136144
 20
1529.902328
 70
0
 42
0.179121
  0
VERTEX
  8
0
 10
1341.801483
 20
1529.412271
 70
0
 42
0.189055
  0
VERTEX
  8
0
 10
1341.148135
 20
1528.192262
 70
0
  0
SEQEND
  0
POLYLINE
  8
0
  6
CONTINUOUS
 62
1
 66
1
 70
2
  0
VERTEX
  8
0
 10
1340.488135
 20
1522.432262
 70
0
 42
0.220328
  0
VERTEX
  8
0
 10
1340.986620
 20
1520.941054
 70
0
 42
0.207373
  0
VERTEX
  8
0
 10
1342.476144
 20
1520.302328
 70
0
  0
SEQEND
  0
POLYLINE
  8
0
  6
CONTINUOUS
 62
1
 66
1
 70
2
  0
VERTEX
  8
0
 10
1358.012017
 20
1520.302328
 70
0
 42
0.207373
  0
VERTEX
  8
0
 10
1359.501540
 20
1520.941054
 70
0
 42
0.220328
  0
VERTEX
  8
0
 10
1360.000025
 20
1522.432262
 70
0
  0
SEQEND
  0
POLYLINE
  8
0
  6
CONTINUOUS
 62
1
 66
1
 70
2
  0
VERTEX
  8
0
 10
1357.352017
 20
1529.902328
 70
0
 42
-0.179121
  0
VERTEX
  8
0
 10
1358.686677
 20
1529.412271
 70
0
 42
-0.189055
  0
VERTEX
  8
0
 10
1359.340025
 20
1528.192262
 70
0
  0
SEQEND
  0
POLYLINE
  8
0
  6
CONTINUOUS
 62
1
 66
1
 70
2
  0
VERTEX
  8
0
 10
1364.376144
 20
1529.902328
 70
0
 42
0.207373
  0
VERTEX
  8
0
 10
1362.886620
 20
1529.263603
 70
0
 42
0.220328
  0
VERTEX
  8
0
 10
1362.388135
 20
1527.772395
 70
0
  0
SEQEND
  0
POLYLINE
  8
0
  6
CONTINUOUS
 62
1
 66
1
 70
2
  0
VERTEX
  8
0
 10
1363.048135
 20
1522.012395
 70
0
 42
0.189055
  0
VERTEX
  8
0
 10
1363.701483
 20
1520.792386
 70
0
 42
0.179121
  0
VERTEX
  8
0
 10
1365.036144
 20
1520.302328
 70
0
  0
SEQEND
  0
POLYLINE
  8
0
  6
CONTINUOUS
 62
1
 66
1
 70
2
  0
VERTEX
  8
0
 10
1379.252017
 20
1520.302328
 70
0
 42
0.179121
  0
VERTEX
  8
0
 10
1380.586677
 20
1520.792386
 70
0
 42
0.189055
  0
VERTEX
  8
0
 10
1381.240025
 20
1522.012395
 70
0
  0
SEQEND
  0
POLYLINE
  8
0
  6
CONTINUOUS
 62
1
 66
1
 70
2
  0
VERTEX
  8
0
 10
1381.900025
 20
1527.772395
 70
0
 42
0.220328
  0
VERTEX
  8
0
 10
1381.401540
 20
1529.263603
 70
0
 42
0.207373
  0
VERTEX
  8
0
 10
1379.912017
 20
1529.902328
 70
0
  0
SEQEND
  0
LINE
  8
0
  6
CONTINUOUS
 62
1
 10
1423.052017
 20
1520.302328
 11
1408.836144
 21
1520.302328
  0
LINE
  8
0
  6
CONTINUOUS
 62
1
 10
1386.936144
 20
1529.902328
 11
1401.152017
 21
1529.902328
  0
LINE
  8
0
  6
CONTINUOUS
 62
1
 10
1408.176144
 20
1529.902328
 11
1423.712017
 21
1529.902328
  0
LINE
  8
0
  6
CONTINUOUS
 62
1
 10
1406.848135
 20
1522.012395
 11
1406.188135
 21
1527.772395
  0
LINE
  8
0
  6
CONTINUOUS
 62
1
 10
1425.040025
 20
1522.012395
 11
1425.700025
 21
1527.772395
  0
LINE
  8
0
  6
CONTINUOUS
 62
1
 10
1384.948135
 20
1528.192262
 11
1384.288135
 21
1522.432262
  0
LINE
  8
0
  6
CONTINUOUS
 62
1
 10
1403.140025
 20
1528.192262
 11
1403.800025
 21
1522.432262
  0
LINE
  8
0
  6
CONTINUOUS
 62
1
 10
1401.812017
 20
1520.302328
 11
1386.276144
 21
1520.302328
  0
POLYLINE
  8
0
  6
CONTINUOUS
 62
1
 66
1
 70
2
  0
VERTEX
  8
0
 10
1386.936144
 20
1529.902328
 70
0
 42
0.179121
  0
VERTEX
  8
0
 10
1385.601483
 20
1529.412271
 70
0
 42
0.189055
  0
VERTEX
  8
0
 10
1384.948135
 20
1528.192262
 70
0
  0
SEQEND
  0
POLYLINE
  8
0
  6
CONTINUOUS
 62
1
 66
1
 70
2
  0
VERTEX
  8
0
 10
1384.288135
 20
1522.432262
 70
0
 42
0.220328
  0
VERTEX
  8
0
 10
1384.786620
 20
1520.941054
 70
0
 42
0.207373
  0
VERTEX
  8
0
 10
1386.276144
 20
1520.302328
 70
0
  0
SEQEND
  0
POLYLINE
  8
0
  6
CONTINUOUS
 62
1
 66
1
 70
2
  0
VERTEX
  8
0
 10
1401.812017
 20
1520.302328
 70
0
 42
0.207373
  0
VERTEX
  8
0
 10
1403.301540
 20
1520.941054
 70
0
 42
0.220328
  0
VERTEX
  8
0
 10
1403.800025
 20
1522.432262
 70
0
  0
SEQEND
  0
POLYLINE
  8
0
  6
CONTINUOUS
 62
1
 66
1
 70
2
  0
VERTEX
  8
0
 10
1401.152017
 20
1529.902328
 70
0
 42
-0.179121
  0
VERTEX
  8
0
 10
1402.486677
 20
1529.412271
 70
0
 42
-0.189055
  0
VERTEX
  8
0
 10
1403.140025
 20
1528.192262
 70
0
  0
SEQEND
  0
POLYLINE
  8
0
  6
CONTINUOUS
 62
1
 66
1
 70
2
  0
VERTEX
  8
0
 10
1408.176144
 20
1529.902328
 70
0
 42
0.207373
  0
VERTEX
  8
0
 10
1406.686620
 20
1529.263603
 70
0
 42
0.220328
  0
VERTEX
  8
0
 10
1406.188135
 20
1527.772395
 70
0
  0
SEQEND
  0
POLYLINE
  8
0
  6
CONTINUOUS
 62
1
 66
1
 70
2
  0
VERTEX
  8
0
 10
1406.848135
 20
1522.012395
 70
0
 42
0.189055
  0
VERTEX
  8
0
 10
1407.501483
 20
1520.792386
 70
0
 42
0.179121
  0
VERTEX
  8
0
 10
1408.836144
 20
1520.302328
 70
0
  0
SEQEND
  0
POLYLINE
  8
0
  6
CONTINUOUS
 62
1
 66
1
 70
2
  0
VERTEX
  8
0
 10
1423.052017
 20
1520.302328
 70
0
 42
0.179121
  0
VERTEX
  8
0
 10
1424.386677
 20
1520.792386
 70
0
 42
0.189055
  0
VERTEX
  8
0
 10
1425.040025
 20
1522.012395
 70
0
  0
SEQEND
  0
POLYLINE
  8
0
  6
CONTINUOUS
 62
1
 66
1
 70
2
  0
VERTEX
  8
0
 10
1425.700025
 20
1527.772395
 70
0
 42
0.220328
  0
VERTEX
  8
0
 10
1425.201540
 20
1529.263603
 70
0
 42
0.207373
  0
VERTEX
  8
0
 10
1423.712017
 20
1529.902328
 70
0
  0
SEQEND
  0
LINE
  8
0
  6
CONTINUOUS
 62
1
 10
1430.736144
 20
1529.902328
 11
1444.952017
 21
1529.902328
  0
LINE
  8
0
  6
CONTINUOUS
 62
1
 10
1428.748135
 20
1528.192262
 11
1428.088135
 21
1522.432262
  0
LINE
  8
0
  6
CONTINUOUS
 62
1
 10
1446.940025
 20
1528.192262
 11
1447.600025
 21
1522.432262
  0
LINE
  8
0
  6
CONTINUOUS
 62
1
 10
1445.612017
 20
1520.302328
 11
1430.076144
 21
1520.302328
  0
POLYLINE
  8
0
  6
CONTINUOUS
 62
1
 66
1
 70
2
  0
VERTEX
  8
0
 10
1430.736144
 20
1529.902328
 70
0
 42
0.179121
  0
VERTEX
  8
0
 10
1429.401483
 20
1529.412271
 70
0
 42
0.189055
  0
VERTEX
  8
0
 10
1428.748135
 20
1528.192262
 70
0
  0
SEQEND
  0
POLYLINE
  8
0
  6
CONTINUOUS
 62
1
 66
1
 70
2
  0
VERTEX
  8
0
 10
1428.088135
 20
1522.432262
 70
0
 42
0.220328
  0
VERTEX
  8
0
 10
1428.586620
 20
1520.941054
 70
0
 42
0.207373
  0
VERTEX
  8
0
 10
1430.076144
 20
1520.302328
 70
0
  0
SEQEND
  0
POLYLINE
  8
0
  6
CONTINUOUS
 62
1
 66
1
 70
2
  0
VERTEX
  8
0
 10
1445.612017
 20
1520.302328
 70
0
 42
0.207373
  0
VERTEX
  8
0
 10
1447.101540
 20
1520.941054
 70
0
 42
0.220328
  0
VERTEX
  8
0
 10
1447.600025
 20
1522.432262
 70
0
  0
SEQEND
  0
POLYLINE
  8
0
  6
CONTINUOUS
 62
1
 66
1
 70
2
  0
VERTEX
  8
0
 10
1444.952017
 20
1529.902328
 70
0
 42
-0.179121
  0
VERTEX
  8
0
 10
1446.286677
 20
1529.412271
 70
0
 42
-0.189055
  0
VERTEX
  8
0
 10
1446.940025
 20
1528.192262
 70
0
  0
SEQEND
  0
LINE
  8
0
  6
CONTINUOUS
 62
1
 10
1204.052017
 20
1545.262328
 11
1189.836144
 21
1545.262328
  0
LINE
  8
0
  6
CONTINUOUS
 62
1
 10
1167.936144
 20
1554.862328
 11
1182.152017
 21
1554.862328
  0
LINE
  8
0
  6
CONTINUOUS
 62
1
 10
1189.176144
 20
1554.862328
 11
1204.712017
 21
1554.862328
  0
LINE
  8
0
  6
CONTINUOUS
 62
1
 10
1187.848135
 20
1546.972395
 11
1187.188135
 21
1552.732395
  0
LINE
  8
0
  6
CONTINUOUS
 62
1
 10
1206.040025
 20
1546.972395
 11
1206.700025
 21
1552.732395
  0
LINE
  8
0
  6
CONTINUOUS
 62
1
 10
1165.948135
 20
1553.152262
 11
1165.288135
 21
1547.392262
  0
LINE
  8
0
  6
CONTINUOUS
 62
1
 10
1184.140025
 20
1553.152262
 11
1184.800025
 21
1547.392262
  0
LINE
  8
0
  6
CONTINUOUS
 62
1
 10
1182.812017
 20
1545.262328
 11
1167.276144
 21
1545.262328
  0
POLYLINE
  8
0
  6
CONTINUOUS
 62
1
 66
1
 70
2
  0
VERTEX
  8
0
 10
1167.936144
 20
1554.862328
 70
0
 42
0.179121
  0
VERTEX
  8
0
 10
1166.601483
 20
1554.372271
 70
0
 42
0.189055
  0
VERTEX
  8
0
 10
1165.948135
 20
1553.152262
 70
0
  0
SEQEND
  0
POLYLINE
  8
0
  6
CONTINUOUS
 62
1
 66
1
 70
2
  0
VERTEX
  8
0
 10
1165.288135
 20
1547.392262
 70
0
 42
0.220328
  0
VERTEX
  8
0
 10
1165.786620
 20
1545.901054
 70
0
 42
0.207373
  0
VERTEX
  8
0
 10
1167.276144
 20
1545.262328
 70
0
  0
SEQEND
  0
POLYLINE
  8
0
  6
CONTINUOUS
 62
1
 66
1
 70
2
  0
VERTEX
  8
0
 10
1182.812017
 20
1545.262328
 70
0
 42
0.207373
  0
VERTEX
  8
0
 10
1184.301540
 20
1545.901054
 70
0
 42
0.220328
  0
VERTEX
  8
0
 10
1184.800025
 20
1547.392262
 70
0
  0
SEQEND
  0
POLYLINE
  8
0
  6
CONTINUOUS
 62
1
 66
1
 70
2
  0
VERTEX
  8
0
 10
1182.152017
 20
1554.862328
 70
0
 42
-0.179121
  0
VERTEX
  8
0
 10
1183.486677
 20
1554.372271
 70
0
 42
-0.189055
  0
VERTEX
  8
0
 10
1184.140025
 20
1553.152262
 70
0
  0
SEQEND
  0
POLYLINE
  8
0
  6
CONTINUOUS
 62
1
 66
1
 70
2
  0
VERTEX
  8
0
 10
1189.176144
 20
1554.862328
 70
0
 42
0.207373
  0
VERTEX
  8
0
 10
1187.686620
 20
1554.223603
 70
0
 42
0.220328
  0
VERTEX
  8
0
 10
1187.188135
 20
1552.732395
 70
0
  0
SEQEND
  0
POLYLINE
  8
0
  6
CONTINUOUS
 62
1
 66
1
 70
2
  0
VERTEX
  8
0
 10
1187.848135
 20
1546.972395
 70
0
 42
0.189055
  0
VERTEX
  8
0
 10
1188.501483
 20
1545.752386
 70
0
 42
0.179121
  0
VERTEX
  8
0
 10
1189.836144
 20
1545.262328
 70
0
  0
SEQEND
  0
POLYLINE
  8
0
  6
CONTINUOUS
 62
1
 66
1
 70
2
  0
VERTEX
  8
0
 10
1204.052017
 20
1545.262328
 70
0
 42
0.179121
  0
VERTEX
  8
0
 10
1205.386677
 20
1545.752386
 70
0
 42
0.189055
  0
VERTEX
  8
0
 10
1206.040025
 20
1546.972395
 70
0
  0
SEQEND
  0
POLYLINE
  8
0
  6
CONTINUOUS
 62
1
 66
1
 70
2
  0
VERTEX
  8
0
 10
1206.700025
 20
1552.732395
 70
0
 42
0.220328
  0
VERTEX
  8
0
 10
1206.201540
 20
1554.223603
 70
0
 42
0.207373
  0
VERTEX
  8
0
 10
1204.712017
 20
1554.862328
 70
0
  0
SEQEND
  0
LINE
  8
0
  6
CONTINUOUS
 62
1
 10
1193.102017
 20
1542.382328
 11
1178.886144
 21
1542.382328
  0
LINE
  8
0
  6
CONTINUOUS
 62
1
 10
1156.986144
 20
1532.782328
 11
1171.202017
 21
1532.782328
  0
LINE
  8
0
  6
CONTINUOUS
 62
1
 10
1178.226144
 20
1532.782328
 11
1193.762017
 21
1532.782328
  0
LINE
  8
0
  6
CONTINUOUS
 62
1
 10
1176.898135
 20
1540.672262
 11
1176.238135
 21
1534.912262
  0
LINE
  8
0
  6
CONTINUOUS
 62
1
 10
1195.090025
 20
1540.672262
 11
1195.750025
 21
1534.912262
  0
LINE
  8
0
  6
CONTINUOUS
 62
1
 10
1154.998135
 20
1534.492395
 11
1154.338135
 21
1540.252395
  0
LINE
  8
0
  6
CONTINUOUS
 62
1
 10
1173.190025
 20
1534.492395
 11
1173.850025
 21
1540.252395
  0
LINE
  8
0
  6
CONTINUOUS
 62
1
 10
1171.862017
 20
1542.382328
 11
1156.326144
 21
1542.382328
  0
POLYLINE
  8
0
  6
CONTINUOUS
 62
1
 66
1
 70
2
  0
VERTEX
  8
0
 10
1156.986144
 20
1532.782328
 70
0
 42
-0.179121
  0
VERTEX
  8
0
 10
1155.651483
 20
1533.272386
 70
0
 42
-0.189055
  0
VERTEX
  8
0
 10
1154.998135
 20
1534.492395
 70
0
  0
SEQEND
  0
POLYLINE
  8
0
  6
CONTINUOUS
 62
1
 66
1
 70
2
  0
VERTEX
  8
0
 10
1154.338135
 20
1540.252395
 70
0
 42
-0.220328
  0
VERTEX
  8
0
 10
1154.836620
 20
1541.743603
 70
0
 42
-0.207373
  0
VERTEX
  8
0
 10
1156.326144
 20
1542.382328
 70
0
  0
SEQEND
  0
POLYLINE
  8
0
  6
CONTINUOUS
 62
1
 66
1
 70
2
  0
VERTEX
  8
0
 10
1171.862017
 20
1542.382328
 70
0
 42
-0.207373
  0
VERTEX
  8
0
 10
1173.351540
 20
1541.743603
 70
0
 42
-0.220328
  0
VERTEX
  8
0
 10
1173.850025
 20
1540.252395
 70
0
  0
SEQEND
  0
POLYLINE
  8
0
  6
CONTINUOUS
 62
1
 66
1
 70
2
  0
VERTEX
  8
0
 10
1171.202017
 20
1532.782328
 70
0
 42
0.179121
  0
VERTEX
  8
0
 10
1172.536677
 20
1533.272386
 70
0
 42
0.189055
  0
VERTEX
  8
0
 10
1173.190025
 20
1534.492395
 70
0
  0
SEQEND
  0
POLYLINE
  8
0
  6
CONTINUOUS
 62
1
 66
1
 70
2
  0
VERTEX
  8
0
 10
1178.226144
 20
1532.782328
 70
0
 42
-0.207373
  0
VERTEX
  8
0
 10
1176.736620
 20
1533.421054
 70
0
 42
-0.220328
  0
VERTEX
  8
0
 10
1176.238135
 20
1534.912262
 70
0
  0
SEQEND
  0
POLYLINE
  8
0
  6
CONTINUOUS
 62
1
 66
1
 70
2
  0
VERTEX
  8
0
 10
1176.898135
 20
1540.672262
 70
0
 42
-0.189055
  0
VERTEX
  8
0
 10
1177.551483
 20
1541.892271
 70
0
 42
-0.179121
  0
VERTEX
  8
0
 10
1178.886144
 20
1542.382328
 70
0
  0
SEQEND
  0
POLYLINE
  8
0
  6
CONTINUOUS
 62
1
 66
1
 70
2
  0
VERTEX
  8
0
 10
1193.102017
 20
1542.382328
 70
0
 42
-0.179121
  0
VERTEX
  8
0
 10
1194.436677
 20
1541.892271
 70
0
 42
-0.189055
  0
VERTEX
  8
0
 10
1195.090025
 20
1540.672262
 70
0
  0
SEQEND
  0
POLYLINE
  8
0
  6
CONTINUOUS
 62
1
 66
1
 70
2
  0
VERTEX
  8
0
 10
1195.750025
 20
1534.912262
 70
0
 42
-0.220328
  0
VERTEX
  8
0
 10
1195.251540
 20
1533.421054
 70
0
 42
-0.207373
  0
VERTEX
  8
0
 10
1193.762017
 20
1532.782328
 70
0
  0
SEQEND
  0
LINE
  8
0
  6
CONTINUOUS
 62
1
 10
1247.852017
 20
1545.262328
 11
1233.636144
 21
1545.262328
  0
LINE
  8
0
  6
CONTINUOUS
 62
1
 10
1211.736144
 20
1554.862328
 11
1225.952017
 21
1554.862328
  0
LINE
  8
0
  6
CONTINUOUS
 62
1
 10
1232.976144
 20
1554.862328
 11
1248.512017
 21
1554.862328
  0
LINE
  8
0
  6
CONTINUOUS
 62
1
 10
1231.648135
 20
1546.972395
 11
1230.988135
 21
1552.732395
  0
LINE
  8
0
  6
CONTINUOUS
 62
1
 10
1249.840025
 20
1546.972395
 11
1250.500025
 21
1552.732395
  0
LINE
  8
0
  6
CONTINUOUS
 62
1
 10
1209.748135
 20
1553.152262
 11
1209.088135
 21
1547.392262
  0
LINE
  8
0
  6
CONTINUOUS
 62
1
 10
1227.940025
 20
1553.152262
 11
1228.600025
 21
1547.392262
  0
LINE
  8
0
  6
CONTINUOUS
 62
1
 10
1226.612017
 20
1545.262328
 11
1211.076144
 21
1545.262328
  0
POLYLINE
  8
0
  6
CONTINUOUS
 62
1
 66
1
 70
2
  0
VERTEX
  8
0
 10
1211.736144
 20
1554.862328
 70
0
 42
0.179121
  0
VERTEX
  8
0
 10
1210.401483
 20
1554.372271
 70
0
 42
0.189055
  0
VERTEX
  8
0
 10
1209.748135
 20
1553.152262
 70
0
  0
SEQEND
  0
POLYLINE
  8
0
  6
CONTINUOUS
 62
1
 66
1
 70
2
  0
VERTEX
  8
0
 10
1209.088135
 20
1547.392262
 70
0
 42
0.220328
  0
VERTEX
  8
0
 10
1209.586620
 20
1545.901054
 70
0
 42
0.207373
  0
VERTEX
  8
0
 10
1211.076144
 20
1545.262328
 70
0
  0
SEQEND
  0
POLYLINE
  8
0
  6
CONTINUOUS
 62
1
 66
1
 70
2
  0
VERTEX
  8
0
 10
1226.612017
 20
1545.262328
 70
0
 42
0.207373
  0
VERTEX
  8
0
 10
1228.101540
 20
1545.901054
 70
0
 42
0.220328
  0
VERTEX
  8
0
 10
1228.600025
 20
1547.392262
 70
0
  0
SEQEND
  0
POLYLINE
  8
0
  6
CONTINUOUS
 62
1
 66
1
 70
2
  0
VERTEX
  8
0
 10
1225.952017
 20
1554.862328
 70
0
 42
-0.179121
  0
VERTEX
  8
0
 10
1227.286677
 20
1554.372271
 70
0
 42
-0.189055
  0
VERTEX
  8
0
 10
1227.940025
 20
1553.152262
 70
0
  0
SEQEND
  0
POLYLINE
  8
0
  6
CONTINUOUS
 62
1
 66
1
 70
2
  0
VERTEX
  8
0
 10
1232.976144
 20
1554.862328
 70
0
 42
0.207373
  0
VERTEX
  8
0
 10
1231.486620
 20
1554.223603
 70
0
 42
0.220328
  0
VERTEX
  8
0
 10
1230.988135
 20
1552.732395
 70
0
  0
SEQEND
  0
POLYLINE
  8
0
  6
CONTINUOUS
 62
1
 66
1
 70
2
  0
VERTEX
  8
0
 10
1231.648135
 20
1546.972395
 70
0
 42
0.189055
  0
VERTEX
  8
0
 10
1232.301483
 20
1545.752386
 70
0
 42
0.179121
  0
VERTEX
  8
0
 10
1233.636144
 20
1545.262328
 70
0
  0
SEQEND
  0
POLYLINE
  8
0
  6
CONTINUOUS
 62
1
 66
1
 70
2
  0
VERTEX
  8
0
 10
1247.852017
 20
1545.262328
 70
0
 42
0.179121
  0
VERTEX
  8
0
 10
1249.186677
 20
1545.752386
 70
0
 42
0.189055
  0
VERTEX
  8
0
 10
1249.840025
 20
1546.972395
 70
0
  0
SEQEND
  0
POLYLINE
  8
0
  6
CONTINUOUS
 62
1
 66
1
 70
2
  0
VERTEX
  8
0
 10
1250.500025
 20
1552.732395
 70
0
 42
0.220328
  0
VERTEX
  8
0
 10
1250.001540
 20
1554.223603
 70
0
 42
0.207373
  0
VERTEX
  8
0
 10
1248.512017
 20
1554.862328
 70
0
  0
SEQEND
  0
LINE
  8
0
  6
CONTINUOUS
 62
1
 10
1236.902017
 20
1542.382328
 11
1222.686144
 21
1542.382328
  0
LINE
  8
0
  6
CONTINUOUS
 62
1
 10
1200.786144
 20
1532.782328
 11
1215.002017
 21
1532.782328
  0
LINE
  8
0
  6
CONTINUOUS
 62
1
 10
1222.026144
 20
1532.782328
 11
1237.562017
 21
1532.782328
  0
LINE
  8
0
  6
CONTINUOUS
 62
1
 10
1220.698135
 20
1540.672262
 11
1220.038135
 21
1534.912262
  0
LINE
  8
0
  6
CONTINUOUS
 62
1
 10
1238.890025
 20
1540.672262
 11
1239.550025
 21
1534.912262
  0
LINE
  8
0
  6
CONTINUOUS
 62
1
 10
1198.798135
 20
1534.492395
 11
1198.138135
 21
1540.252395
  0
LINE
  8
0
  6
CONTINUOUS
 62
1
 10
1216.990025
 20
1534.492395
 11
1217.650025
 21
1540.252395
  0
LINE
  8
0
  6
CONTINUOUS
 62
1
 10
1215.662017
 20
1542.382328
 11
1200.126144
 21
1542.382328
  0
POLYLINE
  8
0
  6
CONTINUOUS
 62
1
 66
1
 70
2
  0
VERTEX
  8
0
 10
1200.786144
 20
1532.782328
 70
0
 42
-0.179121
  0
VERTEX
  8
0
 10
1199.451483
 20
1533.272386
 70
0
 42
-0.189055
  0
VERTEX
  8
0
 10
1198.798135
 20
1534.492395
 70
0
  0
SEQEND
  0
POLYLINE
  8
0
  6
CONTINUOUS
 62
1
 66
1
 70
2
  0
VERTEX
  8
0
 10
1198.138135
 20
1540.252395
 70
0
 42
-0.220328
  0
VERTEX
  8
0
 10
1198.636620
 20
1541.743603
 70
0
 42
-0.207373
  0
VERTEX
  8
0
 10
1200.126144
 20
1542.382328
 70
0
  0
SEQEND
  0
POLYLINE
  8
0
  6
CONTINUOUS
 62
1
 66
1
 70
2
  0
VERTEX
  8
0
 10
1215.662017
 20
1542.382328
 70
0
 42
-0.207373
  0
VERTEX
  8
0
 10
1217.151540
 20
1541.743603
 70
0
 42
-0.220328
  0
VERTEX
  8
0
 10
1217.650025
 20
1540.252395
 70
0
  0
SEQEND
  0
POLYLINE
  8
0
  6
CONTINUOUS
 62
1
 66
1
 70
2
  0
VERTEX
  8
0
 10
1215.002017
 20
1532.782328
 70
0
 42
0.179121
  0
VERTEX
  8
0
 10
1216.336677
 20
1533.272386
 70
0
 42
0.189055
  0
VERTEX
  8
0
 10
1216.990025
 20
1534.492395
 70
0
  0
SEQEND
  0
POLYLINE
  8
0
  6
CONTINUOUS
 62
1
 66
1
 70
2
  0
VERTEX
  8
0
 10
1222.026144
 20
1532.782328
 70
0
 42
-0.207373
  0
VERTEX
  8
0
 10
1220.536620
 20
1533.421054
 70
0
 42
-0.220328
  0
VERTEX
  8
0
 10
1220.038135
 20
1534.912262
 70
0
  0
SEQEND
  0
POLYLINE
  8
0
  6
CONTINUOUS
 62
1
 66
1
 70
2
  0
VERTEX
  8
0
 10
1220.698135
 20
1540.672262
 70
0
 42
-0.189055
  0
VERTEX
  8
0
 10
1221.351483
 20
1541.892271
 70
0
 42
-0.179121
  0
VERTEX
  8
0
 10
1222.686144
 20
1542.382328
 70
0
  0
SEQEND
  0
POLYLINE
  8
0
  6
CONTINUOUS
 62
1
 66
1
 70
2
  0
VERTEX
  8
0
 10
1236.902017
 20
1542.382328
 70
0
 42
-0.179121
  0
VERTEX
  8
0
 10
1238.236677
 20
1541.892271
 70
0
 42
-0.189055
  0
VERTEX
  8
0
 10
1238.890025
 20
1540.672262
 70
0
  0
SEQEND
  0
POLYLINE
  8
0
  6
CONTINUOUS
 62
1
 66
1
 70
2
  0
VERTEX
  8
0
 10
1239.550025
 20
1534.912262
 70
0
 42
-0.220328
  0
VERTEX
  8
0
 10
1239.051540
 20
1533.421054
 70
0
 42
-0.207373
  0
VERTEX
  8
0
 10
1237.562017
 20
1532.782328
 70
0
  0
SEQEND
  0
LINE
  8
0
  6
CONTINUOUS
 62
1
 10
907.944111
 20
1505.814319
 11
1507.944111
 21
1505.814319
  0
LINE
  8
0
  6
CENTER
 62
4
 10
1037.944111
 20
1491.314319
 11
1037.944111
 21
1580.814319
  0
ENDSEC
  0
EOF
